  0
SECTION
  2
HEADER
  9
$ACADVER
  1
AC1032
  9
$ACADMAINTVER
 90
      251
  9
$DWGCODEPAGE
  3
ANSI_1252
  9
$REQUIREDVERSIONS
160
                 0
  9
$INSBASE
 10
0.0
 20
0.0
 30
0.0
  9
$EXTMIN
 10
1.000000000000000E+20
 20
1.000000000000000E+20
 30
1.000000000000000E+20
  9
$EXTMAX
 10
-1.000000000000000E+20
 20
-1.000000000000000E+20
 30
-1.000000000000000E+20
  9
$LIMMIN
 10
0.0
 20
0.0
  9
$LIMMAX
 10
12.0
 20
9.0
  9
$ORTHOMODE
 70
     0
  9
$REGENMODE
 70
     1
  9
$FILLMODE
 70
     1
  9
$QTEXTMODE
 70
     0
  9
$MIRRTEXT
 70
     0
  9
$LTSCALE
 40
1.0
  9
$ATTMODE
 70
     1
  9
$TEXTSIZE
 40
0.2
  9
$TRACEWID
 40
0.05
  9
$TEXTSTYLE
  7
Standard
  9
$CLAYER
  8
0
  9
$CELTYPE
  6
ByLayer
  9
$CECOLOR
 62
   256
  9
$CELTSCALE
 40
1.0
  9
$DISPSILH
 70
     0
  9
$DIMSCALE
 40
1.0
  9
$DIMASZ
 40
0.18
  9
$DIMEXO
 40
0.0625
  9
$DIMDLI
 40
0.38
  9
$DIMRND
 40
0.0
  9
$DIMDLE
 40
0.0
  9
$DIMEXE
 40
0.18
  9
$DIMTP
 40
0.0
  9
$DIMTM
 40
0.0
  9
$DIMTXT
 40
0.18
  9
$DIMCEN
 40
0.09
  9
$DIMTSZ
 40
0.0
  9
$DIMTOL
 70
     0
  9
$DIMLIM
 70
     0
  9
$DIMTIH
 70
     1
  9
$DIMTOH
 70
     1
  9
$DIMSE1
 70
     0
  9
$DIMSE2
 70
     0
  9
$DIMTAD
 70
     0
  9
$DIMZIN
 70
     0
  9
$DIMBLK
  1

  9
$DIMASO
 70
     1
  9
$DIMSHO
 70
     1
  9
$DIMPOST
  1

  9
$DIMAPOST
  1

  9
$DIMALT
 70
     0
  9
$DIMALTD
 70
     2
  9
$DIMALTF
 40
25.4
  9
$DIMLFAC
 40
1.0
  9
$DIMTOFL
 70
     0
  9
$DIMTVP
 40
0.0
  9
$DIMTIX
 70
     0
  9
$DIMSOXD
 70
     0
  9
$DIMSAH
 70
     0
  9
$DIMBLK1
  1

  9
$DIMBLK2
  1

  9
$DIMSTYLE
  2
Standard
  9
$DIMCLRD
 70
     0
  9
$DIMCLRE
 70
     0
  9
$DIMCLRT
 70
     0
  9
$DIMTFAC
 40
1.0
  9
$DIMGAP
 40
0.09
  9
$DIMJUST
 70
     0
  9
$DIMSD1
 70
     0
  9
$DIMSD2
 70
     0
  9
$DIMTOLJ
 70
     1
  9
$DIMTZIN
 70
     0
  9
$DIMALTZ
 70
     0
  9
$DIMALTTZ
 70
     0
  9
$DIMUPT
 70
     0
  9
$DIMDEC
 70
     4
  9
$DIMTDEC
 70
     4
  9
$DIMALTU
 70
     2
  9
$DIMALTTD
 70
     2
  9
$DIMTXSTY
  7
Standard
  9
$DIMAUNIT
 70
     0
  9
$DIMADEC
 70
     0
  9
$DIMALTRND
 40
0.0
  9
$DIMAZIN
 70
     0
  9
$DIMDSEP
 70
    46
  9
$DIMATFIT
 70
     3
  9
$DIMFRAC
 70
     0
  9
$DIMLDRBLK
  1

  9
$DIMLUNIT
 70
     2
  9
$DIMLWD
 70
    -2
  9
$DIMLWE
 70
    -2
  9
$DIMTMOVE
 70
     0
  9
$DIMFXL
 40
1.0
  9
$DIMFXLON
 70
     0
  9
$DIMJOGANG
 40
0.7853981633974483
  9
$DIMTFILL
 70
     0
  9
$DIMTFILLCLR
 70
     0
  9
$DIMARCSYM
 70
     0
  9
$DIMLTYPE
  6

  9
$DIMLTEX1
  6

  9
$DIMLTEX2
  6

  9
$DIMTXTDIRECTION
 70
     0
  9
$LUNITS
 70
     2
  9
$LUPREC
 70
     4
  9
$SKETCHINC
 40
0.1
  9
$FILLETRAD
 40
0.0
  9
$AUNITS
 70
     0
  9
$AUPREC
 70
     0
  9
$MENU
  1
.
  9
$ELEVATION
 40
0.0
  9
$PELEVATION
 40
0.0
  9
$THICKNESS
 40
0.0
  9
$LIMCHECK
 70
     0
  9
$CHAMFERA
 40
0.0
  9
$CHAMFERB
 40
0.0
  9
$CHAMFERC
 40
0.0
  9
$CHAMFERD
 40
0.0
  9
$SKPOLY
 70
     0
  9
$TDCREATE
 40
2459773.416979167
  9
$TDUCREATE
 40
2459773.250312500
  9
$TDUPDATE
 40
2459773.416979167
  9
$TDUUPDATE
 40
2459773.250312500
  9
$TDINDWG
 40
0.0000000000
  9
$TDUSRTIMER
 40
0.0000000000
  9
$USRTIMER
 70
     1
  9
$ANGBASE
 50
0.0
  9
$ANGDIR
 70
     0
  9
$PDMODE
 70
     0
  9
$PDSIZE
 40
0.0
  9
$PLINEWID
 40
0.0
  9
$SPLFRAME
 70
     0
  9
$SPLINETYPE
 70
     6
  9
$SPLINESEGS
 70
     8
  9
$HANDSEED
  5
C1
  9
$SURFTAB1
 70
     6
  9
$SURFTAB2
 70
     6
  9
$SURFTYPE
 70
     6
  9
$SURFU
 70
     6
  9
$SURFV
 70
     6
  9
$UCSBASE
  2

  9
$UCSNAME
  2

  9
$UCSORG
 10
0.0
 20
0.0
 30
0.0
  9
$UCSXDIR
 10
1.0
 20
0.0
 30
0.0
  9
$UCSYDIR
 10
0.0
 20
1.0
 30
0.0
  9
$UCSORTHOREF
  2

  9
$UCSORTHOVIEW
 70
     0
  9
$UCSORGTOP
 10
0.0
 20
0.0
 30
0.0
  9
$UCSORGBOTTOM
 10
0.0
 20
0.0
 30
0.0
  9
$UCSORGLEFT
 10
0.0
 20
0.0
 30
0.0
  9
$UCSORGRIGHT
 10
0.0
 20
0.0
 30
0.0
  9
$UCSORGFRONT
 10
0.0
 20
0.0
 30
0.0
  9
$UCSORGBACK
 10
0.0
 20
0.0
 30
0.0
  9
$PUCSBASE
  2

  9
$PUCSNAME
  2

  9
$PUCSORG
 10
0.0
 20
0.0
 30
0.0
  9
$PUCSXDIR
 10
1.0
 20
0.0
 30
0.0
  9
$PUCSYDIR
 10
0.0
 20
1.0
 30
0.0
  9
$PUCSORTHOREF
  2

  9
$PUCSORTHOVIEW
 70
     0
  9
$PUCSORGTOP
 10
0.0
 20
0.0
 30
0.0
  9
$PUCSORGBOTTOM
 10
0.0
 20
0.0
 30
0.0
  9
$PUCSORGLEFT
 10
0.0
 20
0.0
 30
0.0
  9
$PUCSORGRIGHT
 10
0.0
 20
0.0
 30
0.0
  9
$PUCSORGFRONT
 10
0.0
 20
0.0
 30
0.0
  9
$PUCSORGBACK
 10
0.0
 20
0.0
 30
0.0
  9
$USERI1
 70
     0
  9
$USERI2
 70
     0
  9
$USERI3
 70
     0
  9
$USERI4
 70
     0
  9
$USERI5
 70
     0
  9
$USERR1
 40
0.0
  9
$USERR2
 40
0.0
  9
$USERR3
 40
0.0
  9
$USERR4
 40
0.0
  9
$USERR5
 40
0.0
  9
$WORLDVIEW
 70
     1
  9
$SHADEDGE
 70
     3
  9
$SHADEDIF
 70
    70
  9
$TILEMODE
 70
     1
  9
$MAXACTVP
 70
    64
  9
$PINSBASE
 10
0.0
 20
0.0
 30
0.0
  9
$PLIMCHECK
 70
     0
  9
$PEXTMIN
 10
1.000000000000000E+20
 20
1.000000000000000E+20
 30
1.000000000000000E+20
  9
$PEXTMAX
 10
-1.000000000000000E+20
 20
-1.000000000000000E+20
 30
-1.000000000000000E+20
  9
$PLIMMIN
 10
0.0
 20
0.0
  9
$PLIMMAX
 10
12.0
 20
9.0
  9
$UNITMODE
 70
     0
  9
$VISRETAIN
 70
     1
  9
$PLINEGEN
 70
     0
  9
$PSLTSCALE
 70
     1
  9
$TREEDEPTH
 70
  3020
  9
$CMLSTYLE
  2
Standard
  9
$CMLJUST
 70
     0
  9
$CMLSCALE
 40
1.0
  9
$PROXYGRAPHICS
 70
     1
  9
$MEASUREMENT
 70
     0
  9
$CELWEIGHT
370
    -1
  9
$ENDCAPS
280
     0
  9
$JOINSTYLE
280
     0
  9
$LWDISPLAY
290
     1
  9
$INSUNITS
 70
     4
  9
$HYPERLINKBASE
  1

  9
$STYLESHEET
  1

  9
$XEDIT
290
     1
  9
$CEPSNTYPE
380
     0
  9
$PSTYLEMODE
290
     1
  9
$FINGERPRINTGUID
  2
{58809A79-DC82-034C-AF87-9929F3FDB70B}
  9
$VERSIONGUID
  2
{69550A15-2ECA-304A-84DB-15E40E4B5B18}
  9
$EXTNAMES
290
     1
  9
$PSVPSCALE
 40
0.0
  9
$OLESTARTUP
290
     0
  9
$SORTENTS
280
   127
  9
$INDEXCTL
280
     0
  9
$HIDETEXT
280
     1
  9
$XCLIPFRAME
280
     2
  9
$HALOGAP
280
     0
  9
$OBSCOLOR
 70
   257
  9
$OBSLTYPE
280
     0
  9
$INTERSECTIONDISPLAY
280
     0
  9
$INTERSECTIONCOLOR
 70
   257
  9
$DIMASSOC
280
     2
  9
$PROJECTNAME
  1

  9
$CAMERADISPLAY
290
     0
  9
$LENSLENGTH
 40
50.0
  9
$CAMERAHEIGHT
 40
0.0
  9
$STEPSPERSEC
 40
2.0
  9
$STEPSIZE
 40
6.0
  9
$3DDWFPREC
 40
2.0
  9
$PSOLWIDTH
 40
0.25
  9
$PSOLHEIGHT
 40
4.0
  9
$LOFTANG1
 40
1.570796326794896
  9
$LOFTANG2
 40
1.570796326794896
  9
$LOFTMAG1
 40
0.0
  9
$LOFTMAG2
 40
0.0
  9
$LOFTPARAM
 70
     7
  9
$LOFTNORMALS
280
     1
  9
$LATITUDE
 40
37.795
  9
$LONGITUDE
 40
-122.394
  9
$NORTHDIRECTION
 40
0.0
  9
$TIMEZONE
 70
 -8000
  9
$LIGHTGLYPHDISPLAY
280
     1
  9
$TILEMODELIGHTSYNCH
280
     1
  9
$CMATERIAL
347
11
  9
$SOLIDHIST
280
     0
  9
$SHOWHIST
280
     1
  9
$DWFFRAME
280
     2
  9
$DGNFRAME
280
     0
  9
$REALWORLDSCALE
290
     1
  9
$INTERFERECOLOR
 62
     1
  9
$INTERFEREOBJVS
345
33
  9
$INTERFEREVPVS
346
30
  9
$CSHADOW
280
     0
  9
$SHADOWPLANELOCATION
 40
0.0
  0
ENDSEC
  0
SECTION
  2
CLASSES
  0
CLASS
  1
ACDBDICTIONARYWDFLT
  2
AcDbDictionaryWithDefault
  3
ObjectDBX Classes
 90
        0
 91
        1
280
     0
281
     0
  0
CLASS
  1
MATERIAL
  2
AcDbMaterial
  3
ObjectDBX Classes
 90
     1153
 91
        3
280
     0
281
     0
  0
CLASS
  1
VISUALSTYLE
  2
AcDbVisualStyle
  3
ObjectDBX Classes
 90
     4095
 91
       24
280
     0
281
     0
  0
CLASS
  1
SCALE
  2
AcDbScale
  3
ObjectDBX Classes
 90
     1153
 91
       17
280
     0
281
     0
  0
CLASS
  1
TABLESTYLE
  2
AcDbTableStyle
  3
ObjectDBX Classes
 90
     4095
 91
        1
280
     0
281
     0
  0
CLASS
  1
MLEADERSTYLE
  2
AcDbMLeaderStyle
  3
ACDB_MLEADERSTYLE_CLASS
 90
     4095
 91
        1
280
     0
281
     0
  0
CLASS
  1
ACDBSECTIONVIEWSTYLE
  2
AcDbSectionViewStyle
  3
ObjectDBX Classes
 90
     1025
 91
        1
280
     0
281
     0
  0
CLASS
  1
ACDBDETAILVIEWSTYLE
  2
AcDbDetailViewStyle
  3
ObjectDBX Classes
 90
     1025
 91
        1
280
     0
281
     0
  0
CLASS
  1
DICTIONARYVAR
  2
AcDbDictionaryVar
  3
ObjectDBX Classes
 90
        0
 91
        5
280
     0
281
     0
  0
CLASS
  1
CELLSTYLEMAP
  2
AcDbCellStyleMap
  3
ObjectDBX Classes
 90
     1152
 91
        1
280
     0
281
     0
  0
ENDSEC
  0
SECTION
  2
TABLES
  0
TABLE
  2
VPORT
  5
8
330
0
100
AcDbSymbolTable
 70
     1
  0
VPORT
  5
57
330
8
100
AcDbSymbolTableRecord
100
AcDbViewportTableRecord
  2
*Active
 70
     0
 10
0.0
 20
0.0
 11
1.0
 21
1.0
 12
0.0
 22
0.0
 13
0.0
 23
0.0
 14
1.0
 24
1.0
 15
0.0
 25
0.0
 16
0.0
 26
0.0
 36
1.0
 17
148.5000119155985
 27
-104.9999970067687
 37
0.0
 40
214.1999938938081
 41
1.414285868084602
 42
50.0
 43
0.0
 44
0.0
 50
0.0
 51
0.0
 71
     0
 72
   100
 73
     1
 74
     1
 75
     0
 76
     0
 77
     0
 78
     0
281
     0
 65
     1
110
0.0
120
0.0
130
0.0
111
1.0
121
0.0
131
0.0
112
0.0
122
1.0
132
0.0
 79
     0
146
0.0
 60
     3
 61
     5
292
     1
282
     1
141
0.0
142
0.0
 63
   250
421
  3355443
  0
ENDTAB
  0
TABLE
  2
LTYPE
  5
5
330
0
100
AcDbSymbolTable
 70
     1
  0
LTYPE
  5
5B
330
5
100
AcDbSymbolTableRecord
100
AcDbLinetypeTableRecord
  2
ByBlock
 70
     0
  3

 72
    65
 73
     0
 40
0.0
  0
LTYPE
  5
5C
330
5
100
AcDbSymbolTableRecord
100
AcDbLinetypeTableRecord
  2
ByLayer
 70
     0
  3

 72
    65
 73
     0
 40
0.0
  0
LTYPE
  5
5D
330
5
100
AcDbSymbolTableRecord
100
AcDbLinetypeTableRecord
  2
Continuous
 70
     0
  3
Solid line
 72
    65
 73
     0
 40
0.0
  0
ENDTAB
  0
TABLE
  2
LAYER
  5
2
330
0
100
AcDbSymbolTable
 70
     2
  0
LAYER
  5
54
330
2
100
AcDbSymbolTableRecord
100
AcDbLayerTableRecord
  2
0
 70
     0
 62
     7
  6
Continuous
370
    -3
390
F
347
21
348
0
  0
LAYER
  5
78
330
2
100
AcDbSymbolTableRecord
100
AcDbLayerTableRecord
  2
Layer 1
 70
     0
 62
     7
  6
Continuous
370
     0
390
F
347
21
348
0
  0
ENDTAB
  0
TABLE
  2
STYLE
  5
3
330
0
100
AcDbSymbolTable
 70
     2
  0
STYLE
  5
55
330
3
100
AcDbSymbolTableRecord
100
AcDbTextStyleTableRecord
  2
Standard
 70
     0
 40
0.0
 41
1.0
 50
0.0
 71
     0
 42
0.2
  3
txt
  4

  0
STYLE
  5
5A
330
3
100
AcDbSymbolTableRecord
100
AcDbTextStyleTableRecord
  2
Annotative
 70
     0
 40
0.0
 41
1.0
 50
0.0
 71
     0
 42
0.2
  3
txt
  4

1001
AcadAnnotative
1000
AnnotativeData
1002
{
1070
     1
1070
     1
1002
}
  0
ENDTAB
  0
TABLE
  2
VIEW
  5
6
330
0
100
AcDbSymbolTable
 70
     0
  0
ENDTAB
  0
TABLE
  2
UCS
  5
7
330
0
100
AcDbSymbolTable
 70
     0
  0
ENDTAB
  0
TABLE
  2
APPID
  5
9
330
0
100
AcDbSymbolTable
 70
     2
  0
APPID
  5
56
330
9
100
AcDbSymbolTableRecord
100
AcDbRegAppTableRecord
  2
ACAD
 70
     0
  0
APPID
  5
5E
330
9
100
AcDbSymbolTableRecord
100
AcDbRegAppTableRecord
  2
AcadAnnotative
 70
     0
  0
ENDTAB
  0
TABLE
  2
DIMSTYLE
  5
A
330
0
100
AcDbSymbolTable
 70
     2
100
AcDbDimStyleTable
 71
     0
  0
DIMSTYLE
105
58
330
A
100
AcDbSymbolTableRecord
100
AcDbDimStyleTableRecord
  2
Standard
 70
     0
340
55
  0
DIMSTYLE
105
59
330
A
100
AcDbSymbolTableRecord
100
AcDbDimStyleTableRecord
  2
Annotative
 70
     0
340
55
1001
AcadAnnotative
1000
AnnotativeData
1002
{
1070
     1
1070
     1
1002
}
  0
ENDTAB
  0
TABLE
  2
BLOCK_RECORD
  5
1
330
0
100
AcDbSymbolTable
 70
     3
  0
BLOCK_RECORD
  5
70
330
1
100
AcDbSymbolTableRecord
100
AcDbBlockTableRecord
  2
*Model_Space
340
73
 70
     0
280
     1
281
     0
  0
BLOCK_RECORD
  5
6C
330
1
100
AcDbSymbolTableRecord
100
AcDbBlockTableRecord
  2
*Paper_Space
340
6F
 70
     0
280
     1
281
     0
  0
BLOCK_RECORD
  5
74
330
1
100
AcDbSymbolTableRecord
100
AcDbBlockTableRecord
  2
*Paper_Space0
340
77
 70
     0
280
     1
281
     0
  0
BLOCK_RECORD
  5
79
330
1
100
AcDbSymbolTableRecord
100
AcDbBlockTableRecord
  2
Block_0
340
0
102
{BLKREFS
331
7A
102
}
 70
     0
280
     1
281
     0
  0
BLOCK_RECORD
  5
7D
330
1
100
AcDbSymbolTableRecord
100
AcDbBlockTableRecord
  2
Block_1
340
0
102
{BLKREFS
331
7E
102
}
 70
     0
280
     1
281
     0
  0
ENDTAB
  0
ENDSEC
  0
SECTION
  2
BLOCKS
  0
BLOCK
  5
71
330
70
100
AcDbEntity
  8
0
100
AcDbBlockBegin
  2
*Model_Space
 70
     0
 10
0.0
 20
0.0
 30
0.0
  3
*Model_Space
  1

  0
ENDBLK
  5
72
330
70
100
AcDbEntity
  8
0
100
AcDbBlockEnd
  0
BLOCK
  5
6D
330
6C
100
AcDbEntity
 67
     1
  8
0
100
AcDbBlockBegin
  2
*Paper_Space
 70
     0
 10
0.0
 20
0.0
 30
0.0
  3
*Paper_Space
  1

  0
ENDBLK
  5
6E
330
6C
100
AcDbEntity
 67
     1
  8
0
100
AcDbBlockEnd
  0
BLOCK
  5
75
330
74
100
AcDbEntity
 67
     1
  8
0
100
AcDbBlockBegin
  2
*Paper_Space0
 70
     0
 10
0.0
 20
0.0
 30
0.0
  3
*Paper_Space0
  1

  0
ENDBLK
  5
76
330
74
100
AcDbEntity
 67
     1
  8
0
100
AcDbBlockEnd
  0
BLOCK
  5
7B
330
79
100
AcDbEntity
  8
0
100
AcDbBlockBegin
  2
Block_0
 70
     0
 10
0.0
 20
0.0
 30
0.0
  3
Block_0
  1

  0
INSERT
  5
7E
330
79
100
AcDbEntity
  8
Layer 1
100
AcDbBlockReference
  2
Block_1
 10
0.0
 20
0.0
 30
0.0
  0
ENDBLK
  5
7C
330
79
100
AcDbEntity
  8
0
100
AcDbBlockEnd
  0
BLOCK
  5
7F
330
7D
100
AcDbEntity
  8
0
100
AcDbBlockBegin
  2
Block_1
 70
     0
 10
0.0
 20
0.0
 30
0.0
  3
Block_1
  1

  0
SPLINE
  5
81
330
7D
100
AcDbEntity
  8
Layer 1
100
AcDbSpline
210
0.0
220
0.0
230
1.0
 70
     9
 71
     3
 72
    44
 73
    40
 74
     0
 42
0.0000000001
 43
0.0000000001
 40
0.0
 40
0.0
 40
0.0
 40
0.0
 40
1.0
 40
1.0
 40
1.0
 40
2.0
 40
2.0
 40
2.0
 40
3.0
 40
3.0
 40
3.0
 40
4.0
 40
4.0
 40
4.0
 40
5.0
 40
5.0
 40
5.0
 40
6.0
 40
6.0
 40
6.0
 40
7.0
 40
7.0
 40
7.0
 40
8.0
 40
8.0
 40
8.0
 40
9.0
 40
9.0
 40
9.0
 40
10.0
 40
10.0
 40
10.0
 40
11.0
 40
11.0
 40
11.0
 40
12.0
 40
12.0
 40
12.0
 40
13.0
 40
13.0
 40
13.0
 40
13.0
 10
237.2642296602744
 20
-136.3965384537028
 30
0.0
 10
239.3297380654189
 20
-136.7659871666917
 30
0.0
 10
239.3786273759093
 20
-136.7073294965106
 30
0.0
 10
239.4273867603637
 20
-134.9239656555611
 30
0.0
 10
239.4640630236612
 20
-133.5812021702232
 30
0.0
 10
239.0841593003927
 20
-131.7285881449652
 30
0.0
 10
239.796339575056
 20
-131.0409744410663
 30
0.0
 10
240.5286583849814
 20
-130.3339194853177
 30
0.0
 10
242.3600400769504
 20
-130.7418147579046
 30
0.0
 10
243.7116606081279
 20
-130.7033867491199
 30
0.0
 10
245.3660644809925
 20
-130.6563511631802
 30
0.0
 10
245.4468042306617
 20
-130.5611762179374
 30
0.0
 10
244.9759708444907
 20
-128.6092782423928
 30
0.0
 10
243.1957614490385
 20
-128.6092782423928
 30
0.0
 10
241.3592755200212
 20
-128.6092782423928
 30
0.0
 10
239.4188673247096
 20
-128.6092782423928
 30
0.0
 10
239.4188673247096
 20
-127.1350729727221
 30
0.0
 10
239.4212431150445
 20
-125.8781997508036
 30
0.0
 10
239.4183104988488
 20
-124.6213543551045
 30
0.0
 10
239.4138558919704
 20
-122.7118078852594
 30
0.0
 10
239.3425636210551
 20
-122.6563316794806
 30
0.0
 10
237.2340496986734
 20
-123.0840577709867
 30
0.0
 10
237.2340496986734
 20
-124.8759364350275
 30
0.0
 10
237.2340496986734
 20
-126.7148785112268
 30
0.0
 10
237.2340496986734
 20
-128.761710271447
 30
0.0
 10
235.1998905894359
 20
-128.761710271447
 30
0.0
 10
233.363980047141
 20
-128.761710271447
 30
0.0
 10
231.5711492655328
 20
-128.761710271447
 30
0.0
 10
231.1987441305082
 20
-130.1656728883239
 30
0.0
 10
231.489667081385
 20
-130.8118440763517
 30
0.0
 10
232.8815090004997
 20
-130.7122633130608
 30
0.0
 10
233.9381046303017
 20
-130.6366501999506
 30
0.0
 10
235.0064492857464
 20
-130.7382808280595
 30
0.0
 10
236.0661817012239
 20
-130.6887687086061
 30
0.0
 10
236.9956354263768
 20
-130.6453598065752
 30
0.0
 10
237.3140841355873
 20
-131.0208097075161
 30
0.0
 10
237.2795238105568
 20
-131.935874927568
 30
0.0
 10
237.2230059857872
 20
-133.4338901655109
 30
0.0
 10
237.2642296602744
 20
-134.9355970152079
 30
0.0
 10
237.2642296602744
 20
-136.3965384537028
 30
0.0
  0
SPLINE
  5
82
330
7D
100
AcDbEntity
  8
Layer 1
100
AcDbSpline
210
0.0
220
0.0
230
1.0
 70
     9
 71
     3
 72
    59
 73
    55
 74
     0
 42
0.0000000001
 43
0.0000000001
 40
0.0
 40
0.0
 40
0.0
 40
0.0
 40
1.0
 40
1.0
 40
1.0
 40
2.0
 40
2.0
 40
2.0
 40
3.0
 40
3.0
 40
3.0
 40
4.0
 40
4.0
 40
4.0
 40
5.0
 40
5.0
 40
5.0
 40
6.0
 40
6.0
 40
6.0
 40
7.0
 40
7.0
 40
7.0
 40
8.0
 40
8.0
 40
8.0
 40
9.0
 40
9.0
 40
9.0
 40
10.0
 40
10.0
 40
10.0
 40
11.0
 40
11.0
 40
11.0
 40
12.0
 40
12.0
 40
12.0
 40
13.0
 40
13.0
 40
13.0
 40
14.0
 40
14.0
 40
14.0
 40
15.0
 40
15.0
 40
15.0
 40
16.0
 40
16.0
 40
16.0
 40
17.0
 40
17.0
 40
17.0
 40
18.0
 40
18.0
 40
18.0
 40
18.0
 10
191.7182872420032
 20
-118.9698492253326
 30
0.0
 10
191.7182872420032
 20
-125.9891057853298
 30
0.0
 10
191.7182872420032
 20
-132.829959178305
 30
0.0
 10
191.7182872420032
 20
-139.7870334136834
 30
0.0
 10
195.127509251117
 20
-139.7870334136834
 30
0.0
 10
198.4083272169631
 20
-139.770393334571
 30
0.0
 10
201.6887368438467
 20
-139.7989708617416
 30
0.0
 10
202.4883387784955
 20
-139.8059274165549
 30
0.0
 10
202.911544992794
 20
-139.6173213024738
 30
0.0
 10
202.903582382998
 20
-138.7127929441119
 30
0.0
 10
202.8956197732046
 20
-137.8088674871668
 30
0.0
 10
202.454465205359
 20
-137.6186845539963
 30
0.0
 10
201.6662225182489
 20
-137.6290544583704
 30
0.0
 10
199.490741005797
 20
-137.6576690871658
 30
0.0
 10
197.3142757676601
 20
-137.6141117786331
 30
0.0
 10
195.1389241812409
 20
-137.6471322254765
 30
0.0
 10
194.2537566728042
 20
-137.6605722893746
 30
0.0
 10
193.8459559739609
 20
-137.3798521141693
 30
0.0
 10
193.8797367427882
 20
-136.4285200550282
 30
0.0
 10
193.9353450853177
 20
-134.8627015961781
 30
0.0
 10
193.9387231621999
 20
-133.2917538375799
 30
0.0
 10
193.878159069517
 20
-131.7262878441733
 30
0.0
 10
193.8402392284672
 20
-130.7459052121339
 30
0.0
 10
194.1820560629265
 20
-130.3554013265793
 30
0.0
 10
195.1789413996972
 20
-130.3903325071449
 30
0.0
 10
196.6950854115804
 20
-130.4434434842876
 30
0.0
 10
198.2145518177574
 20
-130.4073621533263
 30
0.0
 10
199.7325704767025
 20
-130.4015835751287
 30
0.0
 10
201.5715435612245
 20
-130.3945899186906
 30
0.0
 10
201.7109541956517
 20
-130.1963559327499
 30
0.0
 10
201.1388527464486
 20
-128.2535849571202
 30
0.0
 10
199.9727480308881
 20
-128.2535849571202
 30
0.0
 10
198.7667003403207
 20
-128.2535849571202
 30
0.0
 10
197.5606526497527
 20
-128.2535849571202
 30
0.0
 10
196.3745022032398
 20
-128.2535849571202
 30
0.0
 10
195.1883331958653
 20
-128.2535849571202
 30
0.0
 10
193.8935274632482
 20
-128.2535849571202
 30
0.0
 10
193.8935274632482
 20
-127.1152514292089
 30
0.0
 10
193.8935460241112
 20
-126.261914038862
 30
0.0
 10
193.8935274632482
 20
-125.4085766485131
 30
0.0
 10
193.8934903415241
 20
-121.1162524734382
 30
0.0
 10
193.8934903415241
 20
-121.1166976929454
 30
0.0
 10
198.1171815357436
 20
-121.1159556604328
 30
0.0
 10
199.2303877946245
 20
-121.1157608768983
 30
0.0
 10
200.3537282841528
 20
-121.1953624147675
 30
0.0
 10
201.4510464451658
 20
-121.0623345359374
 30
0.0
 10
201.8121480152363
 20
-121.0185638930556
 30
0.0
 10
202.2923546367143
 20
-120.4573090507734
 30
0.0
 10
202.3709598872535
 20
-120.0634660189089
 30
0.0
 10
202.4326747533795
 20
-119.754168316533
 30
0.0
 10
201.9668713608088
 20
-119.0226633894704
 30
0.0
 10
201.7239653599077
 20
-119.0174969880958
 30
0.0
 10
198.3993994423439
 20
-118.9467905649809
 30
0.0
 10
195.0728475125457
 20
-118.9698492253326
 30
0.0
 10
191.7182872420032
 20
-118.9698492253326
 30
0.0
  0
SPLINE
  5
83
330
7D
100
AcDbEntity
  8
Layer 1
100
AcDbSpline
210
0.0
220
0.0
230
1.0
 70
     9
 71
     3
 72
    59
 73
    55
 74
     0
 42
0.0000000001
 43
0.0000000001
 40
0.0
 40
0.0
 40
0.0
 40
0.0
 40
1.0
 40
1.0
 40
1.0
 40
2.0
 40
2.0
 40
2.0
 40
3.0
 40
3.0
 40
3.0
 40
4.0
 40
4.0
 40
4.0
 40
5.0
 40
5.0
 40
5.0
 40
6.0
 40
6.0
 40
6.0
 40
7.0
 40
7.0
 40
7.0
 40
8.0
 40
8.0
 40
8.0
 40
9.0
 40
9.0
 40
9.0
 40
10.0
 40
10.0
 40
10.0
 40
11.0
 40
11.0
 40
11.0
 40
12.0
 40
12.0
 40
12.0
 40
13.0
 40
13.0
 40
13.0
 40
14.0
 40
14.0
 40
14.0
 40
15.0
 40
15.0
 40
15.0
 40
16.0
 40
16.0
 40
16.0
 40
17.0
 40
17.0
 40
17.0
 40
18.0
 40
18.0
 40
18.0
 40
18.0
 10
205.4920059530683
 20
-119.1651521828463
 30
0.0
 10
207.4075611541712
 20
-122.2073927334995
 30
0.0
 10
209.1902391442709
 20
-125.0818597328868
 30
0.0
 10
211.0237924570913
 20
-127.9235474459973
 30
0.0
 10
211.5548929621524
 20
-128.7466655622387
 30
0.0
 10
211.5895089697701
 20
-129.3953596608124
 30
0.0
 10
211.0227530488198
 20
-130.2538634525353
 30
0.0
 10
209.211862548493
 20
-132.9968237397432
 30
0.0
 10
207.4935165060605
 20
-135.8009460568652
 30
0.0
 10
205.749296622011
 20
-138.5876213345174
 30
0.0
 10
205.5504169857576
 20
-138.9054060337646
 30
0.0
 10
205.4141988195929
 20
-139.2623886005285
 30
0.0
 10
205.238019117557
 20
-139.6235172739605
 30
0.0
 10
206.9167377196351
 20
-140.1282570649452
 30
0.0
 10
207.9183560762127
 20
-139.649766674121
 30
0.0
 10
208.6894485268435
 20
-138.1876287081983
 30
0.0
 10
209.772716115329
 20
-136.1336085080042
 30
0.0
 10
211.0651831793352
 20
-134.189232887065
 30
0.0
 10
212.2839636212302
 20
-132.2076628863936
 30
0.0
 10
212.4996965201722
 20
-131.8569319435539
 30
0.0
 10
212.7924013137998
 20
-131.5534777472217
 30
0.0
 10
213.1625605845222
 20
-131.0852274050807
 30
0.0
 10
214.7137289429836
 20
-133.6200104706715
 30
0.0
 10
216.2473944085871
 20
-135.8878195133659
 30
0.0
 10
217.5220244842186
 20
-138.2927839907456
 30
0.0
 10
218.3734854672756
 20
-139.8993585853912
 30
0.0
 10
219.4892160033878
 20
-140.0091979481793
 30
0.0
 10
221.1286412606253
 20
-139.6082499549984
 30
0.0
 10
220.8367531449272
 20
-139.0993269557202
 30
0.0
 10
220.6307090159441
 20
-138.7081737917166
 30
0.0
 10
220.3956356988063
 20
-138.3352931783542
 30
0.0
 10
218.6689001467543
 20
-135.5961821848083
 30
0.0
 10
216.9628413949604
 20
-132.843399242203
 30
0.0
 10
215.1891468620677
 20
-130.134906365239
 30
0.0
 10
214.6724124641878
 20
-129.3458753675791
 30
0.0
 10
214.6509561077252
 20
-128.7274190939243
 30
0.0
 10
215.1704375131783
 20
-127.9406420200235
 30
0.0
 10
216.3967722259042
 20
-126.0833902915569
 30
0.0
 10
217.5505896508257
 20
-124.1782496397599
 30
0.0
 10
218.7300210652961
 20
-122.2901757357709
 30
0.0
 10
219.3570997877229
 20
-121.2863170500907
 30
0.0
 10
219.9764943132842
 20
-120.2776629792928
 30
0.0
 10
220.6641928109791
 20
-119.1664321889309
 30
0.0
 10
219.0915495351921
 20
-118.7564313990886
 30
0.0
 10
218.0737275460927
 20
-118.8432028261177
 30
0.0
 10
217.3027278997732
 20
-120.2937094323943
 30
0.0
 10
216.0844486011519
 20
-122.5857736628674
 30
0.0
 10
214.6468541572247
 20
-124.7613944411866
 30
0.0
 10
213.1880075263138
 20
-127.1750778005976
 30
0.0
 10
211.7151660054619
 20
-124.7681654878702
 30
0.0
 10
210.2700915341494
 20
-122.6800952707213
 30
0.0
 10
209.1231416281674
 20
-120.4395837491109
 30
0.0
 10
208.3092849515063
 20
-118.849788364674
 30
0.0
 10
207.2225836035521
 20
-118.7523965972975
 30
0.0
 10
205.4920059530683
 20
-119.1651521828463
 30
0.0
  0
SPLINE
  5
84
330
7D
100
AcDbEntity
  8
Layer 1
100
AcDbSpline
210
0.0
220
0.0
230
1.0
 70
     9
 71
     3
 72
    50
 73
    46
 74
     0
 42
0.0000000001
 43
0.0000000001
 40
0.0
 40
0.0
 40
0.0
 40
0.0
 40
1.0
 40
1.0
 40
1.0
 40
2.0
 40
2.0
 40
2.0
 40
3.0
 40
3.0
 40
3.0
 40
4.0
 40
4.0
 40
4.0
 40
5.0
 40
5.0
 40
5.0
 40
6.0
 40
6.0
 40
6.0
 40
7.0
 40
7.0
 40
7.0
 40
8.0
 40
8.0
 40
8.0
 40
9.0
 40
9.0
 40
9.0
 40
10.0
 40
10.0
 40
10.0
 40
11.0
 40
11.0
 40
11.0
 40
12.0
 40
12.0
 40
12.0
 40
13.0
 40
13.0
 40
13.0
 40
14.0
 40
14.0
 40
14.0
 40
15.0
 40
15.0
 40
15.0
 40
15.0
 10
171.7512543446268
 20
-119.165792185888
 30
0.0
 10
171.7512543446268
 20
-126.0111534263821
 30
0.0
 10
171.7512543446268
 20
-132.8581564138126
 30
0.0
 10
171.7512543446268
 20
-139.68468857928
 30
0.0
 10
172.5168342192454
 20
-139.68468857928
 30
0.0
 10
173.1509660692282
 20
-139.68468857928
 30
0.0
 10
173.9551525367901
 20
-139.68468857928
 30
0.0
 10
173.9551525367901
 20
-136.9623938975676
 30
0.0
 10
173.9842002858085
 20
-134.3383257698086
 30
0.0
 10
173.9401553603005
 20
-131.7154912711047
 30
0.0
 10
173.9236176322652
 20
-130.7315005059686
 30
0.0
 10
174.2755872582349
 20
-130.3688784921028
 30
0.0
 10
175.2665702408914
 20
-130.3883197439531
 30
0.0
 10
177.6971893622964
 20
-130.4359953329357
 30
0.0
 10
180.1319661167883
 20
-130.4695537533511
 30
0.0
 10
182.5599124740675
 20
-130.3756866404131
 30
0.0
 10
183.8066084523983
 20
-130.3274916286717
 30
0.0
 10
184.1060693997904
 20
-130.7805395796954
 30
0.0
 10
184.0712121009677
 20
-131.9446958390702
 30
0.0
 10
183.9944443757656
 20
-134.5083254186169
 30
0.0
 10
184.0473799541694
 20
-137.0758506688584
 30
0.0
 10
184.0473799541694
 20
-139.7065970892367
 30
0.0
 10
184.8717420787182
 20
-139.7065970892367
 30
0.0
 10
185.5023844866485
 20
-139.7065970892367
 30
0.0
 10
186.2293206465944
 20
-139.7065970892367
 30
0.0
 10
186.2293206465944
 20
-132.7862627386753
 30
0.0
 10
186.2293206465944
 20
-125.9458731160206
 30
0.0
 10
186.2293206465944
 20
-119.0469093018438
 30
0.0
 10
185.472000355564
 20
-119.0469093018438
 30
0.0
 10
184.8385366966122
 20
-119.0469093018438
 30
0.0
 10
184.0060634753736
 20
-119.0469093018438
 30
0.0
 10
184.0060634753736
 20
-122.14081386624
 30
0.0
 10
184.0060634753736
 20
-125.1470658399974
 30
0.0
 10
184.0060634753736
 20
-128.2512939317362
 30
0.0
 10
180.8746047659817
 20
-128.2512939317362
 30
0.0
 10
177.9412646975016
 20
-128.2268068587949
 30
0.0
 10
175.0087413069508
 20
-128.2653832740827
 30
0.0
 10
174.0600770896349
 20
-128.2778586957136
 30
0.0
 10
173.9427910027034
 20
-127.7741020978095
 30
0.0
 10
173.9491945000914
 20
-127.0241483873839
 30
0.0
 10
173.9668830015704
 20
-124.9484608378011
 30
0.0
 10
173.9560434581658
 20
-122.8725228522443
 30
0.0
 10
173.9525168943865
 20
-120.7966776207531
 30
0.0
 10
173.9490645740561
 20
-118.7505044143879
 30
0.0
 10
173.8557776816804
 20
-118.6825435115715
 30
0.0
 10
171.7512543446268
 20
-119.165792185888
 30
0.0
  0
SPLINE
  5
85
330
7D
100
AcDbEntity
  8
Layer 1
100
AcDbSpline
210
0.0
220
0.0
230
1.0
 70
     9
 71
     3
 72
    23
 73
    19
 74
     0
 42
0.0000000001
 43
0.0000000001
 40
0.0
 40
0.0
 40
0.0
 40
0.0
 40
1.0
 40
1.0
 40
1.0
 40
2.0
 40
2.0
 40
2.0
 40
3.0
 40
3.0
 40
3.0
 40
4.0
 40
4.0
 40
4.0
 40
5.0
 40
5.0
 40
5.0
 40
6.0
 40
6.0
 40
6.0
 40
6.0
 10
121.1532865831219
 20
-76.40043176545595
 30
0.0
 10
121.1532865831219
 20
-86.82197696469188
 30
0.0
 10
121.1532865831219
 20
-96.82758975168242
 30
0.0
 10
121.1532865831219
 20
-107.0790564611558
 30
0.0
 10
123.0268478339672
 20
-106.0497831618933
 30
0.0
 10
124.7958371883452
 20
-105.1947669229843
 30
0.0
 10
126.4357079062718
 20
-104.1393369776264
 30
0.0
 10
127.6998232535853
 20
-103.3257725299944
 30
0.0
 10
128.618159022402
 20
-102.1111487843038
 30
0.0
 10
128.6272724056413
 20
-100.5093602993699
 30
0.0
 10
128.6609603701576
 20
-94.58333096587967
 30
0.0
 10
128.7038081200689
 20
-88.65593814764588
 30
0.0
 10
128.5902434859643
 20
-82.73198650519299
 30
0.0
 10
128.5723600954355
 20
-81.79879714100289
 30
0.0
 10
128.003766649148
 20
-80.55289208717272
 30
0.0
 10
127.2741948467962
 20
-80.0203214392344
 30
0.0
 10
125.4576247226994
 20
-78.69428151166598
 30
0.0
 10
123.4013874681195
 20
-77.69621995499645
 30
0.0
 10
121.1532865831219
 20
-76.40043176545595
 30
0.0
  0
SPLINE
  5
86
330
7D
100
AcDbEntity
  8
Layer 1
100
AcDbSpline
210
0.0
220
0.0
230
1.0
 70
     9
 71
     3
 72
    23
 73
    19
 74
     0
 42
0.0000000001
 43
0.0000000001
 40
0.0
 40
0.0
 40
0.0
 40
0.0
 40
1.0
 40
1.0
 40
1.0
 40
2.0
 40
2.0
 40
2.0
 40
3.0
 40
3.0
 40
3.0
 40
4.0
 40
4.0
 40
4.0
 40
5.0
 40
5.0
 40
5.0
 40
6.0
 40
6.0
 40
6.0
 40
6.0
 10
80.17705622876922
 20
-66.83823441992548
 30
0.0
 10
82.33844076653777
 20
-65.53850418265844
 30
0.0
 10
84.18948769178587
 20
-64.54404148367856
 30
0.0
 10
85.90461342466328
 20
-63.35391408633565
 30
0.0
 10
87.12639144576874
 20
-62.50611411361904
 30
0.0
 10
87.62741407397157
 20
-61.16231178276171
 30
0.0
 10
87.62815650845281
 20
-59.64623269082247
 30
0.0
 10
87.63084783344128
 20
-54.18813833565407
 30
0.0
 10
87.69109639146844
 20
-48.72963586260424
 30
0.0
 10
87.63224917852181
 20
-43.27233687353654
 30
0.0
 10
87.62127042865236
 20
-42.25455116512167
 30
0.0
 10
87.47009220772113
 20
-40.95886732390408
 30
0.0
 10
86.84895296113195
 20
-40.28034815599697
 30
0.0
 10
85.10531774423585
 20
-38.37564344830202
 30
0.0
 10
82.6908883347029
 20
-37.44417467200172
 30
0.0
 10
80.17705622876922
 20
-36.34780540157194
 30
0.0
 10
80.17705622876922
 20
-46.49588147456928
 30
0.0
 10
80.17705622876922
 20
-56.37849309706574
 30
0.0
 10
80.17705622876922
 20
-66.83823441992548
 30
0.0
  0
SPLINE
  5
87
330
7D
100
AcDbEntity
  8
Layer 1
100
AcDbSpline
210
0.0
220
0.0
230
1.0
 70
     9
 71
     3
 72
    26
 73
    22
 74
     0
 42
0.0000000001
 43
0.0000000001
 40
0.0
 40
0.0
 40
0.0
 40
0.0
 40
1.0
 40
1.0
 40
1.0
 40
2.0
 40
2.0
 40
2.0
 40
3.0
 40
3.0
 40
3.0
 40
4.0
 40
4.0
 40
4.0
 40
5.0
 40
5.0
 40
5.0
 40
6.0
 40
6.0
 40
6.0
 40
7.0
 40
7.0
 40
7.0
 40
7.0
 10
101.2577872478661
 20
-152.6784013696691
 30
0.0
 10
101.2577872478661
 20
-142.2815333892053
 30
0.0
 10
101.2577872478661
 20
-132.3548357600089
 30
0.0
 10
101.2577872478661
 20
-122.4281381308144
 30
0.0
 10
101.1358052628493
 20
-122.2996644765354
 30
0.0
 10
101.0138232778329
 20
-122.1711815468492
 30
0.0
 10
100.8918412928161
 20
-122.0427078925689
 30
0.0
 10
98.89913786883894
 20
-123.3476091689137
 30
0.0
 10
96.84082179771625
 20
-124.5667129359032
 30
0.0
 10
94.95300580485974
 20
-126.008788197746
 30
0.0
 10
94.37340576741059
 20
-126.4515311722404
 30
0.0
 10
93.98888966993608
 20
-127.5003570282295
 30
0.0
 10
93.97694575524338
 20
-128.2787305839172
 30
0.0
 10
93.88388159321165
 20
-134.3464603012369
 30
0.0
 10
93.87212328713941
 20
-140.4162120571559
 30
0.0
 10
93.92682214743219
 20
-146.4845075742678
 30
0.0
 10
93.93394951843767
 20
-147.2754771318687
 30
0.0
 10
94.22830622878224
 20
-148.395361876417
 30
0.0
 10
94.79147990336612
 20
-148.7898541867312
 30
0.0
 10
96.75391984186513
 20
-150.1645899979879
 30
0.0
 10
98.89297566265669
 20
-151.2874985250273
 30
0.0
 10
101.2577872478661
 20
-152.6784013696691
 30
0.0
  0
SPLINE
  5
88
330
7D
100
AcDbEntity
  8
Layer 1
100
AcDbSpline
210
0.0
220
0.0
230
1.0
 70
     9
 71
     3
 72
    23
 73
    19
 74
     0
 42
0.0000000001
 43
0.0000000001
 40
0.0
 40
0.0
 40
0.0
 40
0.0
 40
1.0
 40
1.0
 40
1.0
 40
2.0
 40
2.0
 40
2.0
 40
3.0
 40
3.0
 40
3.0
 40
4.0
 40
4.0
 40
4.0
 40
5.0
 40
5.0
 40
5.0
 40
6.0
 40
6.0
 40
6.0
 40
6.0
 10
60.20363839486826
 20
-112.3258663335551
 30
0.0
 10
60.20363839486826
 20
-101.9139629192885
 30
0.0
 10
60.20363839486826
 20
-91.9308522682668
 30
0.0
 10
60.20363839486826
 20
-81.74956792144525
 30
0.0
 10
58.3859592592677
 20
-82.73049780246379
 30
0.0
 10
56.70541241228357
 20
-83.5469793654134
 30
0.0
 10
55.12056072952145
 20
-84.5192784807603
 30
0.0
 10
53.66505505376874
 20
-85.41222649421163
 30
0.0
 10
52.77266272980169
 20
-86.75698419193009
 30
0.0
 10
52.76820348270767
 20
-88.5332801731903
 30
0.0
 10
52.7537167299229
 20
-94.30721139225786
 30
0.0
 10
52.71539319012393
 20
-100.0819495716832
 30
0.0
 10
52.81004430585603
 20
-105.8543503486905
 30
0.0
 10
52.82518532902677
 20
-106.7778283623634
 30
0.0
 10
53.21245771450641
 20
-108.0505810800664
 30
0.0
 10
53.88248627158372
 20
-108.5402854372495
 30
0.0
 10
55.77648767169946
 20
-109.9245470908975
 30
0.0
 10
57.90679668627668
 20
-110.9858390931102
 30
0.0
 10
60.20363839486826
 20
-112.3258663335551
 30
0.0
  0
SPLINE
  5
89
330
7D
100
AcDbEntity
  8
Layer 1
100
AcDbSpline
210
0.0
220
0.0
230
1.0
 70
     9
 71
     3
 72
    29
 73
    25
 74
     0
 42
0.0000000001
 43
0.0000000001
 40
0.0
 40
0.0
 40
0.0
 40
0.0
 40
1.0
 40
1.0
 40
1.0
 40
2.0
 40
2.0
 40
2.0
 40
3.0
 40
3.0
 40
3.0
 40
4.0
 40
4.0
 40
4.0
 40
5.0
 40
5.0
 40
5.0
 40
6.0
 40
6.0
 40
6.0
 40
7.0
 40
7.0
 40
7.0
 40
8.0
 40
8.0
 40
8.0
 40
8.0
 10
128.5935937215543
 20
-120.268573081004
 30
0.0
 10
127.4602118056894
 20
-119.4878250212748
 30
0.0
 10
126.7384634066668
 20
-118.9120819941698
 30
0.0
 10
125.9469632882779
 20
-118.4576705584026
 30
0.0
 10
118.8925735923983
 20
-114.4075643464962
 30
0.0
 10
111.8181567264288
 20
-110.3922780102778
 30
0.0
 10
104.7687691828563
 20
-106.3335178441844
 30
0.0
 10
103.2077914088299
 20
-105.4347866148327
 30
0.0
 10
101.7008999866526
 20
-105.1632861936053
 30
0.0
 10
100.0659757384463
 20
-106.1051480627951
 30
0.0
 10
98.26624031617722
 20
-107.1419622674745
 30
0.0
 10
96.43589803248197
 20
-108.1257118720434
 30
0.0
 10
94.31832640944762
 20
-109.2991249870227
 30
0.0
 10
95.45942036347133
 20
-109.9645055417402
 30
0.0
 10
96.22586331817039
 20
-110.4215790191483
 30
0.0
 10
97.00165166688456
 20
-110.8622164763859
 30
0.0
 10
104.2513016309274
 20
-114.980033155136
 30
0.0
 10
111.4846180364187
 20
-119.1273920033233
 30
0.0
 10
118.7767074114085
 20
-123.1687607823845
 30
0.0
 10
119.6606684638147
 20
-123.6586691985088
 30
0.0
 10
121.0259776307131
 20
-123.9977409554817
 30
0.0
 10
121.8876099661417
 20
-123.669948092712
 30
0.0
 10
124.0367536154258
 20
-122.8523488432881
 30
0.0
 10
126.0242321567532
 20
-121.6102513437918
 30
0.0
 10
128.5935937215543
 20
-120.268573081004
 30
0.0
  0
SPLINE
  5
8A
330
7D
100
AcDbEntity
  8
Layer 1
100
AcDbSpline
210
0.0
220
0.0
230
1.0
 70
     9
 71
     3
 72
    29
 73
    25
 74
     0
 42
0.0000000001
 43
0.0000000001
 40
0.0
 40
0.0
 40
0.0
 40
0.0
 40
1.0
 40
1.0
 40
1.0
 40
2.0
 40
2.0
 40
2.0
 40
3.0
 40
3.0
 40
3.0
 40
4.0
 40
4.0
 40
4.0
 40
5.0
 40
5.0
 40
5.0
 40
6.0
 40
6.0
 40
6.0
 40
7.0
 40
7.0
 40
7.0
 40
8.0
 40
8.0
 40
8.0
 40
8.0
 10
53.53227064707372
 20
-68.72462019994772
 30
0.0
 10
53.56264085750821
 20
-68.89454100780018
 30
0.0
 10
53.59300642772936
 20
-69.06445717795093
 30
0.0
 10
53.62337199794827
 20
-69.23437334810007
 30
0.0
 10
61.88937300277959
 20
-73.90239322238682
 30
0.0
 10
70.1377226278537
 20
-78.60240397340402
 30
0.0
 10
78.45190763041826
 20
-83.18306807005592
 30
0.0
 10
79.18724722063278
 20
-83.58819463382729
 30
0.0
 10
80.44651354274929
 20
-83.46652449015463
 30
0.0
 10
81.29718104895841
 20
-83.14826210747753
 30
0.0
 10
82.8959394575682
 20
-82.55013288698435
 30
0.0
 10
84.38514701848431
 20
-81.65039063833374
 30
0.0
 10
85.89890595959911
 20
-80.83703952504796
 30
0.0
 10
87.35920033774611
 20
-80.05241898314006
 30
0.0
 10
87.36725575185104
 20
-79.53667856014461
 30
0.0
 10
85.90392667276947
 20
-78.69975400145179
 30
0.0
 10
78.31294245667766
 20
-74.35821915763202
 30
0.0
 10
70.72120652567503
 20
-70.01772315932964
 30
0.0
 10
63.0980099335953
 20
-65.73323206497338
 30
0.0
 10
62.39775965297731
 20
-65.33967193300423
 30
0.0
 10
61.31523913918702
 20
-64.96525623987989
 30
0.0
 10
60.68172443786377
 20
-65.2302638766146
 30
0.0
 10
58.23874842258803
 20
-66.25219569169818
 30
0.0
 10
55.90606568948718
 20
-67.53748875887755
 30
0.0
 10
53.53227064707372
 20
-68.72462019994772
 30
0.0
  0
SPLINE
  5
8B
330
7D
100
AcDbEntity
  8
Layer 1
100
AcDbSpline
210
0.0
220
0.0
230
1.0
 70
     9
 71
     3
 72
    32
 73
    28
 74
     0
 42
0.0000000001
 43
0.0000000001
 40
0.0
 40
0.0
 40
0.0
 40
0.0
 40
1.0
 40
1.0
 40
1.0
 40
2.0
 40
2.0
 40
2.0
 40
3.0
 40
3.0
 40
3.0
 40
4.0
 40
4.0
 40
4.0
 40
5.0
 40
5.0
 40
5.0
 40
6.0
 40
6.0
 40
6.0
 40
7.0
 40
7.0
 40
7.0
 40
8.0
 40
8.0
 40
8.0
 40
9.0
 40
9.0
 40
9.0
 40
9.0
 10
67.03078281715644
 20
-143.2170230541867
 30
0.0
 10
67.02239330753497
 20
-143.4192825665124
 30
0.0
 10
67.01400379791351
 20
-143.6215420788369
 30
0.0
 10
67.00561428829238
 20
-143.823792315756
 30
0.0
 10
67.88728307424496
 20
-144.369668534199
 30
0.0
 10
68.74719388972426
 20
-144.9549559545074
 30
0.0
 10
69.6541100882005
 20
-145.4550951439082
 30
0.0
 10
76.15339080403039
 20
-149.039306966905
 30
0.0
 10
82.76976271774165
 20
-152.4278726423512
 30
0.0
 10
89.12238942275104
 20
-156.2543024285152
 30
0.0
 10
92.26872466302914
 20
-158.1494720184144
 30
0.0
 10
94.94462557566979
 20
-158.5890057022885
 30
0.0
 10
97.9576567051162
 20
-156.3577232100639
 30
0.0
 10
99.01327788966352
 20
-155.5759734064408
 30
0.0
 10
100.2576908819702
 20
-155.0488984368044
 30
0.0
 10
101.6544885512386
 20
-154.2729921392237
 30
0.0
 10
100.9911047827542
 20
-153.719018490979
 30
0.0
 10
100.659375776789
 20
-153.338272332975
 30
0.0
 10
100.2437516746143
 20
-153.1103013940621
 30
0.0
 10
92.27693784446165
 20
-148.7404069951226
 30
0.0
 10
84.3090289234507
 20
-144.3722285463697
 30
0.0
 10
76.30929740455513
 20
-140.0631344364934
 30
0.0
 10
75.65664181430111
 20
-139.7115687070762
 30
0.0
 10
74.62885264231179
 20
-139.4594724360729
 30
0.0
 10
74.02183821170083
 20
-139.7246748563434
 30
0.0
 10
71.6378903777766
 20
-140.7662566199205
 30
0.0
 10
69.35266776879044
 20
-142.0335461232453
 30
0.0
 10
67.03078281715644
 20
-143.2170230541867
 30
0.0
  0
SPLINE
  5
8C
330
7D
100
AcDbEntity
  8
Layer 1
100
AcDbSpline
210
0.0
220
0.0
230
1.0
 70
     9
 71
     3
 72
    29
 73
    25
 74
     0
 42
0.0000000001
 43
0.0000000001
 40
0.0
 40
0.0
 40
0.0
 40
0.0
 40
1.0
 40
1.0
 40
1.0
 40
2.0
 40
2.0
 40
2.0
 40
3.0
 40
3.0
 40
3.0
 40
4.0
 40
4.0
 40
4.0
 40
5.0
 40
5.0
 40
5.0
 40
6.0
 40
6.0
 40
6.0
 40
7.0
 40
7.0
 40
7.0
 40
8.0
 40
8.0
 40
8.0
 40
8.0
 10
60.70029458028828
 20
-114.0264564476412
 30
0.0
 10
59.97269486952293
 20
-113.4024905825755
 30
0.0
 10
59.64018630735466
 20
-113.0030173790151
 30
0.0
 10
59.21604740974144
 20
-112.7705385925838
 30
0.0
 10
51.24665825998619
 20
-108.4023415930188
 30
0.0
 10
43.26458508116801
 20
-104.0572867324639
 30
0.0
 10
35.29062299903996
 20
-99.69740977245374
 30
0.0
 10
34.22746610452436
 20
-99.11610150149869
 30
0.0
 10
33.20227777332171
 20
-99.06029138108834
 30
0.0
 10
32.12171775057924
 20
-99.65722871185647
 30
0.0
 10
30.48673781978775
 20
-100.5604399625077
 30
0.0
 10
28.81591918459609
 20
-101.3990201812467
 30
0.0
 10
27.18393915312639
 20
-102.3074349348971
 30
0.0
 10
25.76159477743283
 20
-103.099155800418
 30
0.0
 10
25.75484906415177
 20
-103.5316772770409
 30
0.0
 10
27.18913155426757
 20
-104.3229807492731
 30
0.0
 10
35.10491693458633
 20
-108.6901667295392
 30
0.0
 10
43.02380429896765
 20
-113.0519915248958
 30
0.0
 10
50.97170693085661
 20
-117.3602322973831
 30
0.0
 10
51.62781484143918
 20
-117.7158792056235
 30
0.0
 10
52.65533952114618
 20
-117.9969054692409
 30
0.0
 10
53.25795038725086
 20
-117.7342537857344
 30
0.0
 10
55.68515895026475
 20
-116.6763844084898
 30
0.0
 10
58.01323858958951
 20
-115.3913325018777
 30
0.0
 10
60.70029458028828
 20
-114.0264564476412
 30
0.0
  0
SPLINE
  5
8D
330
7D
100
AcDbEntity
  8
Layer 1
100
AcDbSpline
210
0.0
220
0.0
230
1.0
 70
     9
 71
     3
 72
    29
 73
    25
 74
     0
 42
0.0000000001
 43
0.0000000001
 40
0.0
 40
0.0
 40
0.0
 40
0.0
 40
1.0
 40
1.0
 40
1.0
 40
2.0
 40
2.0
 40
2.0
 40
3.0
 40
3.0
 40
3.0
 40
4.0
 40
4.0
 40
4.0
 40
5.0
 40
5.0
 40
5.0
 40
6.0
 40
6.0
 40
6.0
 40
7.0
 40
7.0
 40
7.0
 40
8.0
 40
8.0
 40
8.0
 40
8.0
 10
79.93591350975977
 20
-34.5538444087904
 30
0.0
 10
80.36267876934285
 20
-34.93363983763664
 30
0.0
 10
80.49363029091852
 20
-35.09956062647209
 30
0.0
 10
80.66410716810773
 20
-35.19479818070904
 30
0.0
 10
88.43273275411673
 20
-39.53466808907717
 30
0.0
 10
96.18111307990686
 20
-43.91165121737127
 30
0.0
 10
103.9875796233019
 20
-48.18255152247569
 30
0.0
 10
107.3541580519875
 20
-50.02440375743812
 30
0.0
 10
112.5626329009597
 20
-48.44768669604873
 30
0.0
 10
114.8397072915297
 20
-44.98563893211747
 30
0.0
 10
114.3644378593421
 20
-44.64737645435367
 30
0.0
 10
113.9063650657894
 20
-44.26426970541654
 30
0.0
 10
113.3971942191726
 20
-43.96926540432895
 30
0.0
 10
111.6027857642956
 20
-42.92961524413787
 30
0.0
 10
109.7916261314686
 20
-41.91882087330942
 30
0.0
 10
107.9854315292245
 20
-40.89954182446167
 30
0.0
 10
101.9544692027673
 20
-37.49611694793573
 30
0.0
 10
95.93353902221528
 20
-34.07457952152959
 30
0.0
 10
89.87604394353764
 20
-30.71898095934098
 30
0.0
 10
89.23053428515244
 20
-30.36139781001088
 30
0.0
 10
88.19226750656763
 20
-30.03128609563614
 30
0.0
 10
87.63951575599184
 20
-30.30354710018926
 30
0.0
 10
85.07589877797716
 20
-31.56625687159523
 30
0.0
 10
82.61927124870458
 20
-33.04595781956804
 30
0.0
 10
79.93591350975977
 20
-34.5538444087904
 30
0.0
  0
SPLINE
  5
8E
330
7D
100
AcDbEntity
  8
Layer 1
100
AcDbSpline
210
0.0
220
0.0
230
1.0
 70
     9
 71
     3
 72
    29
 73
    25
 74
     0
 42
0.0000000001
 43
0.0000000001
 40
0.0
 40
0.0
 40
0.0
 40
0.0
 40
1.0
 40
1.0
 40
1.0
 40
2.0
 40
2.0
 40
2.0
 40
3.0
 40
3.0
 40
3.0
 40
4.0
 40
4.0
 40
4.0
 40
5.0
 40
5.0
 40
5.0
 40
6.0
 40
6.0
 40
6.0
 40
7.0
 40
7.0
 40
7.0
 40
8.0
 40
8.0
 40
8.0
 40
8.0
 10
120.9713808551608
 20
-74.88716775936431
 30
0.0
 10
121.3002422079485
 20
-75.19696169598285
 30
0.0
 10
121.4523020698252
 20
-75.40899284896821
 30
0.0
 10
121.6585039661342
 20
-75.52451339818663
 30
0.0
 10
129.2803177739945
 20
-79.79453949623581
 30
0.0
 10
136.8770744181672
 20
-84.11070610350565
 30
0.0
 10
144.5460049741967
 20
-88.29467961852326
 30
0.0
 10
148.3820711265595
 20
-90.38754522079081
 30
0.0
 10
153.1037688089064
 20
-89.10058258045614
 30
0.0
 10
155.8672584292904
 20
-85.34952010913078
 30
0.0
 10
155.4957813373674
 20
-85.05237782686434
 30
0.0
 10
155.1482384769825
 20
-84.70145673819343
 30
0.0
 10
154.7367720078955
 20
-84.45885384565803
 30
0.0
 10
153.475180937813
 20
-83.71503117887399
 30
0.0
 10
152.1890060060224
 20
-83.01286436230803
 30
0.0
 10
150.9125012833296
 20
-82.29429862719571
 30
0.0
 10
144.2227211604378
 20
-78.52847898426121
 30
0.0
 10
137.5432051942252
 20
-74.74414099241579
 30
0.0
 10
130.8266231866156
 20
-71.02669259394602
 30
0.0
 10
130.1886399577691
 20
-70.67358714706414
 30
0.0
 10
129.1462805091153
 20
-70.39209247542249
 30
0.0
 10
128.5859002442584
 20
-70.67000684018657
 30
0.0
 10
126.029206467768
 20
-71.93799663669551
 30
0.0
 10
123.577613572311
 20
-73.41767903385626
 30
0.0
 10
120.9713808551608
 20
-74.88716775936431
 30
0.0
  0
SPLINE
  5
8F
330
7D
100
AcDbEntity
  8
Layer 1
100
AcDbSpline
210
0.0
220
0.0
230
1.0
 70
     9
 71
     3
 72
    26
 73
    22
 74
     0
 42
0.0000000001
 43
0.0000000001
 40
0.0
 40
0.0
 40
0.0
 40
0.0
 40
1.0
 40
1.0
 40
1.0
 40
2.0
 40
2.0
 40
2.0
 40
3.0
 40
3.0
 40
3.0
 40
4.0
 40
4.0
 40
4.0
 40
5.0
 40
5.0
 40
5.0
 40
6.0
 40
6.0
 40
6.0
 40
7.0
 40
7.0
 40
7.0
 40
7.0
 10
25.36928775813765
 20
-102.3268298097146
 30
0.0
 10
27.34938139649814
 20
-101.2494171511489
 30
0.0
 10
29.04705295877748
 20
-100.1480368424028
 30
0.0
 10
30.88258068329341
 20
-99.37264996758118
 30
0.0
 10
33.09308422221707
 20
-98.43886697738087
 30
0.0
 10
33.54032443268792
 20
-96.79040464735663
 30
0.0
 10
33.52300018812707
 20
-94.64881533518235
 30
0.0
 10
33.4750922832145
 20
-88.72661674454233
 30
0.0
 10
33.54455862933054
 20
-82.80356945421511
 30
0.0
 10
33.54125479589614
 20
-76.88086999162877
 30
0.0
 10
33.53715980571808
 20
-69.54076784826712
 30
0.0
 10
33.55450029103542
 20
-62.19995613631591
 30
0.0
 10
33.44370818569178
 20
-54.86124066621416
 30
0.0
 10
33.4235116477379
 20
-53.52341633479261
 30
0.0
 10
33.2674519201012
 20
-51.69228878849959
 30
0.0
 10
32.42038754122797
 20
-50.96108531214522
 30
0.0
 10
30.39548102169248
 20
-49.21314424830068
 30
0.0
 10
27.92120211266496
 20
-47.98521493210537
 30
0.0
 10
25.36928775813765
 20
-46.38486645401752
 30
0.0
 10
25.36928775813765
 20
-65.16818821917006
 30
0.0
 10
25.36928775813765
 20
-83.55852724640227
 30
0.0
 10
25.36928775813765
 20
-102.3268298097146
 30
0.0
  0
SPLINE
  5
90
330
7D
100
AcDbEntity
  8
Layer 1
100
AcDbSpline
210
0.0
220
0.0
230
1.0
 70
     9
 71
     3
 72
    26
 73
    22
 74
     0
 42
0.0000000001
 43
0.0000000001
 40
0.0
 40
0.0
 40
0.0
 40
0.0
 40
1.0
 40
1.0
 40
1.0
 40
2.0
 40
2.0
 40
2.0
 40
3.0
 40
3.0
 40
3.0
 40
4.0
 40
4.0
 40
4.0
 40
5.0
 40
5.0
 40
5.0
 40
6.0
 40
6.0
 40
6.0
 40
7.0
 40
7.0
 40
7.0
 40
7.0
 10
115.4927155381588
 20
-102.0000201400244
 30
0.0
 10
115.4927155381588
 20
-83.19962930821374
 30
0.0
 10
115.4927155381588
 20
-64.84452754995769
 30
0.0
 10
115.4927155381588
 20
-46.07345164012779
 30
0.0
 10
113.3637846675854
 20
-47.329035580554
 30
0.0
 10
111.5229183751407
 20
-48.42445180297431
 30
0.0
 10
109.672307630148
 20
-49.50316765614143
 30
0.0
 10
108.1268652976093
 20
-50.40399976504652
 30
0.0
 10
107.4314547617574
 20
-51.72959911081108
 30
0.0
 10
107.4566511319118
 20
-53.5198963180575
 30
0.0
 10
107.4943760839123
 20
-56.20090616580913
 30
0.0
 10
107.4465076208326
 20
-58.88302906232969
 30
0.0
 10
107.4463405730754
 20
-61.56467891312429
 30
0.0
 10
107.4456445407501
 20
-72.59487628143232
 30
0.0
 10
107.4154831400124
 20
-83.62533799882369
 30
0.0
 10
107.5012621637128
 20
-94.65488145097872
 30
0.0
 10
107.5102363404853
 20
-95.80903882223728
 30
0.0
 10
107.8668833036777
 20
-97.41312760796343
 30
0.0
 10
108.6634319765293
 20
-98.01929396811544
 30
0.0
 10
110.6446091052096
 20
-99.5269556287319
 30
0.0
 10
112.9731063639306
 20
-100.5787125131489
 30
0.0
 10
115.4927155381588
 20
-102.0000201400244
 30
0.0
  0
SPLINE
  5
91
330
7D
100
AcDbEntity
  8
Layer 1
100
AcDbSpline
210
0.0
220
0.0
230
1.0
 70
     9
 71
     3
 72
    23
 73
    19
 74
     0
 42
0.0000000001
 43
0.0000000001
 40
0.0
 40
0.0
 40
0.0
 40
0.0
 40
1.0
 40
1.0
 40
1.0
 40
2.0
 40
2.0
 40
2.0
 40
3.0
 40
3.0
 40
3.0
 40
4.0
 40
4.0
 40
4.0
 40
5.0
 40
5.0
 40
5.0
 40
6.0
 40
6.0
 40
6.0
 40
6.0
 10
156.4771312326495
 20
-142.3137283248779
 30
0.0
 10
156.4771312326495
 20
-123.5500912909933
 30
0.0
 10
156.4771312326495
 20
-105.1199607702322
 30
0.0
 10
156.4771312326495
 20
-86.35241879024652
 30
0.0
 10
154.0826593899761
 20
-87.81901822665544
 30
0.0
 10
151.8570821110056
 20
-89.02181582916474
 30
0.0
 10
149.8388110996334
 20
-90.50615911804923
 30
0.0
 10
149.1416187210286
 20
-91.01892213558306
 30
0.0
 10
148.6013955522972
 20
-92.23012325630547
 30
0.0
 10
148.5965882890395
 20
-93.12553389016049
 30
0.0
 10
148.519588553064
 20
-107.4600901567586
 30
0.0
 10
148.5278759779428
 20
-121.7952122231495
 30
0.0
 10
148.5782594378223
 20
-136.1300003749082
 30
0.0
 10
148.5808115563462
 20
-136.8550959961368
 30
0.0
 10
148.9340061992082
 20
-137.892605856298
 30
0.0
 10
149.4759555281051
 20
-138.2470840633301
 30
0.0
 10
151.6546016675272
 20
-139.6721667806176
 30
0.0
 10
153.9718139221547
 20
-140.8856403759113
 30
0.0
 10
156.4771312326495
 20
-142.3137283248779
 30
0.0
  0
SPLINE
  5
92
330
7D
100
AcDbEntity
  8
Layer 1
100
AcDbSpline
210
0.0
220
0.0
230
1.0
 70
     9
 71
     3
 72
    26
 73
    22
 74
     0
 42
0.0000000001
 43
0.0000000001
 40
0.0
 40
0.0
 40
0.0
 40
0.0
 40
1.0
 40
1.0
 40
1.0
 40
2.0
 40
2.0
 40
2.0
 40
3.0
 40
3.0
 40
3.0
 40
4.0
 40
4.0
 40
4.0
 40
5.0
 40
5.0
 40
5.0
 40
6.0
 40
6.0
 40
6.0
 40
7.0
 40
7.0
 40
7.0
 40
7.0
 10
66.38473953398712
 20
-142.6846518274866
 30
0.0
 10
68.67185071067972
 20
-141.429448178723
 30
0.0
 10
70.68999179601885
 20
-140.3116782268382
 30
0.0
 10
72.71818358812798
 20
-139.2124405369734
 30
0.0
 10
74.00725401438863
 20
-138.5137798240325
 30
0.0
 10
74.54952815837055
 20
-137.4603162648353
 30
0.0
 10
74.54704100286332
 20
-135.9895336201316
 30
0.0
 10
74.52331094080581
 20
-121.9619840305241
 30
0.0
 10
74.52686534587705
 20
-107.9343787884766
 30
0.0
 10
74.5326238533105
 20
-93.90679209724266
 30
0.0
 10
74.53323636175645
 20
-92.41910038664217
 30
0.0
 10
74.01386632147334
 20
-91.29152633017374
 30
0.0
 10
72.66107645599143
 20
-90.53347518994655
 30
0.0
 10
70.94238239739762
 20
-89.5703819154675
 30
0.0
 10
69.28055881994804
 20
-88.5063351175493
 30
0.0
 10
67.58149287291316
 20
-87.50743877430227
 30
0.0
 10
67.261146315564
 20
-87.31910164700854
 30
0.0
 10
66.88125187272667
 20
-87.23194992831581
 30
0.0
 10
66.38473953398712
 20
-87.0433855535645
 30
0.0
 10
66.38473953398712
 20
-105.6096280257896
 30
0.0
 10
66.38473953398712
 20
-123.9786799952957
 30
0.0
 10
66.38473953398712
 20
-142.6846518274866
 30
0.0
  0
SPLINE
  5
93
330
7D
100
AcDbEntity
  8
Layer 1
100
AcDbSpline
210
0.0
220
0.0
230
1.0
 70
     9
 71
     3
 72
    17
 73
    13
 74
     0
 42
0.0000000001
 43
0.0000000001
 40
0.0
 40
0.0
 40
0.0
 40
0.0
 40
1.0
 40
1.0
 40
1.0
 40
2.0
 40
2.0
 40
2.0
 40
3.0
 40
3.0
 40
3.0
 40
4.0
 40
4.0
 40
4.0
 40
4.0
 10
7.414755764163543
 20
-197.2351534953054
 30
0.0
 10
7.414755764163543
 20
-134.7255461614927
 30
0.0
 10
7.414755764163543
 20
-72.21593418997565
 30
0.0
 10
7.414755764163543
 20
-9.706322218459586
 30
0.0
 10
101.2806449494115
 20
-9.706322218459586
 30
0.0
 10
195.146534134657
 20
-9.706322218459586
 30
0.0
 10
289.0124326003365
 20
-9.706322218459586
 30
0.0
 10
289.0124326003365
 20
-72.21593418997565
 30
0.0
 10
289.0124326003365
 20
-134.7255461614927
 30
0.0
 10
289.0124326003365
 20
-197.2351534953054
 30
0.0
 10
195.146534134657
 20
-197.2351534953054
 30
0.0
 10
101.2806449494115
 20
-197.2351534953054
 30
0.0
 10
7.414755764163543
 20
-197.2351534953054
 30
0.0
  0
SPLINE
  5
94
330
7D
100
AcDbEntity
  8
Layer 1
100
AcDbSpline
210
0.0
220
0.0
230
1.0
 70
     9
 71
     3
 72
    26
 73
    22
 74
     0
 42
0.0000000001
 43
0.0000000001
 40
0.0
 40
0.0
 40
0.0
 40
0.0
 40
1.0
 40
1.0
 40
1.0
 40
2.0
 40
2.0
 40
2.0
 40
3.0
 40
3.0
 40
3.0
 40
4.0
 40
4.0
 40
4.0
 40
5.0
 40
5.0
 40
5.0
 40
6.0
 40
6.0
 40
6.0
 40
7.0
 40
7.0
 40
7.0
 40
7.0
 10
66.38473953398712
 20
-142.6846518274866
 30
0.0
 10
66.38473953398712
 20
-123.9786799952957
 30
0.0
 10
66.38473953398712
 20
-105.6096280257896
 30
0.0
 10
66.38473953398712
 20
-87.0433855535645
 30
0.0
 10
66.88125187272667
 20
-87.23194992831581
 30
0.0
 10
67.261146315564
 20
-87.31910164700854
 30
0.0
 10
67.58149287291316
 20
-87.50743877430227
 30
0.0
 10
69.28055881994804
 20
-88.5063351175493
 30
0.0
 10
70.94238239739762
 20
-89.5703819154675
 30
0.0
 10
72.66107645599143
 20
-90.53347518994655
 30
0.0
 10
74.01386632147334
 20
-91.29152633017374
 30
0.0
 10
74.53323636175645
 20
-92.41910038664217
 30
0.0
 10
74.5326238533105
 20
-93.90679209724266
 30
0.0
 10
74.52686534587705
 20
-107.9343787884766
 30
0.0
 10
74.52331094080581
 20
-121.9619840305241
 30
0.0
 10
74.54704100286332
 20
-135.9895336201316
 30
0.0
 10
74.54952815837055
 20
-137.4603162648353
 30
0.0
 10
74.00725401438863
 20
-138.5137798240325
 30
0.0
 10
72.71818358812798
 20
-139.2124405369734
 30
0.0
 10
70.68999179601885
 20
-140.3116782268382
 30
0.0
 10
68.67185071067972
 20
-141.429448178723
 30
0.0
 10
66.38473953398712
 20
-142.6846518274866
 30
0.0
  0
HATCH
  5
95
330
7D
100
AcDbEntity
  8
Layer 1
 62
    18
420
        0
440
 33554687
100
AcDbHatch
 10
0.0
 20
0.0
 30
0.0
210
0.0
220
0.0
230
1.0
  2
SOLID
 70
     1
 71
     1
 91
        1
 92
        1
 93
        1
 72
     4
 94
        3
 73
     0
 74
     0
 95
       26
 96
       22
 40
0.0
 40
0.0
 40
0.0
 40
0.0
 40
1.0
 40
1.0
 40
1.0
 40
2.0
 40
2.0
 40
2.0
 40
3.0
 40
3.0
 40
3.0
 40
4.0
 40
4.0
 40
4.0
 40
5.0
 40
5.0
 40
5.0
 40
6.0
 40
6.0
 40
6.0
 40
7.0
 40
7.0
 40
7.0
 40
7.0
 10
66.38473953398712
 20
-142.6846518274866
 10
66.38473953398712
 20
-123.9786799952957
 10
66.38473953398712
 20
-105.6096280257896
 10
66.38473953398712
 20
-87.0433855535645
 10
66.88125187272667
 20
-87.23194992831581
 10
67.261146315564
 20
-87.31910164700854
 10
67.58149287291316
 20
-87.50743877430227
 10
69.28055881994804
 20
-88.5063351175493
 10
70.94238239739762
 20
-89.5703819154675
 10
72.66107645599143
 20
-90.53347518994655
 10
74.01386632147334
 20
-91.29152633017374
 10
74.53323636175645
 20
-92.41910038664217
 10
74.5326238533105
 20
-93.90679209724266
 10
74.52686534587705
 20
-107.9343787884766
 10
74.52331094080581
 20
-121.9619840305241
 10
74.54704100286332
 20
-135.9895336201316
 10
74.54952815837055
 20
-137.4603162648353
 10
74.00725401438863
 20
-138.5137798240325
 10
72.71818358812798
 20
-139.2124405369734
 10
70.68999179601885
 20
-140.3116782268382
 10
68.67185071067972
 20
-141.429448178723
 10
66.38473953398712
 20
-142.6846518274866
 97
        0
 97
        1
330
94
 75
     2
 76
     1
 98
        1
 10
0.0
 20
0.0
450
        0
451
        0
460
0.0
461
0.0
452
        0
462
0.0
453
        0
470

  0
SPLINE
  5
96
330
7D
100
AcDbEntity
  8
Layer 1
100
AcDbSpline
210
0.0
220
0.0
230
1.0
 70
     9
 71
     3
 72
    23
 73
    19
 74
     0
 42
0.0000000001
 43
0.0000000001
 40
0.0
 40
0.0
 40
0.0
 40
0.0
 40
1.0
 40
1.0
 40
1.0
 40
2.0
 40
2.0
 40
2.0
 40
3.0
 40
3.0
 40
3.0
 40
4.0
 40
4.0
 40
4.0
 40
5.0
 40
5.0
 40
5.0
 40
6.0
 40
6.0
 40
6.0
 40
6.0
 10
156.4771312326495
 20
-142.3137283248779
 30
0.0
 10
153.9718139221547
 20
-140.8856403759113
 30
0.0
 10
151.6546016675272
 20
-139.6721667806176
 30
0.0
 10
149.4759555281051
 20
-138.2470840633301
 30
0.0
 10
148.9340061992082
 20
-137.892605856298
 30
0.0
 10
148.5808115563462
 20
-136.8550959961368
 30
0.0
 10
148.5782594378223
 20
-136.1300003749082
 30
0.0
 10
148.5278759779428
 20
-121.7952122231495
 30
0.0
 10
148.519588553064
 20
-107.4600901567586
 30
0.0
 10
148.5965882890395
 20
-93.12553389016049
 30
0.0
 10
148.6013955522972
 20
-92.23012325630547
 30
0.0
 10
149.1416187210286
 20
-91.01892213558306
 30
0.0
 10
149.8388110996334
 20
-90.50615911804923
 30
0.0
 10
151.8570821110056
 20
-89.02181582916474
 30
0.0
 10
154.0826593899761
 20
-87.81901822665544
 30
0.0
 10
156.4771312326495
 20
-86.35241879024652
 30
0.0
 10
156.4771312326495
 20
-105.1199607702322
 30
0.0
 10
156.4771312326495
 20
-123.5500912909933
 30
0.0
 10
156.4771312326495
 20
-142.3137283248779
 30
0.0
  0
HATCH
  5
97
330
7D
100
AcDbEntity
  8
Layer 1
 62
    18
420
        0
440
 33554687
100
AcDbHatch
 10
0.0
 20
0.0
 30
0.0
210
0.0
220
0.0
230
1.0
  2
SOLID
 70
     1
 71
     1
 91
        1
 92
        1
 93
        1
 72
     4
 94
        3
 73
     0
 74
     0
 95
       23
 96
       19
 40
0.0
 40
0.0
 40
0.0
 40
0.0
 40
1.0
 40
1.0
 40
1.0
 40
2.0
 40
2.0
 40
2.0
 40
3.0
 40
3.0
 40
3.0
 40
4.0
 40
4.0
 40
4.0
 40
5.0
 40
5.0
 40
5.0
 40
6.0
 40
6.0
 40
6.0
 40
6.0
 10
156.4771312326495
 20
-142.3137283248779
 10
153.9718139221547
 20
-140.8856403759113
 10
151.6546016675272
 20
-139.6721667806176
 10
149.4759555281051
 20
-138.2470840633301
 10
148.9340061992082
 20
-137.892605856298
 10
148.5808115563462
 20
-136.8550959961368
 10
148.5782594378223
 20
-136.1300003749082
 10
148.5278759779428
 20
-121.7952122231495
 10
148.519588553064
 20
-107.4600901567586
 10
148.5965882890395
 20
-93.12553389016049
 10
148.6013955522972
 20
-92.23012325630547
 10
149.1416187210286
 20
-91.01892213558306
 10
149.8388110996334
 20
-90.50615911804923
 10
151.8570821110056
 20
-89.02181582916474
 10
154.0826593899761
 20
-87.81901822665544
 10
156.4771312326495
 20
-86.35241879024652
 10
156.4771312326495
 20
-105.1199607702322
 10
156.4771312326495
 20
-123.5500912909933
 10
156.4771312326495
 20
-142.3137283248779
 97
        0
 97
        1
330
96
 75
     2
 76
     1
 98
        1
 10
0.0
 20
0.0
450
        0
451
        0
460
0.0
461
0.0
452
        0
462
0.0
453
        0
470

  0
SPLINE
  5
98
330
7D
100
AcDbEntity
  8
Layer 1
100
AcDbSpline
210
0.0
220
0.0
230
1.0
 70
     9
 71
     3
 72
    26
 73
    22
 74
     0
 42
0.0000000001
 43
0.0000000001
 40
0.0
 40
0.0
 40
0.0
 40
0.0
 40
1.0
 40
1.0
 40
1.0
 40
2.0
 40
2.0
 40
2.0
 40
3.0
 40
3.0
 40
3.0
 40
4.0
 40
4.0
 40
4.0
 40
5.0
 40
5.0
 40
5.0
 40
6.0
 40
6.0
 40
6.0
 40
7.0
 40
7.0
 40
7.0
 40
7.0
 10
115.4927155381588
 20
-102.0000201400244
 30
0.0
 10
112.9731063639306
 20
-100.5787125131489
 30
0.0
 10
110.6446091052096
 20
-99.5269556287319
 30
0.0
 10
108.6634319765293
 20
-98.01929396811544
 30
0.0
 10
107.8668833036777
 20
-97.41312760796343
 30
0.0
 10
107.5102363404853
 20
-95.80903882223728
 30
0.0
 10
107.5012621637128
 20
-94.65488145097872
 30
0.0
 10
107.4154831400124
 20
-83.62533799882369
 30
0.0
 10
107.4456445407501
 20
-72.59487628143232
 30
0.0
 10
107.4463405730754
 20
-61.56467891312429
 30
0.0
 10
107.4465076208326
 20
-58.88302906232969
 30
0.0
 10
107.4943760839123
 20
-56.20090616580913
 30
0.0
 10
107.4566511319118
 20
-53.5198963180575
 30
0.0
 10
107.4314547617574
 20
-51.72959911081108
 30
0.0
 10
108.1268652976093
 20
-50.40399976504652
 30
0.0
 10
109.672307630148
 20
-49.50316765614143
 30
0.0
 10
111.5229183751407
 20
-48.42445180297431
 30
0.0
 10
113.3637846675854
 20
-47.329035580554
 30
0.0
 10
115.4927155381588
 20
-46.07345164012779
 30
0.0
 10
115.4927155381588
 20
-64.84452754995769
 30
0.0
 10
115.4927155381588
 20
-83.19962930821374
 30
0.0
 10
115.4927155381588
 20
-102.0000201400244
 30
0.0
  0
HATCH
  5
99
330
7D
100
AcDbEntity
  8
Layer 1
 62
    18
420
        0
440
 33554687
100
AcDbHatch
 10
0.0
 20
0.0
 30
0.0
210
0.0
220
0.0
230
1.0
  2
SOLID
 70
     1
 71
     1
 91
        1
 92
        1
 93
        1
 72
     4
 94
        3
 73
     0
 74
     0
 95
       26
 96
       22
 40
0.0
 40
0.0
 40
0.0
 40
0.0
 40
1.0
 40
1.0
 40
1.0
 40
2.0
 40
2.0
 40
2.0
 40
3.0
 40
3.0
 40
3.0
 40
4.0
 40
4.0
 40
4.0
 40
5.0
 40
5.0
 40
5.0
 40
6.0
 40
6.0
 40
6.0
 40
7.0
 40
7.0
 40
7.0
 40
7.0
 10
115.4927155381588
 20
-102.0000201400244
 10
112.9731063639306
 20
-100.5787125131489
 10
110.6446091052096
 20
-99.5269556287319
 10
108.6634319765293
 20
-98.01929396811544
 10
107.8668833036777
 20
-97.41312760796343
 10
107.5102363404853
 20
-95.80903882223728
 10
107.5012621637128
 20
-94.65488145097872
 10
107.4154831400124
 20
-83.62533799882369
 10
107.4456445407501
 20
-72.59487628143232
 10
107.4463405730754
 20
-61.56467891312429
 10
107.4465076208326
 20
-58.88302906232969
 10
107.4943760839123
 20
-56.20090616580913
 10
107.4566511319118
 20
-53.5198963180575
 10
107.4314547617574
 20
-51.72959911081108
 10
108.1268652976093
 20
-50.40399976504652
 10
109.672307630148
 20
-49.50316765614143
 10
111.5229183751407
 20
-48.42445180297431
 10
113.3637846675854
 20
-47.329035580554
 10
115.4927155381588
 20
-46.07345164012779
 10
115.4927155381588
 20
-64.84452754995769
 10
115.4927155381588
 20
-83.19962930821374
 10
115.4927155381588
 20
-102.0000201400244
 97
        0
 97
        1
330
98
 75
     2
 76
     1
 98
        1
 10
0.0
 20
0.0
450
        0
451
        0
460
0.0
461
0.0
452
        0
462
0.0
453
        0
470

  0
SPLINE
  5
9A
330
7D
100
AcDbEntity
  8
Layer 1
100
AcDbSpline
210
0.0
220
0.0
230
1.0
 70
     9
 71
     3
 72
    26
 73
    22
 74
     0
 42
0.0000000001
 43
0.0000000001
 40
0.0
 40
0.0
 40
0.0
 40
0.0
 40
1.0
 40
1.0
 40
1.0
 40
2.0
 40
2.0
 40
2.0
 40
3.0
 40
3.0
 40
3.0
 40
4.0
 40
4.0
 40
4.0
 40
5.0
 40
5.0
 40
5.0
 40
6.0
 40
6.0
 40
6.0
 40
7.0
 40
7.0
 40
7.0
 40
7.0
 10
25.36928775813765
 20
-102.3268298097146
 30
0.0
 10
25.36928775813765
 20
-83.55852724640227
 30
0.0
 10
25.36928775813765
 20
-65.16818821917006
 30
0.0
 10
25.36928775813765
 20
-46.38486645401752
 30
0.0
 10
27.92120211266496
 20
-47.98521493210537
 30
0.0
 10
30.39548102169248
 20
-49.21314424830068
 30
0.0
 10
32.42038754122797
 20
-50.96108531214522
 30
0.0
 10
33.2674519201012
 20
-51.69228878849959
 30
0.0
 10
33.4235116477379
 20
-53.52341633479261
 30
0.0
 10
33.44370818569178
 20
-54.86124066621416
 30
0.0
 10
33.55450029103542
 20
-62.19995613631591
 30
0.0
 10
33.53715980571808
 20
-69.54076784826712
 30
0.0
 10
33.54125479589614
 20
-76.88086999162877
 30
0.0
 10
33.54455862933054
 20
-82.80356945421511
 30
0.0
 10
33.4750922832145
 20
-88.72661674454233
 30
0.0
 10
33.52300018812707
 20
-94.64881533518235
 30
0.0
 10
33.54032443268792
 20
-96.79040464735663
 30
0.0
 10
33.09308422221707
 20
-98.43886697738087
 30
0.0
 10
30.88258068329341
 20
-99.37264996758118
 30
0.0
 10
29.04705295877748
 20
-100.1480368424028
 30
0.0
 10
27.34938139649814
 20
-101.2494171511489
 30
0.0
 10
25.36928775813765
 20
-102.3268298097146
 30
0.0
  0
HATCH
  5
9B
330
7D
100
AcDbEntity
  8
Layer 1
 62
    18
420
        0
440
 33554687
100
AcDbHatch
 10
0.0
 20
0.0
 30
0.0
210
0.0
220
0.0
230
1.0
  2
SOLID
 70
     1
 71
     1
 91
        1
 92
        1
 93
        1
 72
     4
 94
        3
 73
     0
 74
     0
 95
       26
 96
       22
 40
0.0
 40
0.0
 40
0.0
 40
0.0
 40
1.0
 40
1.0
 40
1.0
 40
2.0
 40
2.0
 40
2.0
 40
3.0
 40
3.0
 40
3.0
 40
4.0
 40
4.0
 40
4.0
 40
5.0
 40
5.0
 40
5.0
 40
6.0
 40
6.0
 40
6.0
 40
7.0
 40
7.0
 40
7.0
 40
7.0
 10
25.36928775813765
 20
-102.3268298097146
 10
25.36928775813765
 20
-83.55852724640227
 10
25.36928775813765
 20
-65.16818821917006
 10
25.36928775813765
 20
-46.38486645401752
 10
27.92120211266496
 20
-47.98521493210537
 10
30.39548102169248
 20
-49.21314424830068
 10
32.42038754122797
 20
-50.96108531214522
 10
33.2674519201012
 20
-51.69228878849959
 10
33.4235116477379
 20
-53.52341633479261
 10
33.44370818569178
 20
-54.86124066621416
 10
33.55450029103542
 20
-62.19995613631591
 10
33.53715980571808
 20
-69.54076784826712
 10
33.54125479589614
 20
-76.88086999162877
 10
33.54455862933054
 20
-82.80356945421511
 10
33.4750922832145
 20
-88.72661674454233
 10
33.52300018812707
 20
-94.64881533518235
 10
33.54032443268792
 20
-96.79040464735663
 10
33.09308422221707
 20
-98.43886697738087
 10
30.88258068329341
 20
-99.37264996758118
 10
29.04705295877748
 20
-100.1480368424028
 10
27.34938139649814
 20
-101.2494171511489
 10
25.36928775813765
 20
-102.3268298097146
 97
        0
 97
        1
330
9A
 75
     2
 76
     1
 98
        1
 10
0.0
 20
0.0
450
        0
451
        0
460
0.0
461
0.0
452
        0
462
0.0
453
        0
470

  0
SPLINE
  5
9C
330
7D
100
AcDbEntity
  8
Layer 1
100
AcDbSpline
210
0.0
220
0.0
230
1.0
 70
     9
 71
     3
 72
    29
 73
    25
 74
     0
 42
0.0000000001
 43
0.0000000001
 40
0.0
 40
0.0
 40
0.0
 40
0.0
 40
1.0
 40
1.0
 40
1.0
 40
2.0
 40
2.0
 40
2.0
 40
3.0
 40
3.0
 40
3.0
 40
4.0
 40
4.0
 40
4.0
 40
5.0
 40
5.0
 40
5.0
 40
6.0
 40
6.0
 40
6.0
 40
7.0
 40
7.0
 40
7.0
 40
8.0
 40
8.0
 40
8.0
 40
8.0
 10
120.9713808551608
 20
-74.88716775936431
 30
0.0
 10
123.577613572311
 20
-73.41767903385626
 30
0.0
 10
126.029206467768
 20
-71.93799663669551
 30
0.0
 10
128.5859002442584
 20
-70.67000684018657
 30
0.0
 10
129.1462805091153
 20
-70.39209247542249
 30
0.0
 10
130.1886399577691
 20
-70.67358714706414
 30
0.0
 10
130.8266231866156
 20
-71.02669259394602
 30
0.0
 10
137.5432051942252
 20
-74.74414099241579
 30
0.0
 10
144.2227211604378
 20
-78.52847898426121
 30
0.0
 10
150.9125012833296
 20
-82.29429862719571
 30
0.0
 10
152.1890060060224
 20
-83.01286436230803
 30
0.0
 10
153.475180937813
 20
-83.71503117887399
 30
0.0
 10
154.7367720078955
 20
-84.45885384565803
 30
0.0
 10
155.1482384769825
 20
-84.70145673819343
 30
0.0
 10
155.4957813373674
 20
-85.05237782686434
 30
0.0
 10
155.8672584292904
 20
-85.34952010913078
 30
0.0
 10
153.1037688089064
 20
-89.10058258045614
 30
0.0
 10
148.3820711265595
 20
-90.38754522079081
 30
0.0
 10
144.5460049741967
 20
-88.29467961852326
 30
0.0
 10
136.8770744181672
 20
-84.11070610350565
 30
0.0
 10
129.2803177739945
 20
-79.79453949623581
 30
0.0
 10
121.6585039661342
 20
-75.52451339818663
 30
0.0
 10
121.4523020698252
 20
-75.40899284896821
 30
0.0
 10
121.3002422079485
 20
-75.19696169598285
 30
0.0
 10
120.9713808551608
 20
-74.88716775936431
 30
0.0
  0
HATCH
  5
9D
330
7D
100
AcDbEntity
  8
Layer 1
 62
    18
420
        0
440
 33554687
100
AcDbHatch
 10
0.0
 20
0.0
 30
0.0
210
0.0
220
0.0
230
1.0
  2
SOLID
 70
     1
 71
     1
 91
        1
 92
        1
 93
        1
 72
     4
 94
        3
 73
     0
 74
     0
 95
       29
 96
       25
 40
0.0
 40
0.0
 40
0.0
 40
0.0
 40
1.0
 40
1.0
 40
1.0
 40
2.0
 40
2.0
 40
2.0
 40
3.0
 40
3.0
 40
3.0
 40
4.0
 40
4.0
 40
4.0
 40
5.0
 40
5.0
 40
5.0
 40
6.0
 40
6.0
 40
6.0
 40
7.0
 40
7.0
 40
7.0
 40
8.0
 40
8.0
 40
8.0
 40
8.0
 10
120.9713808551608
 20
-74.88716775936431
 10
123.577613572311
 20
-73.41767903385626
 10
126.029206467768
 20
-71.93799663669551
 10
128.5859002442584
 20
-70.67000684018657
 10
129.1462805091153
 20
-70.39209247542249
 10
130.1886399577691
 20
-70.67358714706414
 10
130.8266231866156
 20
-71.02669259394602
 10
137.5432051942252
 20
-74.74414099241579
 10
144.2227211604378
 20
-78.52847898426121
 10
150.9125012833296
 20
-82.29429862719571
 10
152.1890060060224
 20
-83.01286436230803
 10
153.475180937813
 20
-83.71503117887399
 10
154.7367720078955
 20
-84.45885384565803
 10
155.1482384769825
 20
-84.70145673819343
 10
155.4957813373674
 20
-85.05237782686434
 10
155.8672584292904
 20
-85.34952010913078
 10
153.1037688089064
 20
-89.10058258045614
 10
148.3820711265595
 20
-90.38754522079081
 10
144.5460049741967
 20
-88.29467961852326
 10
136.8770744181672
 20
-84.11070610350565
 10
129.2803177739945
 20
-79.79453949623581
 10
121.6585039661342
 20
-75.52451339818663
 10
121.4523020698252
 20
-75.40899284896821
 10
121.3002422079485
 20
-75.19696169598285
 10
120.9713808551608
 20
-74.88716775936431
 97
        0
 97
        1
330
9C
 75
     2
 76
     1
 98
        1
 10
0.0
 20
0.0
450
        0
451
        0
460
0.0
461
0.0
452
        0
462
0.0
453
        0
470

  0
SPLINE
  5
9E
330
7D
100
AcDbEntity
  8
Layer 1
100
AcDbSpline
210
0.0
220
0.0
230
1.0
 70
     9
 71
     3
 72
    29
 73
    25
 74
     0
 42
0.0000000001
 43
0.0000000001
 40
0.0
 40
0.0
 40
0.0
 40
0.0
 40
1.0
 40
1.0
 40
1.0
 40
2.0
 40
2.0
 40
2.0
 40
3.0
 40
3.0
 40
3.0
 40
4.0
 40
4.0
 40
4.0
 40
5.0
 40
5.0
 40
5.0
 40
6.0
 40
6.0
 40
6.0
 40
7.0
 40
7.0
 40
7.0
 40
8.0
 40
8.0
 40
8.0
 40
8.0
 10
79.93591350975977
 20
-34.5538444087904
 30
0.0
 10
82.61927124870458
 20
-33.04595781956804
 30
0.0
 10
85.07589877797716
 20
-31.56625687159523
 30
0.0
 10
87.63951575599184
 20
-30.30354710018926
 30
0.0
 10
88.19226750656763
 20
-30.03128609563614
 30
0.0
 10
89.23053428515244
 20
-30.36139781001088
 30
0.0
 10
89.87604394353764
 20
-30.71898095934098
 30
0.0
 10
95.93353902221528
 20
-34.07457952152959
 30
0.0
 10
101.9544692027673
 20
-37.49611694793573
 30
0.0
 10
107.9854315292245
 20
-40.89954182446167
 30
0.0
 10
109.7916261314686
 20
-41.91882087330942
 30
0.0
 10
111.6027857642956
 20
-42.92961524413787
 30
0.0
 10
113.3971942191726
 20
-43.96926540432895
 30
0.0
 10
113.9063650657894
 20
-44.26426970541654
 30
0.0
 10
114.3644378593421
 20
-44.64737645435367
 30
0.0
 10
114.8397072915297
 20
-44.98563893211747
 30
0.0
 10
112.5626329009597
 20
-48.44768669604873
 30
0.0
 10
107.3541580519875
 20
-50.02440375743812
 30
0.0
 10
103.9875796233019
 20
-48.18255152247569
 30
0.0
 10
96.18111307990686
 20
-43.91165121737127
 30
0.0
 10
88.43273275411673
 20
-39.53466808907717
 30
0.0
 10
80.66410716810773
 20
-35.19479818070904
 30
0.0
 10
80.49363029091852
 20
-35.09956062647209
 30
0.0
 10
80.36267876934285
 20
-34.93363983763664
 30
0.0
 10
79.93591350975977
 20
-34.5538444087904
 30
0.0
  0
HATCH
  5
9F
330
7D
100
AcDbEntity
  8
Layer 1
 62
    18
420
        0
440
 33554687
100
AcDbHatch
 10
0.0
 20
0.0
 30
0.0
210
0.0
220
0.0
230
1.0
  2
SOLID
 70
     1
 71
     1
 91
        1
 92
        1
 93
        1
 72
     4
 94
        3
 73
     0
 74
     0
 95
       29
 96
       25
 40
0.0
 40
0.0
 40
0.0
 40
0.0
 40
1.0
 40
1.0
 40
1.0
 40
2.0
 40
2.0
 40
2.0
 40
3.0
 40
3.0
 40
3.0
 40
4.0
 40
4.0
 40
4.0
 40
5.0
 40
5.0
 40
5.0
 40
6.0
 40
6.0
 40
6.0
 40
7.0
 40
7.0
 40
7.0
 40
8.0
 40
8.0
 40
8.0
 40
8.0
 10
79.93591350975977
 20
-34.5538444087904
 10
82.61927124870458
 20
-33.04595781956804
 10
85.07589877797716
 20
-31.56625687159523
 10
87.63951575599184
 20
-30.30354710018926
 10
88.19226750656763
 20
-30.03128609563614
 10
89.23053428515244
 20
-30.36139781001088
 10
89.87604394353764
 20
-30.71898095934098
 10
95.93353902221528
 20
-34.07457952152959
 10
101.9544692027673
 20
-37.49611694793573
 10
107.9854315292245
 20
-40.89954182446167
 10
109.7916261314686
 20
-41.91882087330942
 10
111.6027857642956
 20
-42.92961524413787
 10
113.3971942191726
 20
-43.96926540432895
 10
113.9063650657894
 20
-44.26426970541654
 10
114.3644378593421
 20
-44.64737645435367
 10
114.8397072915297
 20
-44.98563893211747
 10
112.5626329009597
 20
-48.44768669604873
 10
107.3541580519875
 20
-50.02440375743812
 10
103.9875796233019
 20
-48.18255152247569
 10
96.18111307990686
 20
-43.91165121737127
 10
88.43273275411673
 20
-39.53466808907717
 10
80.66410716810773
 20
-35.19479818070904
 10
80.49363029091852
 20
-35.09956062647209
 10
80.36267876934285
 20
-34.93363983763664
 10
79.93591350975977
 20
-34.5538444087904
 97
        0
 97
        1
330
9E
 75
     2
 76
     1
 98
        1
 10
0.0
 20
0.0
450
        0
451
        0
460
0.0
461
0.0
452
        0
462
0.0
453
        0
470

  0
SPLINE
  5
A0
330
7D
100
AcDbEntity
  8
Layer 1
100
AcDbSpline
210
0.0
220
0.0
230
1.0
 70
     9
 71
     3
 72
    29
 73
    25
 74
     0
 42
0.0000000001
 43
0.0000000001
 40
0.0
 40
0.0
 40
0.0
 40
0.0
 40
1.0
 40
1.0
 40
1.0
 40
2.0
 40
2.0
 40
2.0
 40
3.0
 40
3.0
 40
3.0
 40
4.0
 40
4.0
 40
4.0
 40
5.0
 40
5.0
 40
5.0
 40
6.0
 40
6.0
 40
6.0
 40
7.0
 40
7.0
 40
7.0
 40
8.0
 40
8.0
 40
8.0
 40
8.0
 10
60.70029458028828
 20
-114.0264564476412
 30
0.0
 10
58.01323858958951
 20
-115.3913325018777
 30
0.0
 10
55.68515895026475
 20
-116.6763844084898
 30
0.0
 10
53.25795038725086
 20
-117.7342537857344
 30
0.0
 10
52.65533952114618
 20
-117.9969054692409
 30
0.0
 10
51.62781484143918
 20
-117.7158792056235
 30
0.0
 10
50.97170693085661
 20
-117.3602322973831
 30
0.0
 10
43.02380429896765
 20
-113.0519915248958
 30
0.0
 10
35.10491693458633
 20
-108.6901667295392
 30
0.0
 10
27.18913155426757
 20
-104.3229807492731
 30
0.0
 10
25.75484906415177
 20
-103.5316772770409
 30
0.0
 10
25.76159477743283
 20
-103.099155800418
 30
0.0
 10
27.18393915312639
 20
-102.3074349348971
 30
0.0
 10
28.81591918459609
 20
-101.3990201812467
 30
0.0
 10
30.48673781978775
 20
-100.5604399625077
 30
0.0
 10
32.12171775057924
 20
-99.65722871185647
 30
0.0
 10
33.20227777332171
 20
-99.06029138108834
 30
0.0
 10
34.22746610452436
 20
-99.11610150149869
 30
0.0
 10
35.29062299903996
 20
-99.69740977245374
 30
0.0
 10
43.26458508116801
 20
-104.0572867324639
 30
0.0
 10
51.24665825998619
 20
-108.4023415930188
 30
0.0
 10
59.21604740974144
 20
-112.7705385925838
 30
0.0
 10
59.64018630735466
 20
-113.0030173790151
 30
0.0
 10
59.97269486952293
 20
-113.4024905825755
 30
0.0
 10
60.70029458028828
 20
-114.0264564476412
 30
0.0
  0
HATCH
  5
A1
330
7D
100
AcDbEntity
  8
Layer 1
 62
    18
420
        0
440
 33554687
100
AcDbHatch
 10
0.0
 20
0.0
 30
0.0
210
0.0
220
0.0
230
1.0
  2
SOLID
 70
     1
 71
     1
 91
        1
 92
        1
 93
        1
 72
     4
 94
        3
 73
     0
 74
     0
 95
       29
 96
       25
 40
0.0
 40
0.0
 40
0.0
 40
0.0
 40
1.0
 40
1.0
 40
1.0
 40
2.0
 40
2.0
 40
2.0
 40
3.0
 40
3.0
 40
3.0
 40
4.0
 40
4.0
 40
4.0
 40
5.0
 40
5.0
 40
5.0
 40
6.0
 40
6.0
 40
6.0
 40
7.0
 40
7.0
 40
7.0
 40
8.0
 40
8.0
 40
8.0
 40
8.0
 10
60.70029458028828
 20
-114.0264564476412
 10
58.01323858958951
 20
-115.3913325018777
 10
55.68515895026475
 20
-116.6763844084898
 10
53.25795038725086
 20
-117.7342537857344
 10
52.65533952114618
 20
-117.9969054692409
 10
51.62781484143918
 20
-117.7158792056235
 10
50.97170693085661
 20
-117.3602322973831
 10
43.02380429896765
 20
-113.0519915248958
 10
35.10491693458633
 20
-108.6901667295392
 10
27.18913155426757
 20
-104.3229807492731
 10
25.75484906415177
 20
-103.5316772770409
 10
25.76159477743283
 20
-103.099155800418
 10
27.18393915312639
 20
-102.3074349348971
 10
28.81591918459609
 20
-101.3990201812467
 10
30.48673781978775
 20
-100.5604399625077
 10
32.12171775057924
 20
-99.65722871185647
 10
33.20227777332171
 20
-99.06029138108834
 10
34.22746610452436
 20
-99.11610150149869
 10
35.29062299903996
 20
-99.69740977245374
 10
43.26458508116801
 20
-104.0572867324639
 10
51.24665825998619
 20
-108.4023415930188
 10
59.21604740974144
 20
-112.7705385925838
 10
59.64018630735466
 20
-113.0030173790151
 10
59.97269486952293
 20
-113.4024905825755
 10
60.70029458028828
 20
-114.0264564476412
 97
        0
 97
        1
330
A0
 75
     2
 76
     1
 98
        1
 10
0.0
 20
0.0
450
        0
451
        0
460
0.0
461
0.0
452
        0
462
0.0
453
        0
470

  0
SPLINE
  5
A2
330
7D
100
AcDbEntity
  8
Layer 1
100
AcDbSpline
210
0.0
220
0.0
230
1.0
 70
     9
 71
     3
 72
    32
 73
    28
 74
     0
 42
0.0000000001
 43
0.0000000001
 40
0.0
 40
0.0
 40
0.0
 40
0.0
 40
1.0
 40
1.0
 40
1.0
 40
2.0
 40
2.0
 40
2.0
 40
3.0
 40
3.0
 40
3.0
 40
4.0
 40
4.0
 40
4.0
 40
5.0
 40
5.0
 40
5.0
 40
6.0
 40
6.0
 40
6.0
 40
7.0
 40
7.0
 40
7.0
 40
8.0
 40
8.0
 40
8.0
 40
9.0
 40
9.0
 40
9.0
 40
9.0
 10
67.03078281715644
 20
-143.2170230541867
 30
0.0
 10
69.35266776879044
 20
-142.0335461232453
 30
0.0
 10
71.6378903777766
 20
-140.7662566199205
 30
0.0
 10
74.02183821170083
 20
-139.7246748563434
 30
0.0
 10
74.62885264231179
 20
-139.4594724360729
 30
0.0
 10
75.65664181430111
 20
-139.7115687070762
 30
0.0
 10
76.30929740455513
 20
-140.0631344364934
 30
0.0
 10
84.3090289234507
 20
-144.3722285463697
 30
0.0
 10
92.27693784446165
 20
-148.7404069951226
 30
0.0
 10
100.2437516746143
 20
-153.1103013940621
 30
0.0
 10
100.659375776789
 20
-153.338272332975
 30
0.0
 10
100.9911047827542
 20
-153.719018490979
 30
0.0
 10
101.6544885512386
 20
-154.2729921392237
 30
0.0
 10
100.2576908819702
 20
-155.0488984368044
 30
0.0
 10
99.01327788966352
 20
-155.5759734064408
 30
0.0
 10
97.9576567051162
 20
-156.3577232100639
 30
0.0
 10
94.94462557566979
 20
-158.5890057022885
 30
0.0
 10
92.26872466302914
 20
-158.1494720184144
 30
0.0
 10
89.12238942275104
 20
-156.2543024285152
 30
0.0
 10
82.76976271774165
 20
-152.4278726423512
 30
0.0
 10
76.15339080403039
 20
-149.039306966905
 30
0.0
 10
69.6541100882005
 20
-145.4550951439082
 30
0.0
 10
68.74719388972426
 20
-144.9549559545074
 30
0.0
 10
67.88728307424496
 20
-144.369668534199
 30
0.0
 10
67.00561428829238
 20
-143.823792315756
 30
0.0
 10
67.01400379791351
 20
-143.6215420788369
 30
0.0
 10
67.02239330753497
 20
-143.4192825665124
 30
0.0
 10
67.03078281715644
 20
-143.2170230541867
 30
0.0
  0
HATCH
  5
A3
330
7D
100
AcDbEntity
  8
Layer 1
 62
    18
420
        0
440
 33554687
100
AcDbHatch
 10
0.0
 20
0.0
 30
0.0
210
0.0
220
0.0
230
1.0
  2
SOLID
 70
     1
 71
     1
 91
        1
 92
        1
 93
        1
 72
     4
 94
        3
 73
     0
 74
     0
 95
       32
 96
       28
 40
0.0
 40
0.0
 40
0.0
 40
0.0
 40
1.0
 40
1.0
 40
1.0
 40
2.0
 40
2.0
 40
2.0
 40
3.0
 40
3.0
 40
3.0
 40
4.0
 40
4.0
 40
4.0
 40
5.0
 40
5.0
 40
5.0
 40
6.0
 40
6.0
 40
6.0
 40
7.0
 40
7.0
 40
7.0
 40
8.0
 40
8.0
 40
8.0
 40
9.0
 40
9.0
 40
9.0
 40
9.0
 10
67.03078281715644
 20
-143.2170230541867
 10
69.35266776879044
 20
-142.0335461232453
 10
71.6378903777766
 20
-140.7662566199205
 10
74.02183821170083
 20
-139.7246748563434
 10
74.62885264231179
 20
-139.4594724360729
 10
75.65664181430111
 20
-139.7115687070762
 10
76.30929740455513
 20
-140.0631344364934
 10
84.3090289234507
 20
-144.3722285463697
 10
92.27693784446165
 20
-148.7404069951226
 10
100.2437516746143
 20
-153.1103013940621
 10
100.659375776789
 20
-153.338272332975
 10
100.9911047827542
 20
-153.719018490979
 10
101.6544885512386
 20
-154.2729921392237
 10
100.2576908819702
 20
-155.0488984368044
 10
99.01327788966352
 20
-155.5759734064408
 10
97.9576567051162
 20
-156.3577232100639
 10
94.94462557566979
 20
-158.5890057022885
 10
92.26872466302914
 20
-158.1494720184144
 10
89.12238942275104
 20
-156.2543024285152
 10
82.76976271774165
 20
-152.4278726423512
 10
76.15339080403039
 20
-149.039306966905
 10
69.6541100882005
 20
-145.4550951439082
 10
68.74719388972426
 20
-144.9549559545074
 10
67.88728307424496
 20
-144.369668534199
 10
67.00561428829238
 20
-143.823792315756
 10
67.01400379791351
 20
-143.6215420788369
 10
67.02239330753497
 20
-143.4192825665124
 10
67.03078281715644
 20
-143.2170230541867
 97
        0
 97
        1
330
A2
 75
     2
 76
     1
 98
        1
 10
0.0
 20
0.0
450
        0
451
        0
460
0.0
461
0.0
452
        0
462
0.0
453
        0
470

  0
SPLINE
  5
A4
330
7D
100
AcDbEntity
  8
Layer 1
100
AcDbSpline
210
0.0
220
0.0
230
1.0
 70
     9
 71
     3
 72
    29
 73
    25
 74
     0
 42
0.0000000001
 43
0.0000000001
 40
0.0
 40
0.0
 40
0.0
 40
0.0
 40
1.0
 40
1.0
 40
1.0
 40
2.0
 40
2.0
 40
2.0
 40
3.0
 40
3.0
 40
3.0
 40
4.0
 40
4.0
 40
4.0
 40
5.0
 40
5.0
 40
5.0
 40
6.0
 40
6.0
 40
6.0
 40
7.0
 40
7.0
 40
7.0
 40
8.0
 40
8.0
 40
8.0
 40
8.0
 10
53.53227064707372
 20
-68.72462019994772
 30
0.0
 10
55.90606568948718
 20
-67.53748875887755
 30
0.0
 10
58.23874842258803
 20
-66.25219569169818
 30
0.0
 10
60.68172443786377
 20
-65.2302638766146
 30
0.0
 10
61.31523913918702
 20
-64.96525623987989
 30
0.0
 10
62.39775965297731
 20
-65.33967193300423
 30
0.0
 10
63.0980099335953
 20
-65.73323206497338
 30
0.0
 10
70.72120652567503
 20
-70.01772315932964
 30
0.0
 10
78.31294245667766
 20
-74.35821915763202
 30
0.0
 10
85.90392667276947
 20
-78.69975400145179
 30
0.0
 10
87.36725575185104
 20
-79.53667856014461
 30
0.0
 10
87.35920033774611
 20
-80.05241898314006
 30
0.0
 10
85.89890595959911
 20
-80.83703952504796
 30
0.0
 10
84.38514701848431
 20
-81.65039063833374
 30
0.0
 10
82.8959394575682
 20
-82.55013288698435
 30
0.0
 10
81.29718104895841
 20
-83.14826210747753
 30
0.0
 10
80.44651354274929
 20
-83.46652449015463
 30
0.0
 10
79.18724722063278
 20
-83.58819463382729
 30
0.0
 10
78.45190763041826
 20
-83.18306807005592
 30
0.0
 10
70.1377226278537
 20
-78.60240397340402
 30
0.0
 10
61.88937300277959
 20
-73.90239322238682
 30
0.0
 10
53.62337199794827
 20
-69.23437334810007
 30
0.0
 10
53.59300642772936
 20
-69.06445717795093
 30
0.0
 10
53.56264085750821
 20
-68.89454100780018
 30
0.0
 10
53.53227064707372
 20
-68.72462019994772
 30
0.0
  0
HATCH
  5
A5
330
7D
100
AcDbEntity
  8
Layer 1
 62
    18
420
        0
440
 33554687
100
AcDbHatch
 10
0.0
 20
0.0
 30
0.0
210
0.0
220
0.0
230
1.0
  2
SOLID
 70
     1
 71
     1
 91
        1
 92
        1
 93
        1
 72
     4
 94
        3
 73
     0
 74
     0
 95
       29
 96
       25
 40
0.0
 40
0.0
 40
0.0
 40
0.0
 40
1.0
 40
1.0
 40
1.0
 40
2.0
 40
2.0
 40
2.0
 40
3.0
 40
3.0
 40
3.0
 40
4.0
 40
4.0
 40
4.0
 40
5.0
 40
5.0
 40
5.0
 40
6.0
 40
6.0
 40
6.0
 40
7.0
 40
7.0
 40
7.0
 40
8.0
 40
8.0
 40
8.0
 40
8.0
 10
53.53227064707372
 20
-68.72462019994772
 10
55.90606568948718
 20
-67.53748875887755
 10
58.23874842258803
 20
-66.25219569169818
 10
60.68172443786377
 20
-65.2302638766146
 10
61.31523913918702
 20
-64.96525623987989
 10
62.39775965297731
 20
-65.33967193300423
 10
63.0980099335953
 20
-65.73323206497338
 10
70.72120652567503
 20
-70.01772315932964
 10
78.31294245667766
 20
-74.35821915763202
 10
85.90392667276947
 20
-78.69975400145179
 10
87.36725575185104
 20
-79.53667856014461
 10
87.35920033774611
 20
-80.05241898314006
 10
85.89890595959911
 20
-80.83703952504796
 10
84.38514701848431
 20
-81.65039063833374
 10
82.8959394575682
 20
-82.55013288698435
 10
81.29718104895841
 20
-83.14826210747753
 10
80.44651354274929
 20
-83.46652449015463
 10
79.18724722063278
 20
-83.58819463382729
 10
78.45190763041826
 20
-83.18306807005592
 10
70.1377226278537
 20
-78.60240397340402
 10
61.88937300277959
 20
-73.90239322238682
 10
53.62337199794827
 20
-69.23437334810007
 10
53.59300642772936
 20
-69.06445717795093
 10
53.56264085750821
 20
-68.89454100780018
 10
53.53227064707372
 20
-68.72462019994772
 97
        0
 97
        1
330
A4
 75
     2
 76
     1
 98
        1
 10
0.0
 20
0.0
450
        0
451
        0
460
0.0
461
0.0
452
        0
462
0.0
453
        0
470

  0
SPLINE
  5
A6
330
7D
100
AcDbEntity
  8
Layer 1
100
AcDbSpline
210
0.0
220
0.0
230
1.0
 70
     9
 71
     3
 72
    29
 73
    25
 74
     0
 42
0.0000000001
 43
0.0000000001
 40
0.0
 40
0.0
 40
0.0
 40
0.0
 40
1.0
 40
1.0
 40
1.0
 40
2.0
 40
2.0
 40
2.0
 40
3.0
 40
3.0
 40
3.0
 40
4.0
 40
4.0
 40
4.0
 40
5.0
 40
5.0
 40
5.0
 40
6.0
 40
6.0
 40
6.0
 40
7.0
 40
7.0
 40
7.0
 40
8.0
 40
8.0
 40
8.0
 40
8.0
 10
128.5935937215543
 20
-120.268573081004
 30
0.0
 10
126.0242321567532
 20
-121.6102513437918
 30
0.0
 10
124.0367536154258
 20
-122.8523488432881
 30
0.0
 10
121.8876099661417
 20
-123.669948092712
 30
0.0
 10
121.0259776307131
 20
-123.9977409554817
 30
0.0
 10
119.6606684638147
 20
-123.6586691985088
 30
0.0
 10
118.7767074114085
 20
-123.1687607823845
 30
0.0
 10
111.4846180364187
 20
-119.1273920033233
 30
0.0
 10
104.2513016309274
 20
-114.980033155136
 30
0.0
 10
97.00165166688456
 20
-110.8622164763859
 30
0.0
 10
96.22586331817039
 20
-110.4215790191483
 30
0.0
 10
95.45942036347133
 20
-109.9645055417402
 30
0.0
 10
94.31832640944762
 20
-109.2991249870227
 30
0.0
 10
96.43589803248197
 20
-108.1257118720434
 30
0.0
 10
98.26624031617722
 20
-107.1419622674745
 30
0.0
 10
100.0659757384463
 20
-106.1051480627951
 30
0.0
 10
101.7008999866526
 20
-105.1632861936053
 30
0.0
 10
103.2077914088299
 20
-105.4347866148327
 30
0.0
 10
104.7687691828563
 20
-106.3335178441844
 30
0.0
 10
111.8181567264288
 20
-110.3922780102778
 30
0.0
 10
118.8925735923983
 20
-114.4075643464962
 30
0.0
 10
125.9469632882779
 20
-118.4576705584026
 30
0.0
 10
126.7384634066668
 20
-118.9120819941698
 30
0.0
 10
127.4602118056894
 20
-119.4878250212748
 30
0.0
 10
128.5935937215543
 20
-120.268573081004
 30
0.0
  0
HATCH
  5
A7
330
7D
100
AcDbEntity
  8
Layer 1
 62
    18
420
        0
440
 33554687
100
AcDbHatch
 10
0.0
 20
0.0
 30
0.0
210
0.0
220
0.0
230
1.0
  2
SOLID
 70
     1
 71
     1
 91
        1
 92
        1
 93
        1
 72
     4
 94
        3
 73
     0
 74
     0
 95
       29
 96
       25
 40
0.0
 40
0.0
 40
0.0
 40
0.0
 40
1.0
 40
1.0
 40
1.0
 40
2.0
 40
2.0
 40
2.0
 40
3.0
 40
3.0
 40
3.0
 40
4.0
 40
4.0
 40
4.0
 40
5.0
 40
5.0
 40
5.0
 40
6.0
 40
6.0
 40
6.0
 40
7.0
 40
7.0
 40
7.0
 40
8.0
 40
8.0
 40
8.0
 40
8.0
 10
128.5935937215543
 20
-120.268573081004
 10
126.0242321567532
 20
-121.6102513437918
 10
124.0367536154258
 20
-122.8523488432881
 10
121.8876099661417
 20
-123.669948092712
 10
121.0259776307131
 20
-123.9977409554817
 10
119.6606684638147
 20
-123.6586691985088
 10
118.7767074114085
 20
-123.1687607823845
 10
111.4846180364187
 20
-119.1273920033233
 10
104.2513016309274
 20
-114.980033155136
 10
97.00165166688456
 20
-110.8622164763859
 10
96.22586331817039
 20
-110.4215790191483
 10
95.45942036347133
 20
-109.9645055417402
 10
94.31832640944762
 20
-109.2991249870227
 10
96.43589803248197
 20
-108.1257118720434
 10
98.26624031617722
 20
-107.1419622674745
 10
100.0659757384463
 20
-106.1051480627951
 10
101.7008999866526
 20
-105.1632861936053
 10
103.2077914088299
 20
-105.4347866148327
 10
104.7687691828563
 20
-106.3335178441844
 10
111.8181567264288
 20
-110.3922780102778
 10
118.8925735923983
 20
-114.4075643464962
 10
125.9469632882779
 20
-118.4576705584026
 10
126.7384634066668
 20
-118.9120819941698
 10
127.4602118056894
 20
-119.4878250212748
 10
128.5935937215543
 20
-120.268573081004
 97
        0
 97
        1
330
A6
 75
     2
 76
     1
 98
        1
 10
0.0
 20
0.0
450
        0
451
        0
460
0.0
461
0.0
452
        0
462
0.0
453
        0
470

  0
SPLINE
  5
A8
330
7D
100
AcDbEntity
  8
Layer 1
100
AcDbSpline
210
0.0
220
0.0
230
1.0
 70
     9
 71
     3
 72
    23
 73
    19
 74
     0
 42
0.0000000001
 43
0.0000000001
 40
0.0
 40
0.0
 40
0.0
 40
0.0
 40
1.0
 40
1.0
 40
1.0
 40
2.0
 40
2.0
 40
2.0
 40
3.0
 40
3.0
 40
3.0
 40
4.0
 40
4.0
 40
4.0
 40
5.0
 40
5.0
 40
5.0
 40
6.0
 40
6.0
 40
6.0
 40
6.0
 10
60.20363839486826
 20
-112.3258663335551
 30
0.0
 10
57.90679668627668
 20
-110.9858390931102
 30
0.0
 10
55.77648767169946
 20
-109.9245470908975
 30
0.0
 10
53.88248627158372
 20
-108.5402854372495
 30
0.0
 10
53.21245771450641
 20
-108.0505810800664
 30
0.0
 10
52.82518532902677
 20
-106.7778283623634
 30
0.0
 10
52.81004430585603
 20
-105.8543503486905
 30
0.0
 10
52.71539319012393
 20
-100.0819495716832
 30
0.0
 10
52.7537167299229
 20
-94.30721139225786
 30
0.0
 10
52.76820348270767
 20
-88.5332801731903
 30
0.0
 10
52.77266272980169
 20
-86.75698419193009
 30
0.0
 10
53.66505505376874
 20
-85.41222649421163
 30
0.0
 10
55.12056072952145
 20
-84.5192784807603
 30
0.0
 10
56.70541241228357
 20
-83.5469793654134
 30
0.0
 10
58.3859592592677
 20
-82.73049780246379
 30
0.0
 10
60.20363839486826
 20
-81.74956792144525
 30
0.0
 10
60.20363839486826
 20
-91.9308522682668
 30
0.0
 10
60.20363839486826
 20
-101.9139629192885
 30
0.0
 10
60.20363839486826
 20
-112.3258663335551
 30
0.0
  0
HATCH
  5
A9
330
7D
100
AcDbEntity
  8
Layer 1
 62
    18
420
        0
440
 33554687
100
AcDbHatch
 10
0.0
 20
0.0
 30
0.0
210
0.0
220
0.0
230
1.0
  2
SOLID
 70
     1
 71
     1
 91
        1
 92
        1
 93
        1
 72
     4
 94
        3
 73
     0
 74
     0
 95
       23
 96
       19
 40
0.0
 40
0.0
 40
0.0
 40
0.0
 40
1.0
 40
1.0
 40
1.0
 40
2.0
 40
2.0
 40
2.0
 40
3.0
 40
3.0
 40
3.0
 40
4.0
 40
4.0
 40
4.0
 40
5.0
 40
5.0
 40
5.0
 40
6.0
 40
6.0
 40
6.0
 40
6.0
 10
60.20363839486826
 20
-112.3258663335551
 10
57.90679668627668
 20
-110.9858390931102
 10
55.77648767169946
 20
-109.9245470908975
 10
53.88248627158372
 20
-108.5402854372495
 10
53.21245771450641
 20
-108.0505810800664
 10
52.82518532902677
 20
-106.7778283623634
 10
52.81004430585603
 20
-105.8543503486905
 10
52.71539319012393
 20
-100.0819495716832
 10
52.7537167299229
 20
-94.30721139225786
 10
52.76820348270767
 20
-88.5332801731903
 10
52.77266272980169
 20
-86.75698419193009
 10
53.66505505376874
 20
-85.41222649421163
 10
55.12056072952145
 20
-84.5192784807603
 10
56.70541241228357
 20
-83.5469793654134
 10
58.3859592592677
 20
-82.73049780246379
 10
60.20363839486826
 20
-81.74956792144525
 10
60.20363839486826
 20
-91.9308522682668
 10
60.20363839486826
 20
-101.9139629192885
 10
60.20363839486826
 20
-112.3258663335551
 97
        0
 97
        1
330
A8
 75
     2
 76
     1
 98
        1
 10
0.0
 20
0.0
450
        0
451
        0
460
0.0
461
0.0
452
        0
462
0.0
453
        0
470

  0
SPLINE
  5
AA
330
7D
100
AcDbEntity
  8
Layer 1
100
AcDbSpline
210
0.0
220
0.0
230
1.0
 70
     9
 71
     3
 72
    26
 73
    22
 74
     0
 42
0.0000000001
 43
0.0000000001
 40
0.0
 40
0.0
 40
0.0
 40
0.0
 40
1.0
 40
1.0
 40
1.0
 40
2.0
 40
2.0
 40
2.0
 40
3.0
 40
3.0
 40
3.0
 40
4.0
 40
4.0
 40
4.0
 40
5.0
 40
5.0
 40
5.0
 40
6.0
 40
6.0
 40
6.0
 40
7.0
 40
7.0
 40
7.0
 40
7.0
 10
101.2577872478661
 20
-152.6784013696691
 30
0.0
 10
98.89297566265669
 20
-151.2874985250273
 30
0.0
 10
96.75391984186513
 20
-150.1645899979879
 30
0.0
 10
94.79147990336612
 20
-148.7898541867312
 30
0.0
 10
94.22830622878224
 20
-148.395361876417
 30
0.0
 10
93.93394951843767
 20
-147.2754771318687
 30
0.0
 10
93.92682214743219
 20
-146.4845075742678
 30
0.0
 10
93.87212328713941
 20
-140.4162120571559
 30
0.0
 10
93.88388159321165
 20
-134.3464603012369
 30
0.0
 10
93.97694575524338
 20
-128.2787305839172
 30
0.0
 10
93.98888966993608
 20
-127.5003570282295
 30
0.0
 10
94.37340576741059
 20
-126.4515311722404
 30
0.0
 10
94.95300580485974
 20
-126.008788197746
 30
0.0
 10
96.84082179771625
 20
-124.5667129359032
 30
0.0
 10
98.89913786883894
 20
-123.3476091689137
 30
0.0
 10
100.8918412928161
 20
-122.0427078925689
 30
0.0
 10
101.0138232778329
 20
-122.1711815468492
 30
0.0
 10
101.1358052628493
 20
-122.2996644765354
 30
0.0
 10
101.2577872478661
 20
-122.4281381308144
 30
0.0
 10
101.2577872478661
 20
-132.3548357600089
 30
0.0
 10
101.2577872478661
 20
-142.2815333892053
 30
0.0
 10
101.2577872478661
 20
-152.6784013696691
 30
0.0
  0
HATCH
  5
AB
330
7D
100
AcDbEntity
  8
Layer 1
 62
    18
420
        0
440
 33554687
100
AcDbHatch
 10
0.0
 20
0.0
 30
0.0
210
0.0
220
0.0
230
1.0
  2
SOLID
 70
     1
 71
     1
 91
        1
 92
        1
 93
        1
 72
     4
 94
        3
 73
     0
 74
     0
 95
       26
 96
       22
 40
0.0
 40
0.0
 40
0.0
 40
0.0
 40
1.0
 40
1.0
 40
1.0
 40
2.0
 40
2.0
 40
2.0
 40
3.0
 40
3.0
 40
3.0
 40
4.0
 40
4.0
 40
4.0
 40
5.0
 40
5.0
 40
5.0
 40
6.0
 40
6.0
 40
6.0
 40
7.0
 40
7.0
 40
7.0
 40
7.0
 10
101.2577872478661
 20
-152.6784013696691
 10
98.89297566265669
 20
-151.2874985250273
 10
96.75391984186513
 20
-150.1645899979879
 10
94.79147990336612
 20
-148.7898541867312
 10
94.22830622878224
 20
-148.395361876417
 10
93.93394951843767
 20
-147.2754771318687
 10
93.92682214743219
 20
-146.4845075742678
 10
93.87212328713941
 20
-140.4162120571559
 10
93.88388159321165
 20
-134.3464603012369
 10
93.97694575524338
 20
-128.2787305839172
 10
93.98888966993608
 20
-127.5003570282295
 10
94.37340576741059
 20
-126.4515311722404
 10
94.95300580485974
 20
-126.008788197746
 10
96.84082179771625
 20
-124.5667129359032
 10
98.89913786883894
 20
-123.3476091689137
 10
100.8918412928161
 20
-122.0427078925689
 10
101.0138232778329
 20
-122.1711815468492
 10
101.1358052628493
 20
-122.2996644765354
 10
101.2577872478661
 20
-122.4281381308144
 10
101.2577872478661
 20
-132.3548357600089
 10
101.2577872478661
 20
-142.2815333892053
 10
101.2577872478661
 20
-152.6784013696691
 97
        0
 97
        1
330
AA
 75
     2
 76
     1
 98
        1
 10
0.0
 20
0.0
450
        0
451
        0
460
0.0
461
0.0
452
        0
462
0.0
453
        0
470

  0
SPLINE
  5
AC
330
7D
100
AcDbEntity
  8
Layer 1
100
AcDbSpline
210
0.0
220
0.0
230
1.0
 70
     9
 71
     3
 72
    23
 73
    19
 74
     0
 42
0.0000000001
 43
0.0000000001
 40
0.0
 40
0.0
 40
0.0
 40
0.0
 40
1.0
 40
1.0
 40
1.0
 40
2.0
 40
2.0
 40
2.0
 40
3.0
 40
3.0
 40
3.0
 40
4.0
 40
4.0
 40
4.0
 40
5.0
 40
5.0
 40
5.0
 40
6.0
 40
6.0
 40
6.0
 40
6.0
 10
80.17705622876922
 20
-66.83823441992548
 30
0.0
 10
80.17705622876922
 20
-56.37849309706574
 30
0.0
 10
80.17705622876922
 20
-46.49588147456928
 30
0.0
 10
80.17705622876922
 20
-36.34780540157194
 30
0.0
 10
82.6908883347029
 20
-37.44417467200172
 30
0.0
 10
85.10531774423585
 20
-38.37564344830202
 30
0.0
 10
86.84895296113195
 20
-40.28034815599697
 30
0.0
 10
87.47009220772113
 20
-40.95886732390408
 30
0.0
 10
87.62127042865236
 20
-42.25455116512167
 30
0.0
 10
87.63224917852181
 20
-43.27233687353654
 30
0.0
 10
87.69109639146844
 20
-48.72963586260424
 30
0.0
 10
87.63084783344128
 20
-54.18813833565407
 30
0.0
 10
87.62815650845281
 20
-59.64623269082247
 30
0.0
 10
87.62741407397157
 20
-61.16231178276171
 30
0.0
 10
87.12639144576874
 20
-62.50611411361904
 30
0.0
 10
85.90461342466328
 20
-63.35391408633565
 30
0.0
 10
84.18948769178587
 20
-64.54404148367856
 30
0.0
 10
82.33844076653777
 20
-65.53850418265844
 30
0.0
 10
80.17705622876922
 20
-66.83823441992548
 30
0.0
  0
HATCH
  5
AD
330
7D
100
AcDbEntity
  8
Layer 1
 62
    18
420
        0
440
 33554687
100
AcDbHatch
 10
0.0
 20
0.0
 30
0.0
210
0.0
220
0.0
230
1.0
  2
SOLID
 70
     1
 71
     1
 91
        1
 92
        1
 93
        1
 72
     4
 94
        3
 73
     0
 74
     0
 95
       23
 96
       19
 40
0.0
 40
0.0
 40
0.0
 40
0.0
 40
1.0
 40
1.0
 40
1.0
 40
2.0
 40
2.0
 40
2.0
 40
3.0
 40
3.0
 40
3.0
 40
4.0
 40
4.0
 40
4.0
 40
5.0
 40
5.0
 40
5.0
 40
6.0
 40
6.0
 40
6.0
 40
6.0
 10
80.17705622876922
 20
-66.83823441992548
 10
80.17705622876922
 20
-56.37849309706574
 10
80.17705622876922
 20
-46.49588147456928
 10
80.17705622876922
 20
-36.34780540157194
 10
82.6908883347029
 20
-37.44417467200172
 10
85.10531774423585
 20
-38.37564344830202
 10
86.84895296113195
 20
-40.28034815599697
 10
87.47009220772113
 20
-40.95886732390408
 10
87.62127042865236
 20
-42.25455116512167
 10
87.63224917852181
 20
-43.27233687353654
 10
87.69109639146844
 20
-48.72963586260424
 10
87.63084783344128
 20
-54.18813833565407
 10
87.62815650845281
 20
-59.64623269082247
 10
87.62741407397157
 20
-61.16231178276171
 10
87.12639144576874
 20
-62.50611411361904
 10
85.90461342466328
 20
-63.35391408633565
 10
84.18948769178587
 20
-64.54404148367856
 10
82.33844076653777
 20
-65.53850418265844
 10
80.17705622876922
 20
-66.83823441992548
 97
        0
 97
        1
330
AC
 75
     2
 76
     1
 98
        1
 10
0.0
 20
0.0
450
        0
451
        0
460
0.0
461
0.0
452
        0
462
0.0
453
        0
470

  0
SPLINE
  5
AE
330
7D
100
AcDbEntity
  8
Layer 1
100
AcDbSpline
210
0.0
220
0.0
230
1.0
 70
     9
 71
     3
 72
    23
 73
    19
 74
     0
 42
0.0000000001
 43
0.0000000001
 40
0.0
 40
0.0
 40
0.0
 40
0.0
 40
1.0
 40
1.0
 40
1.0
 40
2.0
 40
2.0
 40
2.0
 40
3.0
 40
3.0
 40
3.0
 40
4.0
 40
4.0
 40
4.0
 40
5.0
 40
5.0
 40
5.0
 40
6.0
 40
6.0
 40
6.0
 40
6.0
 10
121.1532865831219
 20
-76.40043176545595
 30
0.0
 10
123.4013874681195
 20
-77.69621995499645
 30
0.0
 10
125.4576247226994
 20
-78.69428151166598
 30
0.0
 10
127.2741948467962
 20
-80.0203214392344
 30
0.0
 10
128.003766649148
 20
-80.55289208717272
 30
0.0
 10
128.5723600954355
 20
-81.79879714100289
 30
0.0
 10
128.5902434859643
 20
-82.73198650519299
 30
0.0
 10
128.7038081200689
 20
-88.65593814764588
 30
0.0
 10
128.6609603701576
 20
-94.58333096587967
 30
0.0
 10
128.6272724056413
 20
-100.5093602993699
 30
0.0
 10
128.618159022402
 20
-102.1111487843038
 30
0.0
 10
127.6998232535853
 20
-103.3257725299944
 30
0.0
 10
126.4357079062718
 20
-104.1393369776264
 30
0.0
 10
124.7958371883452
 20
-105.1947669229843
 30
0.0
 10
123.0268478339672
 20
-106.0497831618933
 30
0.0
 10
121.1532865831219
 20
-107.0790564611558
 30
0.0
 10
121.1532865831219
 20
-96.82758975168242
 30
0.0
 10
121.1532865831219
 20
-86.82197696469188
 30
0.0
 10
121.1532865831219
 20
-76.40043176545595
 30
0.0
  0
HATCH
  5
AF
330
7D
100
AcDbEntity
  8
Layer 1
 62
    18
420
        0
440
 33554687
100
AcDbHatch
 10
0.0
 20
0.0
 30
0.0
210
0.0
220
0.0
230
1.0
  2
SOLID
 70
     1
 71
     1
 91
        1
 92
        1
 93
        1
 72
     4
 94
        3
 73
     0
 74
     0
 95
       23
 96
       19
 40
0.0
 40
0.0
 40
0.0
 40
0.0
 40
1.0
 40
1.0
 40
1.0
 40
2.0
 40
2.0
 40
2.0
 40
3.0
 40
3.0
 40
3.0
 40
4.0
 40
4.0
 40
4.0
 40
5.0
 40
5.0
 40
5.0
 40
6.0
 40
6.0
 40
6.0
 40
6.0
 10
121.1532865831219
 20
-76.40043176545595
 10
123.4013874681195
 20
-77.69621995499645
 10
125.4576247226994
 20
-78.69428151166598
 10
127.2741948467962
 20
-80.0203214392344
 10
128.003766649148
 20
-80.55289208717272
 10
128.5723600954355
 20
-81.79879714100289
 10
128.5902434859643
 20
-82.73198650519299
 10
128.7038081200689
 20
-88.65593814764588
 10
128.6609603701576
 20
-94.58333096587967
 10
128.6272724056413
 20
-100.5093602993699
 10
128.618159022402
 20
-102.1111487843038
 10
127.6998232535853
 20
-103.3257725299944
 10
126.4357079062718
 20
-104.1393369776264
 10
124.7958371883452
 20
-105.1947669229843
 10
123.0268478339672
 20
-106.0497831618933
 10
121.1532865831219
 20
-107.0790564611558
 10
121.1532865831219
 20
-96.82758975168242
 10
121.1532865831219
 20
-86.82197696469188
 10
121.1532865831219
 20
-76.40043176545595
 97
        0
 97
        1
330
AE
 75
     2
 76
     1
 98
        1
 10
0.0
 20
0.0
450
        0
451
        0
460
0.0
461
0.0
452
        0
462
0.0
453
        0
470

  0
SPLINE
  5
B0
330
7D
100
AcDbEntity
  8
Layer 1
100
AcDbSpline
210
0.0
220
0.0
230
1.0
 70
     9
 71
     3
 72
    50
 73
    46
 74
     0
 42
0.0000000001
 43
0.0000000001
 40
0.0
 40
0.0
 40
0.0
 40
0.0
 40
1.0
 40
1.0
 40
1.0
 40
2.0
 40
2.0
 40
2.0
 40
3.0
 40
3.0
 40
3.0
 40
4.0
 40
4.0
 40
4.0
 40
5.0
 40
5.0
 40
5.0
 40
6.0
 40
6.0
 40
6.0
 40
7.0
 40
7.0
 40
7.0
 40
8.0
 40
8.0
 40
8.0
 40
9.0
 40
9.0
 40
9.0
 40
10.0
 40
10.0
 40
10.0
 40
11.0
 40
11.0
 40
11.0
 40
12.0
 40
12.0
 40
12.0
 40
13.0
 40
13.0
 40
13.0
 40
14.0
 40
14.0
 40
14.0
 40
15.0
 40
15.0
 40
15.0
 40
15.0
 10
171.7512543446268
 20
-119.165792185888
 30
0.0
 10
173.8557776816804
 20
-118.6825435115715
 30
0.0
 10
173.9490645740561
 20
-118.7505044143879
 30
0.0
 10
173.9525168943865
 20
-120.7966776207531
 30
0.0
 10
173.9560434581658
 20
-122.8725228522443
 30
0.0
 10
173.9668830015704
 20
-124.9484608378011
 30
0.0
 10
173.9491945000914
 20
-127.0241483873839
 30
0.0
 10
173.9427910027034
 20
-127.7741020978095
 30
0.0
 10
174.0600770896349
 20
-128.2778586957136
 30
0.0
 10
175.0087413069508
 20
-128.2653832740827
 30
0.0
 10
177.9412646975016
 20
-128.2268068587949
 30
0.0
 10
180.8746047659817
 20
-128.2512939317362
 30
0.0
 10
184.0060634753736
 20
-128.2512939317362
 30
0.0
 10
184.0060634753736
 20
-125.1470658399974
 30
0.0
 10
184.0060634753736
 20
-122.14081386624
 30
0.0
 10
184.0060634753736
 20
-119.0469093018438
 30
0.0
 10
184.8385366966122
 20
-119.0469093018438
 30
0.0
 10
185.472000355564
 20
-119.0469093018438
 30
0.0
 10
186.2293206465944
 20
-119.0469093018438
 30
0.0
 10
186.2293206465944
 20
-125.9458731160206
 30
0.0
 10
186.2293206465944
 20
-132.7862627386753
 30
0.0
 10
186.2293206465944
 20
-139.7065970892367
 30
0.0
 10
185.5023844866485
 20
-139.7065970892367
 30
0.0
 10
184.8717420787182
 20
-139.7065970892367
 30
0.0
 10
184.0473799541694
 20
-139.7065970892367
 30
0.0
 10
184.0473799541694
 20
-137.0758506688584
 30
0.0
 10
183.9944443757656
 20
-134.5083254186169
 30
0.0
 10
184.0712121009677
 20
-131.9446958390702
 30
0.0
 10
184.1060693997904
 20
-130.7805395796954
 30
0.0
 10
183.8066084523983
 20
-130.3274916286717
 30
0.0
 10
182.5599124740675
 20
-130.3756866404131
 30
0.0
 10
180.1319661167883
 20
-130.4695537533511
 30
0.0
 10
177.6971893622964
 20
-130.4359953329357
 30
0.0
 10
175.2665702408914
 20
-130.3883197439531
 30
0.0
 10
174.2755872582349
 20
-130.3688784921028
 30
0.0
 10
173.9236176322652
 20
-130.7315005059686
 30
0.0
 10
173.9401553603005
 20
-131.7154912711047
 30
0.0
 10
173.9842002858085
 20
-134.3383257698086
 30
0.0
 10
173.9551525367901
 20
-136.9623938975676
 30
0.0
 10
173.9551525367901
 20
-139.68468857928
 30
0.0
 10
173.1509660692282
 20
-139.68468857928
 30
0.0
 10
172.5168342192454
 20
-139.68468857928
 30
0.0
 10
171.7512543446268
 20
-139.68468857928
 30
0.0
 10
171.7512543446268
 20
-132.8581564138126
 30
0.0
 10
171.7512543446268
 20
-126.0111534263821
 30
0.0
 10
171.7512543446268
 20
-119.165792185888
 30
0.0
  0
HATCH
  5
B1
330
7D
100
AcDbEntity
  8
Layer 1
 62
    18
420
        0
440
 33554687
100
AcDbHatch
 10
0.0
 20
0.0
 30
0.0
210
0.0
220
0.0
230
1.0
  2
SOLID
 70
     1
 71
     1
 91
        1
 92
        1
 93
        1
 72
     4
 94
        3
 73
     0
 74
     0
 95
       50
 96
       46
 40
0.0
 40
0.0
 40
0.0
 40
0.0
 40
1.0
 40
1.0
 40
1.0
 40
2.0
 40
2.0
 40
2.0
 40
3.0
 40
3.0
 40
3.0
 40
4.0
 40
4.0
 40
4.0
 40
5.0
 40
5.0
 40
5.0
 40
6.0
 40
6.0
 40
6.0
 40
7.0
 40
7.0
 40
7.0
 40
8.0
 40
8.0
 40
8.0
 40
9.0
 40
9.0
 40
9.0
 40
10.0
 40
10.0
 40
10.0
 40
11.0
 40
11.0
 40
11.0
 40
12.0
 40
12.0
 40
12.0
 40
13.0
 40
13.0
 40
13.0
 40
14.0
 40
14.0
 40
14.0
 40
15.0
 40
15.0
 40
15.0
 40
15.0
 10
171.7512543446268
 20
-119.165792185888
 10
173.8557776816804
 20
-118.6825435115715
 10
173.9490645740561
 20
-118.7505044143879
 10
173.9525168943865
 20
-120.7966776207531
 10
173.9560434581658
 20
-122.8725228522443
 10
173.9668830015704
 20
-124.9484608378011
 10
173.9491945000914
 20
-127.0241483873839
 10
173.9427910027034
 20
-127.7741020978095
 10
174.0600770896349
 20
-128.2778586957136
 10
175.0087413069508
 20
-128.2653832740827
 10
177.9412646975016
 20
-128.2268068587949
 10
180.8746047659817
 20
-128.2512939317362
 10
184.0060634753736
 20
-128.2512939317362
 10
184.0060634753736
 20
-125.1470658399974
 10
184.0060634753736
 20
-122.14081386624
 10
184.0060634753736
 20
-119.0469093018438
 10
184.8385366966122
 20
-119.0469093018438
 10
185.472000355564
 20
-119.0469093018438
 10
186.2293206465944
 20
-119.0469093018438
 10
186.2293206465944
 20
-125.9458731160206
 10
186.2293206465944
 20
-132.7862627386753
 10
186.2293206465944
 20
-139.7065970892367
 10
185.5023844866485
 20
-139.7065970892367
 10
184.8717420787182
 20
-139.7065970892367
 10
184.0473799541694
 20
-139.7065970892367
 10
184.0473799541694
 20
-137.0758506688584
 10
183.9944443757656
 20
-134.5083254186169
 10
184.0712121009677
 20
-131.9446958390702
 10
184.1060693997904
 20
-130.7805395796954
 10
183.8066084523983
 20
-130.3274916286717
 10
182.5599124740675
 20
-130.3756866404131
 10
180.1319661167883
 20
-130.4695537533511
 10
177.6971893622964
 20
-130.4359953329357
 10
175.2665702408914
 20
-130.3883197439531
 10
174.2755872582349
 20
-130.3688784921028
 10
173.9236176322652
 20
-130.7315005059686
 10
173.9401553603005
 20
-131.7154912711047
 10
173.9842002858085
 20
-134.3383257698086
 10
173.9551525367901
 20
-136.9623938975676
 10
173.9551525367901
 20
-139.68468857928
 10
173.1509660692282
 20
-139.68468857928
 10
172.5168342192454
 20
-139.68468857928
 10
171.7512543446268
 20
-139.68468857928
 10
171.7512543446268
 20
-132.8581564138126
 10
171.7512543446268
 20
-126.0111534263821
 10
171.7512543446268
 20
-119.165792185888
 97
        0
 97
        1
330
B0
 75
     2
 76
     1
 98
        1
 10
0.0
 20
0.0
450
        0
451
        0
460
0.0
461
0.0
452
        0
462
0.0
453
        0
470

  0
SPLINE
  5
B2
330
7D
100
AcDbEntity
  8
Layer 1
100
AcDbSpline
210
0.0
220
0.0
230
1.0
 70
     9
 71
     3
 72
    59
 73
    55
 74
     0
 42
0.0000000001
 43
0.0000000001
 40
0.0
 40
0.0
 40
0.0
 40
0.0
 40
1.0
 40
1.0
 40
1.0
 40
2.0
 40
2.0
 40
2.0
 40
3.0
 40
3.0
 40
3.0
 40
4.0
 40
4.0
 40
4.0
 40
5.0
 40
5.0
 40
5.0
 40
6.0
 40
6.0
 40
6.0
 40
7.0
 40
7.0
 40
7.0
 40
8.0
 40
8.0
 40
8.0
 40
9.0
 40
9.0
 40
9.0
 40
10.0
 40
10.0
 40
10.0
 40
11.0
 40
11.0
 40
11.0
 40
12.0
 40
12.0
 40
12.0
 40
13.0
 40
13.0
 40
13.0
 40
14.0
 40
14.0
 40
14.0
 40
15.0
 40
15.0
 40
15.0
 40
16.0
 40
16.0
 40
16.0
 40
17.0
 40
17.0
 40
17.0
 40
18.0
 40
18.0
 40
18.0
 40
18.0
 10
205.4920059530683
 20
-119.1651521828463
 30
0.0
 10
207.2225836035521
 20
-118.7523965972975
 30
0.0
 10
208.3092849515063
 20
-118.849788364674
 30
0.0
 10
209.1231416281674
 20
-120.4395837491109
 30
0.0
 10
210.2700915341494
 20
-122.6800952707213
 30
0.0
 10
211.7151660054619
 20
-124.7681654878702
 30
0.0
 10
213.1880075263138
 20
-127.1750778005976
 30
0.0
 10
214.6468541572247
 20
-124.7613944411866
 30
0.0
 10
216.0844486011519
 20
-122.5857736628674
 30
0.0
 10
217.3027278997732
 20
-120.2937094323943
 30
0.0
 10
218.0737275460927
 20
-118.8432028261177
 30
0.0
 10
219.0915495351921
 20
-118.7564313990886
 30
0.0
 10
220.6641928109791
 20
-119.1664321889309
 30
0.0
 10
219.9764943132842
 20
-120.2776629792928
 30
0.0
 10
219.3570997877229
 20
-121.2863170500907
 30
0.0
 10
218.7300210652961
 20
-122.2901757357709
 30
0.0
 10
217.5505896508257
 20
-124.1782496397599
 30
0.0
 10
216.3967722259042
 20
-126.0833902915569
 30
0.0
 10
215.1704375131783
 20
-127.9406420200235
 30
0.0
 10
214.6509561077252
 20
-128.7274190939243
 30
0.0
 10
214.6724124641878
 20
-129.3458753675791
 30
0.0
 10
215.1891468620677
 20
-130.134906365239
 30
0.0
 10
216.9628413949604
 20
-132.843399242203
 30
0.0
 10
218.6689001467543
 20
-135.5961821848083
 30
0.0
 10
220.3956356988063
 20
-138.3352931783542
 30
0.0
 10
220.6307090159441
 20
-138.7081737917166
 30
0.0
 10
220.8367531449272
 20
-139.0993269557202
 30
0.0
 10
221.1286412606253
 20
-139.6082499549984
 30
0.0
 10
219.4892160033878
 20
-140.0091979481793
 30
0.0
 10
218.3734854672756
 20
-139.8993585853912
 30
0.0
 10
217.5220244842186
 20
-138.2927839907456
 30
0.0
 10
216.2473944085871
 20
-135.8878195133659
 30
0.0
 10
214.7137289429836
 20
-133.6200104706715
 30
0.0
 10
213.1625605845222
 20
-131.0852274050807
 30
0.0
 10
212.7924013137998
 20
-131.5534777472217
 30
0.0
 10
212.4996965201722
 20
-131.8569319435539
 30
0.0
 10
212.2839636212302
 20
-132.2076628863936
 30
0.0
 10
211.0651831793352
 20
-134.189232887065
 30
0.0
 10
209.772716115329
 20
-136.1336085080042
 30
0.0
 10
208.6894485268435
 20
-138.1876287081983
 30
0.0
 10
207.9183560762127
 20
-139.649766674121
 30
0.0
 10
206.9167377196351
 20
-140.1282570649452
 30
0.0
 10
205.238019117557
 20
-139.6235172739605
 30
0.0
 10
205.4141988195929
 20
-139.2623886005285
 30
0.0
 10
205.5504169857576
 20
-138.9054060337646
 30
0.0
 10
205.749296622011
 20
-138.5876213345174
 30
0.0
 10
207.4935165060605
 20
-135.8009460568652
 30
0.0
 10
209.211862548493
 20
-132.9968237397432
 30
0.0
 10
211.0227530488198
 20
-130.2538634525353
 30
0.0
 10
211.5895089697701
 20
-129.3953596608124
 30
0.0
 10
211.5548929621524
 20
-128.7466655622387
 30
0.0
 10
211.0237924570913
 20
-127.9235474459973
 30
0.0
 10
209.1902391442709
 20
-125.0818597328868
 30
0.0
 10
207.4075611541712
 20
-122.2073927334995
 30
0.0
 10
205.4920059530683
 20
-119.1651521828463
 30
0.0
  0
HATCH
  5
B3
330
7D
100
AcDbEntity
  8
Layer 1
 62
    18
420
        0
440
 33554687
100
AcDbHatch
 10
0.0
 20
0.0
 30
0.0
210
0.0
220
0.0
230
1.0
  2
SOLID
 70
     1
 71
     1
 91
        1
 92
        1
 93
        1
 72
     4
 94
        3
 73
     0
 74
     0
 95
       59
 96
       55
 40
0.0
 40
0.0
 40
0.0
 40
0.0
 40
1.0
 40
1.0
 40
1.0
 40
2.0
 40
2.0
 40
2.0
 40
3.0
 40
3.0
 40
3.0
 40
4.0
 40
4.0
 40
4.0
 40
5.0
 40
5.0
 40
5.0
 40
6.0
 40
6.0
 40
6.0
 40
7.0
 40
7.0
 40
7.0
 40
8.0
 40
8.0
 40
8.0
 40
9.0
 40
9.0
 40
9.0
 40
10.0
 40
10.0
 40
10.0
 40
11.0
 40
11.0
 40
11.0
 40
12.0
 40
12.0
 40
12.0
 40
13.0
 40
13.0
 40
13.0
 40
14.0
 40
14.0
 40
14.0
 40
15.0
 40
15.0
 40
15.0
 40
16.0
 40
16.0
 40
16.0
 40
17.0
 40
17.0
 40
17.0
 40
18.0
 40
18.0
 40
18.0
 40
18.0
 10
205.4920059530683
 20
-119.1651521828463
 10
207.2225836035521
 20
-118.7523965972975
 10
208.3092849515063
 20
-118.849788364674
 10
209.1231416281674
 20
-120.4395837491109
 10
210.2700915341494
 20
-122.6800952707213
 10
211.7151660054619
 20
-124.7681654878702
 10
213.1880075263138
 20
-127.1750778005976
 10
214.6468541572247
 20
-124.7613944411866
 10
216.0844486011519
 20
-122.5857736628674
 10
217.3027278997732
 20
-120.2937094323943
 10
218.0737275460927
 20
-118.8432028261177
 10
219.0915495351921
 20
-118.7564313990886
 10
220.6641928109791
 20
-119.1664321889309
 10
219.9764943132842
 20
-120.2776629792928
 10
219.3570997877229
 20
-121.2863170500907
 10
218.7300210652961
 20
-122.2901757357709
 10
217.5505896508257
 20
-124.1782496397599
 10
216.3967722259042
 20
-126.0833902915569
 10
215.1704375131783
 20
-127.9406420200235
 10
214.6509561077252
 20
-128.7274190939243
 10
214.6724124641878
 20
-129.3458753675791
 10
215.1891468620677
 20
-130.134906365239
 10
216.9628413949604
 20
-132.843399242203
 10
218.6689001467543
 20
-135.5961821848083
 10
220.3956356988063
 20
-138.3352931783542
 10
220.6307090159441
 20
-138.7081737917166
 10
220.8367531449272
 20
-139.0993269557202
 10
221.1286412606253
 20
-139.6082499549984
 10
219.4892160033878
 20
-140.0091979481793
 10
218.3734854672756
 20
-139.8993585853912
 10
217.5220244842186
 20
-138.2927839907456
 10
216.2473944085871
 20
-135.8878195133659
 10
214.7137289429836
 20
-133.6200104706715
 10
213.1625605845222
 20
-131.0852274050807
 10
212.7924013137998
 20
-131.5534777472217
 10
212.4996965201722
 20
-131.8569319435539
 10
212.2839636212302
 20
-132.2076628863936
 10
211.0651831793352
 20
-134.189232887065
 10
209.772716115329
 20
-136.1336085080042
 10
208.6894485268435
 20
-138.1876287081983
 10
207.9183560762127
 20
-139.649766674121
 10
206.9167377196351
 20
-140.1282570649452
 10
205.238019117557
 20
-139.6235172739605
 10
205.4141988195929
 20
-139.2623886005285
 10
205.5504169857576
 20
-138.9054060337646
 10
205.749296622011
 20
-138.5876213345174
 10
207.4935165060605
 20
-135.8009460568652
 10
209.211862548493
 20
-132.9968237397432
 10
211.0227530488198
 20
-130.2538634525353
 10
211.5895089697701
 20
-129.3953596608124
 10
211.5548929621524
 20
-128.7466655622387
 10
211.0237924570913
 20
-127.9235474459973
 10
209.1902391442709
 20
-125.0818597328868
 10
207.4075611541712
 20
-122.2073927334995
 10
205.4920059530683
 20
-119.1651521828463
 97
        0
 97
        1
330
B2
 75
     2
 76
     1
 98
        1
 10
0.0
 20
0.0
450
        0
451
        0
460
0.0
461
0.0
452
        0
462
0.0
453
        0
470

  0
SPLINE
  5
B4
330
7D
100
AcDbEntity
  8
Layer 1
100
AcDbSpline
210
0.0
220
0.0
230
1.0
 70
     9
 71
     3
 72
    59
 73
    55
 74
     0
 42
0.0000000001
 43
0.0000000001
 40
0.0
 40
0.0
 40
0.0
 40
0.0
 40
1.0
 40
1.0
 40
1.0
 40
2.0
 40
2.0
 40
2.0
 40
3.0
 40
3.0
 40
3.0
 40
4.0
 40
4.0
 40
4.0
 40
5.0
 40
5.0
 40
5.0
 40
6.0
 40
6.0
 40
6.0
 40
7.0
 40
7.0
 40
7.0
 40
8.0
 40
8.0
 40
8.0
 40
9.0
 40
9.0
 40
9.0
 40
10.0
 40
10.0
 40
10.0
 40
11.0
 40
11.0
 40
11.0
 40
12.0
 40
12.0
 40
12.0
 40
13.0
 40
13.0
 40
13.0
 40
14.0
 40
14.0
 40
14.0
 40
15.0
 40
15.0
 40
15.0
 40
16.0
 40
16.0
 40
16.0
 40
17.0
 40
17.0
 40
17.0
 40
18.0
 40
18.0
 40
18.0
 40
18.0
 10
191.7182872420032
 20
-118.9698492253326
 30
0.0
 10
195.0728475125457
 20
-118.9698492253326
 30
0.0
 10
198.3993994423439
 20
-118.9467905649809
 30
0.0
 10
201.7239653599077
 20
-119.0174969880958
 30
0.0
 10
201.9668713608088
 20
-119.0226633894704
 30
0.0
 10
202.4326747533795
 20
-119.754168316533
 30
0.0
 10
202.3709598872535
 20
-120.0634660189089
 30
0.0
 10
202.2923546367143
 20
-120.4573090507734
 30
0.0
 10
201.8121480152363
 20
-121.0185638930556
 30
0.0
 10
201.4510464451658
 20
-121.0623345359374
 30
0.0
 10
200.3537282841528
 20
-121.1953624147675
 30
0.0
 10
199.2303877946245
 20
-121.1157608768983
 30
0.0
 10
198.1171815357436
 20
-121.1159556604328
 30
0.0
 10
193.8934903415241
 20
-121.1166976929454
 30
0.0
 10
193.8934903415241
 20
-121.1162524734382
 30
0.0
 10
193.8935274632482
 20
-125.4085766485131
 30
0.0
 10
193.8935460241112
 20
-126.261914038862
 30
0.0
 10
193.8935274632482
 20
-127.1152514292089
 30
0.0
 10
193.8935274632482
 20
-128.2535849571202
 30
0.0
 10
195.1883331958653
 20
-128.2535849571202
 30
0.0
 10
196.3745022032398
 20
-128.2535849571202
 30
0.0
 10
197.5606526497527
 20
-128.2535849571202
 30
0.0
 10
198.7667003403207
 20
-128.2535849571202
 30
0.0
 10
199.9727480308881
 20
-128.2535849571202
 30
0.0
 10
201.1388527464486
 20
-128.2535849571202
 30
0.0
 10
201.7109541956517
 20
-130.1963559327499
 30
0.0
 10
201.5715435612245
 20
-130.3945899186906
 30
0.0
 10
199.7325704767025
 20
-130.4015835751287
 30
0.0
 10
198.2145518177574
 20
-130.4073621533263
 30
0.0
 10
196.6950854115804
 20
-130.4434434842876
 30
0.0
 10
195.1789413996972
 20
-130.3903325071449
 30
0.0
 10
194.1820560629265
 20
-130.3554013265793
 30
0.0
 10
193.8402392284672
 20
-130.7459052121339
 30
0.0
 10
193.878159069517
 20
-131.7262878441733
 30
0.0
 10
193.9387231621999
 20
-133.2917538375799
 30
0.0
 10
193.9353450853177
 20
-134.8627015961781
 30
0.0
 10
193.8797367427882
 20
-136.4285200550282
 30
0.0
 10
193.8459559739609
 20
-137.3798521141693
 30
0.0
 10
194.2537566728042
 20
-137.6605722893746
 30
0.0
 10
195.1389241812409
 20
-137.6471322254765
 30
0.0
 10
197.3142757676601
 20
-137.6141117786331
 30
0.0
 10
199.490741005797
 20
-137.6576690871658
 30
0.0
 10
201.6662225182489
 20
-137.6290544583704
 30
0.0
 10
202.454465205359
 20
-137.6186845539963
 30
0.0
 10
202.8956197732046
 20
-137.8088674871668
 30
0.0
 10
202.903582382998
 20
-138.7127929441119
 30
0.0
 10
202.911544992794
 20
-139.6173213024738
 30
0.0
 10
202.4883387784955
 20
-139.8059274165549
 30
0.0
 10
201.6887368438467
 20
-139.7989708617416
 30
0.0
 10
198.4083272169631
 20
-139.770393334571
 30
0.0
 10
195.127509251117
 20
-139.7870334136834
 30
0.0
 10
191.7182872420032
 20
-139.7870334136834
 30
0.0
 10
191.7182872420032
 20
-132.829959178305
 30
0.0
 10
191.7182872420032
 20
-125.9891057853298
 30
0.0
 10
191.7182872420032
 20
-118.9698492253326
 30
0.0
  0
HATCH
  5
B5
330
7D
100
AcDbEntity
  8
Layer 1
 62
    18
420
        0
440
 33554687
100
AcDbHatch
 10
0.0
 20
0.0
 30
0.0
210
0.0
220
0.0
230
1.0
  2
SOLID
 70
     1
 71
     1
 91
        1
 92
        1
 93
        1
 72
     4
 94
        3
 73
     0
 74
     0
 95
       59
 96
       55
 40
0.0
 40
0.0
 40
0.0
 40
0.0
 40
1.0
 40
1.0
 40
1.0
 40
2.0
 40
2.0
 40
2.0
 40
3.0
 40
3.0
 40
3.0
 40
4.0
 40
4.0
 40
4.0
 40
5.0
 40
5.0
 40
5.0
 40
6.0
 40
6.0
 40
6.0
 40
7.0
 40
7.0
 40
7.0
 40
8.0
 40
8.0
 40
8.0
 40
9.0
 40
9.0
 40
9.0
 40
10.0
 40
10.0
 40
10.0
 40
11.0
 40
11.0
 40
11.0
 40
12.0
 40
12.0
 40
12.0
 40
13.0
 40
13.0
 40
13.0
 40
14.0
 40
14.0
 40
14.0
 40
15.0
 40
15.0
 40
15.0
 40
16.0
 40
16.0
 40
16.0
 40
17.0
 40
17.0
 40
17.0
 40
18.0
 40
18.0
 40
18.0
 40
18.0
 10
191.7182872420032
 20
-118.9698492253326
 10
195.0728475125457
 20
-118.9698492253326
 10
198.3993994423439
 20
-118.9467905649809
 10
201.7239653599077
 20
-119.0174969880958
 10
201.9668713608088
 20
-119.0226633894704
 10
202.4326747533795
 20
-119.754168316533
 10
202.3709598872535
 20
-120.0634660189089
 10
202.2923546367143
 20
-120.4573090507734
 10
201.8121480152363
 20
-121.0185638930556
 10
201.4510464451658
 20
-121.0623345359374
 10
200.3537282841528
 20
-121.1953624147675
 10
199.2303877946245
 20
-121.1157608768983
 10
198.1171815357436
 20
-121.1159556604328
 10
193.8934903415241
 20
-121.1166976929454
 10
193.8934903415241
 20
-121.1162524734382
 10
193.8935274632482
 20
-125.4085766485131
 10
193.8935460241112
 20
-126.261914038862
 10
193.8935274632482
 20
-127.1152514292089
 10
193.8935274632482
 20
-128.2535849571202
 10
195.1883331958653
 20
-128.2535849571202
 10
196.3745022032398
 20
-128.2535849571202
 10
197.5606526497527
 20
-128.2535849571202
 10
198.7667003403207
 20
-128.2535849571202
 10
199.9727480308881
 20
-128.2535849571202
 10
201.1388527464486
 20
-128.2535849571202
 10
201.7109541956517
 20
-130.1963559327499
 10
201.5715435612245
 20
-130.3945899186906
 10
199.7325704767025
 20
-130.4015835751287
 10
198.2145518177574
 20
-130.4073621533263
 10
196.6950854115804
 20
-130.4434434842876
 10
195.1789413996972
 20
-130.3903325071449
 10
194.1820560629265
 20
-130.3554013265793
 10
193.8402392284672
 20
-130.7459052121339
 10
193.878159069517
 20
-131.7262878441733
 10
193.9387231621999
 20
-133.2917538375799
 10
193.9353450853177
 20
-134.8627015961781
 10
193.8797367427882
 20
-136.4285200550282
 10
193.8459559739609
 20
-137.3798521141693
 10
194.2537566728042
 20
-137.6605722893746
 10
195.1389241812409
 20
-137.6471322254765
 10
197.3142757676601
 20
-137.6141117786331
 10
199.490741005797
 20
-137.6576690871658
 10
201.6662225182489
 20
-137.6290544583704
 10
202.454465205359
 20
-137.6186845539963
 10
202.8956197732046
 20
-137.8088674871668
 10
202.903582382998
 20
-138.7127929441119
 10
202.911544992794
 20
-139.6173213024738
 10
202.4883387784955
 20
-139.8059274165549
 10
201.6887368438467
 20
-139.7989708617416
 10
198.4083272169631
 20
-139.770393334571
 10
195.127509251117
 20
-139.7870334136834
 10
191.7182872420032
 20
-139.7870334136834
 10
191.7182872420032
 20
-132.829959178305
 10
191.7182872420032
 20
-125.9891057853298
 10
191.7182872420032
 20
-118.9698492253326
 97
        0
 97
        1
330
B4
 75
     2
 76
     1
 98
        1
 10
0.0
 20
0.0
450
        0
451
        0
460
0.0
461
0.0
452
        0
462
0.0
453
        0
470

  0
SPLINE
  5
B6
330
7D
100
AcDbEntity
  8
Layer 1
100
AcDbSpline
210
0.0
220
0.0
230
1.0
 70
     9
 71
     3
 72
    44
 73
    40
 74
     0
 42
0.0000000001
 43
0.0000000001
 40
0.0
 40
0.0
 40
0.0
 40
0.0
 40
1.0
 40
1.0
 40
1.0
 40
2.0
 40
2.0
 40
2.0
 40
3.0
 40
3.0
 40
3.0
 40
4.0
 40
4.0
 40
4.0
 40
5.0
 40
5.0
 40
5.0
 40
6.0
 40
6.0
 40
6.0
 40
7.0
 40
7.0
 40
7.0
 40
8.0
 40
8.0
 40
8.0
 40
9.0
 40
9.0
 40
9.0
 40
10.0
 40
10.0
 40
10.0
 40
11.0
 40
11.0
 40
11.0
 40
12.0
 40
12.0
 40
12.0
 40
13.0
 40
13.0
 40
13.0
 40
13.0
 10
237.2642296602744
 20
-136.3965384537028
 30
0.0
 10
237.2642296602744
 20
-134.9355970152079
 30
0.0
 10
237.2230059857872
 20
-133.4338901655109
 30
0.0
 10
237.2795238105568
 20
-131.935874927568
 30
0.0
 10
237.3140841355873
 20
-131.0208097075161
 30
0.0
 10
236.9956354263768
 20
-130.6453598065752
 30
0.0
 10
236.0661817012239
 20
-130.6887687086061
 30
0.0
 10
235.0064492857464
 20
-130.7382808280595
 30
0.0
 10
233.9381046303017
 20
-130.6366501999506
 30
0.0
 10
232.8815090004997
 20
-130.7122633130608
 30
0.0
 10
231.489667081385
 20
-130.8118440763517
 30
0.0
 10
231.1987441305082
 20
-130.1656728883239
 30
0.0
 10
231.5711492655328
 20
-128.761710271447
 30
0.0
 10
233.363980047141
 20
-128.761710271447
 30
0.0
 10
235.1998905894359
 20
-128.761710271447
 30
0.0
 10
237.2340496986734
 20
-128.761710271447
 30
0.0
 10
237.2340496986734
 20
-126.7148785112268
 30
0.0
 10
237.2340496986734
 20
-124.8759364350275
 30
0.0
 10
237.2340496986734
 20
-123.0840577709867
 30
0.0
 10
239.3425636210551
 20
-122.6563316794806
 30
0.0
 10
239.4138558919704
 20
-122.7118078852594
 30
0.0
 10
239.4183104988488
 20
-124.6213543551045
 30
0.0
 10
239.4212431150445
 20
-125.8781997508036
 30
0.0
 10
239.4188673247096
 20
-127.1350729727221
 30
0.0
 10
239.4188673247096
 20
-128.6092782423928
 30
0.0
 10
241.3592755200212
 20
-128.6092782423928
 30
0.0
 10
243.1957614490385
 20
-128.6092782423928
 30
0.0
 10
244.9759708444907
 20
-128.6092782423928
 30
0.0
 10
245.4468042306617
 20
-130.5611762179374
 30
0.0
 10
245.3660644809925
 20
-130.6563511631802
 30
0.0
 10
243.7116606081279
 20
-130.7033867491199
 30
0.0
 10
242.3600400769504
 20
-130.7418147579046
 30
0.0
 10
240.5286583849814
 20
-130.3339194853177
 30
0.0
 10
239.796339575056
 20
-131.0409744410663
 30
0.0
 10
239.0841593003927
 20
-131.7285881449652
 30
0.0
 10
239.4640630236612
 20
-133.5812021702232
 30
0.0
 10
239.4273867603637
 20
-134.9239656555611
 30
0.0
 10
239.3786273759093
 20
-136.7073294965106
 30
0.0
 10
239.3297380654189
 20
-136.7659871666917
 30
0.0
 10
237.2642296602744
 20
-136.3965384537028
 30
0.0
  0
HATCH
  5
B7
330
7D
100
AcDbEntity
  8
Layer 1
 62
    18
420
        0
440
 33554687
100
AcDbHatch
 10
0.0
 20
0.0
 30
0.0
210
0.0
220
0.0
230
1.0
  2
SOLID
 70
     1
 71
     1
 91
        1
 92
        1
 93
        1
 72
     4
 94
        3
 73
     0
 74
     0
 95
       44
 96
       40
 40
0.0
 40
0.0
 40
0.0
 40
0.0
 40
1.0
 40
1.0
 40
1.0
 40
2.0
 40
2.0
 40
2.0
 40
3.0
 40
3.0
 40
3.0
 40
4.0
 40
4.0
 40
4.0
 40
5.0
 40
5.0
 40
5.0
 40
6.0
 40
6.0
 40
6.0
 40
7.0
 40
7.0
 40
7.0
 40
8.0
 40
8.0
 40
8.0
 40
9.0
 40
9.0
 40
9.0
 40
10.0
 40
10.0
 40
10.0
 40
11.0
 40
11.0
 40
11.0
 40
12.0
 40
12.0
 40
12.0
 40
13.0
 40
13.0
 40
13.0
 40
13.0
 10
237.2642296602744
 20
-136.3965384537028
 10
237.2642296602744
 20
-134.9355970152079
 10
237.2230059857872
 20
-133.4338901655109
 10
237.2795238105568
 20
-131.935874927568
 10
237.3140841355873
 20
-131.0208097075161
 10
236.9956354263768
 20
-130.6453598065752
 10
236.0661817012239
 20
-130.6887687086061
 10
235.0064492857464
 20
-130.7382808280595
 10
233.9381046303017
 20
-130.6366501999506
 10
232.8815090004997
 20
-130.7122633130608
 10
231.489667081385
 20
-130.8118440763517
 10
231.1987441305082
 20
-130.1656728883239
 10
231.5711492655328
 20
-128.761710271447
 10
233.363980047141
 20
-128.761710271447
 10
235.1998905894359
 20
-128.761710271447
 10
237.2340496986734
 20
-128.761710271447
 10
237.2340496986734
 20
-126.7148785112268
 10
237.2340496986734
 20
-124.8759364350275
 10
237.2340496986734
 20
-123.0840577709867
 10
239.3425636210551
 20
-122.6563316794806
 10
239.4138558919704
 20
-122.7118078852594
 10
239.4183104988488
 20
-124.6213543551045
 10
239.4212431150445
 20
-125.8781997508036
 10
239.4188673247096
 20
-127.1350729727221
 10
239.4188673247096
 20
-128.6092782423928
 10
241.3592755200212
 20
-128.6092782423928
 10
243.1957614490385
 20
-128.6092782423928
 10
244.9759708444907
 20
-128.6092782423928
 10
245.4468042306617
 20
-130.5611762179374
 10
245.3660644809925
 20
-130.6563511631802
 10
243.7116606081279
 20
-130.7033867491199
 10
242.3600400769504
 20
-130.7418147579046
 10
240.5286583849814
 20
-130.3339194853177
 10
239.796339575056
 20
-131.0409744410663
 10
239.0841593003927
 20
-131.7285881449652
 10
239.4640630236612
 20
-133.5812021702232
 10
239.4273867603637
 20
-134.9239656555611
 10
239.3786273759093
 20
-136.7073294965106
 10
239.3297380654189
 20
-136.7659871666917
 10
237.2642296602744
 20
-136.3965384537028
 97
        0
 97
        1
330
B6
 75
     2
 76
     1
 98
        1
 10
0.0
 20
0.0
450
        0
451
        0
460
0.0
461
0.0
452
        0
462
0.0
453
        0
470

  0
ENDBLK
  5
80
330
7D
100
AcDbEntity
  8
0
100
AcDbBlockEnd
  0
ENDSEC
  0
SECTION
  2
ENTITIES
  0
INSERT
  5
7A
330
70
100
AcDbEntity
  8
Layer 1
100
AcDbBlockReference
  2
Block_0
 10
0.0
 20
0.0
 30
0.0
  0
ENDSEC
  0
SECTION
  2
OBJECTS
  0
DICTIONARY
  5
C
330
0
100
AcDbDictionary
281
     1
  3
ACAD_COLOR
350
63
  3
ACAD_DETAILVIEWSTYLE
350
6A
  3
ACAD_GROUP
350
D
  3
ACAD_LAYOUT
350
62
  3
ACAD_MATERIAL
350
10
  3
ACAD_MLEADERSTYLE
350
66
  3
ACAD_MLINESTYLE
350
5F
  3
ACAD_PLOTSETTINGS
350
61
  3
ACAD_PLOTSTYLENAME
350
E
  3
ACAD_SCALELIST
350
42
  3
ACAD_SECTIONVIEWSTYLE
350
68
  3
ACAD_TABLESTYLE
350
64
  3
ACAD_VISUALSTYLE
350
29
  3
ACDB_RECOMPOSE_DATA
350
C0
  3
AcDbVariableDictionary
350
B8
  0
DICTIONARY
  5
63
102
{ACAD_REACTORS
330
C
102
}
330
C
100
AcDbDictionary
281
     1
  0
DICTIONARY
  5
6A
102
{ACAD_REACTORS
330
C
102
}
330
C
100
AcDbDictionary
281
     1
  3
Imperial24
350
6B
  0
DICTIONARY
  5
D
102
{ACAD_REACTORS
330
C
102
}
330
C
100
AcDbDictionary
281
     1
  0
DICTIONARY
  5
62
102
{ACAD_REACTORS
330
C
102
}
330
C
100
AcDbDictionary
281
     1
  3
Layout1
350
6F
  3
Layout2
350
77
  3
Model
350
73
  0
DICTIONARY
  5
10
102
{ACAD_REACTORS
330
C
102
}
330
C
100
AcDbDictionary
281
     1
  3
ByBlock
350
19
  3
ByLayer
350
11
  3
Global
350
21
  0
DICTIONARY
  5
66
102
{ACAD_REACTORS
330
C
102
}
330
C
100
AcDbDictionary
281
     1
  3
Standard
350
67
  0
DICTIONARY
  5
5F
102
{ACAD_REACTORS
330
C
102
}
330
C
100
AcDbDictionary
281
     1
  3
Standard
350
60
  0
DICTIONARY
  5
61
102
{ACAD_REACTORS
330
C
102
}
330
C
100
AcDbDictionary
281
     1
  0
ACDBDICTIONARYWDFLT
  5
E
102
{ACAD_REACTORS
330
C
102
}
330
C
100
AcDbDictionary
281
     1
  3
Normal
350
F
100
AcDbDictionaryWithDefault
340
F
  0
DICTIONARY
  5
42
102
{ACAD_REACTORS
330
C
102
}
330
C
100
AcDbDictionary
281
     1
  3
A0
350
43
  3
A1
350
44
  3
A2
350
45
  3
A3
350
46
  3
A4
350
47
  3
A5
350
48
  3
A6
350
49
  3
A7
350
4A
  3
A8
350
4B
  3
A9
350
4C
  3
B0
350
4D
  3
B1
350
4E
  3
B2
350
4F
  3
B3
350
50
  3
B4
350
51
  3
B5
350
52
  3
B6
350
53
  0
DICTIONARY
  5
68
102
{ACAD_REACTORS
330
C
102
}
330
C
100
AcDbDictionary
281
     1
  3
Imperial24
350
69
  0
DICTIONARY
  5
64
102
{ACAD_REACTORS
330
C
102
}
330
C
100
AcDbDictionary
281
     1
  3
Standard
350
65
  0
DICTIONARY
  5
29
102
{ACAD_REACTORS
330
C
102
}
330
C
100
AcDbDictionary
281
     1
  3
2dWireframe
350
2F
  3
Basic
350
2E
  3
Brighten
350
35
  3
ColorChange
350
39
  3
Conceptual
350
32
  3
Dim
350
34
  3
EdgeColorOff
350
41
  3
Facepattern
350
38
  3
Flat
350
2A
  3
FlatWithEdges
350
2B
  3
Gouraud
350
2C
  3
GouraudWithEdges
350
2D
  3
Hidden
350
31
  3
JitterOff
350
3F
  3
Linepattern
350
37
  3
OverhangOff
350
40
  3
Realistic
350
33
  3
Shaded
350
3E
  3
Shaded with edges
350
3D
  3
Shades of Gray
350
3A
  3
Sketchy
350
3B
  3
Thicken
350
36
  3
Wireframe
350
30
  3
X-Ray
350
3C
  0
XRECORD
  5
C0
102
{ACAD_REACTORS
330
C
102
}
330
C
100
AcDbXrecord
280
     1
 90
        1
330
65
  0
DICTIONARY
  5
B8
102
{ACAD_REACTORS
330
C
102
}
330
C
100
AcDbDictionary
281
     1
  3
CANNOSCALE
350
BD
  3
CMLEADERSTYLE
350
BA
  3
CTABLESTYLE
350
B9
  3
CVIEWDETAILSTYLE
350
BB
  3
CVIEWSECTIONSTYLE
350
BC
  0
ACDBDETAILVIEWSTYLE
  5
6B
102
{ACAD_REACTORS
330
6A
102
}
330
6A
100
AcDbModelDocViewStyle
 70
     0
  3
Imperial24
290
     1
300
Imperial24
 90
        0
100
AcDbDetailViewStyle
 70
     0
 71
     0
 90
        3
 71
     1
340
55
 62
   256
 40
0.24
340
0
 62
   256
 40
0.24
300

 40
0.36
280
     3
 71
     2
340
5D
 90
       25
 62
   256
 71
     3
340
55
 62
   256
 40
0.24
 90
        1
 40
0.75
 90
        1
300
%<\AcVar ViewType \f "%tc1">% %<\AcVar ViewDetailId>%\PSCALE %<\AcVar ViewScale \f "%sn">%
 71
     4
340
5D
 90
       25
 62
   256
340
5D
 90
       25
 62
   256
280
     0
  0
LAYOUT
  5
6F
102
{ACAD_REACTORS
330
62
102
}
330
62
100
AcDbPlotSettings
  1

  2

  4

  6

 40
0.0
 41
0.0
 42
0.0
 43
0.0
 44
0.0
 45
0.0
 46
0.0
 47
0.0
 48
0.0
 49
0.0
140
0.0
141
0.0
142
1.0
143
1.0
 70
   688
 72
     0
 73
     0
 74
     5
  7

 75
    16
147
1.0
 76
     0
 77
     2
 78
   300
148
0.0
149
0.0
100
AcDbLayout
  1
Layout1
 70
     1
 71
     1
 10
0.0
 20
0.0
 11
12.0
 21
9.0
 12
0.0
 22
0.0
 32
0.0
 14
0.0
 24
0.0
 34
0.0
 15
0.0
 25
0.0
 35
0.0
146
0.0
 13
0.0
 23
0.0
 33
0.0
 16
1.0
 26
0.0
 36
0.0
 17
0.0
 27
1.0
 37
0.0
 76
     0
330
6C
  0
LAYOUT
  5
77
102
{ACAD_REACTORS
330
62
102
}
330
62
100
AcDbPlotSettings
  1

  2

  4

  6

 40
0.0
 41
0.0
 42
0.0
 43
0.0
 44
0.0
 45
0.0
 46
0.0
 47
0.0
 48
0.0
 49
0.0
140
0.0
141
0.0
142
1.0
143
1.0
 70
   688
 72
     0
 73
     0
 74
     5
  7

 75
    16
147
1.0
 76
     0
 77
     2
 78
   300
148
0.0
149
0.0
100
AcDbLayout
  1
Layout2
 70
     1
 71
     2
 10
0.0
 20
0.0
 11
12.0
 21
9.0
 12
0.0
 22
0.0
 32
0.0
 14
0.0
 24
0.0
 34
0.0
 15
0.0
 25
0.0
 35
0.0
146
0.0
 13
0.0
 23
0.0
 33
0.0
 16
1.0
 26
0.0
 36
0.0
 17
0.0
 27
1.0
 37
0.0
 76
     0
330
74
  0
LAYOUT
  5
73
102
{ACAD_REACTORS
330
62
102
}
330
62
100
AcDbPlotSettings
  1

  2

  4

  6

 40
0.0
 41
0.0
 42
0.0
 43
0.0
 44
0.0
 45
0.0
 46
0.0
 47
0.0
 48
0.0
 49
0.0
140
0.0
141
0.0
142
1.0
143
1.0
 70
  1712
 72
     0
 73
     0
 74
     0
  7

 75
     0
147
1.0
 76
     0
 77
     2
 78
   300
148
0.0
149
0.0
100
AcDbLayout
  1
Model
 70
     1
 71
     0
 10
0.0
 20
0.0
 11
12.0
 21
9.0
 12
0.0
 22
0.0
 32
0.0
 14
0.0
 24
0.0
 34
0.0
 15
0.0
 25
0.0
 35
0.0
146
0.0
 13
0.0
 23
0.0
 33
0.0
 16
1.0
 26
0.0
 36
0.0
 17
0.0
 27
1.0
 37
0.0
 76
     0
330
70
  0
MATERIAL
  5
19
102
{ACAD_XDICTIONARY
360
1A
102
}
102
{ACAD_REACTORS
330
10
102
}
330
10
100
AcDbMaterial
  1
ByBlock
 72
     0
 43
0.0208333333333333
 43
0.0
 43
0.0
 43
0.0
 43
0.0
 43
0.0208333333333333
 43
0.0
 43
0.0
 43
0.0
 43
0.0
 43
1.0
 43
0.0
 43
0.0
 43
0.0
 43
0.0
 43
1.0
 77
     0
 47
0.0208333333333333
 47
0.0
 47
0.0
 47
0.0
 47
0.0
 47
0.0208333333333333
 47
0.0
 47
0.0
 47
0.0
 47
0.0
 47
1.0
 47
0.0
 47
0.0
 47
0.0
 47
0.0
 47
1.0
171
     0
 49
0.0208333333333333
 49
0.0
 49
0.0
 49
0.0
 49
0.0
 49
0.0208333333333333
 49
0.0
 49
0.0
 49
0.0
 49
0.0
 49
1.0
 49
0.0
 49
0.0
 49
0.0
 49
0.0
 49
1.0
175
     0
142
0.0208333333333333
142
0.0
142
0.0
142
0.0
142
0.0
142
0.0208333333333333
142
0.0
142
0.0
142
0.0
142
0.0
142
1.0
142
0.0
142
0.0
142
0.0
142
0.0
142
1.0
179
     0
144
0.0208333333333333
144
0.0
144
0.0
144
0.0
144
0.0
144
0.0208333333333333
144
0.0
144
0.0
144
0.0
144
0.0
144
1.0
144
0.0
144
0.0
144
0.0
144
0.0
144
1.0
147
0.0208333333333333
147
0.0
147
0.0
147
0.0
147
0.0
147
0.0208333333333333
147
0.0
147
0.0
147
0.0
147
0.0
147
1.0
147
0.0
147
0.0
147
0.0
147
0.0
147
1.0
  0
MATERIAL
  5
11
102
{ACAD_XDICTIONARY
360
12
102
}
102
{ACAD_REACTORS
330
10
102
}
330
10
100
AcDbMaterial
  1
ByLayer
 72
     0
 43
0.0208333333333333
 43
0.0
 43
0.0
 43
0.0
 43
0.0
 43
0.0208333333333333
 43
0.0
 43
0.0
 43
0.0
 43
0.0
 43
1.0
 43
0.0
 43
0.0
 43
0.0
 43
0.0
 43
1.0
 77
     0
 47
0.0208333333333333
 47
0.0
 47
0.0
 47
0.0
 47
0.0
 47
0.0208333333333333
 47
0.0
 47
0.0
 47
0.0
 47
0.0
 47
1.0
 47
0.0
 47
0.0
 47
0.0
 47
0.0
 47
1.0
171
     0
 49
0.0208333333333333
 49
0.0
 49
0.0
 49
0.0
 49
0.0
 49
0.0208333333333333
 49
0.0
 49
0.0
 49
0.0
 49
0.0
 49
1.0
 49
0.0
 49
0.0
 49
0.0
 49
0.0
 49
1.0
175
     0
142
0.0208333333333333
142
0.0
142
0.0
142
0.0
142
0.0
142
0.0208333333333333
142
0.0
142
0.0
142
0.0
142
0.0
142
1.0
142
0.0
142
0.0
142
0.0
142
0.0
142
1.0
179
     0
144
0.0208333333333333
144
0.0
144
0.0
144
0.0
144
0.0
144
0.0208333333333333
144
0.0
144
0.0
144
0.0
144
0.0
144
1.0
144
0.0
144
0.0
144
0.0
144
0.0
144
1.0
147
0.0208333333333333
147
0.0
147
0.0
147
0.0
147
0.0
147
0.0208333333333333
147
0.0
147
0.0
147
0.0
147
0.0
147
1.0
147
0.0
147
0.0
147
0.0
147
0.0
147
1.0
  0
MATERIAL
  5
21
102
{ACAD_XDICTIONARY
360
22
102
}
102
{ACAD_REACTORS
330
10
102
}
330
10
100
AcDbMaterial
  1
Global
 72
     0
 43
0.0208333333333333
 43
0.0
 43
0.0
 43
0.0
 43
0.0
 43
0.0208333333333333
 43
0.0
 43
0.0
 43
0.0
 43
0.0
 43
1.0
 43
0.0
 43
0.0
 43
0.0
 43
0.0
 43
1.0
 77
     0
 47
0.0208333333333333
 47
0.0
 47
0.0
 47
0.0
 47
0.0
 47
0.0208333333333333
 47
0.0
 47
0.0
 47
0.0
 47
0.0
 47
1.0
 47
0.0
 47
0.0
 47
0.0
 47
0.0
 47
1.0
171
     0
 49
0.0208333333333333
 49
0.0
 49
0.0
 49
0.0
 49
0.0
 49
0.0208333333333333
 49
0.0
 49
0.0
 49
0.0
 49
0.0
 49
1.0
 49
0.0
 49
0.0
 49
0.0
 49
0.0
 49
1.0
175
     0
142
0.0208333333333333
142
0.0
142
0.0
142
0.0
142
0.0
142
0.0208333333333333
142
0.0
142
0.0
142
0.0
142
0.0
142
1.0
142
0.0
142
0.0
142
0.0
142
0.0
142
1.0
179
     0
144
0.0208333333333333
144
0.0
144
0.0
144
0.0
144
0.0
144
0.0208333333333333
144
0.0
144
0.0
144
0.0
144
0.0
144
1.0
144
0.0
144
0.0
144
0.0
144
0.0
144
1.0
147
0.0208333333333333
147
0.0
147
0.0
147
0.0
147
0.0
147
0.0208333333333333
147
0.0
147
0.0
147
0.0
147
0.0
147
1.0
147
0.0
147
0.0
147
0.0
147
0.0
147
1.0
  0
MLEADERSTYLE
  5
67
102
{ACAD_REACTORS
330
66
102
}
330
66
100
AcDbMLeaderStyle
179
     2
170
     2
171
     1
172
     0
 90
        2
 40
0.0
 41
0.0
173
     1
 91
-1056964608
340
5B
 92
       -2
290
     1
 42
0.09
291
     1
 43
0.36
  3
Standard
 44
0.18
300

342
55
174
     1
178
     6
175
     1
176
     0
 93
-1056964608
 45
0.18
292
     0
297
     0
 46
0.18
 94
-1056964608
 47
1.0
 49
1.0
140
1.0
293
     1
141
0.0
294
     1
177
     0
142
1.0
295
     1
296
     0
143
0.125
271
     0
272
     9
273
     9
298
     1
  0
MLINESTYLE
  5
60
102
{ACAD_REACTORS
330
5F
102
}
330
5F
100
AcDbMlineStyle
  2
STANDARD
 70
     0
  3

 62
   256
 51
90.0
 52
90.0
 71
     2
 49
0.5
 62
   256
  6
BYLAYER
 49
-0.5
 62
   256
  6
BYLAYER
  0
ACDBPLACEHOLDER
  5
F
102
{ACAD_REACTORS
330
E
102
}
330
E
  0
SCALE
  5
43
102
{ACAD_REACTORS
330
42
102
}
330
42
100
AcDbScale
 70
     0
300
1:1
140
1.0
141
1.0
290
     1
  0
SCALE
  5
44
102
{ACAD_REACTORS
330
42
102
}
330
42
100
AcDbScale
 70
     0
300
1/128" = 1'-0"
140
0.0078125
141
12.0
290
     0
  0
SCALE
  5
45
102
{ACAD_REACTORS
330
42
102
}
330
42
100
AcDbScale
 70
     0
300
1/64" = 1'-0"
140
0.015625
141
12.0
290
     0
  0
SCALE
  5
46
102
{ACAD_REACTORS
330
42
102
}
330
42
100
AcDbScale
 70
     0
300
1/32" = 1'-0"
140
0.03125
141
12.0
290
     0
  0
SCALE
  5
47
102
{ACAD_REACTORS
330
42
102
}
330
42
100
AcDbScale
 70
     0
300
1/16" = 1'-0"
140
0.0625
141
12.0
290
     0
  0
SCALE
  5
48
102
{ACAD_REACTORS
330
42
102
}
330
42
100
AcDbScale
 70
     0
300
3/32" = 1'-0"
140
0.09375
141
12.0
290
     0
  0
SCALE
  5
49
102
{ACAD_REACTORS
330
42
102
}
330
42
100
AcDbScale
 70
     0
300
1/8" = 1'-0"
140
0.125
141
12.0
290
     0
  0
SCALE
  5
4A
102
{ACAD_REACTORS
330
42
102
}
330
42
100
AcDbScale
 70
     0
300
3/16" = 1'-0"
140
0.1875
141
12.0
290
     0
  0
SCALE
  5
4B
102
{ACAD_REACTORS
330
42
102
}
330
42
100
AcDbScale
 70
     0
300
1/4" = 1'-0"
140
0.25
141
12.0
290
     0
  0
SCALE
  5
4C
102
{ACAD_REACTORS
330
42
102
}
330
42
100
AcDbScale
 70
     0
300
3/8" = 1'-0"
140
0.375
141
12.0
290
     0
  0
SCALE
  5
4D
102
{ACAD_REACTORS
330
42
102
}
330
42
100
AcDbScale
 70
     0
300
1/2" = 1'-0"
140
0.5
141
12.0
290
     0
  0
SCALE
  5
4E
102
{ACAD_REACTORS
330
42
102
}
330
42
100
AcDbScale
 70
     0
300
3/4" = 1'-0"
140
0.75
141
12.0
290
     0
  0
SCALE
  5
4F
102
{ACAD_REACTORS
330
42
102
}
330
42
100
AcDbScale
 70
     0
300
1" = 1'-0"
140
1.0
141
12.0
290
     0
  0
SCALE
  5
50
102
{ACAD_REACTORS
330
42
102
}
330
42
100
AcDbScale
 70
     0
300
1-1/2" = 1'-0"
140
1.5
141
12.0
290
     0
  0
SCALE
  5
51
102
{ACAD_REACTORS
330
42
102
}
330
42
100
AcDbScale
 70
     0
300
3" = 1'-0"
140
3.0
141
12.0
290
     0
  0
SCALE
  5
52
102
{ACAD_REACTORS
330
42
102
}
330
42
100
AcDbScale
 70
     0
300
6" = 1'-0"
140
6.0
141
12.0
290
     0
  0
SCALE
  5
53
102
{ACAD_REACTORS
330
42
102
}
330
42
100
AcDbScale
 70
     0
300
1'-0" = 1'-0"
140
12.0
141
12.0
290
     0
  0
ACDBSECTIONVIEWSTYLE
  5
69
102
{ACAD_REACTORS
330
68
102
}
330
68
100
AcDbModelDocViewStyle
 70
     0
  3
Imperial24
290
     1
300
Imperial24
 90
        0
100
AcDbSectionViewStyle
 70
     0
 71
     0
 90
       78
 71
     1
340
55
 62
   256
 40
0.24
340
0
340
0
 62
   256
 40
0.24
300
I, O, Q, S, X, Z
 40
0.48
 90
        3
 40
0.18
 90
        1
 71
     2
340
5D
 90
       25
 62
   256
340
5D
 90
       50
 62
   256
 40
0.24
 40
0.0
 40
0.24
 71
     3
340
55
 62
   256
 40
0.24
 90
        1
 40
0.75
 90
        1
300
%<\AcVar ViewType \f "%tc1">% %<\AcVar ViewSectionStartId>%-%<\AcVar ViewSectionEndId>%\PSCALE %<\AcVar ViewScale \f "%sn">%
 71
     4
 62
   256
 62
   257
300
ANSI31
 40
1.0
 90
        0
290
     0
290
     0
 90
        6
 40
0.0
 40
1.570796326794896
 40
0.2617993877991494
 40
1.308996938995747
 40
-0.2617993877991494
 40
1.832595714594046
  0
TABLESTYLE
  5
65
102
{ACAD_XDICTIONARY
360
BE
102
}
102
{ACAD_REACTORS
330
64
102
}
330
64
100
AcDbTableStyle
280
     0
  3
Standard
 70
     0
 71
     0
 40
0.06
 41
0.06
280
     0
281
     0
  7
Standard
140
0.18
170
     2
 62
     0
 63
     7
283
     0
 90
      512
 91
        0
  1

274
    -2
284
     1
 64
     0
275
    -2
285
     1
 65
     0
276
    -2
286
     1
 66
     0
277
    -2
287
     1
 67
     0
278
    -2
288
     1
 68
     0
279
    -2
289
     1
 69
     0
  7
Standard
140
0.25
170
     5
 62
     0
 63
     7
283
     0
 90
      512
 91
        0
  1

274
    -2
284
     1
 64
     0
275
    -2
285
     1
 65
     0
276
    -2
286
     1
 66
     0
277
    -2
287
     1
 67
     0
278
    -2
288
     1
 68
     0
279
    -2
289
     1
 69
     0
  7
Standard
140
0.18
170
     5
 62
     0
 63
     7
283
     0
 90
      512
 91
        0
  1

274
    -2
284
     1
 64
     0
275
    -2
285
     1
 65
     0
276
    -2
286
     1
 66
     0
277
    -2
287
     1
 67
     0
278
    -2
288
     1
 68
     0
279
    -2
289
     1
 69
     0
  0
VISUALSTYLE
  5
2F
102
{ACAD_REACTORS
330
29
102
}
330
29
100
AcDbVisualStyle
  2
2dWireframe
 70
     4
177
     3
291
     0
 70
    58
 90
        0
176
     1
 90
        2
176
     1
 90
        0
176
     1
 90
        0
176
     1
 40
0.6
176
     1
 40
30.0
176
     1
 62
     7
420
 16777215
176
     1
 90
        1
176
     1
 90
        4
176
     1
 62
     7
176
     1
 62
   257
176
     1
 90
        1
176
     1
 90
        1
176
     1
 40
1.0
176
     1
 90
        0
176
     1
 62
   257
176
     1
 40
1.0
176
     1
 90
        1
176
     1
 90
        6
176
     1
 90
        2
176
     1
 62
     7
176
     1
 90
        5
176
     1
 90
        0
176
     1
 90
        0
176
     1
290
     0
176
     1
 90
        1
176
     1
 40
0.0
176
     1
 90
        0
176
     1
290
     1
176
     1
290
     1
176
     1
290
     0
176
     1
290
     0
176
     1
290
     0
176
     1
290
     0
176
     1
290
     0
176
     1
290
     0
176
     1
290
     0
176
     1
 90
       50
176
     1
 40
0.0
176
     1
 40
1.0
176
     1
 90
        0
176
     1
 62
    18
420
        0
176
     1
 90
       50
176
     1
 90
        3
176
     1
 62
     5
420
      255
176
     1
290
     0
176
     1
 90
       50
176
     1
 90
       50
176
     1
 90
       50
176
     1
290
     0
176
     1
 90
       50
176
     1
 62
   256
176
     0
 40
1.0
176
     0
 90
        2
176
     1
  1
strokes_ogs.tif
176
     1
290
     0
176
     1
 40
1.0
176
     1
 40
1.0
176
     1
  0
VISUALSTYLE
  5
2E
102
{ACAD_REACTORS
330
29
102
}
330
29
100
AcDbVisualStyle
  2
Basic
 70
     7
177
     3
291
     1
 70
    58
 90
        1
176
     1
 90
        0
176
     1
 90
        1
176
     1
 90
        0
176
     1
 40
0.6
176
     1
 40
30.0
176
     1
 62
     7
420
 16777215
176
     1
 90
        0
176
     1
 90
        4
176
     1
 62
     7
176
     1
 62
   257
176
     1
 90
        1
176
     1
 90
        1
176
     1
 40
1.0
176
     1
 90
        8
176
     1
 62
     7
176
     1
 40
1.0
176
     1
 90
        1
176
     1
 90
        6
176
     1
 90
        2
176
     1
 62
     7
176
     1
 90
        5
176
     1
 90
        0
176
     1
 90
        0
176
     1
290
     0
176
     1
 90
        1
176
     1
 40
0.0
176
     1
 90
        0
176
     1
290
     0
176
     1
290
     1
176
     1
290
     1
176
     1
290
     0
176
     1
290
     0
176
     1
290
     0
176
     1
290
     0
176
     1
290
     0
176
     1
290
     0
176
     1
 90
       50
176
     1
 40
0.0
176
     1
 40
1.0
176
     1
 90
        0
176
     1
 62
    18
420
        0
176
     1
 90
       50
176
     1
 90
        3
176
     1
 62
     5
420
      255
176
     1
290
     0
176
     1
 90
       50
176
     1
 90
       50
176
     1
 90
       50
176
     1
290
     0
176
     1
 90
       50
176
     1
 62
   256
176
     0
 40
1.0
176
     0
 90
        2
176
     1
  1
strokes_ogs.tif
176
     1
290
     0
176
     1
 40
1.0
176
     1
 40
1.0
176
     1
  0
VISUALSTYLE
  5
35
102
{ACAD_REACTORS
330
29
102
}
330
29
100
AcDbVisualStyle
  2
Brighten
 70
    12
177
     3
291
     1
 70
    58
 90
        2
176
     1
 90
        2
176
     1
 90
        0
176
     1
 90
        0
176
     1
 40
0.6
176
     1
 40
30.0
176
     1
 62
     7
420
 16777215
176
     1
 90
        1
176
     1
 90
        4
176
     1
 62
     7
176
     1
 62
   257
176
     1
 90
        1
176
     1
 90
        1
176
     1
 40
1.0
176
     1
 90
        8
176
     1
 62
     7
176
     1
 40
1.0
176
     1
 90
        1
176
     1
 90
        6
176
     1
 90
        2
176
     1
 62
     7
176
     1
 90
        5
176
     1
 90
        0
176
     1
 90
        0
176
     1
290
     0
176
     1
 90
        1
176
     1
 40
50.0
176
     1
 90
        0
176
     1
290
     0
176
     1
290
     1
176
     1
290
     1
176
     1
290
     0
176
     1
290
     0
176
     1
290
     0
176
     1
290
     0
176
     1
290
     0
176
     1
290
     0
176
     1
 90
       50
176
     1
 40
0.0
176
     1
 40
1.0
176
     1
 90
        0
176
     1
 62
    18
420
        0
176
     1
 90
       50
176
     1
 90
        3
176
     1
 62
     5
420
      255
176
     1
290
     0
176
     1
 90
       50
176
     1
 90
       50
176
     1
 90
       50
176
     1
290
     0
176
     1
 90
       50
176
     1
 62
   256
176
     0
 40
1.0
176
     0
 90
        2
176
     1
  1
strokes_ogs.tif
176
     1
290
     0
176
     1
 40
1.0
176
     1
 40
1.0
176
     1
  0
VISUALSTYLE
  5
39
102
{ACAD_REACTORS
330
29
102
}
330
29
100
AcDbVisualStyle
  2
ColorChange
 70
    16
177
     3
291
     1
 70
    58
 90
        2
176
     1
 90
        2
176
     1
 90
        3
176
     1
 90
        0
176
     1
 40
0.6
176
     1
 40
30.0
176
     1
 62
     8
420
  8421504
176
     1
 90
        1
176
     1
 90
        4
176
     1
 62
     7
176
     1
 62
   257
176
     1
 90
        1
176
     1
 90
        1
176
     1
 40
1.0
176
     1
 90
        8
176
     1
 62
     8
420
  8421504
176
     1
 40
1.0
176
     1
 90
        1
176
     1
 90
        6
176
     1
 90
        2
176
     1
 62
     7
176
     1
 90
        5
176
     1
 90
        0
176
     1
 90
        0
176
     1
290
     0
176
     1
 90
        1
176
     1
 40
0.0
176
     1
 90
        0
176
     1
290
     0
176
     1
290
     1
176
     1
290
     1
176
     1
290
     0
176
     1
290
     0
176
     1
290
     0
176
     1
290
     0
176
     1
290
     0
176
     1
290
     0
176
     1
 90
       50
176
     1
 40
0.0
176
     1
 40
1.0
176
     1
 90
        0
176
     1
 62
    18
420
        0
176
     1
 90
       50
176
     1
 90
        3
176
     1
 62
     5
420
      255
176
     1
290
     0
176
     1
 90
       50
176
     1
 90
       50
176
     1
 90
       50
176
     1
290
     0
176
     1
 90
       50
176
     1
 62
   256
176
     0
 40
1.0
176
     0
 90
        2
176
     1
  1
strokes_ogs.tif
176
     1
290
     0
176
     1
 40
1.0
176
     1
 40
1.0
176
     1
  0
VISUALSTYLE
  5
32
102
{ACAD_REACTORS
330
29
102
}
330
29
100
AcDbVisualStyle
  2
Conceptual
 70
     9
177
     3
291
     0
 70
    58
 90
        3
176
     1
 90
        2
176
     1
 90
        0
176
     1
 90
        0
176
     1
 40
0.6
176
     1
 40
30.0
176
     1
 62
     7
420
 16777215
176
     1
 90
        2
176
     1
 90
        2
176
     1
 62
     7
176
     1
 62
   257
176
     1
 90
        1
176
     1
 90
        1
176
     1
 40
179.0
176
     1
 90
        8
176
     1
 62
     7
176
     1
 40
1.0
176
     1
 90
        1
176
     1
 90
        6
176
     1
 90
        2
176
     1
 62
     7
176
     1
 90
        3
176
     1
 90
        0
176
     1
 90
        0
176
     1
290
     0
176
     1
 90
        1
176
     1
 40
0.0
176
     1
 90
        0
176
     1
290
     0
176
     1
290
     1
176
     1
290
     1
176
     1
290
     0
176
     1
290
     0
176
     1
290
     0
176
     1
290
     0
176
     1
290
     0
176
     1
290
     0
176
     1
 90
       50
176
     1
 40
0.0
176
     1
 40
1.0
176
     1
 90
        0
176
     1
 62
    18
420
        0
176
     1
 90
       50
176
     1
 90
        3
176
     1
 62
     5
420
      255
176
     1
290
     0
176
     1
 90
       50
176
     1
 90
       50
176
     1
 90
       50
176
     1
290
     0
176
     1
 90
       50
176
     1
 62
   256
176
     0
 40
1.0
176
     0
 90
        2
176
     1
  1
strokes_ogs.tif
176
     1
290
     0
176
     1
 40
1.0
176
     1
 40
1.0
176
     1
  0
VISUALSTYLE
  5
34
102
{ACAD_REACTORS
330
29
102
}
330
29
100
AcDbVisualStyle
  2
Dim
 70
    11
177
     3
291
     1
 70
    58
 90
        2
176
     1
 90
        2
176
     1
 90
        0
176
     1
 90
        0
176
     1
 40
0.6
176
     1
 40
30.0
176
     1
 62
     7
420
 16777215
176
     1
 90
        1
176
     1
 90
        4
176
     1
 62
     7
176
     1
 62
   257
176
     1
 90
        1
176
     1
 90
        1
176
     1
 40
1.0
176
     1
 90
        8
176
     1
 62
     7
176
     1
 40
1.0
176
     1
 90
        1
176
     1
 90
        6
176
     1
 90
        2
176
     1
 62
     7
176
     1
 90
        5
176
     1
 90
        0
176
     1
 90
        0
176
     1
290
     0
176
     1
 90
        1
176
     1
 40
-50.0
176
     1
 90
        0
176
     1
290
     0
176
     1
290
     1
176
     1
290
     1
176
     1
290
     0
176
     1
290
     0
176
     1
290
     0
176
     1
290
     0
176
     1
290
     0
176
     1
290
     0
176
     1
 90
       50
176
     1
 40
0.0
176
     1
 40
1.0
176
     1
 90
        0
176
     1
 62
    18
420
        0
176
     1
 90
       50
176
     1
 90
        3
176
     1
 62
     5
420
      255
176
     1
290
     0
176
     1
 90
       50
176
     1
 90
       50
176
     1
 90
       50
176
     1
290
     0
176
     1
 90
       50
176
     1
 62
   256
176
     0
 40
1.0
176
     0
 90
        2
176
     1
  1
strokes_ogs.tif
176
     1
290
     0
176
     1
 40
1.0
176
     1
 40
1.0
176
     1
  0
VISUALSTYLE
  5
41
102
{ACAD_REACTORS
330
29
102
}
330
29
100
AcDbVisualStyle
  2
EdgeColorOff
 70
    22
177
     3
291
     1
 70
    58
 90
        2
176
     0
 90
        2
176
     0
 90
        0
176
     0
 90
        0
176
     0
 40
0.6
176
     0
 40
30.0
176
     0
 62
     7
420
 16777215
176
     0
 90
        1
176
     0
 90
        4
176
     0
 62
     7
176
     0
 62
   257
176
     0
 90
        1
176
     0
 90
        1
176
     0
 40
1.0
176
     0
 90
        8
176
     2
 62
     7
176
     0
 40
1.0
176
     0
 90
        1
176
     0
 90
        6
176
     0
 90
        2
176
     0
 62
     7
176
     0
 90
        5
176
     0
 90
        0
176
     0
 90
        0
176
     0
290
     0
176
     0
 90
        1
176
     0
 40
0.0
176
     0
 90
        0
176
     0
290
     0
176
     0
290
     1
176
     0
290
     1
176
     0
290
     0
176
     0
290
     0
176
     0
290
     0
176
     0
290
     0
176
     0
290
     0
176
     0
290
     0
176
     0
 90
       50
176
     0
 40
0.0
176
     0
 40
1.0
176
     0
 90
        0
176
     0
 62
    18
420
        0
176
     0
 90
       50
176
     0
 90
        3
176
     0
 62
     5
420
      255
176
     0
290
     0
176
     0
 90
       50
176
     0
 90
       50
176
     0
 90
       50
176
     0
290
     0
176
     0
 90
       50
176
     0
 62
   256
176
     0
 40
1.0
176
     0
 90
        2
176
     0
  1
strokes_ogs.tif
176
     0
290
     0
176
     0
 40
1.0
176
     0
 40
1.0
176
     0
  0
VISUALSTYLE
  5
38
102
{ACAD_REACTORS
330
29
102
}
330
29
100
AcDbVisualStyle
  2
Facepattern
 70
    15
177
     3
291
     1
 70
    58
 90
        2
176
     1
 90
        2
176
     1
 90
        0
176
     1
 90
        0
176
     1
 40
0.6
176
     1
 40
30.0
176
     1
 62
     7
420
 16777215
176
     1
 90
        1
176
     1
 90
        4
176
     1
 62
     7
176
     1
 62
   257
176
     1
 90
        1
176
     1
 90
        1
176
     1
 40
1.0
176
     1
 90
        8
176
     1
 62
     7
176
     1
 40
1.0
176
     1
 90
        1
176
     1
 90
        6
176
     1
 90
        2
176
     1
 62
     7
176
     1
 90
        5
176
     1
 90
        0
176
     1
 90
        0
176
     1
290
     0
176
     1
 90
        1
176
     1
 40
0.0
176
     1
 90
        0
176
     1
290
     0
176
     1
290
     1
176
     1
290
     1
176
     1
290
     0
176
     1
290
     0
176
     1
290
     0
176
     1
290
     0
176
     1
290
     0
176
     1
290
     0
176
     1
 90
       50
176
     1
 40
0.0
176
     1
 40
1.0
176
     1
 90
        0
176
     1
 62
    18
420
        0
176
     1
 90
       50
176
     1
 90
        3
176
     1
 62
     5
420
      255
176
     1
290
     0
176
     1
 90
       50
176
     1
 90
       50
176
     1
 90
       50
176
     1
290
     0
176
     1
 90
       50
176
     1
 62
   256
176
     0
 40
1.0
176
     0
 90
        2
176
     1
  1
strokes_ogs.tif
176
     1
290
     0
176
     1
 40
1.0
176
     1
 40
1.0
176
     1
  0
VISUALSTYLE
  5
2A
102
{ACAD_REACTORS
330
29
102
}
330
29
100
AcDbVisualStyle
  2
Flat
 70
     0
177
     3
291
     1
 70
    58
 90
        2
176
     1
 90
        1
176
     1
 90
        1
176
     1
 90
        2
176
     1
 40
0.6
176
     1
 40
30.0
176
     1
 62
     7
420
 16777215
176
     1
 90
        0
176
     1
 90
        0
176
     1
 62
     7
176
     1
 62
   257
176
     1
 90
        1
176
     1
 90
        1
176
     1
 40
1.0
176
     1
 90
        8
176
     1
 62
     7
176
     1
 40
1.0
176
     1
 90
        1
176
     1
 90
        6
176
     1
 90
        2
176
     1
 62
     7
176
     1
 90
        5
176
     1
 90
        0
176
     1
 90
        0
176
     1
290
     0
176
     1
 90
       13
176
     1
 40
0.0
176
     1
 90
        0
176
     1
290
     0
176
     1
290
     1
176
     1
290
     1
176
     1
290
     0
176
     1
290
     0
176
     1
290
     0
176
     1
290
     0
176
     1
290
     0
176
     1
290
     0
176
     1
 90
       50
176
     1
 40
0.0
176
     1
 40
1.0
176
     1
 90
        0
176
     1
 62
    18
420
        0
176
     1
 90
       50
176
     1
 90
        3
176
     1
 62
     5
420
      255
176
     1
290
     0
176
     1
 90
       50
176
     1
 90
       50
176
     1
 90
       50
176
     1
290
     0
176
     1
 90
       50
176
     1
 62
   256
176
     0
 40
1.0
176
     0
 90
        2
176
     1
  1
strokes_ogs.tif
176
     1
290
     0
176
     1
 40
1.0
176
     1
 40
1.0
176
     1
  0
VISUALSTYLE
  5
2B
102
{ACAD_REACTORS
330
29
102
}
330
29
100
AcDbVisualStyle
  2
FlatWithEdges
 70
     1
177
     3
291
     1
 70
    58
 90
        2
176
     1
 90
        1
176
     1
 90
        1
176
     1
 90
        2
176
     1
 40
0.6
176
     1
 40
30.0
176
     1
 62
     7
420
 16777215
176
     1
 90
        1
176
     1
 90
        0
176
     1
 62
     7
176
     1
 62
   257
176
     1
 90
        1
176
     1
 90
        1
176
     1
 40
1.0
176
     1
 90
        0
176
     1
 62
   257
176
     1
 40
1.0
176
     1
 90
        1
176
     1
 90
        6
176
     1
 90
        2
176
     1
 62
     7
176
     1
 90
        5
176
     1
 90
        0
176
     1
 90
        0
176
     1
290
     0
176
     1
 90
       13
176
     1
 40
0.0
176
     1
 90
        0
176
     1
290
     0
176
     1
290
     1
176
     1
290
     1
176
     1
290
     0
176
     1
290
     0
176
     1
290
     0
176
     1
290
     0
176
     1
290
     0
176
     1
290
     0
176
     1
 90
       50
176
     1
 40
0.0
176
     1
 40
1.0
176
     1
 90
        0
176
     1
 62
    18
420
        0
176
     1
 90
       50
176
     1
 90
        3
176
     1
 62
     5
420
      255
176
     1
290
     0
176
     1
 90
       50
176
     1
 90
       50
176
     1
 90
       50
176
     1
290
     0
176
     1
 90
       50
176
     1
 62
   256
176
     0
 40
1.0
176
     0
 90
        2
176
     1
  1
strokes_ogs.tif
176
     1
290
     0
176
     1
 40
1.0
176
     1
 40
1.0
176
     1
  0
VISUALSTYLE
  5
2C
102
{ACAD_REACTORS
330
29
102
}
330
29
100
AcDbVisualStyle
  2
Gouraud
 70
     2
177
     3
291
     1
 70
    58
 90
        2
176
     1
 90
        2
176
     1
 90
        1
176
     1
 90
        2
176
     1
 40
0.6
176
     1
 40
30.0
176
     1
 62
     7
420
 16777215
176
     1
 90
        0
176
     1
 90
        0
176
     1
 62
     7
176
     1
 62
   257
176
     1
 90
        1
176
     1
 90
        1
176
     1
 40
1.0
176
     1
 90
        0
176
     1
 62
     7
176
     1
 40
1.0
176
     1
 90
        1
176
     1
 90
        6
176
     1
 90
        2
176
     1
 62
     7
176
     1
 90
        5
176
     1
 90
        0
176
     1
 90
        0
176
     1
290
     0
176
     1
 90
       13
176
     1
 40
0.0
176
     1
 90
        0
176
     1
290
     0
176
     1
290
     1
176
     1
290
     1
176
     1
290
     0
176
     1
290
     0
176
     1
290
     0
176
     1
290
     0
176
     1
290
     0
176
     1
290
     0
176
     1
 90
       50
176
     1
 40
0.0
176
     1
 40
1.0
176
     1
 90
        0
176
     1
 62
    18
420
        0
176
     1
 90
       50
176
     1
 90
        3
176
     1
 62
     5
420
      255
176
     1
290
     0
176
     1
 90
       50
176
     1
 90
       50
176
     1
 90
       50
176
     1
290
     0
176
     1
 90
       50
176
     1
 62
   256
176
     0
 40
1.0
176
     0
 90
        2
176
     1
  1
strokes_ogs.tif
176
     1
290
     0
176
     1
 40
1.0
176
     1
 40
1.0
176
     1
  0
VISUALSTYLE
  5
2D
102
{ACAD_REACTORS
330
29
102
}
330
29
100
AcDbVisualStyle
  2
GouraudWithEdges
 70
     3
177
     3
291
     1
 70
    58
 90
        2
176
     1
 90
        2
176
     1
 90
        1
176
     1
 90
        2
176
     1
 40
0.6
176
     1
 40
30.0
176
     1
 62
     7
420
 16777215
176
     1
 90
        1
176
     1
 90
        0
176
     1
 62
     7
176
     1
 62
   257
176
     1
 90
        1
176
     1
 90
        1
176
     1
 40
1.0
176
     1
 90
        0
176
     1
 62
   257
176
     1
 40
1.0
176
     1
 90
        1
176
     1
 90
        6
176
     1
 90
        2
176
     1
 62
     7
176
     1
 90
        5
176
     1
 90
        0
176
     1
 90
        0
176
     1
290
     0
176
     1
 90
       13
176
     1
 40
0.0
176
     1
 90
        0
176
     1
290
     0
176
     1
290
     1
176
     1
290
     1
176
     1
290
     0
176
     1
290
     0
176
     1
290
     0
176
     1
290
     0
176
     1
290
     0
176
     1
290
     0
176
     1
 90
       50
176
     1
 40
0.0
176
     1
 40
1.0
176
     1
 90
        0
176
     1
 62
    18
420
        0
176
     1
 90
       50
176
     1
 90
        3
176
     1
 62
     5
420
      255
176
     1
290
     0
176
     1
 90
       50
176
     1
 90
       50
176
     1
 90
       50
176
     1
290
     0
176
     1
 90
       50
176
     1
 62
   256
176
     0
 40
1.0
176
     0
 90
        2
176
     1
  1
strokes_ogs.tif
176
     1
290
     0
176
     1
 40
1.0
176
     1
 40
1.0
176
     1
  0
VISUALSTYLE
  5
31
102
{ACAD_REACTORS
330
29
102
}
330
29
100
AcDbVisualStyle
  2
Hidden
 70
     6
177
     3
291
     0
 70
    58
 90
        1
176
     1
 90
        2
176
     1
 90
        2
176
     1
 90
        0
176
     1
 40
0.6
176
     1
 40
30.0
176
     1
 62
     7
420
 16777215
176
     1
 90
        2
176
     1
 90
        2
176
     1
 62
     7
176
     1
 62
   257
176
     1
 90
        2
176
     1
 90
        1
176
     1
 40
40.0
176
     1
 90
        0
176
     1
 62
   257
176
     1
 40
1.0
176
     1
 90
        1
176
     1
 90
        6
176
     1
 90
        2
176
     1
 62
     7
176
     1
 90
        3
176
     1
 90
        0
176
     1
 90
        0
176
     1
290
     0
176
     1
 90
        1
176
     1
 40
0.0
176
     1
 90
        0
176
     1
290
     0
176
     1
290
     1
176
     1
290
     1
176
     1
290
     0
176
     1
290
     0
176
     1
290
     0
176
     1
290
     0
176
     1
290
     0
176
     1
290
     0
176
     1
 90
       50
176
     1
 40
0.0
176
     1
 40
1.0
176
     1
 90
        0
176
     1
 62
    18
420
        0
176
     1
 90
       50
176
     1
 90
        3
176
     1
 62
     5
420
      255
176
     1
290
     0
176
     1
 90
       50
176
     1
 90
       50
176
     1
 90
       50
176
     1
290
     0
176
     1
 90
       50
176
     1
 62
   256
176
     0
 40
1.0
176
     0
 90
        2
176
     1
  1
strokes_ogs.tif
176
     1
290
     0
176
     1
 40
1.0
176
     1
 40
1.0
176
     1
  0
VISUALSTYLE
  5
3F
102
{ACAD_REACTORS
330
29
102
}
330
29
100
AcDbVisualStyle
  2
JitterOff
 70
    20
177
     3
291
     1
 70
    58
 90
        2
176
     0
 90
        2
176
     0
 90
        0
176
     0
 90
        0
176
     0
 40
0.6
176
     0
 40
30.0
176
     0
 62
     7
420
 16777215
176
     0
 90
        1
176
     0
 90
        4
176
     0
 62
     7
176
     0
 62
   257
176
     0
 90
        1
176
     0
 90
        1
176
     0
 40
1.0
176
     0
 90
       10
176
     2
 62
     7
176
     0
 40
1.0
176
     0
 90
        1
176
     0
 90
        6
176
     0
 90
        2
176
     0
 62
     7
176
     0
 90
        5
176
     0
 90
        0
176
     0
 90
        0
176
     0
290
     0
176
     0
 90
        1
176
     0
 40
0.0
176
     0
 90
        0
176
     0
290
     0
176
     0
290
     1
176
     0
290
     1
176
     0
290
     0
176
     0
290
     0
176
     0
290
     0
176
     0
290
     0
176
     0
290
     0
176
     0
290
     0
176
     0
 90
       50
176
     0
 40
0.0
176
     0
 40
1.0
176
     0
 90
        0
176
     0
 62
    18
420
        0
176
     0
 90
       50
176
     0
 90
        3
176
     0
 62
     5
420
      255
176
     0
290
     0
176
     0
 90
       50
176
     0
 90
       50
176
     0
 90
       50
176
     0
290
     0
176
     0
 90
       50
176
     0
 62
   256
176
     0
 40
1.0
176
     0
 90
        2
176
     0
  1
strokes_ogs.tif
176
     0
290
     0
176
     0
 40
1.0
176
     0
 40
1.0
176
     0
  0
VISUALSTYLE
  5
37
102
{ACAD_REACTORS
330
29
102
}
330
29
100
AcDbVisualStyle
  2
Linepattern
 70
    14
177
     3
291
     1
 70
    58
 90
        2
176
     1
 90
        2
176
     1
 90
        0
176
     1
 90
        0
176
     1
 40
0.6
176
     1
 40
30.0
176
     1
 62
     7
420
 16777215
176
     1
 90
        1
176
     1
 90
        4
176
     1
 62
     7
176
     1
 62
   257
176
     1
 90
        7
176
     1
 90
        7
176
     1
 40
1.0
176
     1
 90
        8
176
     1
 62
     7
176
     1
 40
1.0
176
     1
 90
        1
176
     1
 90
        6
176
     1
 90
        2
176
     1
 62
     7
176
     1
 90
        5
176
     1
 90
        0
176
     1
 90
        0
176
     1
290
     0
176
     1
 90
        1
176
     1
 40
0.0
176
     1
 90
        0
176
     1
290
     0
176
     1
290
     1
176
     1
290
     1
176
     1
290
     0
176
     1
290
     0
176
     1
290
     0
176
     1
290
     0
176
     1
290
     0
176
     1
290
     0
176
     1
 90
       50
176
     1
 40
0.0
176
     1
 40
1.0
176
     1
 90
        0
176
     1
 62
    18
420
        0
176
     1
 90
       50
176
     1
 90
        3
176
     1
 62
     5
420
      255
176
     1
290
     0
176
     1
 90
       50
176
     1
 90
       50
176
     1
 90
       50
176
     1
290
     0
176
     1
 90
       50
176
     1
 62
   256
176
     0
 40
1.0
176
     0
 90
        2
176
     1
  1
strokes_ogs.tif
176
     1
290
     0
176
     1
 40
1.0
176
     1
 40
1.0
176
     1
  0
VISUALSTYLE
  5
40
102
{ACAD_REACTORS
330
29
102
}
330
29
100
AcDbVisualStyle
  2
OverhangOff
 70
    21
177
     3
291
     1
 70
    58
 90
        2
176
     0
 90
        2
176
     0
 90
        0
176
     0
 90
        0
176
     0
 40
0.6
176
     0
 40
30.0
176
     0
 62
     7
420
 16777215
176
     0
 90
        1
176
     0
 90
        4
176
     0
 62
     7
176
     0
 62
   257
176
     0
 90
        1
176
     0
 90
        1
176
     0
 40
1.0
176
     0
 90
        9
176
     2
 62
     7
176
     0
 40
1.0
176
     0
 90
        1
176
     0
 90
        6
176
     0
 90
        2
176
     0
 62
     7
176
     0
 90
        5
176
     0
 90
        0
176
     0
 90
        0
176
     0
290
     0
176
     0
 90
        1
176
     0
 40
0.0
176
     0
 90
        0
176
     0
290
     0
176
     0
290
     1
176
     0
290
     1
176
     0
290
     0
176
     0
290
     0
176
     0
290
     0
176
     0
290
     0
176
     0
290
     0
176
     0
290
     0
176
     0
 90
       50
176
     0
 40
0.0
176
     0
 40
1.0
176
     0
 90
        0
176
     0
 62
    18
420
        0
176
     0
 90
       50
176
     0
 90
        3
176
     0
 62
     5
420
      255
176
     0
290
     0
176
     0
 90
       50
176
     0
 90
       50
176
     0
 90
       50
176
     0
290
     0
176
     0
 90
       50
176
     0
 62
   256
176
     0
 40
1.0
176
     0
 90
        2
176
     0
  1
strokes_ogs.tif
176
     0
290
     0
176
     0
 40
1.0
176
     0
 40
1.0
176
     0
  0
VISUALSTYLE
  5
33
102
{ACAD_REACTORS
330
29
102
}
330
29
100
AcDbVisualStyle
  2
Realistic
 70
     8
177
     3
291
     0
 70
    58
 90
        2
176
     1
 90
        3
176
     1
 90
        0
176
     1
 90
        2
176
     1
 40
0.6
176
     1
 40
30.0
176
     1
 62
     7
420
 16777215
176
     1
 90
        0
176
     1
 90
        0
176
     1
 62
     7
176
     1
 62
   257
176
     1
 90
        1
176
     1
 90
        1
176
     1
 40
1.0
176
     1
 90
        8
176
     1
 62
   257
176
     1
 40
1.0
176
     1
 90
        1
176
     1
 90
        6
176
     1
 90
        2
176
     1
 62
     7
176
     1
 90
        3
176
     1
 90
        0
176
     1
 90
        0
176
     1
290
     0
176
     1
 90
       13
176
     1
 40
0.0
176
     1
 90
        0
176
     1
290
     0
176
     1
290
     1
176
     1
290
     1
176
     1
290
     0
176
     1
290
     0
176
     1
290
     0
176
     1
290
     0
176
     1
290
     0
176
     1
290
     0
176
     1
 90
       50
176
     1
 40
0.0
176
     1
 40
1.0
176
     1
 90
        0
176
     1
 62
    18
420
        0
176
     1
 90
       50
176
     1
 90
        3
176
     1
 62
     5
420
      255
176
     1
290
     0
176
     1
 90
       50
176
     1
 90
       50
176
     1
 90
       50
176
     1
290
     0
176
     1
 90
       50
176
     1
 62
   256
176
     0
 40
1.0
176
     0
 90
        2
176
     1
  1
strokes_ogs.tif
176
     1
290
     0
176
     1
 40
1.0
176
     1
 40
1.0
176
     1
  0
VISUALSTYLE
  5
3E
102
{ACAD_REACTORS
330
29
102
}
330
29
100
AcDbVisualStyle
  2
Shaded
 70
    27
177
     3
291
     0
 70
    58
 90
        2
176
     1
 90
        2
176
     1
 90
        1
176
     1
 90
        2
176
     1
 40
0.6
176
     1
 40
30.0
176
     1
 62
     7
420
 16777215
176
     1
 90
        0
176
     1
 90
        4
176
     1
 62
     7
176
     1
 62
   257
176
     1
 90
        1
176
     1
 90
        1
176
     1
 40
1.0
176
     1
 90
        8
176
     1
 62
   257
176
     1
 40
1.0
176
     1
 90
        1
176
     1
 90
        6
176
     1
 90
        2
176
     1
 62
     8
420
  7895160
176
     1
 90
        3
176
     1
 90
        0
176
     1
 90
        0
176
     1
290
     0
176
     1
 90
        5
176
     1
 40
0.0
176
     1
 90
        0
176
     1
290
     0
176
     1
290
     1
176
     1
290
     1
176
     1
290
     0
176
     1
290
     0
176
     1
290
     0
176
     1
290
     0
176
     1
290
     0
176
     1
290
     0
176
     1
 90
       50
176
     1
 40
0.0
176
     1
 40
1.0
176
     1
 90
        0
176
     1
 62
    18
420
        0
176
     1
 90
       50
176
     1
 90
        3
176
     1
 62
     5
420
      255
176
     1
290
     0
176
     1
 90
       50
176
     1
 90
       50
176
     1
 90
       50
176
     1
290
     0
176
     1
 90
       50
176
     1
 62
   256
176
     0
 40
1.0
176
     0
 90
        2
176
     1
  1
strokes_ogs.tif
176
     1
290
     0
176
     1
 40
1.0
176
     1
 40
1.0
176
     1
  0
VISUALSTYLE
  5
3D
102
{ACAD_REACTORS
330
29
102
}
330
29
100
AcDbVisualStyle
  2
Shaded with edges
 70
    26
177
     3
291
     0
 70
    58
 90
        2
176
     1
 90
        2
176
     1
 90
        1
176
     1
 90
        2
176
     1
 40
0.6
176
     1
 40
30.0
176
     1
 62
     7
420
 16777215
176
     1
 90
        1
176
     1
 90
        2
176
     1
 62
     7
176
     1
 62
   257
176
     1
 90
        2
176
     1
 90
        1
176
     1
 40
1.0
176
     1
 90
        8
176
     1
 62
   257
176
     1
 40
1.0
176
     1
 90
        1
176
     1
 90
        6
176
     1
 90
        2
176
     1
 62
     7
176
     1
 90
        3
176
     1
 90
        0
176
     1
 90
        0
176
     1
290
     0
176
     1
 90
        5
176
     1
 40
0.0
176
     1
 90
        0
176
     1
290
     0
176
     1
290
     1
176
     1
290
     1
176
     1
290
     0
176
     1
290
     0
176
     1
290
     0
176
     1
290
     0
176
     1
290
     0
176
     1
290
     0
176
     1
 90
       50
176
     1
 40
0.0
176
     1
 40
1.0
176
     1
 90
        0
176
     1
 62
    18
420
        0
176
     1
 90
       50
176
     1
 90
        3
176
     1
 62
     5
420
      255
176
     1
290
     0
176
     1
 90
       50
176
     1
 90
       50
176
     1
 90
       50
176
     1
290
     0
176
     1
 90
       50
176
     1
 62
   256
176
     0
 40
1.0
176
     0
 90
        2
176
     1
  1
strokes_ogs.tif
176
     1
290
     0
176
     1
 40
1.0
176
     1
 40
1.0
176
     1
  0
VISUALSTYLE
  5
3A
102
{ACAD_REACTORS
330
29
102
}
330
29
100
AcDbVisualStyle
  2
Shades of Gray
 70
    23
177
     3
291
     0
 70
    58
 90
        2
176
     1
 90
        2
176
     1
 90
        3
176
     1
 90
        0
176
     1
 40
0.6
176
     1
 40
30.0
176
     1
 62
     7
420
 16777215
176
     1
 90
        2
176
     1
 90
        2
176
     1
 62
     7
176
     1
 62
     7
176
     1
 90
        1
176
     1
 90
        1
176
     1
 40
40.0
176
     1
 90
        8
176
     1
 62
     7
176
     1
 40
1.0
176
     1
 90
        1
176
     1
 90
        6
176
     1
 90
        2
176
     1
 62
     7
176
     1
 90
        3
176
     1
 90
        0
176
     1
 90
        0
176
     1
290
     0
176
     1
 90
        1
176
     1
 40
0.0
176
     1
 90
        0
176
     1
290
     0
176
     1
290
     1
176
     1
290
     1
176
     1
290
     0
176
     1
290
     0
176
     1
290
     0
176
     1
290
     0
176
     1
290
     0
176
     1
290
     0
176
     1
 90
       50
176
     1
 40
0.0
176
     1
 40
1.0
176
     1
 90
        0
176
     1
 62
    18
420
        0
176
     1
 90
       50
176
     1
 90
        3
176
     1
 62
     5
420
      255
176
     1
290
     0
176
     1
 90
       50
176
     1
 90
       50
176
     1
 90
       50
176
     1
290
     0
176
     1
 90
       50
176
     1
 62
   256
176
     0
 40
1.0
176
     0
 90
        2
176
     1
  1
strokes_ogs.tif
176
     1
290
     0
176
     1
 40
1.0
176
     1
 40
1.0
176
     1
  0
VISUALSTYLE
  5
3B
102
{ACAD_REACTORS
330
29
102
}
330
29
100
AcDbVisualStyle
  2
Sketchy
 70
    24
177
     3
291
     0
 70
    58
 90
        1
176
     1
 90
        2
176
     1
 90
        2
176
     1
 90
        0
176
     1
 40
0.6
176
     1
 40
30.0
176
     1
 62
     7
420
 16777215
176
     1
 90
        2
176
     1
 90
        2
176
     1
 62
     7
176
     1
 62
     7
176
     1
 90
        1
176
     1
 90
        1
176
     1
 40
40.0
176
     1
 90
       11
176
     1
 62
     7
176
     1
 40
1.0
176
     1
 90
        1
176
     1
 90
        6
176
     1
 90
        2
176
     1
 62
     7
176
     1
 90
        6
176
     1
 90
        0
176
     1
 90
        0
176
     1
290
     0
176
     1
 90
        1
176
     1
 40
0.0
176
     1
 90
        0
176
     1
290
     0
176
     1
290
     1
176
     1
290
     1
176
     1
290
     0
176
     1
290
     0
176
     1
290
     0
176
     1
290
     0
176
     1
290
     0
176
     1
290
     0
176
     1
 90
       50
176
     1
 40
0.0
176
     1
 40
1.0
176
     1
 90
        0
176
     1
 62
    18
420
        0
176
     1
 90
       50
176
     1
 90
        3
176
     1
 62
     5
420
      255
176
     1
290
     0
176
     1
 90
       50
176
     1
 90
       50
176
     1
 90
       50
176
     1
290
     0
176
     1
 90
       50
176
     1
 62
   256
176
     0
 40
1.0
176
     0
 90
        2
176
     1
  1
strokes_ogs.tif
176
     1
290
     0
176
     1
 40
1.0
176
     1
 40
1.0
176
     1
  0
VISUALSTYLE
  5
36
102
{ACAD_REACTORS
330
29
102
}
330
29
100
AcDbVisualStyle
  2
Thicken
 70
    13
177
     3
291
     1
 70
    58
 90
        2
176
     1
 90
        2
176
     1
 90
        0
176
     1
 90
        0
176
     1
 40
0.6
176
     1
 40
30.0
176
     1
 62
     7
420
 16777215
176
     1
 90
        1
176
     1
 90
        4
176
     1
 62
     7
176
     1
 62
   257
176
     1
 90
        1
176
     1
 90
        1
176
     1
 40
1.0
176
     1
 90
       12
176
     1
 62
     7
176
     1
 40
1.0
176
     1
 90
        1
176
     1
 90
        6
176
     1
 90
        2
176
     1
 62
     7
176
     1
 90
        5
176
     1
 90
        0
176
     1
 90
        0
176
     1
290
     0
176
     1
 90
        1
176
     1
 40
0.0
176
     1
 90
        0
176
     1
290
     0
176
     1
290
     1
176
     1
290
     1
176
     1
290
     0
176
     1
290
     0
176
     1
290
     0
176
     1
290
     0
176
     1
290
     0
176
     1
290
     0
176
     1
 90
       50
176
     1
 40
0.0
176
     1
 40
1.0
176
     1
 90
        0
176
     1
 62
    18
420
        0
176
     1
 90
       50
176
     1
 90
        3
176
     1
 62
     5
420
      255
176
     1
290
     0
176
     1
 90
       50
176
     1
 90
       50
176
     1
 90
       50
176
     1
290
     0
176
     1
 90
       50
176
     1
 62
   256
176
     0
 40
1.0
176
     0
 90
        2
176
     1
  1
strokes_ogs.tif
176
     1
290
     0
176
     1
 40
1.0
176
     1
 40
1.0
176
     1
  0
VISUALSTYLE
  5
30
102
{ACAD_REACTORS
330
29
102
}
330
29
100
AcDbVisualStyle
  2
Wireframe
 70
     5
177
     3
291
     0
 70
    58
 90
        0
176
     1
 90
        2
176
     1
 90
        0
176
     1
 90
        0
176
     1
 40
0.6
176
     1
 40
30.0
176
     1
 62
     7
420
 16777215
176
     1
 90
        1
176
     1
 90
        4
176
     1
 62
     7
176
     1
 62
   257
176
     1
 90
        1
176
     1
 90
        1
176
     1
 40
1.0
176
     1
 90
        0
176
     1
 62
   257
176
     1
 40
1.0
176
     1
 90
        1
176
     1
 90
        6
176
     1
 90
        2
176
     1
 62
     7
176
     1
 90
        3
176
     1
 90
        0
176
     1
 90
        0
176
     1
290
     0
176
     1
 90
        1
176
     1
 40
0.0
176
     1
 90
        0
176
     1
290
     0
176
     1
290
     1
176
     1
290
     1
176
     1
290
     0
176
     1
290
     0
176
     1
290
     0
176
     1
290
     0
176
     1
290
     0
176
     1
290
     0
176
     1
 90
       50
176
     1
 40
0.0
176
     1
 40
1.0
176
     1
 90
        0
176
     1
 62
    18
420
        0
176
     1
 90
       50
176
     1
 90
        3
176
     1
 62
     5
420
      255
176
     1
290
     0
176
     1
 90
       50
176
     1
 90
       50
176
     1
 90
       50
176
     1
290
     0
176
     1
 90
       50
176
     1
 62
   256
176
     0
 40
1.0
176
     0
 90
        2
176
     1
  1
strokes_ogs.tif
176
     1
290
     0
176
     1
 40
1.0
176
     1
 40
1.0
176
     1
  0
VISUALSTYLE
  5
3C
102
{ACAD_REACTORS
330
29
102
}
330
29
100
AcDbVisualStyle
  2
X-Ray
 70
    25
177
     3
291
     0
 70
    58
 90
        2
176
     1
 90
        2
176
     1
 90
        1
176
     1
 90
        1
176
     1
 40
0.5
176
     1
 40
30.0
176
     1
 62
     7
420
 16777215
176
     1
 90
        1
176
     1
 90
        0
176
     1
 62
     7
176
     1
 62
   257
176
     1
 90
        1
176
     1
 90
        1
176
     1
 40
1.0
176
     1
 90
        8
176
     1
 62
     7
176
     1
 40
1.0
176
     1
 90
        1
176
     1
 90
        6
176
     1
 90
        2
176
     1
 62
     7
176
     1
 90
        3
176
     1
 90
        0
176
     1
 90
        0
176
     1
290
     0
176
     1
 90
       13
176
     1
 40
0.0
176
     1
 90
        0
176
     1
290
     0
176
     1
290
     1
176
     1
290
     1
176
     1
290
     0
176
     1
290
     0
176
     1
290
     0
176
     1
290
     0
176
     1
290
     0
176
     1
290
     0
176
     1
 90
       50
176
     1
 40
0.0
176
     1
 40
1.0
176
     1
 90
        0
176
     1
 62
    18
420
        0
176
     1
 90
       50
176
     1
 90
        3
176
     1
 62
     5
420
      255
176
     1
290
     0
176
     1
 90
       50
176
     1
 90
       50
176
     1
 90
       50
176
     1
290
     0
176
     1
 90
       50
176
     1
 62
   256
176
     0
 40
1.0
176
     0
 90
        2
176
     1
  1
strokes_ogs.tif
176
     1
290
     0
176
     1
 40
1.0
176
     1
 40
1.0
176
     1
  0
DICTIONARYVAR
  5
BD
102
{ACAD_REACTORS
330
B8
102
}
330
B8
100
DictionaryVariables
280
     0
  1
1:1
  0
DICTIONARYVAR
  5
BA
102
{ACAD_REACTORS
330
B8
102
}
330
B8
100
DictionaryVariables
280
     0
  1
STANDARD
  0
DICTIONARYVAR
  5
B9
102
{ACAD_REACTORS
330
B8
102
}
330
B8
100
DictionaryVariables
280
     0
  1
STANDARD
  0
DICTIONARYVAR
  5
BB
102
{ACAD_REACTORS
330
B8
102
}
330
B8
100
DictionaryVariables
280
     0
  1
Imperial24
  0
DICTIONARYVAR
  5
BC
102
{ACAD_REACTORS
330
B8
102
}
330
B8
100
DictionaryVariables
280
     0
  1
Imperial24
  0
DICTIONARY
  5
1A
330
19
100
AcDbDictionary
280
     1
281
     1
  3
BUMPTILE
360
1C
  3
DIFFUSETILE
360
1B
  3
OPACITYTILE
360
1F
  3
REFLECTIONTILE
360
1E
  3
REFRACTIONTILE
360
20
  3
SPECULARTILE
360
1D
  0
DICTIONARY
  5
12
330
11
100
AcDbDictionary
280
     1
281
     1
  3
BUMPTILE
360
14
  3
DIFFUSETILE
360
13
  3
OPACITYTILE
360
17
  3
REFLECTIONTILE
360
16
  3
REFRACTIONTILE
360
18
  3
SPECULARTILE
360
15
  0
DICTIONARY
  5
22
330
21
100
AcDbDictionary
280
     1
281
     1
  3
BUMPTILE
360
24
  3
DIFFUSETILE
360
23
  3
OPACITYTILE
360
27
  3
REFLECTIONTILE
360
26
  3
REFRACTIONTILE
360
28
  3
SPECULARTILE
360
25
  0
DICTIONARY
  5
BE
330
65
100
AcDbDictionary
280
     1
281
     1
  3
ACAD_ROUNDTRIP_2008_TABLESTYLE_CELLSTYLEMAP
360
BF
  0
XRECORD
  5
1C
102
{ACAD_REACTORS
330
1A
102
}
330
1A
100
AcDbXrecord
280
     1
270
     1
271
     1
  0
XRECORD
  5
1B
102
{ACAD_REACTORS
330
1A
102
}
330
1A
100
AcDbXrecord
280
     1
270
     1
271
     1
  0
XRECORD
  5
1F
102
{ACAD_REACTORS
330
1A
102
}
330
1A
100
AcDbXrecord
280
     1
270
     1
271
     1
  0
XRECORD
  5
1E
102
{ACAD_REACTORS
330
1A
102
}
330
1A
100
AcDbXrecord
280
     1
270
     1
271
     1
  0
XRECORD
  5
20
102
{ACAD_REACTORS
330
1A
102
}
330
1A
100
AcDbXrecord
280
     1
270
     1
271
     1
  0
XRECORD
  5
1D
102
{ACAD_REACTORS
330
1A
102
}
330
1A
100
AcDbXrecord
280
     1
270
     1
271
     1
  0
XRECORD
  5
14
102
{ACAD_REACTORS
330
12
102
}
330
12
100
AcDbXrecord
280
     1
270
     1
271
     1
  0
XRECORD
  5
13
102
{ACAD_REACTORS
330
12
102
}
330
12
100
AcDbXrecord
280
     1
270
     1
271
     1
  0
XRECORD
  5
17
102
{ACAD_REACTORS
330
12
102
}
330
12
100
AcDbXrecord
280
     1
270
     1
271
     1
  0
XRECORD
  5
16
102
{ACAD_REACTORS
330
12
102
}
330
12
100
AcDbXrecord
280
     1
270
     1
271
     1
  0
XRECORD
  5
18
102
{ACAD_REACTORS
330
12
102
}
330
12
100
AcDbXrecord
280
     1
270
     1
271
     1
  0
XRECORD
  5
15
102
{ACAD_REACTORS
330
12
102
}
330
12
100
AcDbXrecord
280
     1
270
     1
271
     1
  0
XRECORD
  5
24
102
{ACAD_REACTORS
330
22
102
}
330
22
100
AcDbXrecord
280
     1
270
     1
271
     1
  0
XRECORD
  5
23
102
{ACAD_REACTORS
330
22
102
}
330
22
100
AcDbXrecord
280
     1
270
     1
271
     1
  0
XRECORD
  5
27
102
{ACAD_REACTORS
330
22
102
}
330
22
100
AcDbXrecord
280
     1
270
     1
271
     1
  0
XRECORD
  5
26
102
{ACAD_REACTORS
330
22
102
}
330
22
100
AcDbXrecord
280
     1
270
     1
271
     1
  0
XRECORD
  5
28
102
{ACAD_REACTORS
330
22
102
}
330
22
100
AcDbXrecord
280
     1
270
     1
271
     1
  0
XRECORD
  5
25
102
{ACAD_REACTORS
330
22
102
}
330
22
100
AcDbXrecord
280
     1
270
     1
271
     1
  0
CELLSTYLEMAP
  5
BF
102
{ACAD_REACTORS
330
BE
102
}
330
BE
100
AcDbCellStyleMap
 90
        3
300
CELLSTYLE
  1
TABLEFORMAT_BEGIN
 90
        5
170
     1
 91
        0
 92
    32768
 62
   257
 93
        1
300
CONTENTFORMAT
  1
CONTENTFORMAT_BEGIN
 90
        0
 91
        0
 92
      512
 93
        0
300

 40
0.0
140
1.0
 94
        5
 62
     0
340
55
144
0.25
309
CONTENTFORMAT_END
171
     0
 94
        0
309
TABLEFORMAT_END
  1
CELLSTYLE_BEGIN
 90
        1
 91
        1
300
_TITLE
309
CELLSTYLE_END
300
CELLSTYLE
  1
TABLEFORMAT_BEGIN
 90
        5
170
     1
 91
        0
 92
        0
 62
   257
 93
        1
300
CONTENTFORMAT
  1
CONTENTFORMAT_BEGIN
 90
        0
 91
        0
 92
      512
 93
        0
300

 40
0.0
140
1.0
 94
        5
 62
     0
340
55
144
0.18
309
CONTENTFORMAT_END
171
     0
 94
        0
309
TABLEFORMAT_END
  1
CELLSTYLE_BEGIN
 90
        2
 91
        1
300
_HEADER
309
CELLSTYLE_END
300
CELLSTYLE
  1
TABLEFORMAT_BEGIN
 90
        5
170
     1
 91
        0
 92
        0
 62
   257
 93
        1
300
CONTENTFORMAT
  1
CONTENTFORMAT_BEGIN
 90
        0
 91
        0
 92
      512
 93
        0
300

 40
0.0
140
1.0
 94
        2
 62
     0
340
55
144
0.18
309
CONTENTFORMAT_END
171
     0
 94
        0
309
TABLEFORMAT_END
  1
CELLSTYLE_BEGIN
 90
        3
 91
        2
300
_DATA
309
CELLSTYLE_END
  0
ENDSEC
  0
EOF
