  0
SECTION
  2
HEADER
  9
$ACADVER
  1
AC1027
  9
$ACADMAINTVER
 70
   125
  9
$DWGCODEPAGE
  3
ANSI_1252
  9
$REQUIREDVERSIONS
160
                 0
  9
$INSBASE
 10
0.0
 20
0.0
 30
0.0
  9
$EXTMIN
 10
1.000000000000000E+20
 20
1.000000000000000E+20
 30
1.000000000000000E+20
  9
$EXTMAX
 10
-1.000000000000000E+20
 20
-1.000000000000000E+20
 30
-1.000000000000000E+20
  9
$LIMMIN
 10
0.0
 20
0.0
  9
$LIMMAX
 10
12.0
 20
9.0
  9
$ORTHOMODE
 70
     0
  9
$REGENMODE
 70
     1
  9
$FILLMODE
 70
     1
  9
$QTEXTMODE
 70
     0
  9
$MIRRTEXT
 70
     0
  9
$LTSCALE
 40
1.0
  9
$ATTMODE
 70
     1
  9
$TEXTSIZE
 40
0.2
  9
$TRACEWID
 40
0.05
  9
$TEXTSTYLE
  7
Standard
  9
$CLAYER
  8
0
  9
$CELTYPE
  6
ByLayer
  9
$CECOLOR
 62
   256
  9
$CELTSCALE
 40
1.0
  9
$DISPSILH
 70
     0
  9
$DIMSCALE
 40
1.0
  9
$DIMASZ
 40
0.18
  9
$DIMEXO
 40
0.0625
  9
$DIMDLI
 40
0.38
  9
$DIMRND
 40
0.0
  9
$DIMDLE
 40
0.0
  9
$DIMEXE
 40
0.18
  9
$DIMTP
 40
0.0
  9
$DIMTM
 40
0.0
  9
$DIMTXT
 40
0.18
  9
$DIMCEN
 40
0.09
  9
$DIMTSZ
 40
0.0
  9
$DIMTOL
 70
     0
  9
$DIMLIM
 70
     0
  9
$DIMTIH
 70
     1
  9
$DIMTOH
 70
     1
  9
$DIMSE1
 70
     0
  9
$DIMSE2
 70
     0
  9
$DIMTAD
 70
     0
  9
$DIMZIN
 70
     0
  9
$DIMBLK
  1

  9
$DIMASO
 70
     1
  9
$DIMSHO
 70
     1
  9
$DIMPOST
  1

  9
$DIMAPOST
  1

  9
$DIMALT
 70
     0
  9
$DIMALTD
 70
     2
  9
$DIMALTF
 40
25.4
  9
$DIMLFAC
 40
1.0
  9
$DIMTOFL
 70
     0
  9
$DIMTVP
 40
0.0
  9
$DIMTIX
 70
     0
  9
$DIMSOXD
 70
     0
  9
$DIMSAH
 70
     0
  9
$DIMBLK1
  1

  9
$DIMBLK2
  1

  9
$DIMSTYLE
  2
Standard
  9
$DIMCLRD
 70
     0
  9
$DIMCLRE
 70
     0
  9
$DIMCLRT
 70
     0
  9
$DIMTFAC
 40
1.0
  9
$DIMGAP
 40
0.09
  9
$DIMJUST
 70
     0
  9
$DIMSD1
 70
     0
  9
$DIMSD2
 70
     0
  9
$DIMTOLJ
 70
     1
  9
$DIMTZIN
 70
     0
  9
$DIMALTZ
 70
     0
  9
$DIMALTTZ
 70
     0
  9
$DIMUPT
 70
     0
  9
$DIMDEC
 70
     4
  9
$DIMTDEC
 70
     4
  9
$DIMALTU
 70
     2
  9
$DIMALTTD
 70
     2
  9
$DIMTXSTY
  7
Standard
  9
$DIMAUNIT
 70
     0
  9
$DIMADEC
 70
     0
  9
$DIMALTRND
 40
0.0
  9
$DIMAZIN
 70
     0
  9
$DIMDSEP
 70
    46
  9
$DIMATFIT
 70
     3
  9
$DIMFRAC
 70
     0
  9
$DIMLDRBLK
  1

  9
$DIMLUNIT
 70
     2
  9
$DIMLWD
 70
    -2
  9
$DIMLWE
 70
    -2
  9
$DIMTMOVE
 70
     0
  9
$DIMFXL
 40
1.0
  9
$DIMFXLON
 70
     0
  9
$DIMJOGANG
 40
0.7853981633974483
  9
$DIMTFILL
 70
     0
  9
$DIMTFILLCLR
 70
     0
  9
$DIMARCSYM
 70
     0
  9
$DIMLTYPE
  6

  9
$DIMLTEX1
  6

  9
$DIMLTEX2
  6

  9
$DIMTXTDIRECTION
 70
     0
  9
$LUNITS
 70
     2
  9
$LUPREC
 70
     4
  9
$SKETCHINC
 40
0.1
  9
$FILLETRAD
 40
0.0
  9
$AUNITS
 70
     0
  9
$AUPREC
 70
     0
  9
$MENU
  1
.
  9
$ELEVATION
 40
0.0
  9
$PELEVATION
 40
0.0
  9
$THICKNESS
 40
0.0
  9
$LIMCHECK
 70
     0
  9
$CHAMFERA
 40
0.0
  9
$CHAMFERB
 40
0.0
  9
$CHAMFERC
 40
0.0
  9
$CHAMFERD
 40
0.0
  9
$SKPOLY
 70
     0
  9
$TDCREATE
 40
2459262.955937500
  9
$TDUCREATE
 40
2459262.955937500
  9
$TDUPDATE
 40
2459262.955937500
  9
$TDUUPDATE
 40
2459262.955937500
  9
$TDINDWG
 40
0.0000000000
  9
$TDUSRTIMER
 40
0.0000000000
  9
$USRTIMER
 70
     1
  9
$ANGBASE
 50
0.0
  9
$ANGDIR
 70
     0
  9
$PDMODE
 70
     0
  9
$PDSIZE
 40
0.0
  9
$PLINEWID
 40
0.0
  9
$SPLFRAME
 70
     0
  9
$SPLINETYPE
 70
     6
  9
$SPLINESEGS
 70
     8
  9
$HANDSEED
  5
FB
  9
$SURFTAB1
 70
     6
  9
$SURFTAB2
 70
     6
  9
$SURFTYPE
 70
     6
  9
$SURFU
 70
     6
  9
$SURFV
 70
     6
  9
$UCSBASE
  2

  9
$UCSNAME
  2

  9
$UCSORG
 10
0.0
 20
0.0
 30
0.0
  9
$UCSXDIR
 10
1.0
 20
0.0
 30
0.0
  9
$UCSYDIR
 10
0.0
 20
1.0
 30
0.0
  9
$UCSORTHOREF
  2

  9
$UCSORTHOVIEW
 70
     0
  9
$UCSORGTOP
 10
0.0
 20
0.0
 30
0.0
  9
$UCSORGBOTTOM
 10
0.0
 20
0.0
 30
0.0
  9
$UCSORGLEFT
 10
0.0
 20
0.0
 30
0.0
  9
$UCSORGRIGHT
 10
0.0
 20
0.0
 30
0.0
  9
$UCSORGFRONT
 10
0.0
 20
0.0
 30
0.0
  9
$UCSORGBACK
 10
0.0
 20
0.0
 30
0.0
  9
$PUCSBASE
  2

  9
$PUCSNAME
  2

  9
$PUCSORG
 10
0.0
 20
0.0
 30
0.0
  9
$PUCSXDIR
 10
1.0
 20
0.0
 30
0.0
  9
$PUCSYDIR
 10
0.0
 20
1.0
 30
0.0
  9
$PUCSORTHOREF
  2

  9
$PUCSORTHOVIEW
 70
     0
  9
$PUCSORGTOP
 10
0.0
 20
0.0
 30
0.0
  9
$PUCSORGBOTTOM
 10
0.0
 20
0.0
 30
0.0
  9
$PUCSORGLEFT
 10
0.0
 20
0.0
 30
0.0
  9
$PUCSORGRIGHT
 10
0.0
 20
0.0
 30
0.0
  9
$PUCSORGFRONT
 10
0.0
 20
0.0
 30
0.0
  9
$PUCSORGBACK
 10
0.0
 20
0.0
 30
0.0
  9
$USERI1
 70
     0
  9
$USERI2
 70
     0
  9
$USERI3
 70
     0
  9
$USERI4
 70
     0
  9
$USERI5
 70
     0
  9
$USERR1
 40
0.0
  9
$USERR2
 40
0.0
  9
$USERR3
 40
0.0
  9
$USERR4
 40
0.0
  9
$USERR5
 40
0.0
  9
$WORLDVIEW
 70
     1
  9
$SHADEDGE
 70
     3
  9
$SHADEDIF
 70
    70
  9
$TILEMODE
 70
     1
  9
$MAXACTVP
 70
    64
  9
$PINSBASE
 10
0.0
 20
0.0
 30
0.0
  9
$PLIMCHECK
 70
     0
  9
$PEXTMIN
 10
1.000000000000000E+20
 20
1.000000000000000E+20
 30
1.000000000000000E+20
  9
$PEXTMAX
 10
-1.000000000000000E+20
 20
-1.000000000000000E+20
 30
-1.000000000000000E+20
  9
$PLIMMIN
 10
0.0
 20
0.0
  9
$PLIMMAX
 10
12.0
 20
9.0
  9
$UNITMODE
 70
     0
  9
$VISRETAIN
 70
     1
  9
$PLINEGEN
 70
     0
  9
$PSLTSCALE
 70
     1
  9
$TREEDEPTH
 70
  3020
  9
$CMLSTYLE
  2
Standard
  9
$CMLJUST
 70
     0
  9
$CMLSCALE
 40
1.0
  9
$PROXYGRAPHICS
 70
     1
  9
$MEASUREMENT
 70
     0
  9
$CELWEIGHT
370
    -1
  9
$ENDCAPS
280
     0
  9
$JOINSTYLE
280
     0
  9
$LWDISPLAY
290
     0
  9
$INSUNITS
 70
     5
  9
$HYPERLINKBASE
  1

  9
$STYLESHEET
  1

  9
$XEDIT
290
     1
  9
$CEPSNTYPE
380
     0
  9
$PSTYLEMODE
290
     1
  9
$FINGERPRINTGUID
  2
{07FBEFB8-66FA-AA40-9D8C-A9199276DC5F}
  9
$VERSIONGUID
  2
{9528C8C8-0409-CE48-AE9B-B192D83283EB}
  9
$EXTNAMES
290
     1
  9
$PSVPSCALE
 40
0.0
  9
$OLESTARTUP
290
     0
  9
$SORTENTS
280
   127
  9
$INDEXCTL
280
     0
  9
$HIDETEXT
280
     1
  9
$XCLIPFRAME
280
     2
  9
$HALOGAP
280
     0
  9
$OBSCOLOR
 70
   257
  9
$OBSLTYPE
280
     0
  9
$INTERSECTIONDISPLAY
280
     0
  9
$INTERSECTIONCOLOR
 70
   257
  9
$DIMASSOC
280
     2
  9
$PROJECTNAME
  1

  9
$CAMERADISPLAY
290
     0
  9
$LENSLENGTH
 40
50.0
  9
$CAMERAHEIGHT
 40
0.0
  9
$STEPSPERSEC
 40
2.0
  9
$STEPSIZE
 40
6.0
  9
$3DDWFPREC
 40
2.0
  9
$PSOLWIDTH
 40
0.25
  9
$PSOLHEIGHT
 40
4.0
  9
$LOFTANG1
 40
1.570796326794896
  9
$LOFTANG2
 40
1.570796326794896
  9
$LOFTMAG1
 40
0.0
  9
$LOFTMAG2
 40
0.0
  9
$LOFTPARAM
 70
     7
  9
$LOFTNORMALS
280
     1
  9
$LATITUDE
 40
37.795
  9
$LONGITUDE
 40
-122.394
  9
$NORTHDIRECTION
 40
0.0
  9
$TIMEZONE
 70
 -8000
  9
$LIGHTGLYPHDISPLAY
280
     1
  9
$TILEMODELIGHTSYNCH
280
     1
  9
$CMATERIAL
347
11
  9
$SOLIDHIST
280
     0
  9
$SHOWHIST
280
     1
  9
$DWFFRAME
280
     2
  9
$DGNFRAME
280
     0
  9
$REALWORLDSCALE
290
     1
  9
$INTERFERECOLOR
 62
     1
  9
$INTERFEREOBJVS
345
33
  9
$INTERFEREVPVS
346
30
  9
$CSHADOW
280
     0
  9
$SHADOWPLANELOCATION
 40
0.0
  0
ENDSEC
  0
SECTION
  2
CLASSES
  0
CLASS
  1
ACDBDICTIONARYWDFLT
  2
AcDbDictionaryWithDefault
  3
ObjectDBX Classes
 90
        0
 91
        1
280
     0
281
     0
  0
CLASS
  1
MATERIAL
  2
AcDbMaterial
  3
ObjectDBX Classes
 90
     1153
 91
        3
280
     0
281
     0
  0
CLASS
  1
VISUALSTYLE
  2
AcDbVisualStyle
  3
ObjectDBX Classes
 90
     4095
 91
       24
280
     0
281
     0
  0
CLASS
  1
SCALE
  2
AcDbScale
  3
ObjectDBX Classes
 90
     1153
 91
       17
280
     0
281
     0
  0
CLASS
  1
TABLESTYLE
  2
AcDbTableStyle
  3
ObjectDBX Classes
 90
     4095
 91
        1
280
     0
281
     0
  0
CLASS
  1
MLEADERSTYLE
  2
AcDbMLeaderStyle
  3
ACDB_MLEADERSTYLE_CLASS
 90
     4095
 91
        1
280
     0
281
     0
  0
CLASS
  1
ACDBSECTIONVIEWSTYLE
  2
AcDbSectionViewStyle
  3
ObjectDBX Classes
 90
     1025
 91
        1
280
     0
281
     0
  0
CLASS
  1
ACDBDETAILVIEWSTYLE
  2
AcDbDetailViewStyle
  3
ObjectDBX Classes
 90
     1025
 91
        1
280
     0
281
     0
  0
CLASS
  1
DICTIONARYVAR
  2
AcDbDictionaryVar
  3
ObjectDBX Classes
 90
        0
 91
        5
280
     0
281
     0
  0
CLASS
  1
CELLSTYLEMAP
  2
AcDbCellStyleMap
  3
ObjectDBX Classes
 90
     1152
 91
        1
280
     0
281
     0
  0
ENDSEC
  0
SECTION
  2
TABLES
  0
TABLE
  2
VPORT
  5
8
330
0
100
AcDbSymbolTable
 70
     1
1001
ACAD
1000
DbSaveVer
1071
      224
  0
VPORT
  5
57
330
8
100
AcDbSymbolTableRecord
100
AcDbViewportTableRecord
  2
*Active
 70
     0
 10
0.0
 20
0.0
 11
1.0
 21
1.0
 12
500.0
 22
500.0
 13
0.0
 23
0.0
 14
1.0
 24
1.0
 15
0.0
 25
0.0
 16
0.0
 26
0.0
 36
1.0
 17
0.0
 27
0.0
 37
0.0
 40
12.0
 41
1.0
 42
50.0
 43
0.0
 44
0.0
 50
0.0
 51
0.0
 71
     0
 72
   100
 73
     1
 74
     1
 75
     0
 76
     0
 77
     0
 78
     0
281
     0
 65
     1
110
0.0
120
0.0
130
0.0
111
1.0
121
0.0
131
0.0
112
0.0
122
1.0
132
0.0
 79
     0
146
0.0
 60
     3
 61
     5
292
     1
282
     1
141
0.0
142
0.0
 63
   250
421
  3355443
  0
ENDTAB
  0
TABLE
  2
LTYPE
  5
5
330
0
100
AcDbSymbolTable
 70
     1
  0
LTYPE
  5
5B
330
5
100
AcDbSymbolTableRecord
100
AcDbLinetypeTableRecord
  2
ByBlock
 70
     0
  3

 72
    65
 73
     0
 40
0.0
  0
LTYPE
  5
5C
330
5
100
AcDbSymbolTableRecord
100
AcDbLinetypeTableRecord
  2
ByLayer
 70
     0
  3

 72
    65
 73
     0
 40
0.0
  0
LTYPE
  5
5D
330
5
100
AcDbSymbolTableRecord
100
AcDbLinetypeTableRecord
  2
Continuous
 70
     0
  3
Solid line
 72
    65
 73
     0
 40
0.0
  0
ENDTAB
  0
TABLE
  2
LAYER
  5
2
330
0
100
AcDbSymbolTable
 70
     2
  0
LAYER
  5
54
330
2
100
AcDbSymbolTableRecord
100
AcDbLayerTableRecord
  2
0
 70
     0
 62
     7
  6
Continuous
370
    -3
390
F
347
21
348
0
  0
LAYER
  5
7A
330
2
100
AcDbSymbolTableRecord
100
AcDbLayerTableRecord
  2
Jeff_KeyChain v1_Sketch1
 70
     0
 62
     7
  6
Continuous
370
    -3
390
F
347
21
348
0
1001
NFusion_SketchTransform
1000
1.000000;0.000000;0.000000;0.000000;0.000000;1.000000;0.000000;0.000000;0.000000;0.000000;1.000000;0.000000;0.000000;0.000000;0.000000;1.000000
  0
ENDTAB
  0
TABLE
  2
STYLE
  5
3
330
0
100
AcDbSymbolTable
 70
     2
  0
STYLE
  5
55
330
3
100
AcDbSymbolTableRecord
100
AcDbTextStyleTableRecord
  2
Standard
 70
     0
 40
0.0
 41
1.0
 50
0.0
 71
     0
 42
0.2
  3
txt
  4

  0
STYLE
  5
5A
330
3
100
AcDbSymbolTableRecord
100
AcDbTextStyleTableRecord
  2
Annotative
 70
     0
 40
0.0
 41
1.0
 50
0.0
 71
     0
 42
0.2
  3
txt
  4

1001
AcadAnnotative
1000
AnnotativeData
1002
{
1070
     1
1070
     1
1002
}
  0
ENDTAB
  0
TABLE
  2
VIEW
  5
6
330
0
100
AcDbSymbolTable
 70
     0
  0
ENDTAB
  0
TABLE
  2
UCS
  5
7
330
0
100
AcDbSymbolTable
 70
     0
  0
ENDTAB
  0
TABLE
  2
APPID
  5
9
330
0
100
AcDbSymbolTable
 70
     4
  0
APPID
  5
56
330
9
100
AcDbSymbolTableRecord
100
AcDbRegAppTableRecord
  2
ACAD
 70
     0
  0
APPID
  5
5E
330
9
100
AcDbSymbolTableRecord
100
AcDbRegAppTableRecord
  2
AcadAnnotative
 70
     0
  0
APPID
  5
78
330
9
100
AcDbSymbolTableRecord
100
AcDbRegAppTableRecord
  2
EDIT_IN_FUSION_ACAD_ADDIN
 70
     0
  0
APPID
  5
79
330
9
100
AcDbSymbolTableRecord
100
AcDbRegAppTableRecord
  2
NFusion_SketchTransform
 70
     0
  0
ENDTAB
  0
TABLE
  2
DIMSTYLE
  5
A
330
0
100
AcDbSymbolTable
 70
     2
100
AcDbDimStyleTable
 71
     0
  0
DIMSTYLE
105
58
330
A
100
AcDbSymbolTableRecord
100
AcDbDimStyleTableRecord
  2
Standard
 70
     0
340
55
  0
DIMSTYLE
105
59
330
A
100
AcDbSymbolTableRecord
100
AcDbDimStyleTableRecord
  2
Annotative
 70
     0
340
55
1001
AcadAnnotative
1000
AnnotativeData
1002
{
1070
     1
1070
     1
1002
}
  0
ENDTAB
  0
TABLE
  2
BLOCK_RECORD
  5
1
330
0
100
AcDbSymbolTable
 70
     1
  0
BLOCK_RECORD
  5
70
330
1
100
AcDbSymbolTableRecord
100
AcDbBlockTableRecord
  2
*Model_Space
340
73
 70
     0
280
     1
281
     0
  0
BLOCK_RECORD
  5
6C
330
1
100
AcDbSymbolTableRecord
100
AcDbBlockTableRecord
  2
*Paper_Space
340
6F
 70
     0
280
     1
281
     0
  0
BLOCK_RECORD
  5
74
330
1
100
AcDbSymbolTableRecord
100
AcDbBlockTableRecord
  2
*Paper_Space0
340
77
 70
     0
280
     1
281
     0
  0
ENDTAB
  0
ENDSEC
  0
SECTION
  2
BLOCKS
  0
BLOCK
  5
71
330
70
100
AcDbEntity
  8
0
100
AcDbBlockBegin
  2
*Model_Space
 70
     0
 10
0.0
 20
0.0
 30
0.0
  3
*Model_Space
  1

  0
ENDBLK
  5
72
330
70
100
AcDbEntity
  8
0
100
AcDbBlockEnd
  0
BLOCK
  5
6D
330
6C
100
AcDbEntity
 67
     1
  8
0
100
AcDbBlockBegin
  2
*Paper_Space
 70
     0
 10
0.0
 20
0.0
 30
0.0
  3
*Paper_Space
  1

  0
ENDBLK
  5
6E
330
6C
100
AcDbEntity
 67
     1
  8
0
100
AcDbBlockEnd
  0
BLOCK
  5
75
330
74
100
AcDbEntity
 67
     1
  8
0
100
AcDbBlockBegin
  2
*Paper_Space0
 70
     0
 10
0.0
 20
0.0
 30
0.0
  3
*Paper_Space0
  1

  0
ENDBLK
  5
76
330
74
100
AcDbEntity
 67
     1
  8
0
100
AcDbBlockEnd
  0
ENDSEC
  0
SECTION
  2
ENTITIES
  0
POINT
  5
7B
330
70
100
AcDbEntity
  8
Jeff_KeyChain v1_Sketch1
100
AcDbPoint
 10
0.0
 20
0.0
 30
0.0
  0
CIRCLE
  5
7C
330
70
100
AcDbEntity
  8
Jeff_KeyChain v1_Sketch1
100
AcDbCircle
 10
0.0
 20
0.0
 30
0.0
 40
2.0
  0
SPLINE
  5
7D
330
70
100
AcDbEntity
  8
Jeff_KeyChain v1_Sketch1
100
AcDbSpline
210
0.0
220
0.0
230
1.0
 70
     8
 71
     3
 72
     9
 73
     5
 74
     0
 42
0.000000001
 43
0.0000000001
 40
0.0
 40
0.0
 40
0.0
 40
0.0
 40
0.1377296493112062
 40
0.3308566746471261
 40
0.3308566746471261
 40
0.3308566746471261
 40
0.3308566746471261
 10
-1.196740400940257
 20
0.5043107528975544
 30
0.0
 10
-1.18537559260423
 20
0.4598279534597302
 30
0.0
 10
-1.158074842817496
 20
0.352970561644705
 30
0.0
 10
-1.133575730761517
 20
0.2454341006263878
 30
0.0
 10
-1.119275155928656
 20
0.1826631232726139
 30
0.0
  0
SPLINE
  5
7E
330
70
100
AcDbEntity
  8
Jeff_KeyChain v1_Sketch1
100
AcDbSpline
210
0.0
220
0.0
230
1.0
 70
     8
 71
     3
 72
     9
 73
     5
 74
     0
 42
0.000000001
 43
0.0000000001
 40
0.0
 40
0.0
 40
0.0
 40
0.0
 40
0.1931270253359199
 40
0.3308567938424826
 40
0.3308567938424826
 40
0.3308567938424826
 40
0.3308567938424826
 10
-1.119275155928656
 20
0.1826631232726139
 30
0.0
 10
-1.104974581222271
 20
0.1198921458859552
 30
0.0
 10
-1.080475460556846
 20
0.012355646069913
 30
0.0
 10
-1.053174699028426
 20
-0.0945017837640086
 30
0.0
 10
-1.04180988006342
 20
-0.1389846214996581
 30
0.0
  0
SPLINE
  5
7F
330
70
100
AcDbEntity
  8
Jeff_KeyChain v1_Sketch1
100
AcDbSpline
210
0.0
220
0.0
230
1.0
 70
     8
 71
     3
 72
     9
 73
     5
 74
     0
 42
0.000000001
 43
0.0000000001
 40
0.0
 40
0.0
 40
0.0
 40
0.0
 40
0.2229271507259897
 40
0.4021597645423234
 40
0.4021597645423234
 40
0.4021597645423234
 40
0.4021597645423234
 10
-0.9573818598700006
 20
-0.4453959735099864
 30
0.0
 10
-0.9389639887414219
 20
-0.5176466513168247
 30
0.0
 10
-0.9057382165897637
 20
-0.6479866098198426
 30
0.0
 10
-0.9000996338055371
 20
-0.7822718906350188
 30
0.0
 10
-0.897586657571361
 20
-0.8421195034486856
 30
0.0
  0
CIRCLE
  5
80
330
70
100
AcDbEntity
  8
Jeff_KeyChain v1_Sketch1
100
AcDbCircle
 10
0.0
 20
0.0
 30
0.0
 40
1.85
  0
SPLINE
  5
81
330
70
100
AcDbEntity
  8
Jeff_KeyChain v1_Sketch1
100
AcDbSpline
210
0.0
220
0.0
230
1.0
 70
     8
 71
     3
 72
     9
 73
     5
 74
     0
 42
0.000000001
 43
0.0000000001
 40
0.0
 40
0.0
 40
0.0
 40
0.0
 40
0.2044303319779819
 40
0.4007889429652596
 40
0.4007889429652596
 40
0.4007889429652596
 40
0.4007889429652596
 10
-0.897586657571361
 20
-0.8421195034486856
 30
0.0
 10
-0.9036009688791704
 20
-0.9110506876952451
 30
0.0
 10
-0.9153921226106071
 20
-1.046191379412644
 30
0.0
 10
-0.9864093099673464
 20
-1.161657609837074
 30
0.0
 10
-1.021202775481691
 20
-1.218228004355278
 30
0.0
  0
SPLINE
  5
82
330
70
100
AcDbEntity
  8
Jeff_KeyChain v1_Sketch1
100
AcDbSpline
210
0.0
220
0.0
230
1.0
 70
     8
 71
     3
 72
     9
 73
     5
 74
     0
 42
0.000000001
 43
0.0000000001
 40
0.0
 40
0.0
 40
0.0
 40
0.0
 40
0.0923744698704735
 40
0.1583540710379289
 40
0.1583540710379289
 40
0.1583540710379289
 40
0.1583540710379289
 10
-0.9994505637416841
 20
-0.2927326452929417
 30
0.0
 10
-0.9911681434351393
 20
-0.3223894458261423
 30
0.0
 10
-0.9769699025637423
 20
-0.3732289808727542
 30
0.0
 10
-0.9631429711284161
 20
-0.4241706739602163
 30
0.0
 10
-0.9573818598700006
 20
-0.4453959735099864
 30
0.0
  0
SPLINE
  5
83
330
70
100
AcDbEntity
  8
Jeff_KeyChain v1_Sketch1
100
AcDbSpline
210
0.0
220
0.0
230
1.0
 70
     8
 71
     3
 72
     9
 73
     5
 74
     0
 42
0.000000001
 43
0.0000000001
 40
0.0
 40
0.0
 40
0.0
 40
0.0
 40
0.066821807395542
 40
0.1594770029644678
 40
0.1594770029644678
 40
0.1594770029644678
 40
0.1594770029644678
 10
-1.04180988006342
 20
-0.1389846214996581
 30
0.0
 10
-1.03597660808902
 20
-0.1604812295730367
 30
0.0
 10
-1.022054914435221
 20
-0.2117850593116033
 30
0.0
 10
-1.007757358932465
 20
-0.2629854949743362
 30
0.0
 10
-0.9994505637416841
 20
-0.2927326452929417
 30
0.0
  0
SPLINE
  5
84
330
70
100
AcDbEntity
  8
Jeff_KeyChain v1_Sketch1
100
AcDbSpline
210
0.0
220
0.0
230
1.0
 70
     8
 71
     3
 72
     9
 73
     5
 74
     0
 42
0.000000001
 43
0.0000000001
 40
0.0
 40
0.0
 40
0.0
 40
0.0
 40
0.0221961627758401
 40
0.0349823743396736
 40
0.0349823743396736
 40
0.0349823743396736
 40
0.0349823743396736
 10
-1.021202775481691
 20
-1.218228004355278
 30
0.0
 10
-1.02556634463917
 20
-1.224340020189548
 30
0.0
 10
-1.032443569827395
 20
-1.233972893584998
 30
0.0
 10
-1.042467898473254
 20
-1.2401060025382
 30
0.0
 10
-1.04613183464885
 20
-1.242347680814757
 30
0.0
  0
SPLINE
  5
85
330
70
100
AcDbEntity
  8
Jeff_KeyChain v1_Sketch1
100
AcDbSpline
210
0.0
220
0.0
230
1.0
 70
     8
 71
     3
 72
     9
 73
     5
 74
     0
 42
0.000000001
 43
0.0000000001
 40
0.0
 40
0.0
 40
0.0
 40
0.0
 40
0.0089712514625253
 40
0.0222740063376428
 40
0.0222740063376428
 40
0.0222740063376428
 40
0.0222740063376428
 10
-1.04613183464885
 20
-1.242347680814757
 30
0.0
 10
-1.049184066566665
 20
-1.242319303578497
 30
0.0
 10
-1.056762210303395
 20
-1.242248847996805
 30
0.0
 10
-1.062975090816169
 20
-1.237751694980705
 30
0.0
 10
-1.066685623410845
 20
-1.235065850175678
 30
0.0
  0
SPLINE
  5
86
330
70
100
AcDbEntity
  8
Jeff_KeyChain v1_Sketch1
100
AcDbSpline
210
0.0
220
0.0
230
1.0
 70
     8
 71
     3
 72
     9
 73
     5
 74
     0
 42
0.000000001
 43
0.0000000001
 40
0.0
 40
0.0
 40
0.0
 40
0.0
 40
0.0363063221323254
 40
0.0618694943678646
 40
0.0618694943678646
 40
0.0618694943678646
 40
0.0618694943678646
 10
-1.288464132373848
 20
0.4994987850448848
 30
0.0
 10
-1.277060872235187
 20
0.5035609902407879
 30
0.0
 10
-1.25762861092398
 20
0.5104833818995472
 30
0.0
 10
-1.237846691425848
 20
0.5163257578158051
 30
0.0
 10
-1.229673218853508
 20
0.5187397045166473
 30
0.0
  0
SPLINE
  5
87
330
70
100
AcDbEntity
  8
Jeff_KeyChain v1_Sketch1
100
AcDbSpline
210
0.0
220
0.0
230
1.0
 70
     8
 71
     3
 72
     9
 73
     5
 74
     0
 42
0.000000001
 43
0.0000000001
 40
0.0
 40
0.0
 40
0.0
 40
0.0
 40
0.0203721896539937
 40
0.0512623427531471
 40
0.0512623427531471
 40
0.0512623427531471
 40
0.0512623427531471
 10
-0.5647749708398533
 20
-0.2704374539011742
 30
0.0
 10
-0.5603908336268157
 20
-0.2763129903348112
 30
0.0
 10
-0.5493590717834096
 20
-0.291097545536547
 30
0.0
 10
-0.5308015217160569
 20
-0.2858911888862414
 30
0.0
 10
-0.5196189355926294
 20
-0.2827538926687978
 30
0.0
  0
SPLINE
  5
88
330
70
100
AcDbEntity
  8
Jeff_KeyChain v1_Sketch1
100
AcDbSpline
210
0.0
220
0.0
230
1.0
 70
     8
 71
     3
 72
     9
 73
     5
 74
     0
 42
0.000000001
 43
0.0000000001
 40
0.0
 40
0.0
 40
0.0
 40
0.0
 40
0.0550078081243333
 40
0.109404664612089
 40
0.109404664612089
 40
0.109404664612089
 40
0.109404664612089
 10
0.6682981136600073
 20
0.8726653703570738
 30
0.0
 10
0.6511454936986226
 20
0.8661843768497359
 30
0.0
 10
0.6170307616618103
 20
0.8532943718631569
 30
0.0
 10
0.5827400213499137
 20
0.8408801936687421
 30
0.0
 10
0.5656903965809983
 20
0.8347077669989163
 30
0.0
  0
SPLINE
  5
89
330
70
100
AcDbEntity
  8
Jeff_KeyChain v1_Sketch1
100
AcDbSpline
210
0.0
220
0.0
230
1.0
 70
     8
 71
     3
 72
     9
 73
     5
 74
     0
 42
0.000000001
 43
0.0000000001
 40
0.0
 40
0.0
 40
0.0
 40
0.0
 40
0.0208371806016487
 40
0.0374282571214537
 40
0.0374282571214537
 40
0.0374282571214537
 40
0.0374282571214537
 10
0.7380273156868924
 20
0.5169716230845504
 30
0.0
 10
0.7456894599795385
 20
0.5186243256409489
 30
0.0
 10
0.7594523923152199
 20
0.521592950687145
 30
0.0
 10
0.7662714171708896
 20
0.5096954199634198
 30
0.0
 10
0.7692941324099079
 20
0.5044215211015648
 30
0.0
  0
SPLINE
  5
8A
330
70
100
AcDbEntity
  8
Jeff_KeyChain v1_Sketch1
100
AcDbSpline
210
0.0
220
0.0
230
1.0
 70
     8
 71
     3
 72
     9
 73
     5
 74
     0
 42
0.000000001
 43
0.0000000001
 40
0.0
 40
0.0
 40
0.0
 40
0.0
 40
0.0238375626748096
 40
0.0887028963096492
 40
0.0887028963096492
 40
0.0887028963096492
 40
0.0887028963096492
 10
0.170326242164317
 20
-0.3908748125695669
 30
0.0
 10
0.1759795046075498
 20
-0.3964598673678732
 30
0.0
 10
0.1970160828498057
 20
-0.417242635447656
 30
0.0
 10
0.2167650525884155
 20
-0.4392637918410656
 30
0.0
 10
0.2312067852074651
 20
-0.4553670952946203
 30
0.0
  0
SPLINE
  5
8B
330
70
100
AcDbEntity
  8
Jeff_KeyChain v1_Sketch1
100
AcDbSpline
210
0.0
220
0.0
230
1.0
 70
     8
 71
     3
 72
     9
 73
     5
 74
     0
 42
0.000000001
 43
0.0000000001
 40
0.0
 40
0.0
 40
0.0
 40
0.0
 40
0.0494239272355923
 40
0.1191152624181899
 40
0.1191152624181899
 40
0.1191152624181899
 40
0.1191152624181899
 10
0.8057109399983218
 20
0.2990865946390762
 30
0.0
 10
0.7897335574329972
 20
0.2950652396033615
 30
0.0
 10
0.7512269023881122
 20
0.2853734812355464
 30
0.0
 10
0.7124147804378294
 20
0.2769822315739284
 30
0.0
 10
0.6897067869777747
 20
0.2720727230785721
 30
0.0
  0
SPLINE
  5
8C
330
70
100
AcDbEntity
  8
Jeff_KeyChain v1_Sketch1
100
AcDbSpline
210
0.0
220
0.0
230
1.0
 70
     8
 71
     3
 72
     9
 73
     5
 74
     0
 42
0.000000001
 43
0.0000000001
 40
0.0
 40
0.0
 40
0.0
 40
0.0
 40
0.0694107254475126
 40
0.1179924916405482
 40
0.1179924916405482
 40
0.1179924916405482
 40
0.1179924916405482
 10
0.6897067869777747
 20
0.2720727230785721
 30
0.0
 10
0.6670894985834033
 20
0.2671864462743451
 30
0.0
 10
0.6286419792036689
 20
0.2588801798975134
 30
0.0
 10
0.5904943198909823
 20
0.2492957925538221
 30
0.0
 10
0.5747875521147208
 20
0.2453495544622222
 30
0.0
  0
SPLINE
  5
8D
330
70
100
AcDbEntity
  8
Jeff_KeyChain v1_Sketch1
100
AcDbSpline
210
0.0
220
0.0
230
1.0
 70
     8
 71
     3
 72
     9
 73
     5
 74
     0
 42
0.000000001
 43
0.0000000001
 40
0.0
 40
0.0
 40
0.0
 40
0.0
 40
0.0234247748780274
 40
0.0418975109471192
 40
0.0418975109471192
 40
0.0418975109471192
 40
0.0418975109471192
 10
0.7957867995904695
 20
-0.5360396663239302
 30
0.0
 10
0.7976747706558989
 20
-0.5446483670302501
 30
0.0
 10
0.8010515923668254
 20
-0.560045873899006
 30
0.0
 10
0.7877874094822679
 20
-0.5677467508927168
 30
0.0
 10
0.7819391921524162
 20
-0.5711420902575048
 30
0.0
  0
SPLINE
  5
8E
330
70
100
AcDbEntity
  8
Jeff_KeyChain v1_Sketch1
100
AcDbSpline
210
0.0
220
0.0
230
1.0
 70
     8
 71
     3
 72
     9
 73
     5
 74
     0
 42
0.000000001
 43
0.0000000001
 40
0.0
 40
0.0
 40
0.0
 40
0.0
 40
0.0391702364540626
 40
0.0938043229415962
 40
0.0938043229415962
 40
0.0938043229415962
 40
0.0938043229415962
 10
0.7692941324099079
 20
0.5044215211015648
 30
0.0
 10
0.7728107131974662
 20
0.4918467851800827
 30
0.0
 10
0.7812321706536456
 20
0.4617329871521502
 30
0.0
 10
0.7903966727723942
 20
0.4318363885203979
 30
0.0
 10
0.795734318050029
 20
0.4144238290123761
 30
0.0
  0
SPLINE
  5
8F
330
70
100
AcDbEntity
  8
Jeff_KeyChain v1_Sketch1
100
AcDbSpline
210
0.0
220
0.0
230
1.0
 70
     8
 71
     3
 72
     9
 73
     5
 74
     0
 42
0.000000001
 43
0.0000000001
 40
0.0
 40
0.0
 40
0.0
 40
0.0
 40
0.0115420764360977
 40
0.0200671612292066
 40
0.0200671612292066
 40
0.0200671612292066
 40
0.0200671612292066
 10
-1.260120029499643
 20
-1.120635586319859
 30
0.0
 10
-1.263639274165248
 20
-1.118805200303852
 30
0.0
 10
-1.269757865607673
 20
-1.115622874186169
 30
0.0
 10
-1.272905735456731
 20
-1.10955688122919
 30
0.0
 10
-1.274243037583044
 20
-1.106979879742932
 30
0.0
  0
SPLINE
  5
90
330
70
100
AcDbEntity
  8
Jeff_KeyChain v1_Sketch1
100
AcDbSpline
210
0.0
220
0.0
230
1.0
 70
     8
 71
     3
 72
     9
 73
     5
 74
     0
 42
0.000000001
 43
0.0000000001
 40
0.0
 40
0.0
 40
0.0
 40
0.0
 40
0.023565585475864
 40
0.0506776722245149
 40
0.0506776722245149
 40
0.0506776722245149
 40
0.0506776722245149
 10
0.5834245017440299
 20
-0.6243339412381463
 30
0.0
 10
0.5747387776852171
 20
-0.6247804211007699
 30
0.0
 10
0.5560601720831664
 20
-0.6257405737842705
 30
0.0
 10
0.5496428099027702
 20
-0.6078398799626923
 30
0.0
 10
0.5462095803858032
 20
-0.5982631740397855
 30
0.0
  0
LINE
  5
91
330
70
100
AcDbEntity
  8
Jeff_KeyChain v1_Sketch1
100
AcDbLine
 10
0.7819391921524162
 20
-0.571142090257505
 30
0.0
 11
0.5834245017440299
 21
-0.6243339412381462
 31
0.0
  0
SPLINE
  5
92
330
70
100
AcDbEntity
  8
Jeff_KeyChain v1_Sketch1
100
AcDbSpline
210
0.0
220
0.0
230
1.0
 70
     8
 71
     3
 72
     9
 73
     5
 74
     0
 42
0.000000001
 43
0.0000000001
 40
0.0
 40
0.0
 40
0.0
 40
0.0
 40
0.0257475299713308
 40
0.0514950882156289
 40
0.0514950882156289
 40
0.0514950882156289
 40
0.0514950882156289
 10
-1.496778005417491
 20
0.4134519706492753
 30
0.0
 10
-1.497925777525716
 20
0.4229786157935913
 30
0.0
 10
-1.500221323002518
 20
0.4420319165432857
 30
0.0
 10
-1.482572901379557
 20
0.449570557652525
 30
0.0
 10
-1.473748685723214
 20
0.4533398802766601
 30
0.0
  0
SPLINE
  5
93
330
70
100
AcDbEntity
  8
Jeff_KeyChain v1_Sketch1
100
AcDbSpline
210
0.0
220
0.0
230
1.0
 70
     8
 71
     3
 72
     9
 73
     5
 74
     0
 42
0.000000001
 43
0.0000000001
 40
0.0
 40
0.0
 40
0.0
 40
0.0
 40
0.1725348409191016
 40
0.3502266906827053
 40
0.3502266906827053
 40
0.3502266906827053
 40
0.3502266906827053
 10
-0.1537391893523852
 20
-0.6242035314978248
 30
0.0
 10
-0.0987484243666974
 20
-0.604242803806341
 30
0.0
 10
0.0128767612274292
 20
-0.5637247289307583
 30
0.0
 10
0.0913730197813285
 20
-0.474521283610949
 30
0.0
 10
0.1311990688890503
 20
-0.4292628106679953
 30
0.0
  0
SPLINE
  5
94
330
70
100
AcDbEntity
  8
Jeff_KeyChain v1_Sketch1
100
AcDbSpline
210
0.0
220
0.0
230
1.0
 70
     8
 71
     3
 72
     9
 73
     5
 74
     0
 42
0.000000001
 43
0.0000000001
 40
0.0
 40
0.0
 40
0.0
 40
0.0
 40
0.1056324606938403
 40
0.2069469518460582
 40
0.2069469518460582
 40
0.2069469518460582
 40
0.2069469518460582
 10
-0.3574705600407044
 20
-0.6101960553584358
 30
0.0
 10
-0.3233608349475636
 20
-0.6210613842561584
 30
0.0
 10
-0.2565356981480749
 20
-0.6423478967677401
 30
0.0
 10
-0.187524718543326
 20
-0.6301669342403848
 30
0.0
 10
-0.1537391893523852
 20
-0.6242035314978248
 30
0.0
  0
SPLINE
  5
95
330
70
100
AcDbEntity
  8
Jeff_KeyChain v1_Sketch1
100
AcDbSpline
210
0.0
220
0.0
230
1.0
 70
     8
 71
     3
 72
     9
 73
     5
 74
     0
 42
0.000000001
 43
0.0000000001
 40
0.0
 40
0.0
 40
0.0
 40
0.0
 40
0.0100329677973229
 40
0.0241634374788998
 40
0.0241634374788998
 40
0.0241634374788998
 40
0.0241634374788998
 10
-1.274243037583044
 20
-1.106979879742932
 30
0.0
 10
-1.274340787302643
 20
-1.103570713000984
 30
0.0
 10
-1.274576208095953
 20
-1.095360062963197
 30
0.0
 10
-1.270137898340343
 20
-1.088353758354716
 30
0.0
 10
-1.267542431470456
 20
-1.084256560886994
 30
0.0
  0
SPLINE
  5
96
330
70
100
AcDbEntity
  8
Jeff_KeyChain v1_Sketch1
100
AcDbSpline
210
0.0
220
0.0
230
1.0
 70
     8
 71
     3
 72
     9
 73
     5
 74
     0
 42
0.000000001
 43
0.0000000001
 40
0.0
 40
0.0
 40
0.0
 40
0.0
 40
0.1594651706963758
 40
0.4271231855954886
 40
0.4271231855954886
 40
0.4271231855954886
 40
0.4271231855954886
 10
-1.166581545215698
 20
-0.81885799530321
 30
0.0
 10
-1.172402855720725
 20
-0.7659559534229446
 30
0.0
 10
-1.187995079880958
 20
-0.6242592521700581
 30
0.0
 10
-1.22588229012147
 20
-0.4866764376606319
 30
0.0
 10
-1.249624423129076
 20
-0.4004597576541727
 30
0.0
  0
SPLINE
  5
97
330
70
100
AcDbEntity
  8
Jeff_KeyChain v1_Sketch1
100
AcDbSpline
210
0.0
220
0.0
230
1.0
 70
     8
 71
     3
 72
     9
 73
     5
 74
     0
 42
0.000000001
 43
0.0000000001
 40
0.0
 40
0.0
 40
0.0
 40
0.0
 40
0.1378952637875118
 40
0.3405766174962772
 40
0.3405766174962772
 40
0.3405766174962772
 40
0.3405766174962772
 10
-1.294599726558221
 20
-0.2369487370640935
 30
0.0
 10
-1.307351246364358
 20
-0.1927840309712316
 30
0.0
 10
-1.338845217688879
 20
-0.083705112662608
 30
0.0
 10
-1.374481367996777
 20
0.0240971911893025
 30
0.0
 10
-1.395688881414673
 20
0.0882516743662567
 30
0.0
  0
LINE
  5
98
330
70
100
AcDbEntity
  8
Jeff_KeyChain v1_Sketch1
100
AcDbLine
 10
0.5747875521147208
 20
0.2453495544622221
 30
0.0
 11
0.6616966868156965
 21
-0.0789997518836666
 31
0.0
  0
SPLINE
  5
99
330
70
100
AcDbEntity
  8
Jeff_KeyChain v1_Sketch1
100
AcDbSpline
210
0.0
220
0.0
230
1.0
 70
     8
 71
     3
 72
     9
 73
     5
 74
     0
 42
0.000000001
 43
0.0000000001
 40
0.0
 40
0.0
 40
0.0
 40
0.0
 40
0.0074613652082093
 40
0.0121278770609787
 40
0.0121278770609787
 40
0.0121278770609787
 40
0.0121278770609787
 10
0.1583546699512077
 20
-0.3917573323665802
 30
0.0
 10
0.1607898285113598
 20
-0.391072275720955
 30
0.0
 10
0.1647479920400692
 20
-0.3899587686688124
 30
0.0
 10
0.1687762619622266
 20
-0.3906202793595479
 30
0.0
 10
0.170326242164317
 20
-0.3908748125695669
 30
0.0
  0
LINE
  5
9A
330
70
100
AcDbEntity
  8
Jeff_KeyChain v1_Sketch1
100
AcDbLine
 10
0.5462095803858031
 20
-0.5982631740397855
 30
0.0
 11
0.3462314090561279
 21
0.1480655217672764
 31
0.0
  0
SPLINE
  5
9B
330
70
100
AcDbEntity
  8
Jeff_KeyChain v1_Sketch1
100
AcDbSpline
210
0.0
220
0.0
230
1.0
 70
     8
 71
     3
 72
     9
 73
     5
 74
     0
 42
0.000000001
 43
0.0000000001
 40
0.0
 40
0.0
 40
0.0
 40
0.0
 40
0.0997523361968924
 40
0.206007285298263
 40
0.206007285298263
 40
0.206007285298263
 40
0.206007285298263
 10
-0.3796114961266452
 20
0.0582162326171257
 30
0.0
 10
-0.4113285892128955
 20
0.045700918029829
 30
0.0
 10
-0.4768303357720331
 20
0.0198544458460223
 30
0.0
 10
-0.5155122964071069
 20
-0.0391486062661595
 30
0.0
 10
-0.5354637741059181
 20
-0.0695813469817532
 30
0.0
  0
SPLINE
  5
9C
330
70
100
AcDbEntity
  8
Jeff_KeyChain v1_Sketch1
100
AcDbSpline
210
0.0
220
0.0
230
1.0
 70
     8
 71
     3
 72
     9
 73
     5
 74
     0
 42
0.000000001
 43
0.0000000001
 40
0.0
 40
0.0
 40
0.0
 40
0.0
 40
0.0978264186728288
 40
0.2048482217409212
 40
0.2048482217409212
 40
0.2048482217409212
 40
0.2048482217409212
 10
-0.5062941521960534
 20
-0.4756736648154386
 30
0.0
 10
-0.489415417782285
 20
-0.5044843656215388
 30
0.0
 10
-0.4540713995016881
 20
-0.564813885063291
 30
0.0
 10
-0.3906202544473307
 20
-0.5946226391729464
 30
0.0
 10
-0.3574705600407044
 20
-0.6101960553584358
 30
0.0
  0
SPLINE
  5
9D
330
70
100
AcDbEntity
  8
Jeff_KeyChain v1_Sketch1
100
AcDbSpline
210
0.0
220
0.0
230
1.0
 70
     8
 71
     3
 72
     9
 73
     5
 74
     0
 42
0.000000001
 43
0.0000000001
 40
0.0
 40
0.0
 40
0.0
 40
0.0
 40
0.1981949050918643
 40
0.3405809150140265
 40
0.3405809150140265
 40
0.3405809150140265
 40
0.3405809150140265
 10
-1.395688881414673
 20
0.0882516743662567
 30
0.0
 10
-1.416522311871251
 20
0.1509555415159497
 30
0.0
 10
-1.452322772052071
 20
0.258706749544541
 30
0.0
 10
-1.483671925120384
 20
0.3678307211392036
 30
0.0
 10
-1.496778005417491
 20
0.4134519706492753
 30
0.0
  0
SPLINE
  5
9E
330
70
100
AcDbEntity
  8
Jeff_KeyChain v1_Sketch1
100
AcDbSpline
210
0.0
220
0.0
230
1.0
 70
     8
 71
     3
 72
     9
 73
     5
 74
     0
 42
0.000000001
 43
0.0000000001
 40
0.0
 40
0.0
 40
0.0
 40
0.0
 40
0.0266856439366144
 40
0.0641123505495621
 40
0.0641123505495621
 40
0.0641123505495621
 40
0.0641123505495621
 10
-1.473748685723214
 20
0.4533398802766601
 30
0.0
 10
-1.465102219922132
 20
0.4554349337051814
 30
0.0
 10
-1.444329056352591
 20
0.4604683067108492
 30
0.0
 10
-1.423312838108564
 20
0.4643736994055874
 30
0.0
 10
-1.411044252920366
 20
0.4666535407363356
 30
0.0
  0
SPLINE
  5
9F
330
70
100
AcDbEntity
  8
Jeff_KeyChain v1_Sketch1
100
AcDbSpline
210
0.0
220
0.0
230
1.0
 70
     8
 71
     3
 72
     9
 73
     5
 74
     0
 42
0.000000001
 43
0.0000000001
 40
0.0
 40
0.0
 40
0.0
 40
0.0
 40
0.069929865137227
 40
0.1201892538038179
 40
0.1201892538038179
 40
0.1201892538038179
 40
0.1201892538038179
 10
0.6213747286607747
 20
0.4880399099055211
 30
0.0
 10
0.6440503931567814
 20
0.4934438254904917
 30
0.0
 10
0.6830233153829668
 20
0.5027315966094826
 30
0.0
 10
0.7218085450975509
 20
0.5127727335254433
 30
0.0
 10
0.7380273156868924
 20
0.5169716230845504
 30
0.0
  0
SPLINE
  5
A0
330
70
100
AcDbEntity
  8
Jeff_KeyChain v1_Sketch1
100
AcDbSpline
210
0.0
220
0.0
230
1.0
 70
     8
 71
     3
 72
     9
 73
     5
 74
     0
 42
0.000000001
 43
0.0000000001
 40
0.0
 40
0.0
 40
0.0
 40
0.0
 40
0.1393214549488583
 40
0.2381595019985715
 40
0.2381595019985715
 40
0.2381595019985715
 40
0.2381595019985715
 10
0.728741743203083
 20
-0.3075197091037984
 30
0.0
 10
0.7423209164964351
 20
-0.351932929920806
 30
0.0
 10
0.7655334873835531
 20
-0.4278539756478532
 30
0.0
 10
0.7869138024314056
 20
-0.5043098735840552
 30
0.0
 10
0.7957867995904695
 20
-0.5360396663239302
 30
0.0
  0
SPLINE
  5
A1
330
70
100
AcDbEntity
  8
Jeff_KeyChain v1_Sketch1
100
AcDbSpline
210
0.0
220
0.0
230
1.0
 70
     8
 71
     3
 72
     9
 73
     5
 74
     0
 42
0.000000001
 43
0.0000000001
 40
0.0
 40
0.0
 40
0.0
 40
0.0
 40
0.0374266977821
 40
0.0641123575531118
 40
0.0641123575531118
 40
0.0641123575531118
 40
0.0641123575531118
 10
-1.411044252920366
 20
0.4666535407363356
 30
0.0
 10
-1.398775664051479
 20
0.4689333473522792
 30
0.0
 10
-1.377759432247817
 20
0.4728386819282627
 30
0.0
 10
-1.356986262021668
 20
0.4778720384620274
 30
0.0
 10
-1.348339789263883
 20
0.4799670860486797
 30
0.0
  0
SPLINE
  5
A2
330
70
100
AcDbEntity
  8
Jeff_KeyChain v1_Sketch1
100
AcDbSpline
210
0.0
220
0.0
230
1.0
 70
     8
 71
     3
 72
     9
 73
     5
 74
     0
 42
0.000000001
 43
0.0000000001
 40
0.0
 40
0.0
 40
0.0
 40
0.0
 40
0.2373621159265485
 40
0.4530113584581745
 40
0.4530113584581745
 40
0.4530113584581745
 40
0.4530113584581745
 10
-0.0840419291654944
 20
-0.832247624354524
 30
0.0
 10
-0.1636776004639115
 20
-0.8482599722701202
 30
0.0
 10
-0.3156642117047226
 20
-0.8788199268485248
 30
0.0
 10
-0.457939667572645
 20
-0.8183417097813824
 30
0.0
 10
-0.5256677580849541
 20
-0.7895519643220608
 30
0.0
  0
SPLINE
  5
A3
330
70
100
AcDbEntity
  8
Jeff_KeyChain v1_Sketch1
100
AcDbSpline
210
0.0
220
0.0
230
1.0
 70
     8
 71
     3
 72
     9
 73
     5
 74
     0
 42
0.000000001
 43
0.0000000001
 40
0.0
 40
0.0
 40
0.0
 40
0.0
 40
0.0897820395639668
 40
0.1846766415516412
 40
0.1846766415516412
 40
0.1846766415516412
 40
0.1846766415516412
 10
-0.0872228910503648
 20
-0.1087605377647125
 30
0.0
 10
-0.0983905691305214
 20
-0.0801828431150071
 30
0.0
 10
-0.1213618592882126
 20
-0.0214001211271018
 30
0.0
 10
-0.1739710355783348
 20
0.0136522050863257
 30
0.0
 10
-0.201003836278008
 20
0.0316635600515134
 30
0.0
  0
SPLINE
  5
A4
330
70
100
AcDbEntity
  8
Jeff_KeyChain v1_Sketch1
100
AcDbSpline
210
0.0
220
0.0
230
1.0
 70
     8
 71
     3
 72
     9
 73
     5
 74
     0
 42
0.000000001
 43
0.0000000001
 40
0.0
 40
0.0
 40
0.0
 40
0.0
 40
0.0862720681989853
 40
0.1430636997720686
 40
0.1430636997720686
 40
0.1430636997720686
 40
0.1430636997720686
 10
-1.267542431470456
 20
-1.084256560886994
 30
0.0
 10
-1.251388339705802
 20
-1.060430211454157
 30
0.0
 10
-1.22460024730748
 20
-1.020919327189022
 30
0.0
 10
-1.202209636869352
 20
-0.9787818111925989
 30
0.0
 10
-1.193321293420073
 20
-0.962054589069262
 30
0.0
  0
SPLINE
  5
A5
330
70
100
AcDbEntity
  8
Jeff_KeyChain v1_Sketch1
100
AcDbSpline
210
0.0
220
0.0
230
1.0
 70
     8
 71
     3
 72
     9
 73
     5
 74
     0
 42
0.000000001
 43
0.0000000001
 40
0.0
 40
0.0
 40
0.0
 40
0.0
 40
0.070060638399443
 40
0.1463643163808731
 40
0.1463643163808731
 40
0.1463643163808731
 40
0.1463643163808731
 10
-1.193321293420073
 20
-0.962054589069262
 30
0.0
 10
-1.185661022447073
 20
-0.9398548548931962
 30
0.0
 10
-1.169657880741982
 20
-0.8934771884781154
 30
0.0
 10
-1.167635741244331
 20
-0.8444284366392375
 30
0.0
 10
-1.166581545215698
 20
-0.81885799530321
 30
0.0
  0
SPLINE
  5
A6
330
70
100
AcDbEntity
  8
Jeff_KeyChain v1_Sketch1
100
AcDbSpline
210
0.0
220
0.0
230
1.0
 70
     8
 71
     3
 72
     9
 73
     5
 74
     0
 42
0.000000001
 43
0.0000000001
 40
0.0
 40
0.0
 40
0.0
 40
0.0
 40
0.22968722186891
 40
0.4687315186697489
 40
0.4687315186697489
 40
0.4687315186697489
 40
0.4687315186697489
 10
0.279576164809983
 20
-0.5534408910867923
 30
0.0
 10
0.2350936890780071
 20
-0.6182551881175354
 30
0.0
 10
0.1443165956272479
 20
-0.7505242087079429
 30
0.0
 10
-0.0069160910337354
 20
-0.8046463472292087
 30
0.0
 10
-0.0840419291654944
 20
-0.832247624354524
 30
0.0
  0
SPLINE
  5
A7
330
70
100
AcDbEntity
  8
Jeff_KeyChain v1_Sketch1
100
AcDbSpline
210
0.0
220
0.0
230
1.0
 70
     8
 71
     3
 72
     9
 73
     5
 74
     0
 42
0.000000001
 43
0.0000000001
 40
0.0
 40
0.0
 40
0.0
 40
0.0
 40
0.0498870799905165
 40
0.0703268940414483
 40
0.0703268940414483
 40
0.0703268940414483
 40
0.0703268940414483
 10
-0.144326765475927
 20
-0.1473147483851596
 30
0.0
 10
-0.1278160626517846
 20
-0.141856024666704
 30
0.0
 10
-0.1045405683096821
 20
-0.1341607439522912
 30
0.0
 10
-0.0911226700598031
 20
-0.1144804267222479
 30
0.0
 10
-0.0872228910503648
 20
-0.1087605377647125
 30
0.0
  0
LINE
  5
A8
330
70
100
AcDbEntity
  8
Jeff_KeyChain v1_Sketch1
100
AcDbLine
 10
-1.249624423129076
 20
-0.4004597576541726
 30
0.0
 11
-1.294599726558221
 21
-0.2369487370640936
 31
0.0
  0
SPLINE
  5
A9
330
70
100
AcDbEntity
  8
Jeff_KeyChain v1_Sketch1
100
AcDbSpline
210
0.0
220
0.0
230
1.0
 70
     8
 71
     3
 72
     9
 73
     5
 74
     0
 42
0.000000001
 43
0.0000000001
 40
0.0
 40
0.0
 40
0.0
 40
0.0
 40
0.1826893277414243
 40
0.3992322561118887
 40
0.3992322561118887
 40
0.3992322561118887
 40
0.3992322561118887
 10
-0.5196189355926294
 20
-0.2827538926687978
 30
0.0
 10
-0.4612545270895618
 20
-0.2652267160828634
 30
0.0
 10
-0.3337103800319121
 20
-0.2269244554189114
 30
0.0
 10
-0.2109252311412995
 20
-0.1753102238804818
 30
0.0
 10
-0.144326765475927
 20
-0.1473147483851596
 30
0.0
  0
SPLINE
  5
AA
330
70
100
AcDbEntity
  8
Jeff_KeyChain v1_Sketch1
100
AcDbSpline
210
0.0
220
0.0
230
1.0
 70
     8
 71
     3
 72
     9
 73
     5
 74
     0
 42
0.000000001
 43
0.0000000001
 40
0.0
 40
0.0
 40
0.0
 40
0.0
 40
0.054353601949896
 40
0.0926815940075704
 40
0.0926815940075704
 40
0.0926815940075704
 40
0.0926815940075704
 10
0.795734318050029
 20
0.4144238290123761
 30
0.0
 10
0.8010471000577963
 20
0.3971014522240016
 30
0.0
 10
0.810106244023057
 20
0.3675640262733491
 30
0.0
 10
0.8184382179076315
 20
0.3378138540605589
 30
0.0
 10
0.8218838624532644
 20
0.3255108247860179
 30
0.0
  0
SPLINE
  5
AB
330
70
100
AcDbEntity
  8
Jeff_KeyChain v1_Sketch1
100
AcDbSpline
210
0.0
220
0.0
230
1.0
 70
     8
 71
     3
 72
     9
 73
     5
 74
     0
 42
0.000000001
 43
0.0000000001
 40
0.0
 40
0.0
 40
0.0
 40
0.0
 40
0.0988380470497133
 40
0.2381595019985715
 40
0.2381595019985715
 40
0.2381595019985715
 40
0.2381595019985715
 10
0.6616966868156964
 20
-0.0789997518836667
 30
0.0
 10
0.6705696839747608
 20
-0.1107295446235413
 30
0.0
 10
0.6919499990226137
 20
-0.1871854425597432
 30
0.0
 10
0.7151625699097322
 20
-0.2631064882867913
 30
0.0
 10
0.728741743203083
 20
-0.3075197091037984
 30
0.0
  0
SPLINE
  5
AC
330
70
100
AcDbEntity
  8
Jeff_KeyChain v1_Sketch1
100
AcDbSpline
210
0.0
220
0.0
230
1.0
 70
     8
 71
     3
 72
     9
 73
     5
 74
     0
 42
0.000000001
 43
0.0000000001
 40
0.0
 40
0.0
 40
0.0
 40
0.0
 40
0.0282454127192294
 40
0.0800647256689773
 40
0.0800647256689773
 40
0.0800647256689773
 40
0.0800647256689773
 10
0.346231409056128
 20
0.1480655217672764
 30
0.0
 10
0.3391113115623621
 20
0.1550523872460922
 30
0.0
 10
0.3189286129329796
 20
0.174857425090931
 30
0.0
 10
0.2907441120117893
 20
0.1649509041990951
 30
0.0
 10
0.2725026022662123
 20
0.1585392278703742
 30
0.0
  0
SPLINE
  5
AD
330
70
100
AcDbEntity
  8
Jeff_KeyChain v1_Sketch1
100
AcDbSpline
210
0.0
220
0.0
230
1.0
 70
     8
 71
     3
 72
     9
 73
     5
 74
     0
 42
0.000000001
 43
0.0000000001
 40
0.0
 40
0.0
 40
0.0
 40
0.0
 40
0.1995792427848266
 40
0.6984718973136896
 40
0.6984718973136896
 40
0.6984718973136896
 40
0.6984718973136896
 10
0.1480353497280853
 20
-0.2317494708027969
 30
0.0
 10
0.0866677986822056
 20
-0.2574664211332578
 30
0.0
 10
-0.1281015792070725
 20
-0.3474686019201889
 30
0.0
 10
-0.3487168325975829
 20
-0.4222558781827657
 30
0.0
 10
-0.5062941521960534
 20
-0.4756736648154386
 30
0.0
  0
SPLINE
  5
AE
330
70
100
AcDbEntity
  8
Jeff_KeyChain v1_Sketch1
100
AcDbSpline
210
0.0
220
0.0
230
1.0
 70
     8
 71
     3
 72
     9
 73
     5
 74
     0
 42
0.000000001
 43
0.0000000001
 40
0.0
 40
0.0
 40
0.0
 40
0.0
 40
0.1130860109134642
 40
0.3103802383516167
 40
0.3103802383516167
 40
0.3103802383516167
 40
0.3103802383516167
 10
0.4829413592879144
 20
0.7660286821149226
 30
0.0
 10
0.4766594684160164
 20
0.7284853166153975
 30
0.0
 10
0.4594179478214789
 20
0.6254423439423108
 30
0.0
 10
0.4891053064450111
 20
0.5242826991483343
 30
0.0
 10
0.5079761743695137
 20
0.459980235584479
 30
0.0
  0
SPLINE
  5
AF
330
70
100
AcDbEntity
  8
Jeff_KeyChain v1_Sketch1
100
AcDbSpline
210
0.0
220
0.0
230
1.0
 70
     8
 71
     3
 72
     9
 73
     5
 74
     0
 42
0.000000001
 43
0.0000000001
 40
0.0
 40
0.0
 40
0.0
 40
0.0
 40
0.0217929698494861
 40
0.0400424815682361
 40
0.0400424815682361
 40
0.0400424815682361
 40
0.0400424815682361
 10
-1.229673218853508
 20
0.5187397045166473
 30
0.0
 10
-1.221638783871791
 20
0.5203165383024678
 30
0.0
 10
-1.206876283997358
 20
0.523213818399718
 30
0.0
 10
-1.199913648348692
 20
0.5102287477361191
 30
0.0
 10
-1.196740400940257
 20
0.5043107528975544
 30
0.0
  0
SPLINE
  5
B0
330
70
100
AcDbEntity
  8
Jeff_KeyChain v1_Sketch1
100
AcDbSpline
210
0.0
220
0.0
230
1.0
 70
     8
 71
     3
 72
     9
 73
     5
 74
     0
 42
0.000000001
 43
0.0000000001
 40
0.0
 40
0.0
 40
0.0
 40
0.0
 40
0.0264050632623967
 40
0.0629914241916521
 40
0.0629914241916521
 40
0.0629914241916521
 40
0.0629914241916521
 10
-1.348339789263883
 20
0.4799670860486797
 30
0.0
 10
-1.339893911993826
 20
0.4824498396686167
 30
0.0
 10
-1.319745585420929
 20
0.4883726501872922
 30
0.0
 10
-1.299957403992437
 20
0.4954108774342345
 30
0.0
 10
-1.288464132373848
 20
0.4994987850448848
 30
0.0
  0
SPLINE
  5
B1
330
70
100
AcDbEntity
  8
Jeff_KeyChain v1_Sketch1
100
AcDbSpline
210
0.0
220
0.0
230
1.0
 70
     8
 71
     3
 72
     9
 73
     5
 74
     0
 42
0.000000001
 43
0.0000000001
 40
0.0
 40
0.0
 40
0.0
 40
0.0
 40
0.01080475747798
 40
0.0317267577554919
 40
0.0317267577554919
 40
0.0317267577554919
 40
0.0317267577554919
 10
0.2902474788641301
 20
-0.5238403058486759
 30
0.0
 10
0.2898071245415843
 20
-0.5274411885267254
 30
0.0
 10
0.2885140816439096
 20
-0.5380147097432131
 30
0.0
 10
0.2831279883565627
 20
-0.547310707158256
 30
0.0
 10
0.279576164809983
 20
-0.5534408910867923
 30
0.0
  0
SPLINE
  5
B2
330
70
100
AcDbEntity
  8
Jeff_KeyChain v1_Sketch1
100
AcDbSpline
210
0.0
220
0.0
230
1.0
 70
     8
 71
     3
 72
     9
 73
     5
 74
     0
 42
0.000000001
 43
0.0000000001
 40
0.0
 40
0.0
 40
0.0
 40
0.0
 40
0.0652922464046798
 40
0.0904533371984727
 40
0.0904533371984727
 40
0.0904533371984727
 40
0.0904533371984727
 10
0.2312067852074651
 20
-0.4553670952946203
 30
0.0
 10
0.2461297067984964
 20
-0.4712426366868668
 30
0.0
 10
0.26680334161715
 20
-0.4932359939051326
 30
0.0
 10
0.2851453469235312
 20
-0.5171799098681279
 30
0.0
 10
0.2902474788641301
 20
-0.5238403058486759
 30
0.0
  0
SPLINE
  5
B3
330
70
100
AcDbEntity
  8
Jeff_KeyChain v1_Sketch1
100
AcDbSpline
210
0.0
220
0.0
230
1.0
 70
     8
 71
     3
 72
     9
 73
     5
 74
     0
 42
0.000000001
 43
0.0000000001
 40
0.0
 40
0.0
 40
0.0
 40
0.0
 40
0.0169600275082652
 40
0.0346301878545654
 40
0.0346301878545654
 40
0.0346301878545654
 40
0.0346301878545654
 10
0.8218838624532644
 20
0.3255108247860179
 30
0.0
 10
0.8225185563000273
 20
0.3192385256841532
 30
0.0
 10
0.823814519241881
 20
0.3064313002199418
 30
0.0
 10
0.8118274030636737
 20
0.3015680719097783
 30
0.0
 10
0.8057109399983218
 20
0.2990865946390762
 30
0.0
  0
SPLINE
  5
B4
330
70
100
AcDbEntity
  8
Jeff_KeyChain v1_Sketch1
100
AcDbSpline
210
0.0
220
0.0
230
1.0
 70
     8
 71
     3
 72
     9
 73
     5
 74
     0
 42
0.000000001
 43
0.0000000001
 40
0.0
 40
0.0
 40
0.0
 40
0.0
 40
0.0716383410168308
 40
0.1398726581773848
 40
0.1398726581773848
 40
0.1398726581773848
 40
0.1398726581773848
 10
0.1886852947207442
 20
-0.1057535479000375
 30
0.0
 10
0.1926293273577744
 20
-0.1308753815853204
 30
0.0
 10
0.2003299848695139
 20
-0.1799253401127678
 30
0.0
 10
0.1651817654800862
 20
-0.2147573245072143
 30
0.0
 10
0.1480353497280853
 20
-0.2317494708027969
 30
0.0
  0
SPLINE
  5
B5
330
70
100
AcDbEntity
  8
Jeff_KeyChain v1_Sketch1
100
AcDbSpline
210
0.0
220
0.0
230
1.0
 70
     8
 71
     3
 72
     9
 73
     5
 74
     0
 42
0.000000001
 43
0.0000000001
 40
0.0
 40
0.0
 40
0.0
 40
0.0
 40
0.0567200744650525
 40
0.0791336197856193
 40
0.0791336197856193
 40
0.0791336197856193
 40
0.0791336197856193
 10
0.2725026022662123
 20
0.1585392278703742
 30
0.0
 10
0.2543674929406414
 20
0.1525810079416079
 30
0.0
 10
0.2290661008025792
 20
0.1442683335509458
 30
0.0
 10
0.2026084513399131
 20
0.1437603834879249
 30
0.0
 10
0.1951146740185465
 20
0.1436165133883521
 30
0.0
  0
SPLINE
  5
B6
330
70
100
AcDbEntity
  8
Jeff_KeyChain v1_Sketch1
100
AcDbSpline
210
0.0
220
0.0
230
1.0
 70
     8
 71
     3
 72
     9
 73
     5
 74
     0
 42
0.000000001
 43
0.0000000001
 40
0.0
 40
0.0
 40
0.0
 40
0.0
 40
0.1162140201694027
 40
0.2248237479075739
 40
0.2248237479075739
 40
0.2248237479075739
 40
0.2248237479075739
 10
-1.066685623410845
 20
-1.235065850175678
 30
0.0
 10
-1.09925091511364
 20
-1.21405462746433
 30
0.0
 10
-1.162250636848191
 20
-1.173407020306431
 30
0.0
 10
-1.228240902578783
 20
-1.137824895421276
 30
0.0
 10
-1.260120029499643
 20
-1.120635586319859
 30
0.0
  0
SPLINE
  5
B7
330
70
100
AcDbEntity
  8
Jeff_KeyChain v1_Sketch1
100
AcDbSpline
210
0.0
220
0.0
230
1.0
 70
     8
 71
     3
 72
     9
 73
     5
 74
     0
 42
0.000000001
 43
0.0000000001
 40
0.0
 40
0.0
 40
0.0
 40
0.0
 40
0.0123344094824625
 40
0.0418264215035363
 40
0.0418264215035363
 40
0.0418264215035363
 40
0.0418264215035363
 10
0.1951146740185465
 20
0.1436165133883521
 30
0.0
 10
0.1931595506122332
 20
0.1472458122712911
 30
0.0
 10
0.1865296575638338
 20
0.1595528939403363
 30
0.0
 10
0.1833485957082079
 20
0.1732344623965051
 30
0.0
 10
0.1811056136142706
 20
0.1828814024614673
 30
0.0
  0
SPLINE
  5
B8
330
70
100
AcDbEntity
  8
Jeff_KeyChain v1_Sketch1
100
AcDbSpline
210
0.0
220
0.0
230
1.0
 70
     8
 71
     3
 72
     9
 73
     5
 74
     0
 42
0.000000001
 43
0.0000000001
 40
0.0
 40
0.0
 40
0.0
 40
0.0
 40
0.0307484872969136
 40
0.0735977747424246
 40
0.0735977747424246
 40
0.0735977747424246
 40
0.0735977747424246
 10
0.1811056136142706
 20
0.1828814024614673
 30
0.0
 10
0.1783157140284128
 20
0.192744484738004
 30
0.0
 10
0.1716379741028284
 20
0.2163521796676794
 30
0.0
 10
0.1642176796253119
 20
0.2397378082091903
 30
0.0
 10
0.1598975173362989
 20
0.2533531318107001
 30
0.0
  0
SPLINE
  5
B9
330
70
100
AcDbEntity
  8
Jeff_KeyChain v1_Sketch1
100
AcDbSpline
210
0.0
220
0.0
230
1.0
 70
     8
 71
     3
 72
     9
 73
     5
 74
     0
 42
0.000000001
 43
0.0000000001
 40
0.0
 40
0.0
 40
0.0
 40
0.0
 40
0.042849292132186
 40
0.0735977794290996
 40
0.0735977794290996
 40
0.0735977794290996
 40
0.0735977794290996
 10
0.1598975173362989
 20
0.2533531318107001
 30
0.0
 10
0.1555773056134102
 20
0.2669684416955891
 30
0.0
 10
0.1481569265675373
 20
0.2903540456088494
 30
0.0
 10
0.141479199815433
 20
0.3139617462652605
 30
0.0
 10
0.1386893059109955
 20
0.3238248303062984
 30
0.0
  0
SPLINE
  5
BA
330
70
100
AcDbEntity
  8
Jeff_KeyChain v1_Sketch1
100
AcDbSpline
210
0.0
220
0.0
230
1.0
 70
     8
 71
     3
 72
     9
 73
     5
 74
     0
 42
0.000000001
 43
0.0000000001
 40
0.0
 40
0.0
 40
0.0
 40
0.0
 40
0.0407143842506027
 40
0.1483325729065844
 40
0.1483325729065844
 40
0.1483325729065844
 40
0.1483325729065844
 10
0.1386893059109955
 20
0.3238248303062984
 30
0.0
 10
0.1480818382065616
 20
0.3338432628613547
 30
0.0
 10
0.1823011566895329
 20
0.3703428908119013
 30
0.0
 10
0.2321508301822401
 20
0.382380095270356
 30
0.0
 10
0.2683177452519048
 20
0.391113323009326
 30
0.0
  0
SPLINE
  5
BB
330
70
100
AcDbEntity
  8
Jeff_KeyChain v1_Sketch1
100
AcDbSpline
210
0.0
220
0.0
230
1.0
 70
     8
 71
     3
 72
     9
 73
     5
 74
     0
 42
0.000000001
 43
0.0000000001
 40
0.0
 40
0.0
 40
0.0
 40
0.0
 40
0.0231521928757828
 40
0.0463042932315202
 40
0.0463042932315202
 40
0.0463042932315202
 40
0.0463042932315202
 10
0.1311990688890503
 20
-0.4292628106679953
 30
0.0
 10
0.1357250266646566
 20
-0.423011896149302
 30
0.0
 10
0.144776924129383
 20
-0.4105100920916185
 30
0.0
 10
0.1538287607060544
 20
-0.3980082439483295
 30
0.0
 10
0.1583546699512077
 20
-0.3917573323665802
 30
0.0
  0
SPLINE
  5
BC
330
70
100
AcDbEntity
  8
Jeff_KeyChain v1_Sketch1
100
AcDbSpline
210
0.0
220
0.0
230
1.0
 70
     8
 71
     3
 72
     9
 73
     5
 74
     0
 42
0.000000001
 43
0.0000000001
 40
0.0
 40
0.0
 40
0.0
 40
0.0
 40
0.2155398828082706
 40
0.4521864847647307
 40
0.4521864847647307
 40
0.4521864847647307
 40
0.4521864847647307
 10
-0.5256677580849541
 20
-0.7895519643220608
 30
0.0
 10
-0.5843239719182638
 20
-0.7451897416530482
 30
0.0
 10
-0.7073803028270369
 20
-0.6521211305742583
 30
0.0
 10
-0.7568690687053766
 20
-0.5055460927239699
 30
0.0
 10
-0.7827684457869828
 20
-0.4288377305601668
 30
0.0
  0
SPLINE
  5
BD
330
70
100
AcDbEntity
  8
Jeff_KeyChain v1_Sketch1
100
AcDbSpline
210
0.0
220
0.0
230
1.0
 70
     8
 71
     3
 72
     9
 73
     5
 74
     0
 42
0.000000001
 43
0.0000000001
 40
0.0
 40
0.0
 40
0.0
 40
0.0
 40
0.1067656122855428
 40
0.2070617238762508
 40
0.2070617238762508
 40
0.2070617238762508
 40
0.2070617238762508
 10
-0.5354637741059181
 20
-0.0695813469817532
 30
0.0
 10
-0.5508394556487036
 20
-0.1026611138686546
 30
0.0
 10
-0.5806591237784256
 20
-0.1668161672645669
 30
0.0
 10
-0.5699582412556881
 20
-0.2366240581506203
 30
0.0
 10
-0.5647749708398533
 20
-0.2704374539011742
 30
0.0
  0
SPLINE
  5
BE
330
70
100
AcDbEntity
  8
Jeff_KeyChain v1_Sketch1
100
AcDbSpline
210
0.0
220
0.0
230
1.0
 70
     8
 71
     3
 72
     9
 73
     5
 74
     0
 42
0.000000001
 43
0.0000000001
 40
0.0
 40
0.0
 40
0.0
 40
0.0
 40
0.219616966214022
 40
0.4369201762636096
 40
0.4369201762636096
 40
0.4369201762636096
 40
0.4369201762636096
 10
-0.7827684457869828
 20
-0.4288377305601668
 30
0.0
 10
-0.7962070166527358
 20
-0.355328673387141
 30
0.0
 10
-0.8229425774457657
 20
-0.2090850075598354
 30
0.0
 10
-0.7701721017963275
 20
-0.0701388860116985
 30
0.0
 10
-0.7439265897384273
 20
-0.0010337270452385
 30
0.0
  0
SPLINE
  5
BF
330
70
100
AcDbEntity
  8
Jeff_KeyChain v1_Sketch1
100
AcDbSpline
210
0.0
220
0.0
230
1.0
 70
     8
 71
     3
 72
     9
 73
     5
 74
     0
 42
0.000000001
 43
0.0000000001
 40
0.0
 40
0.0
 40
0.0
 40
0.0
 40
0.1975620010527345
 40
0.3944463349573048
 40
0.3944463349573048
 40
0.3944463349573048
 40
0.3944463349573048
 10
-0.4202324683680561
 20
0.2705633516760117
 30
0.0
 10
-0.3534347968571332
 20
0.2818224598060239
 30
0.0
 10
-0.2200685798175894
 20
0.3043020556448301
 30
0.0
 10
-0.0996203237321414
 20
0.2428206350183988
 30
0.0
 10
-0.0394996620154662
 20
0.2121327378958363
 30
0.0
  0
SPLINE
  5
C0
330
70
100
AcDbEntity
  8
Jeff_KeyChain v1_Sketch1
100
AcDbSpline
210
0.0
220
0.0
230
1.0
 70
     8
 71
     3
 72
     9
 73
     5
 74
     0
 42
0.000000001
 43
0.0000000001
 40
0.0
 40
0.0
 40
0.0
 40
0.0
 40
0.0118053099952045
 40
0.0277864717994126
 40
0.0277864717994126
 40
0.0277864717994126
 40
0.0277864717994126
 10
0.683754790547225
 20
0.8930842412721656
 30
0.0
 10
0.6835954987391215
 20
0.8888513794132258
 30
0.0
 10
0.6832205693780509
 20
0.8788883799899142
 30
0.0
 10
0.6737468473408353
 20
0.874937618492585
 30
0.0
 10
0.6682981136600073
 20
0.8726653703570738
 30
0.0
  0
SPLINE
  5
C1
330
70
100
AcDbEntity
  8
Jeff_KeyChain v1_Sketch1
100
AcDbSpline
210
0.0
220
0.0
230
1.0
 70
     8
 71
     3
 72
     9
 73
     5
 74
     0
 42
0.000000001
 43
0.0000000001
 40
0.0
 40
0.0
 40
0.0
 40
0.0
 40
0.0477327952924967
 40
0.1168208148021354
 40
0.1168208148021354
 40
0.1168208148021354
 40
0.1168208148021354
 10
0.5079761743695137
 20
0.459980235584479
 30
0.0
 10
0.5233824355409711
 20
0.4639570167577533
 30
0.0
 10
0.561087580862453
 20
0.47368975531004
 30
0.0
 10
0.5989706311971439
 20
0.4827070608005868
 30
0.0
 10
0.6213747286607747
 20
0.4880399099055211
 30
0.0
  0
SPLINE
  5
C2
330
70
100
AcDbEntity
  8
Jeff_KeyChain v1_Sketch1
100
AcDbSpline
210
0.0
220
0.0
230
1.0
 70
     8
 71
     3
 72
     9
 73
     5
 74
     0
 42
0.000000001
 43
0.0000000001
 40
0.0
 40
0.0
 40
0.0
 40
0.0
 40
0.2194058871133663
 40
0.4332840440375577
 40
0.4332840440375577
 40
0.4332840440375577
 40
0.4332840440375577
 10
-0.7439265897384273
 20
-0.0010337270452385
 30
0.0
 10
-0.7047735795519925
 20
0.0633732560076382
 30
0.0
 10
-0.6274539833779081
 20
0.1905645472193902
 30
0.0
 10
-0.4887163131282746
 20
0.2441248532162845
 30
0.0
 10
-0.4202324683680561
 20
0.2705633516760117
 30
0.0
  0
SPLINE
  5
C3
330
70
100
AcDbEntity
  8
Jeff_KeyChain v1_Sketch1
100
AcDbSpline
210
0.0
220
0.0
230
1.0
 70
     8
 71
     3
 72
     9
 73
     5
 74
     0
 42
0.000000001
 43
0.0000000001
 40
0.0
 40
0.0
 40
0.0
 40
0.0
 40
0.1963318859411283
 40
0.3986418796263723
 40
0.3986418796263723
 40
0.3986418796263723
 40
0.3986418796263723
 10
-0.0394996620154662
 20
0.2121327378958363
 30
0.0
 10
0.0132355552253514
 20
0.1709783610848556
 30
0.0
 10
0.1203117238395941
 20
0.0874164982313559
 30
0.0
 10
0.165667383790578
 20
-0.0407229979532268
 30
0.0
 10
0.1886852947207442
 20
-0.1057535479000375
 30
0.0
  0
SPLINE
  5
C4
330
70
100
AcDbEntity
  8
Jeff_KeyChain v1_Sketch1
100
AcDbSpline
210
0.0
220
0.0
230
1.0
 70
     8
 71
     3
 72
     9
 73
     5
 74
     0
 42
0.000000001
 43
0.0000000001
 40
0.0
 40
0.0
 40
0.0
 40
0.0
 40
0.0949731757509554
 40
0.1842571898351636
 40
0.1842571898351636
 40
0.1842571898351636
 40
0.1842571898351636
 10
-0.201003836278008
 20
0.0316635600515134
 30
0.0
 10
-0.230372815410514
 20
0.0454910983240837
 30
0.0
 10
-0.2873514888148168
 20
0.0723178662435121
 30
0.0
 10
-0.3494977740467118
 20
0.0628190143453209
 30
0.0
 10
-0.3796114961266452
 20
0.0582162326171257
 30
0.0
  0
SPLINE
  5
C5
330
70
100
AcDbEntity
  8
Jeff_KeyChain v1_Sketch1
100
AcDbSpline
210
0.0
220
0.0
230
1.0
 70
     8
 71
     3
 72
     9
 73
     5
 74
     0
 42
0.000000001
 43
0.0000000001
 40
0.0
 40
0.0
 40
0.0
 40
0.0
 40
0.0585822534311211
 40
0.10913883123141
 40
0.10913883123141
 40
0.10913883123141
 40
0.10913883123141
 10
0.5656903965809983
 20
0.8347077669989163
 30
0.0
 10
0.5477134957607693
 20
0.8261425878233502
 30
0.0
 10
0.5142225009667638
 20
0.8101856454089041
 30
0.0
 10
0.4928443833169563
 20
0.7800079502963487
 30
0.0
 10
0.4829413592879144
 20
0.7660286821149226
 30
0.0
  0
SPLINE
  5
C6
330
70
100
AcDbEntity
  8
Jeff_KeyChain v1_Sketch1
100
AcDbSpline
210
0.0
220
0.0
230
1.0
 70
     8
 71
     3
 72
     9
 73
     5
 74
     0
 42
0.000000001
 43
0.0000000001
 40
0.0
 40
0.0
 40
0.0
 40
0.0
 40
0.0391702398723383
 40
0.0938043190086516
 40
0.0938043190086516
 40
0.0938043190086516
 40
0.0938043190086516
 10
1.422331496553007
 20
0.6794023554510574
 30
0.0
 10
1.425848181443959
 20
0.6668276480495944
 30
0.0
 10
1.434269887117421
 20
0.6367139222115183
 30
0.0
 10
1.443434166902704
 20
0.6068172589178234
 30
0.0
 10
1.448771682193128
 20
0.5894046633618686
 30
0.0
  0
SPLINE
  5
C7
330
70
100
AcDbEntity
  8
Jeff_KeyChain v1_Sketch1
100
AcDbSpline
210
0.0
220
0.0
230
1.0
 70
     8
 71
     3
 72
     9
 73
     5
 74
     0
 42
0.000000001
 43
0.0000000001
 40
0.0
 40
0.0
 40
0.0
 40
0.0
 40
0.0716908257764119
 40
0.0977949209645895
 40
0.0977949209645895
 40
0.0977949209645895
 40
0.0977949209645895
 10
1.294041468531172
 20
1.156017882407321
 30
0.0
 10
1.30471543286458
 20
1.134635416449837
 30
0.0
 10
1.31927600581181
 20
1.10546715753116
 30
0.0
 10
1.333101885709956
 20
1.075945312054329
 30
0.0
 10
1.336792384984987
 20
1.068065137328927
 30
0.0
  0
CIRCLE
  5
C8
330
70
100
AcDbEntity
  8
Jeff_KeyChain v1_Sketch1
100
AcDbCircle
 10
0.0
 20
1.600000023841857
 30
0.0
 40
0.1499999999999999
  0
SPLINE
  5
C9
330
70
100
AcDbEntity
  8
Jeff_KeyChain v1_Sketch1
100
AcDbSpline
210
0.0
220
0.0
230
1.0
 70
     8
 71
     3
 72
     9
 73
     5
 74
     0
 42
0.000000001
 43
0.0000000001
 40
0.0
 40
0.0
 40
0.0
 40
0.0
 40
0.1130859238998201
 40
0.3103801513379725
 40
0.3103801513379725
 40
0.3103801513379725
 40
0.3103801513379725
 10
1.135978723431014
 20
0.941009516464415
 30
0.0
 10
1.129696925332517
 20
0.9034661701351311
 30
0.0
 10
1.112455650934715
 20
0.800423199678968
 30
0.0
 10
1.142142939882221
 20
0.6992635905569742
 30
0.0
 10
1.161013768807276
 20
0.6349611316412405
 30
0.0
  0
SPLINE
  5
CA
330
70
100
AcDbEntity
  8
Jeff_KeyChain v1_Sketch1
100
AcDbSpline
210
0.0
220
0.0
230
1.0
 70
     8
 71
     3
 72
     9
 73
     5
 74
     0
 42
0.000000001
 43
0.0000000001
 40
0.0
 40
0.0
 40
0.0
 40
0.0
 40
0.0100331963594824
 40
0.0211684932921907
 40
0.0211684932921907
 40
0.0211684932921907
 40
0.0211684932921907
 10
0.5790748598795257
 20
1.075477488998955
 30
0.0
 10
0.5826110925273853
 20
1.075789393237913
 30
0.0
 10
0.5900719967501038
 20
1.076447462965009
 30
0.0
 10
0.5949127917524884
 20
1.070659097195631
 30
0.0
 10
0.5974592030155801
 20
1.067614233741843
 30
0.0
  0
SPLINE
  5
CB
330
70
100
AcDbEntity
  8
Jeff_KeyChain v1_Sketch1
100
AcDbSpline
210
0.0
220
0.0
230
1.0
 70
     8
 71
     3
 72
     9
 73
     5
 74
     0
 42
0.000000001
 43
0.0000000001
 40
0.0
 40
0.0
 40
0.0
 40
0.0
 40
0.1393214549488583
 40
0.2381595019985715
 40
0.2381595019985715
 40
0.2381595019985715
 40
0.2381595019985715
 10
1.381779337640845
 20
-0.132538813047037
 30
0.0
 10
1.395358510934197
 20
-0.1769520338640445
 30
0.0
 10
1.418571081821315
 20
-0.2528730795910918
 30
0.0
 10
1.439951396869168
 20
-0.3293289775272938
 30
0.0
 10
1.448824394028231
 20
-0.3610587702671686
 30
0.0
  0
SPLINE
  5
CC
330
70
100
AcDbEntity
  8
Jeff_KeyChain v1_Sketch1
100
AcDbSpline
210
0.0
220
0.0
230
1.0
 70
     8
 71
     3
 72
     9
 73
     5
 74
     0
 42
0.000000001
 43
0.0000000001
 40
0.0
 40
0.0
 40
0.0
 40
0.0
 40
0.0494239272355923
 40
0.1191150242130219
 40
0.1191150242130219
 40
0.1191150242130219
 40
0.1191150242130219
 10
1.458748304141421
 20
0.4740674289885689
 30
0.0
 10
1.442770921718846
 20
0.4700460733208463
 30
0.0
 10
1.404264344023109
 20
0.4603543328113018
 30
0.0
 10
1.365452298156262
 20
0.4519631068194001
 30
0.0
 10
1.342744381415537
 20
0.4470536191353335
 30
0.0
  0
SPLINE
  5
CD
330
70
100
AcDbEntity
  8
Jeff_KeyChain v1_Sketch1
100
AcDbSpline
210
0.0
220
0.0
230
1.0
 70
     8
 71
     3
 72
     9
 73
     5
 74
     0
 42
0.000000001
 43
0.0000000001
 40
0.0
 40
0.0
 40
0.0
 40
0.0
 40
0.065185725443133
 40
0.116852712711278
 40
0.116852712711278
 40
0.116852712711278
 40
0.116852712711278
 10
0.2683177452519048
 20
0.391113323009326
 30
0.0
 10
0.2617540913326288
 20
0.4118288837731942
 30
0.0
 10
0.2499880066484215
 20
0.448963846284351
 30
0.0
 10
0.2394801749203665
 20
0.4864733810395024
 30
0.0
 10
0.2348340867336875
 20
0.5030584017006566
 30
0.0
  0
SPLINE
  5
CE
330
70
100
AcDbEntity
  8
Jeff_KeyChain v1_Sketch1
100
AcDbSpline
210
0.0
220
0.0
230
1.0
 70
     8
 71
     3
 72
     9
 73
     5
 74
     0
 42
0.000000001
 43
0.0000000001
 40
0.0
 40
0.0
 40
0.0
 40
0.0
 40
0.0407142798496303
 40
0.1483325869971115
 40
0.1483325869971115
 40
0.1483325869971115
 40
0.1483325869971115
 10
0.7917267852014267
 20
0.4988056955094253
 30
0.0
 10
0.8011192792587117
 20
0.5088241166796509
 30
0.0
 10
0.8353385494267616
 20
0.5453238002131594
 30
0.0
 10
0.8851882519934397
 20
0.5573609739654359
 30
0.0
 10
0.9213552245423359
 20
0.5660941882124531
 30
0.0
  0
SPLINE
  5
CF
330
70
100
AcDbEntity
  8
Jeff_KeyChain v1_Sketch1
100
AcDbSpline
210
0.0
220
0.0
230
1.0
 70
     8
 71
     3
 72
     9
 73
     5
 74
     0
 42
0.000000001
 43
0.0000000001
 40
0.0
 40
0.0
 40
0.0
 40
0.0
 40
0.1154274364322431
 40
0.2307534417299561
 40
0.2307534417299561
 40
0.2307534417299561
 40
0.2307534417299561
 10
1.025116832631324
 20
1.150812904945483
 30
0.0
 10
1.057278067429634
 20
1.172316655838039
 30
0.0
 10
1.121572275543247
 20
1.215305261337162
 30
0.0
 10
1.195276527328864
 20
1.238744111448844
 30
0.0
 10
1.232112454317288
 20
1.250458385055716
 30
0.0
  0
SPLINE
  5
D0
330
70
100
AcDbEntity
  8
Jeff_KeyChain v1_Sketch1
100
AcDbSpline
210
0.0
220
0.0
230
1.0
 70
     8
 71
     3
 72
     9
 73
     5
 74
     0
 42
0.000000001
 43
0.0000000001
 40
0.0
 40
0.0
 40
0.0
 40
0.0
 40
0.0477327952924967
 40
0.1168205764544434
 40
0.1168205764544434
 40
0.1168205764544434
 40
0.1168205764544434
 10
1.161013768807276
 20
0.6349611316412405
 30
0.0
 10
1.176420029894202
 20
0.6389379131616007
 30
0.0
 10
1.214125098079585
 20
0.6486706327057857
 30
0.0
 10
1.252008072071155
 20
0.6576879158707817
 30
0.0
 10
1.274412092803874
 20
0.6630207442550136
 30
0.0
  0
SPLINE
  5
D1
330
70
100
AcDbEntity
  8
Jeff_KeyChain v1_Sketch1
100
AcDbSpline
210
0.0
220
0.0
230
1.0
 70
     8
 71
     3
 72
     9
 73
     5
 74
     0
 42
0.000000001
 43
0.0000000001
 40
0.0
 40
0.0
 40
0.0
 40
0.0
 40
0.1154272073629209
 40
0.2307532126606338
 40
0.2307532126606338
 40
0.2307532126606338
 40
0.2307532126606338
 10
0.3720794684882245
 20
0.9758320705959908
 30
0.0
 10
0.4042406260108394
 20
0.9973358007857964
 30
0.0
 10
0.4685347434098177
 20
1.040324407535014
 30
0.0
 10
0.5422389292714947
 20
1.063763221719175
 30
0.0
 10
0.5790748598795257
 20
1.075477488998955
 30
0.0
  0
SPLINE
  5
D2
330
70
100
AcDbEntity
  8
Jeff_KeyChain v1_Sketch1
100
AcDbSpline
210
0.0
220
0.0
230
1.0
 70
     8
 71
     3
 72
     9
 73
     5
 74
     0
 42
0.000000001
 43
0.0000000001
 40
0.0
 40
0.0
 40
0.0
 40
0.0
 40
0.0694109636509698
 40
0.1179924914742135
 40
0.1179924914742135
 40
0.1179924914742135
 40
0.1179924914742135
 10
1.342744381415537
 20
0.4470536191353335
 30
0.0
 10
1.320127016396436
 20
0.4421673211491588
 30
0.0
 10
1.281679498759241
 20
0.4338610472819156
 30
0.0
 10
1.243531837915098
 20
0.424276666536799
 30
0.0
 10
1.227825146552483
 20
0.4203304505189837
 30
0.0
  0
SPLINE
  5
D3
330
70
100
AcDbEntity
  8
Jeff_KeyChain v1_Sketch1
100
AcDbSpline
210
0.0
220
0.0
230
1.0
 70
     8
 71
     3
 72
     9
 73
     5
 74
     0
 42
0.000000001
 43
0.0000000001
 40
0.0
 40
0.0
 40
0.0
 40
0.0
 40
0.0988380470497133
 40
0.2381595019985715
 40
0.2381595019985715
 40
0.2381595019985715
 40
0.2381595019985715
 10
1.314734281253459
 20
0.0959811441730948
 30
0.0
 10
1.323607278412522
 20
0.06425135143322
 30
0.0
 10
1.344987593460375
 20
-0.012204546502982
 30
0.0
 10
1.368200164347495
 20
-0.0881255922300297
 30
0.0
 10
1.381779337640845
 20
-0.132538813047037
 30
0.0
  0
SPLINE
  5
D4
330
70
100
AcDbEntity
  8
Jeff_KeyChain v1_Sketch1
100
AcDbSpline
210
0.0
220
0.0
230
1.0
 70
     8
 71
     3
 72
     9
 73
     5
 74
     0
 42
0.000000001
 43
0.0000000001
 40
0.0
 40
0.0
 40
0.0
 40
0.0
 40
0.0123343850612949
 40
0.0418263970823688
 40
0.0418263970823688
 40
0.0418263970823688
 40
0.0418263970823688
 10
0.8481521533089777
 20
0.3185973785914792
 30
0.0
 10
0.8461970737404257
 20
0.32222669048105
 30
0.0
 10
0.8395673200919461
 20
0.3345338334374754
 30
0.0
 10
0.8363862190711476
 20
0.3482153731136411
 30
0.0
 10
0.8341432080520331
 20
0.3578622985182288
 30
0.0
  0
SPLINE
  5
D5
330
70
100
AcDbEntity
  8
Jeff_KeyChain v1_Sketch1
100
AcDbSpline
210
0.0
220
0.0
230
1.0
 70
     8
 71
     3
 72
     9
 73
     5
 74
     0
 42
0.000000001
 43
0.0000000001
 40
0.0
 40
0.0
 40
0.0
 40
0.0
 40
0.0550078081243333
 40
0.109404664612089
 40
0.109404664612089
 40
0.109404664612089
 40
0.109404664612089
 10
1.32133570809777
 20
1.047646266413835
 30
0.0
 10
1.304183088136384
 20
1.041165272906497
 30
0.0
 10
1.270068356099572
 20
1.028275267919918
 30
0.0
 10
1.235777615787676
 20
1.015861089725503
 30
0.0
 10
1.21872799101876
 20
1.009688663055677
 30
0.0
  0
SPLINE
  5
D6
330
70
100
AcDbEntity
  8
Jeff_KeyChain v1_Sketch1
100
AcDbSpline
210
0.0
220
0.0
230
1.0
 70
     8
 71
     3
 72
     9
 73
     5
 74
     0
 42
0.000000001
 43
0.0000000001
 40
0.0
 40
0.0
 40
0.0
 40
0.0
 40
0.0307484872969136
 40
0.0735977794290996
 40
0.0735977794290996
 40
0.0735977794290996
 40
0.0735977794290996
 10
0.8341432080520331
 20
0.3578622985182288
 30
0.0
 10
0.8313533141475959
 20
0.367725382559267
 30
0.0
 10
0.824675587395491
 20
0.3913330832156776
 30
0.0
 10
0.8172552083496187
 20
0.4147186871289382
 30
0.0
 10
0.8129349966267298
 20
0.4283339970138272
 30
0.0
  0
SPLINE
  5
D7
330
70
100
AcDbEntity
  8
Jeff_KeyChain v1_Sketch1
100
AcDbSpline
210
0.0
220
0.0
230
1.0
 70
     8
 71
     3
 72
     9
 73
     5
 74
     0
 42
0.000000001
 43
0.0000000001
 40
0.0
 40
0.0
 40
0.0
 40
0.0
 40
0.0567203128573394
 40
0.0791336252278223
 40
0.0791336252278223
 40
0.0791336252278223
 40
0.0791336252278223
 10
0.925540081556643
 20
0.3335200930735013
 30
0.0
 10
0.9074048979447217
 20
0.3275618256908191
 30
0.0
 10
0.8821035067659913
 20
0.3192491194606148
 30
0.0
 10
0.8556458533498689
 20
0.3187412300165445
 30
0.0
 10
0.8481521533089777
 20
0.3185973785914792
 30
0.0
  0
SPLINE
  5
D8
330
70
100
AcDbEntity
  8
Jeff_KeyChain v1_Sketch1
100
AcDbSpline
210
0.0
220
0.0
230
1.0
 70
     8
 71
     3
 72
     9
 73
     5
 74
     0
 42
0.000000001
 43
0.0000000001
 40
0.0
 40
0.0
 40
0.0
 40
0.0
 40
0.054353601949896
 40
0.0926815940075704
 40
0.0926815940075704
 40
0.0926815940075704
 40
0.0926815940075704
 10
1.448771682193128
 20
0.5894046633618686
 30
0.0
 10
1.454084464200895
 20
0.572082286573494
 30
0.0
 10
1.463143608166157
 20
0.5425448606228417
 30
0.0
 10
1.471475582050731
 20
0.5127946884100514
 30
0.0
 10
1.474921226596364
 20
0.5004916591355104
 30
0.0
  0
SPLINE
  5
D9
330
70
100
AcDbEntity
  8
Jeff_KeyChain v1_Sketch1
100
AcDbSpline
210
0.0
220
0.0
230
1.0
 70
     8
 71
     3
 72
     9
 73
     5
 74
     0
 42
0.000000001
 43
0.0000000001
 40
0.0
 40
0.0
 40
0.0
 40
0.0
 40
0.0585824831025314
 40
0.1091390609028202
 40
0.1091390609028202
 40
0.1091390609028202
 40
0.1091390609028202
 10
1.21872799101876
 20
1.009688663055677
 30
0.0
 10
1.200751003848882
 20
1.001123476074756
 30
0.0
 10
1.167259909008321
 20
0.9851665480982017
 30
0.0
 10
1.145881747115114
 20
0.9549887861761801
 30
0.0
 10
1.135978723431014
 20
0.941009516464415
 30
0.0
  0
SPLINE
  5
DA
330
70
100
AcDbEntity
  8
Jeff_KeyChain v1_Sketch1
100
AcDbSpline
210
0.0
220
0.0
230
1.0
 70
     8
 71
     3
 72
     9
 73
     5
 74
     0
 42
0.000000001
 43
0.0000000001
 40
0.0
 40
0.0
 40
0.0
 40
0.0
 40
0.0716908257764119
 40
0.0977948786533377
 40
0.0977948786533377
 40
0.0977948786533377
 40
0.0977948786533377
 10
0.6410041043880721
 20
0.9810370480578285
 30
0.0
 10
0.6516781400028569
 20
0.9596546156771543
 30
0.0
 10
0.666238803886754
 20
0.9304864151810004
 30
0.0
 10
0.6800643774312345
 20
0.9009644409911576
 30
0.0
 10
0.683754790547225
 20
0.8930842412721656
 30
0.0
  0
LINE
  5
DB
330
70
100
AcDbEntity
  8
Jeff_KeyChain v1_Sketch1
100
AcDbLine
 10
1.199247059676234
 20
-0.4232823088366587
 30
0.0
 11
0.9992688883465595
 21
0.3230463869704032
 31
0.0
  0
LINE
  5
DC
330
70
100
AcDbEntity
  8
Jeff_KeyChain v1_Sketch1
100
AcDbLine
 10
1.434976786590178
 20
-0.3961611942007435
 30
0.0
 11
1.236462096181792
 21
-0.4493530451813849
 31
0.0
  0
SPLINE
  5
DD
330
70
100
AcDbEntity
  8
Jeff_KeyChain v1_Sketch1
100
AcDbSpline
210
0.0
220
0.0
230
1.0
 70
     8
 71
     3
 72
     9
 73
     5
 74
     0
 42
0.000000001
 43
0.0000000001
 40
0.0
 40
0.0
 40
0.0
 40
0.0
 40
0.0254433630166099
 40
0.0969138961649947
 40
0.0969138961649947
 40
0.0969138961649947
 40
0.0969138961649947
 10
0.5974592030155801
 20
1.067614233741843
 30
0.0
 10
0.6013826480814726
 20
1.060094982495589
 30
0.0
 10
0.6163270698340822
 20
1.031454117133481
 30
0.0
 10
0.6305299719324378
 20
1.002436501803695
 30
0.0
 10
0.6410041043880721
 20
0.9810370480578285
 30
0.0
  0
SPLINE
  5
DE
330
70
100
AcDbEntity
  8
Jeff_KeyChain v1_Sketch1
100
AcDbSpline
210
0.0
220
0.0
230
1.0
 70
     8
 71
     3
 72
     9
 73
     5
 74
     0
 42
0.000000001
 43
0.0000000001
 40
0.0
 40
0.0
 40
0.0
 40
0.0
 40
0.069929865137227
 40
0.1201894922075188
 40
0.1201894922075188
 40
0.1201894922075188
 40
0.1201894922075188
 10
1.274412092803874
 20
0.6630207442550136
 30
0.0
 10
1.297087757346997
 20
0.668424659660468
 30
0.0
 10
1.336060756959652
 20
0.6777124488938579
 30
0.0
 10
1.374846062898554
 20
0.6877536085037903
 30
0.0
 10
1.391064910124654
 20
0.6919525191413119
 30
0.0
  0
LINE
  5
DF
330
70
100
AcDbEntity
  8
Jeff_KeyChain v1_Sketch1
100
AcDbLine
 10
1.227825146552483
 20
0.4203304505189837
 30
0.0
 11
1.314734281253459
 21
0.0959811441730949
 31
0.0
  0
SPLINE
  5
E0
330
70
100
AcDbEntity
  8
Jeff_KeyChain v1_Sketch1
100
AcDbSpline
210
0.0
220
0.0
230
1.0
 70
     8
 71
     3
 72
     9
 73
     5
 74
     0
 42
0.000000001
 43
0.0000000001
 40
0.0
 40
0.0
 40
0.0
 40
0.0
 40
0.0234247748780274
 40
0.0418975109471192
 40
0.0418975109471192
 40
0.0418975109471192
 40
0.0418975109471192
 10
1.448824394028231
 20
-0.3610587702671686
 30
0.0
 10
1.450712365093662
 20
-0.3696674709734882
 30
0.0
 10
1.454089186804588
 20
-0.3850649778422446
 30
0.0
 10
1.440825003920029
 20
-0.3927658548359554
 30
0.0
 10
1.434976786590178
 20
-0.3961611942007435
 30
0.0
  0
SPLINE
  5
E1
330
70
100
AcDbEntity
  8
Jeff_KeyChain v1_Sketch1
100
AcDbSpline
210
0.0
220
0.0
230
1.0
 70
     8
 71
     3
 72
     9
 73
     5
 74
     0
 42
0.000000001
 43
0.0000000001
 40
0.0
 40
0.0
 40
0.0
 40
0.0
 40
0.0651857208221766
 40
0.1168527080903217
 40
0.1168527080903217
 40
0.1168527080903217
 40
0.1168527080903217
 10
0.9213552245423359
 20
0.5660941882124531
 30
0.0
 10
0.9147916195973788
 20
0.5868097625437981
 30
0.0
 10
0.9030256223363277
 20
0.623944750540134
 30
0.0
 10
0.8925177760006777
 20
0.6614542791552523
 30
0.0
 10
0.88787168117145
 20
0.6780392977574179
 30
0.0
  0
SPLINE
  5
E2
330
70
100
AcDbEntity
  8
Jeff_KeyChain v1_Sketch1
100
AcDbSpline
210
0.0
220
0.0
230
1.0
 70
     8
 71
     3
 72
     9
 73
     5
 74
     0
 42
0.000000001
 43
0.0000000001
 40
0.0
 40
0.0
 40
0.0
 40
0.0
 40
0.1072319508199716
 40
0.2277959348421121
 40
0.2277959348421121
 40
0.2277959348421121
 40
0.2277959348421121
 10
0.8809303068407219
 20
0.9773092303336429
 30
0.0
 10
0.8976759581556361
 20
1.009338662547211
 30
0.0
 10
0.9332492296167252
 20
1.077379711859102
 30
0.0
 10
0.9933223476110191
 20
1.125398390133258
 30
0.0
 10
1.025116832631324
 20
1.150812904945483
 30
0.0
  0
SPLINE
  5
E3
330
70
100
AcDbEntity
  8
Jeff_KeyChain v1_Sketch1
100
AcDbSpline
210
0.0
220
0.0
230
1.0
 70
     8
 71
     3
 72
     9
 73
     5
 74
     0
 42
0.000000001
 43
0.0000000001
 40
0.0
 40
0.0
 40
0.0
 40
0.0
 40
0.0118053099952045
 40
0.0277864717994126
 40
0.0277864717994126
 40
0.0277864717994126
 40
0.0277864717994126
 10
1.336792384984987
 20
1.068065137328927
 30
0.0
 10
1.336633093176883
 20
1.063832275469987
 30
0.0
 10
1.336258163815813
 20
1.053869276046675
 30
0.0
 10
1.326784441778598
 20
1.049918514549346
 30
0.0
 10
1.32133570809777
 20
1.047646266413835
 30
0.0
  0
SPLINE
  5
E4
330
70
100
AcDbEntity
  8
Jeff_KeyChain v1_Sketch1
100
AcDbSpline
210
0.0
220
0.0
230
1.0
 70
     8
 71
     3
 72
     9
 73
     5
 74
     0
 42
0.000000001
 43
0.0000000001
 40
0.0
 40
0.0
 40
0.0
 40
0.0
 40
0.0169600275082652
 40
0.0346301878545654
 40
0.0346301878545654
 40
0.0346301878545654
 40
0.0346301878545654
 10
1.474921226596364
 20
0.5004916591355104
 30
0.0
 10
1.475555920443127
 20
0.4942193600336458
 30
0.0
 10
1.47685188338498
 20
0.4814121345694343
 30
0.0
 10
1.464864767206773
 20
0.4765489062592709
 30
0.0
 10
1.458748304141421
 20
0.4740674289885689
 30
0.0
  0
SPLINE
  5
E5
330
70
100
AcDbEntity
  8
Jeff_KeyChain v1_Sketch1
100
AcDbSpline
210
0.0
220
0.0
230
1.0
 70
     8
 71
     3
 72
     9
 73
     5
 74
     0
 42
0.000000001
 43
0.0000000001
 40
0.0
 40
0.0
 40
0.0
 40
0.0
 40
0.042849292132186
 40
0.0735977794290996
 40
0.0735977794290996
 40
0.0735977794290996
 40
0.0735977794290996
 10
0.8129349966267298
 20
0.4283339970138272
 30
0.0
 10
0.8086147849038415
 20
0.4419493068987162
 30
0.0
 10
0.8011944058579691
 20
0.4653349108119766
 30
0.0
 10
0.7945166791058638
 20
0.4889426114683874
 30
0.0
 10
0.7917267852014267
 20
0.4988056955094253
 30
0.0
  0
SPLINE
  5
E6
330
70
100
AcDbEntity
  8
Jeff_KeyChain v1_Sketch1
100
AcDbSpline
210
0.0
220
0.0
230
1.0
 70
     8
 71
     3
 72
     9
 73
     5
 74
     0
 42
0.000000001
 43
0.0000000001
 40
0.0
 40
0.0
 40
0.0
 40
0.0
 40
0.023565585475864
 40
0.0506777043212062
 40
0.0506777043212062
 40
0.0506777043212062
 40
0.0506777043212062
 10
1.236462096181792
 20
-0.4493530451813848
 30
0.0
 10
1.227776379338192
 20
-0.4497995202439136
 30
0.0
 10
1.209097777422339
 20
-0.4507596632129394
 30
0.0
 10
1.202680334356297
 20
-0.4328590023819097
 30
0.0
 10
1.199247059676234
 20
-0.4232823088366587
 30
0.0
  0
SPLINE
  5
E7
330
70
100
AcDbEntity
  8
Jeff_KeyChain v1_Sketch1
100
AcDbSpline
210
0.0
220
0.0
230
1.0
 70
     8
 71
     3
 72
     9
 73
     5
 74
     0
 42
0.000000001
 43
0.0000000001
 40
0.0
 40
0.0
 40
0.0
 40
0.0
 40
0.0100329695174199
 40
0.0211682664501283
 40
0.0211682664501283
 40
0.0211682664501283
 40
0.0211682664501283
 10
1.232112454317288
 20
1.250458385055716
 30
0.0
 10
1.235648603134851
 20
1.250770246280918
 30
0.0
 10
1.243109419222003
 20
1.251428233081244
 30
0.0
 10
1.247950158120584
 20
1.245639930785044
 30
0.0
 10
1.250496567158679
 20
1.242595068091336
 30
0.0
  0
SPLINE
  5
E8
330
70
100
AcDbEntity
  8
Jeff_KeyChain v1_Sketch1
100
AcDbSpline
210
0.0
220
0.0
230
1.0
 70
     8
 71
     3
 72
     9
 73
     5
 74
     0
 42
0.000000001
 43
0.0000000001
 40
0.0
 40
0.0
 40
0.0
 40
0.0
 40
0.0254434143196759
 40
0.0969139001703308
 40
0.0969139001703308
 40
0.0969139001703308
 40
0.0969139001703308
 10
1.250496567158679
 20
1.242595068091336
 30
0.0
 10
1.254420101359523
 20
1.235075843762209
 30
0.0
 10
1.269364833111245
 20
1.206435137493956
 30
0.0
 10
1.283567509725978
 20
1.177417406445429
 30
0.0
 10
1.294041468531172
 20
1.156017882407321
 30
0.0
  0
SPLINE
  5
E9
330
70
100
AcDbEntity
  8
Jeff_KeyChain v1_Sketch1
100
AcDbSpline
210
0.0
220
0.0
230
1.0
 70
     8
 71
     3
 72
     9
 73
     5
 74
     0
 42
0.000000001
 43
0.0000000001
 40
0.0
 40
0.0
 40
0.0
 40
0.0
 40
0.173013405802129
 40
0.3030913056937277
 40
0.3030913056937277
 40
0.3030913056937277
 40
0.3030913056937277
 10
0.2348340867336875
 20
0.5030584017006566
 30
0.0
 10
0.220472238229092
 20
0.5599959829496079
 30
0.0
 10
0.1953126189773227
 20
0.6597413510254445
 30
0.0
 10
0.21810920245747
 20
0.7595104106050115
 30
0.0
 10
0.2278928275502907
 20
0.802328365130516
 30
0.0
  0
SPLINE
  5
EA
330
70
100
AcDbEntity
  8
Jeff_KeyChain v1_Sketch1
100
AcDbSpline
210
0.0
220
0.0
230
1.0
 70
     8
 71
     3
 72
     9
 73
     5
 74
     0
 42
0.000000001
 43
0.0000000001
 40
0.0
 40
0.0
 40
0.0
 40
0.0
 40
0.0282454850012448
 40
0.0800646797538935
 40
0.0800646797538935
 40
0.0800646797538935
 40
0.0800646797538935
 10
0.9992688883465593
 20
0.3230463869704033
 30
0.0
 10
0.9921487510183112
 20
0.3300332442759873
 30
0.0
 10
0.9719660026971252
 20
0.3498381969129503
 30
0.0
 10
0.9437815372171716
 20
0.3399317260651331
 30
0.0
 10
0.925540081556643
 20
0.3335200930735013
 30
0.0
  0
SPLINE
  5
EB
330
70
100
AcDbEntity
  8
Jeff_KeyChain v1_Sketch1
100
AcDbSpline
210
0.0
220
0.0
230
1.0
 70
     8
 71
     3
 72
     9
 73
     5
 74
     0
 42
0.000000001
 43
0.0000000001
 40
0.0
 40
0.0
 40
0.0
 40
0.0
 40
0.173013405802129
 40
0.3030912570635262
 40
0.3030912570635262
 40
0.3030912570635262
 40
0.3030912570635262
 10
0.88787168117145
 20
0.6780392977574179
 30
0.0
 10
0.8735098454313238
 20
0.7349768768335271
 30
0.0
 10
0.8483502525776174
 20
0.8347222250990165
 30
0.0
 10
0.8711467295470578
 20
0.9344912848655527
 30
0.0
 10
0.8809303068407219
 20
0.9773092303336429
 30
0.0
  0
SPLINE
  5
EC
330
70
100
AcDbEntity
  8
Jeff_KeyChain v1_Sketch1
100
AcDbSpline
210
0.0
220
0.0
230
1.0
 70
     8
 71
     3
 72
     9
 73
     5
 74
     0
 42
0.000000001
 43
0.0000000001
 40
0.0
 40
0.0
 40
0.0
 40
0.0
 40
0.1072318646743435
 40
0.227796059677378
 40
0.227796059677378
 40
0.227796059677378
 40
0.227796059677378
 10
0.2278928275502907
 20
0.802328365130516
 30
0.0
 10
0.2446384335960308
 20
0.8343577929179788
 30
0.0
 10
0.2802116569631132
 20
0.902398924776156
 30
0.0
 10
0.3402848863153047
 20
0.950417552167558
 30
0.0
 10
0.3720794684882245
 20
0.9758320705959908
 30
0.0
  0
SPLINE
  5
ED
330
70
100
AcDbEntity
  8
Jeff_KeyChain v1_Sketch1
100
AcDbSpline
210
0.0
220
0.0
230
1.0
 70
     8
 71
     3
 72
     9
 73
     5
 74
     0
 42
0.000000001
 43
0.0000000001
 40
0.0
 40
0.0
 40
0.0
 40
0.0
 40
0.0208369493017325
 40
0.0374280258215375
 40
0.0374280258215375
 40
0.0374280258215375
 40
0.0374280258215375
 10
1.391064910124654
 20
0.6919525191413119
 30
0.0
 10
1.398726966249296
 20
0.6936051711579524
 30
0.0
 10
1.412489807936264
 20
0.6965737200303006
 30
0.0
 10
1.419308784181878
 20
0.6846762569291583
 30
0.0
 10
1.422331496553007
 20
0.6794023554510574
 30
0.0
  0
ENDSEC
  0
SECTION
  2
OBJECTS
  0
DICTIONARY
  5
C
330
0
100
AcDbDictionary
281
     1
  3
ACAD_COLOR
350
63
  3
ACAD_DETAILVIEWSTYLE
350
6A
  3
ACAD_GROUP
350
D
  3
ACAD_LAYOUT
350
62
  3
ACAD_MATERIAL
350
10
  3
ACAD_MLEADERSTYLE
350
66
  3
ACAD_MLINESTYLE
350
5F
  3
ACAD_PLOTSETTINGS
350
61
  3
ACAD_PLOTSTYLENAME
350
E
  3
ACAD_SCALELIST
350
42
  3
ACAD_SECTIONVIEWSTYLE
350
68
  3
ACAD_TABLESTYLE
350
64
  3
ACAD_VISUALSTYLE
350
29
  3
ACDB_RECOMPOSE_DATA
350
F6
  3
AcDbVariableDictionary
350
EE
  0
DICTIONARY
  5
63
102
{ACAD_REACTORS
330
C
102
}
330
C
100
AcDbDictionary
281
     1
  0
DICTIONARY
  5
6A
102
{ACAD_REACTORS
330
C
102
}
330
C
100
AcDbDictionary
281
     1
  3
Imperial24
350
6B
  0
DICTIONARY
  5
D
102
{ACAD_REACTORS
330
C
102
}
330
C
100
AcDbDictionary
281
     1
  0
DICTIONARY
  5
62
102
{ACAD_REACTORS
330
C
102
}
330
C
100
AcDbDictionary
281
     1
  3
Layout1
350
6F
  3
Layout2
350
77
  3
Model
350
73
  0
DICTIONARY
  5
10
102
{ACAD_REACTORS
330
C
102
}
330
C
100
AcDbDictionary
281
     1
  3
ByBlock
350
19
  3
ByLayer
350
11
  3
Global
350
21
  0
DICTIONARY
  5
66
102
{ACAD_REACTORS
330
C
102
}
330
C
100
AcDbDictionary
281
     1
  3
Standard
350
67
  0
DICTIONARY
  5
5F
102
{ACAD_REACTORS
330
C
102
}
330
C
100
AcDbDictionary
281
     1
  3
Standard
350
60
  0
DICTIONARY
  5
61
102
{ACAD_REACTORS
330
C
102
}
330
C
100
AcDbDictionary
281
     1
  0
ACDBDICTIONARYWDFLT
  5
E
102
{ACAD_REACTORS
330
C
102
}
330
C
100
AcDbDictionary
281
     1
  3
Normal
350
F
100
AcDbDictionaryWithDefault
340
F
  0
DICTIONARY
  5
42
102
{ACAD_REACTORS
330
C
102
}
330
C
100
AcDbDictionary
281
     1
  3
A0
350
43
  3
A1
350
44
  3
A2
350
45
  3
A3
350
46
  3
A4
350
47
  3
A5
350
48
  3
A6
350
49
  3
A7
350
4A
  3
A8
350
4B
  3
A9
350
4C
  3
B0
350
4D
  3
B1
350
4E
  3
B2
350
4F
  3
B3
350
50
  3
B4
350
51
  3
B5
350
52
  3
B6
350
53
  0
DICTIONARY
  5
68
102
{ACAD_REACTORS
330
C
102
}
330
C
100
AcDbDictionary
281
     1
  3
Imperial24
350
69
  0
DICTIONARY
  5
64
102
{ACAD_REACTORS
330
C
102
}
330
C
100
AcDbDictionary
281
     1
  3
Standard
350
65
  0
DICTIONARY
  5
29
102
{ACAD_REACTORS
330
C
102
}
330
C
100
AcDbDictionary
281
     1
  3
2dWireframe
350
2F
  3
Basic
350
2E
  3
Brighten
350
35
  3
ColorChange
350
39
  3
Conceptual
350
32
  3
Dim
350
34
  3
EdgeColorOff
350
41
  3
Facepattern
350
38
  3
Flat
350
2A
  3
FlatWithEdges
350
2B
  3
Gouraud
350
2C
  3
GouraudWithEdges
350
2D
  3
Hidden
350
31
  3
JitterOff
350
3F
  3
Linepattern
350
37
  3
OverhangOff
350
40
  3
Realistic
350
33
  3
Shaded
350
3E
  3
Shaded with edges
350
3D
  3
Shades of Gray
350
3A
  3
Sketchy
350
3B
  3
Thicken
350
36
  3
Wireframe
350
30
  3
X-Ray
350
3C
  0
XRECORD
  5
F6
102
{ACAD_REACTORS
330
C
102
}
330
C
100
AcDbXrecord
280
     1
 90
        1
330
65
  0
DICTIONARY
  5
EE
102
{ACAD_REACTORS
330
C
102
}
330
C
100
AcDbDictionary
281
     1
  3
CANNOSCALE
350
F3
  3
CMLEADERSTYLE
350
F0
  3
CTABLESTYLE
350
EF
  3
CVIEWDETAILSTYLE
350
F1
  3
CVIEWSECTIONSTYLE
350
F2
  0
ACDBDETAILVIEWSTYLE
  5
6B
102
{ACAD_XDICTIONARY
360
F9
102
}
102
{ACAD_REACTORS
330
6A
102
}
330
6A
100
AcDbModelDocViewStyle
 70
     0
  3
Imperial24
290
     0
100
AcDbDetailViewStyle
 70
     0
 71
     0
 90
        3
 71
     1
340
55
 62
   256
 40
0.24
340
0
 62
   256
 40
0.24
300

 40
0.36
280
     3
 71
     2
340
5D
 90
       25
 62
   256
 71
     3
340
55
 62
   256
 40
0.24
 90
        1
 40
0.75
 90
        1
300
%<\AcVar ViewType \f "%tc1">% %<\AcVar ViewDetailId>%\PSCALE %<\AcVar ViewScale \f "%sn">%
 71
     4
340
5D
 90
       25
 62
   256
340
5D
 90
       25
 62
   256
280
     0
  0
LAYOUT
  5
6F
102
{ACAD_REACTORS
330
62
102
}
330
62
100
AcDbPlotSettings
  1

  2

  4

  6

 40
0.0
 41
0.0
 42
0.0
 43
0.0
 44
0.0
 45
0.0
 46
0.0
 47
0.0
 48
0.0
 49
0.0
140
0.0
141
0.0
142
1.0
143
1.0
 70
   688
 72
     0
 73
     0
 74
     5
  7

 75
    16
147
1.0
 76
     0
 77
     2
 78
   300
148
0.0
149
0.0
100
AcDbLayout
  1
Layout1
 70
     1
 71
     1
 10
0.0
 20
0.0
 11
12.0
 21
9.0
 12
0.0
 22
0.0
 32
0.0
 14
0.0
 24
0.0
 34
0.0
 15
0.0
 25
0.0
 35
0.0
146
0.0
 13
0.0
 23
0.0
 33
0.0
 16
1.0
 26
0.0
 36
0.0
 17
0.0
 27
1.0
 37
0.0
 76
     0
330
6C
  0
LAYOUT
  5
77
102
{ACAD_REACTORS
330
62
102
}
330
62
100
AcDbPlotSettings
  1

  2

  4

  6

 40
0.0
 41
0.0
 42
0.0
 43
0.0
 44
0.0
 45
0.0
 46
0.0
 47
0.0
 48
0.0
 49
0.0
140
0.0
141
0.0
142
1.0
143
1.0
 70
   688
 72
     0
 73
     0
 74
     5
  7

 75
    16
147
1.0
 76
     0
 77
     2
 78
   300
148
0.0
149
0.0
100
AcDbLayout
  1
Layout2
 70
     1
 71
     2
 10
0.0
 20
0.0
 11
12.0
 21
9.0
 12
0.0
 22
0.0
 32
0.0
 14
0.0
 24
0.0
 34
0.0
 15
0.0
 25
0.0
 35
0.0
146
0.0
 13
0.0
 23
0.0
 33
0.0
 16
1.0
 26
0.0
 36
0.0
 17
0.0
 27
1.0
 37
0.0
 76
     0
330
74
  0
LAYOUT
  5
73
102
{ACAD_REACTORS
330
62
102
}
330
62
100
AcDbPlotSettings
  1

  2

  4

  6

 40
0.0
 41
0.0
 42
0.0
 43
0.0
 44
0.0
 45
0.0
 46
0.0
 47
0.0
 48
0.0
 49
0.0
140
0.0
141
0.0
142
1.0
143
1.0
 70
  1712
 72
     0
 73
     0
 74
     0
  7

 75
     0
147
1.0
 76
     0
 77
     2
 78
   300
148
0.0
149
0.0
100
AcDbLayout
  1
Model
 70
     1
 71
     0
 10
0.0
 20
0.0
 11
12.0
 21
9.0
 12
0.0
 22
0.0
 32
0.0
 14
0.0
 24
0.0
 34
0.0
 15
0.0
 25
0.0
 35
0.0
146
0.0
 13
0.0
 23
0.0
 33
0.0
 16
1.0
 26
0.0
 36
0.0
 17
0.0
 27
1.0
 37
0.0
 76
     0
330
70
  0
MATERIAL
  5
19
102
{ACAD_XDICTIONARY
360
1A
102
}
102
{ACAD_REACTORS
330
10
102
}
330
10
100
AcDbMaterial
  1
ByBlock
 72
     0
 43
0.0208333333333333
 43
0.0
 43
0.0
 43
0.0
 43
0.0
 43
0.0208333333333333
 43
0.0
 43
0.0
 43
0.0
 43
0.0
 43
1.0
 43
0.0
 43
0.0
 43
0.0
 43
0.0
 43
1.0
 77
     0
 47
0.0208333333333333
 47
0.0
 47
0.0
 47
0.0
 47
0.0
 47
0.0208333333333333
 47
0.0
 47
0.0
 47
0.0
 47
0.0
 47
1.0
 47
0.0
 47
0.0
 47
0.0
 47
0.0
 47
1.0
171
     0
 49
0.0208333333333333
 49
0.0
 49
0.0
 49
0.0
 49
0.0
 49
0.0208333333333333
 49
0.0
 49
0.0
 49
0.0
 49
0.0
 49
1.0
 49
0.0
 49
0.0
 49
0.0
 49
0.0
 49
1.0
175
     0
142
0.0208333333333333
142
0.0
142
0.0
142
0.0
142
0.0
142
0.0208333333333333
142
0.0
142
0.0
142
0.0
142
0.0
142
1.0
142
0.0
142
0.0
142
0.0
142
0.0
142
1.0
179
     0
144
0.0208333333333333
144
0.0
144
0.0
144
0.0
144
0.0
144
0.0208333333333333
144
0.0
144
0.0
144
0.0
144
0.0
144
1.0
144
0.0
144
0.0
144
0.0
144
0.0
144
1.0
147
0.0208333333333333
147
0.0
147
0.0
147
0.0
147
0.0
147
0.0208333333333333
147
0.0
147
0.0
147
0.0
147
0.0
147
1.0
147
0.0
147
0.0
147
0.0
147
0.0
147
1.0
  0
MATERIAL
  5
11
102
{ACAD_XDICTIONARY
360
12
102
}
102
{ACAD_REACTORS
330
10
102
}
330
10
100
AcDbMaterial
  1
ByLayer
 72
     0
 43
0.0208333333333333
 43
0.0
 43
0.0
 43
0.0
 43
0.0
 43
0.0208333333333333
 43
0.0
 43
0.0
 43
0.0
 43
0.0
 43
1.0
 43
0.0
 43
0.0
 43
0.0
 43
0.0
 43
1.0
 77
     0
 47
0.0208333333333333
 47
0.0
 47
0.0
 47
0.0
 47
0.0
 47
0.0208333333333333
 47
0.0
 47
0.0
 47
0.0
 47
0.0
 47
1.0
 47
0.0
 47
0.0
 47
0.0
 47
0.0
 47
1.0
171
     0
 49
0.0208333333333333
 49
0.0
 49
0.0
 49
0.0
 49
0.0
 49
0.0208333333333333
 49
0.0
 49
0.0
 49
0.0
 49
0.0
 49
1.0
 49
0.0
 49
0.0
 49
0.0
 49
0.0
 49
1.0
175
     0
142
0.0208333333333333
142
0.0
142
0.0
142
0.0
142
0.0
142
0.0208333333333333
142
0.0
142
0.0
142
0.0
142
0.0
142
1.0
142
0.0
142
0.0
142
0.0
142
0.0
142
1.0
179
     0
144
0.0208333333333333
144
0.0
144
0.0
144
0.0
144
0.0
144
0.0208333333333333
144
0.0
144
0.0
144
0.0
144
0.0
144
1.0
144
0.0
144
0.0
144
0.0
144
0.0
144
1.0
147
0.0208333333333333
147
0.0
147
0.0
147
0.0
147
0.0
147
0.0208333333333333
147
0.0
147
0.0
147
0.0
147
0.0
147
1.0
147
0.0
147
0.0
147
0.0
147
0.0
147
1.0
  0
MATERIAL
  5
21
102
{ACAD_XDICTIONARY
360
22
102
}
102
{ACAD_REACTORS
330
10
102
}
330
10
100
AcDbMaterial
  1
Global
 72
     0
 43
0.0208333333333333
 43
0.0
 43
0.0
 43
0.0
 43
0.0
 43
0.0208333333333333
 43
0.0
 43
0.0
 43
0.0
 43
0.0
 43
1.0
 43
0.0
 43
0.0
 43
0.0
 43
0.0
 43
1.0
 77
     0
 47
0.0208333333333333
 47
0.0
 47
0.0
 47
0.0
 47
0.0
 47
0.0208333333333333
 47
0.0
 47
0.0
 47
0.0
 47
0.0
 47
1.0
 47
0.0
 47
0.0
 47
0.0
 47
0.0
 47
1.0
171
     0
 49
0.0208333333333333
 49
0.0
 49
0.0
 49
0.0
 49
0.0
 49
0.0208333333333333
 49
0.0
 49
0.0
 49
0.0
 49
0.0
 49
1.0
 49
0.0
 49
0.0
 49
0.0
 49
0.0
 49
1.0
175
     0
142
0.0208333333333333
142
0.0
142
0.0
142
0.0
142
0.0
142
0.0208333333333333
142
0.0
142
0.0
142
0.0
142
0.0
142
1.0
142
0.0
142
0.0
142
0.0
142
0.0
142
1.0
179
     0
144
0.0208333333333333
144
0.0
144
0.0
144
0.0
144
0.0
144
0.0208333333333333
144
0.0
144
0.0
144
0.0
144
0.0
144
1.0
144
0.0
144
0.0
144
0.0
144
0.0
144
1.0
147
0.0208333333333333
147
0.0
147
0.0
147
0.0
147
0.0
147
0.0208333333333333
147
0.0
147
0.0
147
0.0
147
0.0
147
1.0
147
0.0
147
0.0
147
0.0
147
0.0
147
1.0
  0
MLEADERSTYLE
  5
67
102
{ACAD_REACTORS
330
66
102
}
330
66
100
AcDbMLeaderStyle
179
     2
170
     2
171
     1
172
     0
 90
        2
 40
0.0
 41
0.0
173
     1
 91
-1056964608
340
5B
 92
       -2
290
     1
 42
0.09
291
     1
 43
0.36
  3
Standard
 44
0.18
300

342
55
174
     1
178
     6
175
     1
176
     0
 93
-1056964608
 45
0.18
292
     0
297
     0
 46
0.18
 94
-1056964608
 47
1.0
 49
1.0
140
1.0
293
     1
141
0.0
294
     1
177
     0
142
1.0
295
     0
296
     0
143
0.125
271
     0
272
     9
273
     9
298
     1
  0
MLINESTYLE
  5
60
102
{ACAD_REACTORS
330
5F
102
}
330
5F
100
AcDbMlineStyle
  2
STANDARD
 70
     0
  3

 62
   256
 51
90.0
 52
90.0
 71
     2
 49
0.5
 62
   256
  6
BYLAYER
 49
-0.5
 62
   256
  6
BYLAYER
  0
ACDBPLACEHOLDER
  5
F
102
{ACAD_REACTORS
330
E
102
}
330
E
  0
SCALE
  5
43
102
{ACAD_REACTORS
330
42
102
}
330
42
100
AcDbScale
 70
     0
300
1:1
140
1.0
141
1.0
290
     1
  0
SCALE
  5
44
102
{ACAD_REACTORS
330
42
102
}
330
42
100
AcDbScale
 70
     0
300
1/128" = 1'-0"
140
0.0078125
141
12.0
290
     0
  0
SCALE
  5
45
102
{ACAD_REACTORS
330
42
102
}
330
42
100
AcDbScale
 70
     0
300
1/64" = 1'-0"
140
0.015625
141
12.0
290
     0
  0
SCALE
  5
46
102
{ACAD_REACTORS
330
42
102
}
330
42
100
AcDbScale
 70
     0
300
1/32" = 1'-0"
140
0.03125
141
12.0
290
     0
  0
SCALE
  5
47
102
{ACAD_REACTORS
330
42
102
}
330
42
100
AcDbScale
 70
     0
300
1/16" = 1'-0"
140
0.0625
141
12.0
290
     0
  0
SCALE
  5
48
102
{ACAD_REACTORS
330
42
102
}
330
42
100
AcDbScale
 70
     0
300
3/32" = 1'-0"
140
0.09375
141
12.0
290
     0
  0
SCALE
  5
49
102
{ACAD_REACTORS
330
42
102
}
330
42
100
AcDbScale
 70
     0
300
1/8" = 1'-0"
140
0.125
141
12.0
290
     0
  0
SCALE
  5
4A
102
{ACAD_REACTORS
330
42
102
}
330
42
100
AcDbScale
 70
     0
300
3/16" = 1'-0"
140
0.1875
141
12.0
290
     0
  0
SCALE
  5
4B
102
{ACAD_REACTORS
330
42
102
}
330
42
100
AcDbScale
 70
     0
300
1/4" = 1'-0"
140
0.25
141
12.0
290
     0
  0
SCALE
  5
4C
102
{ACAD_REACTORS
330
42
102
}
330
42
100
AcDbScale
 70
     0
300
3/8" = 1'-0"
140
0.375
141
12.0
290
     0
  0
SCALE
  5
4D
102
{ACAD_REACTORS
330
42
102
}
330
42
100
AcDbScale
 70
     0
300
1/2" = 1'-0"
140
0.5
141
12.0
290
     0
  0
SCALE
  5
4E
102
{ACAD_REACTORS
330
42
102
}
330
42
100
AcDbScale
 70
     0
300
3/4" = 1'-0"
140
0.75
141
12.0
290
     0
  0
SCALE
  5
4F
102
{ACAD_REACTORS
330
42
102
}
330
42
100
AcDbScale
 70
     0
300
1" = 1'-0"
140
1.0
141
12.0
290
     0
  0
SCALE
  5
50
102
{ACAD_REACTORS
330
42
102
}
330
42
100
AcDbScale
 70
     0
300
1-1/2" = 1'-0"
140
1.5
141
12.0
290
     0
  0
SCALE
  5
51
102
{ACAD_REACTORS
330
42
102
}
330
42
100
AcDbScale
 70
     0
300
3" = 1'-0"
140
3.0
141
12.0
290
     0
  0
SCALE
  5
52
102
{ACAD_REACTORS
330
42
102
}
330
42
100
AcDbScale
 70
     0
300
6" = 1'-0"
140
6.0
141
12.0
290
     0
  0
SCALE
  5
53
102
{ACAD_REACTORS
330
42
102
}
330
42
100
AcDbScale
 70
     0
300
1'-0" = 1'-0"
140
12.0
141
12.0
290
     0
  0
ACDBSECTIONVIEWSTYLE
  5
69
102
{ACAD_XDICTIONARY
360
F7
102
}
102
{ACAD_REACTORS
330
68
102
}
330
68
100
AcDbModelDocViewStyle
 70
     0
  3
Imperial24
290
     0
100
AcDbSectionViewStyle
 70
     0
 71
     0
 90
       78
 71
     1
340
55
 62
   256
 40
0.24
340
0
340
0
 62
   256
 40
0.24
300
I, O, Q, S, X, Z
 40
0.48
 90
        3
 40
0.18
 90
        1
 71
     2
340
5D
 90
       25
 62
   256
340
5D
 90
       50
 62
   256
 40
0.24
 40
0.0
 40
0.24
 71
     3
340
55
 62
   256
 40
0.24
 90
        1
 40
0.75
 90
        1
300
%<\AcVar ViewType \f "%tc1">% %<\AcVar ViewSectionStartId>%-%<\AcVar ViewSectionEndId>%\PSCALE %<\AcVar ViewScale \f "%sn">%
 71
     4
 62
   256
 62
   257
300
ANSI31
 40
1.0
 90
        0
290
     0
290
     0
 90
        6
 40
0.0
 40
1.570796326794896
 40
0.2617993877991494
 40
1.308996938995747
 40
-0.2617993877991494
 40
1.832595714594046
  0
TABLESTYLE
  5
65
102
{ACAD_XDICTIONARY
360
F4
102
}
102
{ACAD_REACTORS
330
64
102
}
330
64
100
AcDbTableStyle
280
     0
  3
Standard
 70
     0
 71
     0
 40
0.06
 41
0.06
280
     0
281
     0
  7
Standard
140
0.18
170
     2
 62
     0
 63
     7
283
     0
 90
      512
 91
        0
  1

274
    -2
284
     1
 64
     0
275
    -2
285
     1
 65
     0
276
    -2
286
     1
 66
     0
277
    -2
287
     1
 67
     0
278
    -2
288
     1
 68
     0
279
    -2
289
     1
 69
     0
  7
Standard
140
0.25
170
     5
 62
     0
 63
     7
283
     0
 90
      512
 91
        0
  1

274
    -2
284
     1
 64
     0
275
    -2
285
     1
 65
     0
276
    -2
286
     1
 66
     0
277
    -2
287
     1
 67
     0
278
    -2
288
     1
 68
     0
279
    -2
289
     1
 69
     0
  7
Standard
140
0.18
170
     5
 62
     0
 63
     7
283
     0
 90
      512
 91
        0
  1

274
    -2
284
     1
 64
     0
275
    -2
285
     1
 65
     0
276
    -2
286
     1
 66
     0
277
    -2
287
     1
 67
     0
278
    -2
288
     1
 68
     0
279
    -2
289
     1
 69
     0
  0
VISUALSTYLE
  5
2F
102
{ACAD_REACTORS
330
29
102
}
330
29
100
AcDbVisualStyle
  2
2dWireframe
 70
     4
177
     3
291
     0
 70
    58
 90
        0
176
     1
 90
        2
176
     1
 90
        0
176
     1
 90
        0
176
     1
 40
0.6
176
     1
 40
30.0
176
     1
 62
     7
420
 16777215
176
     1
 90
        1
176
     1
 90
        4
176
     1
 62
     7
176
     1
 62
   257
176
     1
 90
        1
176
     1
 90
        1
176
     1
 40
1.0
176
     1
 90
        0
176
     1
 62
   257
176
     1
 40
1.0
176
     1
 90
        1
176
     1
 90
        6
176
     1
 90
        2
176
     1
 62
     7
176
     1
 90
        5
176
     1
 90
        0
176
     1
 90
        0
176
     1
290
     0
176
     1
 90
        1
176
     1
 40
0.0
176
     1
 90
        0
176
     1
290
     1
176
     1
290
     1
176
     1
290
     0
176
     1
290
     0
176
     1
290
     0
176
     1
290
     0
176
     1
290
     0
176
     1
290
     0
176
     1
290
     0
176
     1
 90
       50
176
     1
 40
0.0
176
     1
 40
1.0
176
     1
 90
        0
176
     1
 62
    18
420
        0
176
     1
 90
       50
176
     1
 90
        3
176
     1
 62
     5
420
      255
176
     1
290
     0
176
     1
 90
       50
176
     1
 90
       50
176
     1
 90
       50
176
     1
290
     0
176
     1
 90
       50
176
     1
 62
   256
176
     0
 40
1.0
176
     0
 90
        2
176
     1
  1
strokes_ogs.tif
176
     1
290
     0
176
     1
 40
1.0
176
     1
 40
1.0
176
     1
1001
ACAD
1000
AcDbSavedByObjectVersion
1070
     0
  0
VISUALSTYLE
  5
2E
102
{ACAD_REACTORS
330
29
102
}
330
29
100
AcDbVisualStyle
  2
Basic
 70
     7
177
     3
291
     1
 70
    58
 90
        1
176
     1
 90
        0
176
     1
 90
        1
176
     1
 90
        0
176
     1
 40
0.6
176
     1
 40
30.0
176
     1
 62
     7
420
 16777215
176
     1
 90
        0
176
     1
 90
        4
176
     1
 62
     7
176
     1
 62
   257
176
     1
 90
        1
176
     1
 90
        1
176
     1
 40
1.0
176
     1
 90
        8
176
     1
 62
     7
176
     1
 40
1.0
176
     1
 90
        1
176
     1
 90
        6
176
     1
 90
        2
176
     1
 62
     7
176
     1
 90
        5
176
     1
 90
        0
176
     1
 90
        0
176
     1
290
     0
176
     1
 90
        1
176
     1
 40
0.0
176
     1
 90
        0
176
     1
290
     0
176
     1
290
     1
176
     1
290
     1
176
     1
290
     0
176
     1
290
     0
176
     1
290
     0
176
     1
290
     0
176
     1
290
     0
176
     1
290
     0
176
     1
 90
       50
176
     1
 40
0.0
176
     1
 40
1.0
176
     1
 90
        0
176
     1
 62
    18
420
        0
176
     1
 90
       50
176
     1
 90
        3
176
     1
 62
     5
420
      255
176
     1
290
     0
176
     1
 90
       50
176
     1
 90
       50
176
     1
 90
       50
176
     1
290
     0
176
     1
 90
       50
176
     1
 62
   256
176
     0
 40
1.0
176
     0
 90
        2
176
     1
  1
strokes_ogs.tif
176
     1
290
     0
176
     1
 40
1.0
176
     1
 40
1.0
176
     1
1001
ACAD
1000
AcDbSavedByObjectVersion
1070
     0
  0
VISUALSTYLE
  5
35
102
{ACAD_REACTORS
330
29
102
}
330
29
100
AcDbVisualStyle
  2
Brighten
 70
    12
177
     3
291
     1
 70
    58
 90
        2
176
     1
 90
        2
176
     1
 90
        0
176
     1
 90
        0
176
     1
 40
0.6
176
     1
 40
30.0
176
     1
 62
     7
420
 16777215
176
     1
 90
        1
176
     1
 90
        4
176
     1
 62
     7
176
     1
 62
   257
176
     1
 90
        1
176
     1
 90
        1
176
     1
 40
1.0
176
     1
 90
        8
176
     1
 62
     7
176
     1
 40
1.0
176
     1
 90
        1
176
     1
 90
        6
176
     1
 90
        2
176
     1
 62
     7
176
     1
 90
        5
176
     1
 90
        0
176
     1
 90
        0
176
     1
290
     0
176
     1
 90
        1
176
     1
 40
50.0
176
     1
 90
        0
176
     1
290
     0
176
     1
290
     1
176
     1
290
     1
176
     1
290
     0
176
     1
290
     0
176
     1
290
     0
176
     1
290
     0
176
     1
290
     0
176
     1
290
     0
176
     1
 90
       50
176
     1
 40
0.0
176
     1
 40
1.0
176
     1
 90
        0
176
     1
 62
    18
420
        0
176
     1
 90
       50
176
     1
 90
        3
176
     1
 62
     5
420
      255
176
     1
290
     0
176
     1
 90
       50
176
     1
 90
       50
176
     1
 90
       50
176
     1
290
     0
176
     1
 90
       50
176
     1
 62
   256
176
     0
 40
1.0
176
     0
 90
        2
176
     1
  1
strokes_ogs.tif
176
     1
290
     0
176
     1
 40
1.0
176
     1
 40
1.0
176
     1
1001
ACAD
1000
AcDbSavedByObjectVersion
1070
     0
  0
VISUALSTYLE
  5
39
102
{ACAD_REACTORS
330
29
102
}
330
29
100
AcDbVisualStyle
  2
ColorChange
 70
    16
177
     3
291
     1
 70
    58
 90
        2
176
     1
 90
        2
176
     1
 90
        3
176
     1
 90
        0
176
     1
 40
0.6
176
     1
 40
30.0
176
     1
 62
     8
420
  8421504
176
     1
 90
        1
176
     1
 90
        4
176
     1
 62
     7
176
     1
 62
   257
176
     1
 90
        1
176
     1
 90
        1
176
     1
 40
1.0
176
     1
 90
        8
176
     1
 62
     8
420
  8421504
176
     1
 40
1.0
176
     1
 90
        1
176
     1
 90
        6
176
     1
 90
        2
176
     1
 62
     7
176
     1
 90
        5
176
     1
 90
        0
176
     1
 90
        0
176
     1
290
     0
176
     1
 90
        1
176
     1
 40
0.0
176
     1
 90
        0
176
     1
290
     0
176
     1
290
     1
176
     1
290
     1
176
     1
290
     0
176
     1
290
     0
176
     1
290
     0
176
     1
290
     0
176
     1
290
     0
176
     1
290
     0
176
     1
 90
       50
176
     1
 40
0.0
176
     1
 40
1.0
176
     1
 90
        0
176
     1
 62
    18
420
        0
176
     1
 90
       50
176
     1
 90
        3
176
     1
 62
     5
420
      255
176
     1
290
     0
176
     1
 90
       50
176
     1
 90
       50
176
     1
 90
       50
176
     1
290
     0
176
     1
 90
       50
176
     1
 62
   256
176
     0
 40
1.0
176
     0
 90
        2
176
     1
  1
strokes_ogs.tif
176
     1
290
     0
176
     1
 40
1.0
176
     1
 40
1.0
176
     1
1001
ACAD
1000
AcDbSavedByObjectVersion
1070
     0
  0
VISUALSTYLE
  5
32
102
{ACAD_REACTORS
330
29
102
}
330
29
100
AcDbVisualStyle
  2
Conceptual
 70
     9
177
     3
291
     0
 70
    58
 90
        3
176
     1
 90
        2
176
     1
 90
        0
176
     1
 90
        0
176
     1
 40
0.6
176
     1
 40
30.0
176
     1
 62
     7
420
 16777215
176
     1
 90
        2
176
     1
 90
        2
176
     1
 62
     7
176
     1
 62
   257
176
     1
 90
        1
176
     1
 90
        1
176
     1
 40
179.0
176
     1
 90
        8
176
     1
 62
     7
176
     1
 40
1.0
176
     1
 90
        1
176
     1
 90
        6
176
     1
 90
        2
176
     1
 62
     7
176
     1
 90
        3
176
     1
 90
        0
176
     1
 90
        0
176
     1
290
     0
176
     1
 90
        1
176
     1
 40
0.0
176
     1
 90
        0
176
     1
290
     0
176
     1
290
     1
176
     1
290
     1
176
     1
290
     0
176
     1
290
     0
176
     1
290
     0
176
     1
290
     0
176
     1
290
     0
176
     1
290
     0
176
     1
 90
       50
176
     1
 40
0.0
176
     1
 40
1.0
176
     1
 90
        0
176
     1
 62
    18
420
        0
176
     1
 90
       50
176
     1
 90
        3
176
     1
 62
     5
420
      255
176
     1
290
     0
176
     1
 90
       50
176
     1
 90
       50
176
     1
 90
       50
176
     1
290
     0
176
     1
 90
       50
176
     1
 62
   256
176
     0
 40
1.0
176
     0
 90
        2
176
     1
  1
strokes_ogs.tif
176
     1
290
     0
176
     1
 40
1.0
176
     1
 40
1.0
176
     1
1001
ACAD
1000
AcDbSavedByObjectVersion
1070
     0
  0
VISUALSTYLE
  5
34
102
{ACAD_REACTORS
330
29
102
}
330
29
100
AcDbVisualStyle
  2
Dim
 70
    11
177
     3
291
     1
 70
    58
 90
        2
176
     1
 90
        2
176
     1
 90
        0
176
     1
 90
        0
176
     1
 40
0.6
176
     1
 40
30.0
176
     1
 62
     7
420
 16777215
176
     1
 90
        1
176
     1
 90
        4
176
     1
 62
     7
176
     1
 62
   257
176
     1
 90
        1
176
     1
 90
        1
176
     1
 40
1.0
176
     1
 90
        8
176
     1
 62
     7
176
     1
 40
1.0
176
     1
 90
        1
176
     1
 90
        6
176
     1
 90
        2
176
     1
 62
     7
176
     1
 90
        5
176
     1
 90
        0
176
     1
 90
        0
176
     1
290
     0
176
     1
 90
        1
176
     1
 40
-50.0
176
     1
 90
        0
176
     1
290
     0
176
     1
290
     1
176
     1
290
     1
176
     1
290
     0
176
     1
290
     0
176
     1
290
     0
176
     1
290
     0
176
     1
290
     0
176
     1
290
     0
176
     1
 90
       50
176
     1
 40
0.0
176
     1
 40
1.0
176
     1
 90
        0
176
     1
 62
    18
420
        0
176
     1
 90
       50
176
     1
 90
        3
176
     1
 62
     5
420
      255
176
     1
290
     0
176
     1
 90
       50
176
     1
 90
       50
176
     1
 90
       50
176
     1
290
     0
176
     1
 90
       50
176
     1
 62
   256
176
     0
 40
1.0
176
     0
 90
        2
176
     1
  1
strokes_ogs.tif
176
     1
290
     0
176
     1
 40
1.0
176
     1
 40
1.0
176
     1
1001
ACAD
1000
AcDbSavedByObjectVersion
1070
     0
  0
VISUALSTYLE
  5
41
102
{ACAD_REACTORS
330
29
102
}
330
29
100
AcDbVisualStyle
  2
EdgeColorOff
 70
    22
177
     3
291
     1
 70
    58
 90
        2
176
     0
 90
        2
176
     0
 90
        0
176
     0
 90
        0
176
     0
 40
0.6
176
     0
 40
30.0
176
     0
 62
     7
420
 16777215
176
     0
 90
        1
176
     0
 90
        4
176
     0
 62
     7
176
     0
 62
   257
176
     0
 90
        1
176
     0
 90
        1
176
     0
 40
1.0
176
     0
 90
        8
176
     2
 62
     7
176
     0
 40
1.0
176
     0
 90
        1
176
     0
 90
        6
176
     0
 90
        2
176
     0
 62
     7
176
     0
 90
        5
176
     0
 90
        0
176
     0
 90
        0
176
     0
290
     0
176
     0
 90
        1
176
     0
 40
0.0
176
     0
 90
        0
176
     0
290
     0
176
     0
290
     1
176
     0
290
     1
176
     0
290
     0
176
     0
290
     0
176
     0
290
     0
176
     0
290
     0
176
     0
290
     0
176
     0
290
     0
176
     0
 90
       50
176
     0
 40
0.0
176
     0
 40
1.0
176
     0
 90
        0
176
     0
 62
    18
420
        0
176
     0
 90
       50
176
     0
 90
        3
176
     0
 62
     5
420
      255
176
     0
290
     0
176
     0
 90
       50
176
     0
 90
       50
176
     0
 90
       50
176
     0
290
     0
176
     0
 90
       50
176
     0
 62
   256
176
     0
 40
1.0
176
     0
 90
        2
176
     0
  1
strokes_ogs.tif
176
     0
290
     0
176
     0
 40
1.0
176
     0
 40
1.0
176
     0
1001
ACAD
1000
AcDbSavedByObjectVersion
1070
     0
  0
VISUALSTYLE
  5
38
102
{ACAD_REACTORS
330
29
102
}
330
29
100
AcDbVisualStyle
  2
Facepattern
 70
    15
177
     3
291
     1
 70
    58
 90
        2
176
     1
 90
        2
176
     1
 90
        0
176
     1
 90
        0
176
     1
 40
0.6
176
     1
 40
30.0
176
     1
 62
     7
420
 16777215
176
     1
 90
        1
176
     1
 90
        4
176
     1
 62
     7
176
     1
 62
   257
176
     1
 90
        1
176
     1
 90
        1
176
     1
 40
1.0
176
     1
 90
        8
176
     1
 62
     7
176
     1
 40
1.0
176
     1
 90
        1
176
     1
 90
        6
176
     1
 90
        2
176
     1
 62
     7
176
     1
 90
        5
176
     1
 90
        0
176
     1
 90
        0
176
     1
290
     0
176
     1
 90
        1
176
     1
 40
0.0
176
     1
 90
        0
176
     1
290
     0
176
     1
290
     1
176
     1
290
     1
176
     1
290
     0
176
     1
290
     0
176
     1
290
     0
176
     1
290
     0
176
     1
290
     0
176
     1
290
     0
176
     1
 90
       50
176
     1
 40
0.0
176
     1
 40
1.0
176
     1
 90
        0
176
     1
 62
    18
420
        0
176
     1
 90
       50
176
     1
 90
        3
176
     1
 62
     5
420
      255
176
     1
290
     0
176
     1
 90
       50
176
     1
 90
       50
176
     1
 90
       50
176
     1
290
     0
176
     1
 90
       50
176
     1
 62
   256
176
     0
 40
1.0
176
     0
 90
        2
176
     1
  1
strokes_ogs.tif
176
     1
290
     0
176
     1
 40
1.0
176
     1
 40
1.0
176
     1
1001
ACAD
1000
AcDbSavedByObjectVersion
1070
     0
  0
VISUALSTYLE
  5
2A
102
{ACAD_REACTORS
330
29
102
}
330
29
100
AcDbVisualStyle
  2
Flat
 70
     0
177
     3
291
     1
 70
    58
 90
        2
176
     1
 90
        1
176
     1
 90
        1
176
     1
 90
        2
176
     1
 40
0.6
176
     1
 40
30.0
176
     1
 62
     7
420
 16777215
176
     1
 90
        0
176
     1
 90
        0
176
     1
 62
     7
176
     1
 62
   257
176
     1
 90
        1
176
     1
 90
        1
176
     1
 40
1.0
176
     1
 90
        8
176
     1
 62
     7
176
     1
 40
1.0
176
     1
 90
        1
176
     1
 90
        6
176
     1
 90
        2
176
     1
 62
     7
176
     1
 90
        5
176
     1
 90
        0
176
     1
 90
        0
176
     1
290
     0
176
     1
 90
       13
176
     1
 40
0.0
176
     1
 90
        0
176
     1
290
     0
176
     1
290
     1
176
     1
290
     1
176
     1
290
     0
176
     1
290
     0
176
     1
290
     0
176
     1
290
     0
176
     1
290
     0
176
     1
290
     0
176
     1
 90
       50
176
     1
 40
0.0
176
     1
 40
1.0
176
     1
 90
        0
176
     1
 62
    18
420
        0
176
     1
 90
       50
176
     1
 90
        3
176
     1
 62
     5
420
      255
176
     1
290
     0
176
     1
 90
       50
176
     1
 90
       50
176
     1
 90
       50
176
     1
290
     0
176
     1
 90
       50
176
     1
 62
   256
176
     0
 40
1.0
176
     0
 90
        2
176
     1
  1
strokes_ogs.tif
176
     1
290
     0
176
     1
 40
1.0
176
     1
 40
1.0
176
     1
1001
ACAD
1000
AcDbSavedByObjectVersion
1070
     0
  0
VISUALSTYLE
  5
2B
102
{ACAD_REACTORS
330
29
102
}
330
29
100
AcDbVisualStyle
  2
FlatWithEdges
 70
     1
177
     3
291
     1
 70
    58
 90
        2
176
     1
 90
        1
176
     1
 90
        1
176
     1
 90
        2
176
     1
 40
0.6
176
     1
 40
30.0
176
     1
 62
     7
420
 16777215
176
     1
 90
        1
176
     1
 90
        0
176
     1
 62
     7
176
     1
 62
   257
176
     1
 90
        1
176
     1
 90
        1
176
     1
 40
1.0
176
     1
 90
        0
176
     1
 62
   257
176
     1
 40
1.0
176
     1
 90
        1
176
     1
 90
        6
176
     1
 90
        2
176
     1
 62
     7
176
     1
 90
        5
176
     1
 90
        0
176
     1
 90
        0
176
     1
290
     0
176
     1
 90
       13
176
     1
 40
0.0
176
     1
 90
        0
176
     1
290
     0
176
     1
290
     1
176
     1
290
     1
176
     1
290
     0
176
     1
290
     0
176
     1
290
     0
176
     1
290
     0
176
     1
290
     0
176
     1
290
     0
176
     1
 90
       50
176
     1
 40
0.0
176
     1
 40
1.0
176
     1
 90
        0
176
     1
 62
    18
420
        0
176
     1
 90
       50
176
     1
 90
        3
176
     1
 62
     5
420
      255
176
     1
290
     0
176
     1
 90
       50
176
     1
 90
       50
176
     1
 90
       50
176
     1
290
     0
176
     1
 90
       50
176
     1
 62
   256
176
     0
 40
1.0
176
     0
 90
        2
176
     1
  1
strokes_ogs.tif
176
     1
290
     0
176
     1
 40
1.0
176
     1
 40
1.0
176
     1
1001
ACAD
1000
AcDbSavedByObjectVersion
1070
     0
  0
VISUALSTYLE
  5
2C
102
{ACAD_REACTORS
330
29
102
}
330
29
100
AcDbVisualStyle
  2
Gouraud
 70
     2
177
     3
291
     1
 70
    58
 90
        2
176
     1
 90
        2
176
     1
 90
        1
176
     1
 90
        2
176
     1
 40
0.6
176
     1
 40
30.0
176
     1
 62
     7
420
 16777215
176
     1
 90
        0
176
     1
 90
        0
176
     1
 62
     7
176
     1
 62
   257
176
     1
 90
        1
176
     1
 90
        1
176
     1
 40
1.0
176
     1
 90
        0
176
     1
 62
     7
176
     1
 40
1.0
176
     1
 90
        1
176
     1
 90
        6
176
     1
 90
        2
176
     1
 62
     7
176
     1
 90
        5
176
     1
 90
        0
176
     1
 90
        0
176
     1
290
     0
176
     1
 90
       13
176
     1
 40
0.0
176
     1
 90
        0
176
     1
290
     0
176
     1
290
     1
176
     1
290
     1
176
     1
290
     0
176
     1
290
     0
176
     1
290
     0
176
     1
290
     0
176
     1
290
     0
176
     1
290
     0
176
     1
 90
       50
176
     1
 40
0.0
176
     1
 40
1.0
176
     1
 90
        0
176
     1
 62
    18
420
        0
176
     1
 90
       50
176
     1
 90
        3
176
     1
 62
     5
420
      255
176
     1
290
     0
176
     1
 90
       50
176
     1
 90
       50
176
     1
 90
       50
176
     1
290
     0
176
     1
 90
       50
176
     1
 62
   256
176
     0
 40
1.0
176
     0
 90
        2
176
     1
  1
strokes_ogs.tif
176
     1
290
     0
176
     1
 40
1.0
176
     1
 40
1.0
176
     1
1001
ACAD
1000
AcDbSavedByObjectVersion
1070
     0
  0
VISUALSTYLE
  5
2D
102
{ACAD_REACTORS
330
29
102
}
330
29
100
AcDbVisualStyle
  2
GouraudWithEdges
 70
     3
177
     3
291
     1
 70
    58
 90
        2
176
     1
 90
        2
176
     1
 90
        1
176
     1
 90
        2
176
     1
 40
0.6
176
     1
 40
30.0
176
     1
 62
     7
420
 16777215
176
     1
 90
        1
176
     1
 90
        0
176
     1
 62
     7
176
     1
 62
   257
176
     1
 90
        1
176
     1
 90
        1
176
     1
 40
1.0
176
     1
 90
        0
176
     1
 62
   257
176
     1
 40
1.0
176
     1
 90
        1
176
     1
 90
        6
176
     1
 90
        2
176
     1
 62
     7
176
     1
 90
        5
176
     1
 90
        0
176
     1
 90
        0
176
     1
290
     0
176
     1
 90
       13
176
     1
 40
0.0
176
     1
 90
        0
176
     1
290
     0
176
     1
290
     1
176
     1
290
     1
176
     1
290
     0
176
     1
290
     0
176
     1
290
     0
176
     1
290
     0
176
     1
290
     0
176
     1
290
     0
176
     1
 90
       50
176
     1
 40
0.0
176
     1
 40
1.0
176
     1
 90
        0
176
     1
 62
    18
420
        0
176
     1
 90
       50
176
     1
 90
        3
176
     1
 62
     5
420
      255
176
     1
290
     0
176
     1
 90
       50
176
     1
 90
       50
176
     1
 90
       50
176
     1
290
     0
176
     1
 90
       50
176
     1
 62
   256
176
     0
 40
1.0
176
     0
 90
        2
176
     1
  1
strokes_ogs.tif
176
     1
290
     0
176
     1
 40
1.0
176
     1
 40
1.0
176
     1
1001
ACAD
1000
AcDbSavedByObjectVersion
1070
     0
  0
VISUALSTYLE
  5
31
102
{ACAD_REACTORS
330
29
102
}
330
29
100
AcDbVisualStyle
  2
Hidden
 70
     6
177
     3
291
     0
 70
    58
 90
        1
176
     1
 90
        2
176
     1
 90
        2
176
     1
 90
        0
176
     1
 40
0.6
176
     1
 40
30.0
176
     1
 62
     7
420
 16777215
176
     1
 90
        2
176
     1
 90
        2
176
     1
 62
     7
176
     1
 62
   257
176
     1
 90
        2
176
     1
 90
        1
176
     1
 40
40.0
176
     1
 90
        0
176
     1
 62
   257
176
     1
 40
1.0
176
     1
 90
        1
176
     1
 90
        6
176
     1
 90
        2
176
     1
 62
     7
176
     1
 90
        3
176
     1
 90
        0
176
     1
 90
        0
176
     1
290
     0
176
     1
 90
        1
176
     1
 40
0.0
176
     1
 90
        0
176
     1
290
     0
176
     1
290
     1
176
     1
290
     1
176
     1
290
     0
176
     1
290
     0
176
     1
290
     0
176
     1
290
     0
176
     1
290
     0
176
     1
290
     0
176
     1
 90
       50
176
     1
 40
0.0
176
     1
 40
1.0
176
     1
 90
        0
176
     1
 62
    18
420
        0
176
     1
 90
       50
176
     1
 90
        3
176
     1
 62
     5
420
      255
176
     1
290
     0
176
     1
 90
       50
176
     1
 90
       50
176
     1
 90
       50
176
     1
290
     0
176
     1
 90
       50
176
     1
 62
   256
176
     0
 40
1.0
176
     0
 90
        2
176
     1
  1
strokes_ogs.tif
176
     1
290
     0
176
     1
 40
1.0
176
     1
 40
1.0
176
     1
1001
ACAD
1000
AcDbSavedByObjectVersion
1070
     0
  0
VISUALSTYLE
  5
3F
102
{ACAD_REACTORS
330
29
102
}
330
29
100
AcDbVisualStyle
  2
JitterOff
 70
    20
177
     3
291
     1
 70
    58
 90
        2
176
     0
 90
        2
176
     0
 90
        0
176
     0
 90
        0
176
     0
 40
0.6
176
     0
 40
30.0
176
     0
 62
     7
420
 16777215
176
     0
 90
        1
176
     0
 90
        4
176
     0
 62
     7
176
     0
 62
   257
176
     0
 90
        1
176
     0
 90
        1
176
     0
 40
1.0
176
     0
 90
       10
176
     2
 62
     7
176
     0
 40
1.0
176
     0
 90
        1
176
     0
 90
        6
176
     0
 90
        2
176
     0
 62
     7
176
     0
 90
        5
176
     0
 90
        0
176
     0
 90
        0
176
     0
290
     0
176
     0
 90
        1
176
     0
 40
0.0
176
     0
 90
        0
176
     0
290
     0
176
     0
290
     1
176
     0
290
     1
176
     0
290
     0
176
     0
290
     0
176
     0
290
     0
176
     0
290
     0
176
     0
290
     0
176
     0
290
     0
176
     0
 90
       50
176
     0
 40
0.0
176
     0
 40
1.0
176
     0
 90
        0
176
     0
 62
    18
420
        0
176
     0
 90
       50
176
     0
 90
        3
176
     0
 62
     5
420
      255
176
     0
290
     0
176
     0
 90
       50
176
     0
 90
       50
176
     0
 90
       50
176
     0
290
     0
176
     0
 90
       50
176
     0
 62
   256
176
     0
 40
1.0
176
     0
 90
        2
176
     0
  1
strokes_ogs.tif
176
     0
290
     0
176
     0
 40
1.0
176
     0
 40
1.0
176
     0
1001
ACAD
1000
AcDbSavedByObjectVersion
1070
     0
  0
VISUALSTYLE
  5
37
102
{ACAD_REACTORS
330
29
102
}
330
29
100
AcDbVisualStyle
  2
Linepattern
 70
    14
177
     3
291
     1
 70
    58
 90
        2
176
     1
 90
        2
176
     1
 90
        0
176
     1
 90
        0
176
     1
 40
0.6
176
     1
 40
30.0
176
     1
 62
     7
420
 16777215
176
     1
 90
        1
176
     1
 90
        4
176
     1
 62
     7
176
     1
 62
   257
176
     1
 90
        7
176
     1
 90
        7
176
     1
 40
1.0
176
     1
 90
        8
176
     1
 62
     7
176
     1
 40
1.0
176
     1
 90
        1
176
     1
 90
        6
176
     1
 90
        2
176
     1
 62
     7
176
     1
 90
        5
176
     1
 90
        0
176
     1
 90
        0
176
     1
290
     0
176
     1
 90
        1
176
     1
 40
0.0
176
     1
 90
        0
176
     1
290
     0
176
     1
290
     1
176
     1
290
     1
176
     1
290
     0
176
     1
290
     0
176
     1
290
     0
176
     1
290
     0
176
     1
290
     0
176
     1
290
     0
176
     1
 90
       50
176
     1
 40
0.0
176
     1
 40
1.0
176
     1
 90
        0
176
     1
 62
    18
420
        0
176
     1
 90
       50
176
     1
 90
        3
176
     1
 62
     5
420
      255
176
     1
290
     0
176
     1
 90
       50
176
     1
 90
       50
176
     1
 90
       50
176
     1
290
     0
176
     1
 90
       50
176
     1
 62
   256
176
     0
 40
1.0
176
     0
 90
        2
176
     1
  1
strokes_ogs.tif
176
     1
290
     0
176
     1
 40
1.0
176
     1
 40
1.0
176
     1
1001
ACAD
1000
AcDbSavedByObjectVersion
1070
     0
  0
VISUALSTYLE
  5
40
102
{ACAD_REACTORS
330
29
102
}
330
29
100
AcDbVisualStyle
  2
OverhangOff
 70
    21
177
     3
291
     1
 70
    58
 90
        2
176
     0
 90
        2
176
     0
 90
        0
176
     0
 90
        0
176
     0
 40
0.6
176
     0
 40
30.0
176
     0
 62
     7
420
 16777215
176
     0
 90
        1
176
     0
 90
        4
176
     0
 62
     7
176
     0
 62
   257
176
     0
 90
        1
176
     0
 90
        1
176
     0
 40
1.0
176
     0
 90
        9
176
     2
 62
     7
176
     0
 40
1.0
176
     0
 90
        1
176
     0
 90
        6
176
     0
 90
        2
176
     0
 62
     7
176
     0
 90
        5
176
     0
 90
        0
176
     0
 90
        0
176
     0
290
     0
176
     0
 90
        1
176
     0
 40
0.0
176
     0
 90
        0
176
     0
290
     0
176
     0
290
     1
176
     0
290
     1
176
     0
290
     0
176
     0
290
     0
176
     0
290
     0
176
     0
290
     0
176
     0
290
     0
176
     0
290
     0
176
     0
 90
       50
176
     0
 40
0.0
176
     0
 40
1.0
176
     0
 90
        0
176
     0
 62
    18
420
        0
176
     0
 90
       50
176
     0
 90
        3
176
     0
 62
     5
420
      255
176
     0
290
     0
176
     0
 90
       50
176
     0
 90
       50
176
     0
 90
       50
176
     0
290
     0
176
     0
 90
       50
176
     0
 62
   256
176
     0
 40
1.0
176
     0
 90
        2
176
     0
  1
strokes_ogs.tif
176
     0
290
     0
176
     0
 40
1.0
176
     0
 40
1.0
176
     0
1001
ACAD
1000
AcDbSavedByObjectVersion
1070
     0
  0
VISUALSTYLE
  5
33
102
{ACAD_REACTORS
330
29
102
}
330
29
100
AcDbVisualStyle
  2
Realistic
 70
     8
177
     3
291
     0
 70
    58
 90
        2
176
     1
 90
        3
176
     1
 90
        0
176
     1
 90
        2
176
     1
 40
0.6
176
     1
 40
30.0
176
     1
 62
     7
420
 16777215
176
     1
 90
        0
176
     1
 90
        0
176
     1
 62
     7
176
     1
 62
   257
176
     1
 90
        1
176
     1
 90
        1
176
     1
 40
1.0
176
     1
 90
        8
176
     1
 62
   257
176
     1
 40
1.0
176
     1
 90
        1
176
     1
 90
        6
176
     1
 90
        2
176
     1
 62
     7
176
     1
 90
        3
176
     1
 90
        0
176
     1
 90
        0
176
     1
290
     0
176
     1
 90
       13
176
     1
 40
0.0
176
     1
 90
        0
176
     1
290
     0
176
     1
290
     1
176
     1
290
     1
176
     1
290
     0
176
     1
290
     0
176
     1
290
     0
176
     1
290
     0
176
     1
290
     0
176
     1
290
     0
176
     1
 90
       50
176
     1
 40
0.0
176
     1
 40
1.0
176
     1
 90
        0
176
     1
 62
    18
420
        0
176
     1
 90
       50
176
     1
 90
        3
176
     1
 62
     5
420
      255
176
     1
290
     0
176
     1
 90
       50
176
     1
 90
       50
176
     1
 90
       50
176
     1
290
     0
176
     1
 90
       50
176
     1
 62
   256
176
     0
 40
1.0
176
     0
 90
        2
176
     1
  1
strokes_ogs.tif
176
     1
290
     0
176
     1
 40
1.0
176
     1
 40
1.0
176
     1
1001
ACAD
1000
AcDbSavedByObjectVersion
1070
     0
  0
VISUALSTYLE
  5
3E
102
{ACAD_REACTORS
330
29
102
}
330
29
100
AcDbVisualStyle
  2
Shaded
 70
    27
177
     3
291
     0
 70
    58
 90
        2
176
     1
 90
        2
176
     1
 90
        1
176
     1
 90
        2
176
     1
 40
0.6
176
     1
 40
30.0
176
     1
 62
     7
420
 16777215
176
     1
 90
        0
176
     1
 90
        4
176
     1
 62
     7
176
     1
 62
   257
176
     1
 90
        1
176
     1
 90
        1
176
     1
 40
1.0
176
     1
 90
        8
176
     1
 62
   257
176
     1
 40
1.0
176
     1
 90
        1
176
     1
 90
        6
176
     1
 90
        2
176
     1
 62
     8
420
  7895160
176
     1
 90
        3
176
     1
 90
        0
176
     1
 90
        0
176
     1
290
     0
176
     1
 90
        5
176
     1
 40
0.0
176
     1
 90
        0
176
     1
290
     0
176
     1
290
     1
176
     1
290
     1
176
     1
290
     0
176
     1
290
     0
176
     1
290
     0
176
     1
290
     0
176
     1
290
     0
176
     1
290
     0
176
     1
 90
       50
176
     1
 40
0.0
176
     1
 40
1.0
176
     1
 90
        0
176
     1
 62
    18
420
        0
176
     1
 90
       50
176
     1
 90
        3
176
     1
 62
     5
420
      255
176
     1
290
     0
176
     1
 90
       50
176
     1
 90
       50
176
     1
 90
       50
176
     1
290
     0
176
     1
 90
       50
176
     1
 62
   256
176
     0
 40
1.0
176
     0
 90
        2
176
     1
  1
strokes_ogs.tif
176
     1
290
     0
176
     1
 40
1.0
176
     1
 40
1.0
176
     1
1001
ACAD
1000
AcDbSavedByObjectVersion
1070
     0
  0
VISUALSTYLE
  5
3D
102
{ACAD_REACTORS
330
29
102
}
330
29
100
AcDbVisualStyle
  2
Shaded with edges
 70
    26
177
     3
291
     0
 70
    58
 90
        2
176
     1
 90
        2
176
     1
 90
        1
176
     1
 90
        2
176
     1
 40
0.6
176
     1
 40
30.0
176
     1
 62
     7
420
 16777215
176
     1
 90
        1
176
     1
 90
        2
176
     1
 62
     7
176
     1
 62
   257
176
     1
 90
        2
176
     1
 90
        1
176
     1
 40
1.0
176
     1
 90
        8
176
     1
 62
   257
176
     1
 40
1.0
176
     1
 90
        1
176
     1
 90
        6
176
     1
 90
        2
176
     1
 62
     7
176
     1
 90
        3
176
     1
 90
        0
176
     1
 90
        0
176
     1
290
     0
176
     1
 90
        5
176
     1
 40
0.0
176
     1
 90
        0
176
     1
290
     0
176
     1
290
     1
176
     1
290
     1
176
     1
290
     0
176
     1
290
     0
176
     1
290
     0
176
     1
290
     0
176
     1
290
     0
176
     1
290
     0
176
     1
 90
       50
176
     1
 40
0.0
176
     1
 40
1.0
176
     1
 90
        0
176
     1
 62
    18
420
        0
176
     1
 90
       50
176
     1
 90
        3
176
     1
 62
     5
420
      255
176
     1
290
     0
176
     1
 90
       50
176
     1
 90
       50
176
     1
 90
       50
176
     1
290
     0
176
     1
 90
       50
176
     1
 62
   256
176
     0
 40
1.0
176
     0
 90
        2
176
     1
  1
strokes_ogs.tif
176
     1
290
     0
176
     1
 40
1.0
176
     1
 40
1.0
176
     1
1001
ACAD
1000
AcDbSavedByObjectVersion
1070
     0
  0
VISUALSTYLE
  5
3A
102
{ACAD_REACTORS
330
29
102
}
330
29
100
AcDbVisualStyle
  2
Shades of Gray
 70
    23
177
     3
291
     0
 70
    58
 90
        2
176
     1
 90
        2
176
     1
 90
        3
176
     1
 90
        0
176
     1
 40
0.6
176
     1
 40
30.0
176
     1
 62
     7
420
 16777215
176
     1
 90
        2
176
     1
 90
        2
176
     1
 62
     7
176
     1
 62
     7
176
     1
 90
        1
176
     1
 90
        1
176
     1
 40
40.0
176
     1
 90
        8
176
     1
 62
     7
176
     1
 40
1.0
176
     1
 90
        1
176
     1
 90
        6
176
     1
 90
        2
176
     1
 62
     7
176
     1
 90
        3
176
     1
 90
        0
176
     1
 90
        0
176
     1
290
     0
176
     1
 90
        1
176
     1
 40
0.0
176
     1
 90
        0
176
     1
290
     0
176
     1
290
     1
176
     1
290
     1
176
     1
290
     0
176
     1
290
     0
176
     1
290
     0
176
     1
290
     0
176
     1
290
     0
176
     1
290
     0
176
     1
 90
       50
176
     1
 40
0.0
176
     1
 40
1.0
176
     1
 90
        0
176
     1
 62
    18
420
        0
176
     1
 90
       50
176
     1
 90
        3
176
     1
 62
     5
420
      255
176
     1
290
     0
176
     1
 90
       50
176
     1
 90
       50
176
     1
 90
       50
176
     1
290
     0
176
     1
 90
       50
176
     1
 62
   256
176
     0
 40
1.0
176
     0
 90
        2
176
     1
  1
strokes_ogs.tif
176
     1
290
     0
176
     1
 40
1.0
176
     1
 40
1.0
176
     1
1001
ACAD
1000
AcDbSavedByObjectVersion
1070
     0
  0
VISUALSTYLE
  5
3B
102
{ACAD_REACTORS
330
29
102
}
330
29
100
AcDbVisualStyle
  2
Sketchy
 70
    24
177
     3
291
     0
 70
    58
 90
        1
176
     1
 90
        2
176
     1
 90
        2
176
     1
 90
        0
176
     1
 40
0.6
176
     1
 40
30.0
176
     1
 62
     7
420
 16777215
176
     1
 90
        2
176
     1
 90
        2
176
     1
 62
     7
176
     1
 62
     7
176
     1
 90
        1
176
     1
 90
        1
176
     1
 40
40.0
176
     1
 90
       11
176
     1
 62
     7
176
     1
 40
1.0
176
     1
 90
        1
176
     1
 90
        6
176
     1
 90
        2
176
     1
 62
     7
176
     1
 90
        6
176
     1
 90
        0
176
     1
 90
        0
176
     1
290
     0
176
     1
 90
        1
176
     1
 40
0.0
176
     1
 90
        0
176
     1
290
     0
176
     1
290
     1
176
     1
290
     1
176
     1
290
     0
176
     1
290
     0
176
     1
290
     0
176
     1
290
     0
176
     1
290
     0
176
     1
290
     0
176
     1
 90
       50
176
     1
 40
0.0
176
     1
 40
1.0
176
     1
 90
        0
176
     1
 62
    18
420
        0
176
     1
 90
       50
176
     1
 90
        3
176
     1
 62
     5
420
      255
176
     1
290
     0
176
     1
 90
       50
176
     1
 90
       50
176
     1
 90
       50
176
     1
290
     0
176
     1
 90
       50
176
     1
 62
   256
176
     0
 40
1.0
176
     0
 90
        2
176
     1
  1
strokes_ogs.tif
176
     1
290
     0
176
     1
 40
1.0
176
     1
 40
1.0
176
     1
1001
ACAD
1000
AcDbSavedByObjectVersion
1070
     0
  0
VISUALSTYLE
  5
36
102
{ACAD_REACTORS
330
29
102
}
330
29
100
AcDbVisualStyle
  2
Thicken
 70
    13
177
     3
291
     1
 70
    58
 90
        2
176
     1
 90
        2
176
     1
 90
        0
176
     1
 90
        0
176
     1
 40
0.6
176
     1
 40
30.0
176
     1
 62
     7
420
 16777215
176
     1
 90
        1
176
     1
 90
        4
176
     1
 62
     7
176
     1
 62
   257
176
     1
 90
        1
176
     1
 90
        1
176
     1
 40
1.0
176
     1
 90
       12
176
     1
 62
     7
176
     1
 40
1.0
176
     1
 90
        1
176
     1
 90
        6
176
     1
 90
        2
176
     1
 62
     7
176
     1
 90
        5
176
     1
 90
        0
176
     1
 90
        0
176
     1
290
     0
176
     1
 90
        1
176
     1
 40
0.0
176
     1
 90
        0
176
     1
290
     0
176
     1
290
     1
176
     1
290
     1
176
     1
290
     0
176
     1
290
     0
176
     1
290
     0
176
     1
290
     0
176
     1
290
     0
176
     1
290
     0
176
     1
 90
       50
176
     1
 40
0.0
176
     1
 40
1.0
176
     1
 90
        0
176
     1
 62
    18
420
        0
176
     1
 90
       50
176
     1
 90
        3
176
     1
 62
     5
420
      255
176
     1
290
     0
176
     1
 90
       50
176
     1
 90
       50
176
     1
 90
       50
176
     1
290
     0
176
     1
 90
       50
176
     1
 62
   256
176
     0
 40
1.0
176
     0
 90
        2
176
     1
  1
strokes_ogs.tif
176
     1
290
     0
176
     1
 40
1.0
176
     1
 40
1.0
176
     1
1001
ACAD
1000
AcDbSavedByObjectVersion
1070
     0
  0
VISUALSTYLE
  5
30
102
{ACAD_REACTORS
330
29
102
}
330
29
100
AcDbVisualStyle
  2
Wireframe
 70
     5
177
     3
291
     0
 70
    58
 90
        0
176
     1
 90
        2
176
     1
 90
        0
176
     1
 90
        0
176
     1
 40
0.6
176
     1
 40
30.0
176
     1
 62
     7
420
 16777215
176
     1
 90
        1
176
     1
 90
        4
176
     1
 62
     7
176
     1
 62
   257
176
     1
 90
        1
176
     1
 90
        1
176
     1
 40
1.0
176
     1
 90
        0
176
     1
 62
   257
176
     1
 40
1.0
176
     1
 90
        1
176
     1
 90
        6
176
     1
 90
        2
176
     1
 62
     7
176
     1
 90
        3
176
     1
 90
        0
176
     1
 90
        0
176
     1
290
     0
176
     1
 90
        1
176
     1
 40
0.0
176
     1
 90
        0
176
     1
290
     0
176
     1
290
     1
176
     1
290
     1
176
     1
290
     0
176
     1
290
     0
176
     1
290
     0
176
     1
290
     0
176
     1
290
     0
176
     1
290
     0
176
     1
 90
       50
176
     1
 40
0.0
176
     1
 40
1.0
176
     1
 90
        0
176
     1
 62
    18
420
        0
176
     1
 90
       50
176
     1
 90
        3
176
     1
 62
     5
420
      255
176
     1
290
     0
176
     1
 90
       50
176
     1
 90
       50
176
     1
 90
       50
176
     1
290
     0
176
     1
 90
       50
176
     1
 62
   256
176
     0
 40
1.0
176
     0
 90
        2
176
     1
  1
strokes_ogs.tif
176
     1
290
     0
176
     1
 40
1.0
176
     1
 40
1.0
176
     1
1001
ACAD
1000
AcDbSavedByObjectVersion
1070
     0
  0
VISUALSTYLE
  5
3C
102
{ACAD_REACTORS
330
29
102
}
330
29
100
AcDbVisualStyle
  2
X-Ray
 70
    25
177
     3
291
     0
 70
    58
 90
        2
176
     1
 90
        2
176
     1
 90
        1
176
     1
 90
        1
176
     1
 40
0.5
176
     1
 40
30.0
176
     1
 62
     7
420
 16777215
176
     1
 90
        1
176
     1
 90
        0
176
     1
 62
     7
176
     1
 62
   257
176
     1
 90
        1
176
     1
 90
        1
176
     1
 40
1.0
176
     1
 90
        8
176
     1
 62
     7
176
     1
 40
1.0
176
     1
 90
        1
176
     1
 90
        6
176
     1
 90
        2
176
     1
 62
     7
176
     1
 90
        3
176
     1
 90
        0
176
     1
 90
        0
176
     1
290
     0
176
     1
 90
       13
176
     1
 40
0.0
176
     1
 90
        0
176
     1
290
     0
176
     1
290
     1
176
     1
290
     1
176
     1
290
     0
176
     1
290
     0
176
     1
290
     0
176
     1
290
     0
176
     1
290
     0
176
     1
290
     0
176
     1
 90
       50
176
     1
 40
0.0
176
     1
 40
1.0
176
     1
 90
        0
176
     1
 62
    18
420
        0
176
     1
 90
       50
176
     1
 90
        3
176
     1
 62
     5
420
      255
176
     1
290
     0
176
     1
 90
       50
176
     1
 90
       50
176
     1
 90
       50
176
     1
290
     0
176
     1
 90
       50
176
     1
 62
   256
176
     0
 40
1.0
176
     0
 90
        2
176
     1
  1
strokes_ogs.tif
176
     1
290
     0
176
     1
 40
1.0
176
     1
 40
1.0
176
     1
1001
ACAD
1000
AcDbSavedByObjectVersion
1070
     0
  0
DICTIONARYVAR
  5
F3
102
{ACAD_REACTORS
330
EE
102
}
330
EE
100
DictionaryVariables
280
     0
  1
1:1
  0
DICTIONARYVAR
  5
F0
102
{ACAD_REACTORS
330
EE
102
}
330
EE
100
DictionaryVariables
280
     0
  1
STANDARD
  0
DICTIONARYVAR
  5
EF
102
{ACAD_REACTORS
330
EE
102
}
330
EE
100
DictionaryVariables
280
     0
  1
STANDARD
  0
DICTIONARYVAR
  5
F1
102
{ACAD_REACTORS
330
EE
102
}
330
EE
100
DictionaryVariables
280
     0
  1
Imperial24
  0
DICTIONARYVAR
  5
F2
102
{ACAD_REACTORS
330
EE
102
}
330
EE
100
DictionaryVariables
280
     0
  1
Imperial24
  0
DICTIONARY
  5
F9
330
6B
100
AcDbDictionary
280
     1
281
     1
  3
ACAD_XREC_ROUNDTRIP
360
FA
  0
DICTIONARY
  5
1A
330
19
100
AcDbDictionary
280
     1
281
     1
  3
BUMPTILE
360
1C
  3
DIFFUSETILE
360
1B
  3
OPACITYTILE
360
1F
  3
REFLECTIONTILE
360
1E
  3
REFRACTIONTILE
360
20
  3
SPECULARTILE
360
1D
  0
DICTIONARY
  5
12
330
11
100
AcDbDictionary
280
     1
281
     1
  3
BUMPTILE
360
14
  3
DIFFUSETILE
360
13
  3
OPACITYTILE
360
17
  3
REFLECTIONTILE
360
16
  3
REFRACTIONTILE
360
18
  3
SPECULARTILE
360
15
  0
DICTIONARY
  5
22
330
21
100
AcDbDictionary
280
     1
281
     1
  3
BUMPTILE
360
24
  3
DIFFUSETILE
360
23
  3
OPACITYTILE
360
27
  3
REFLECTIONTILE
360
26
  3
REFRACTIONTILE
360
28
  3
SPECULARTILE
360
25
  0
DICTIONARY
  5
F7
330
69
100
AcDbDictionary
280
     1
281
     1
  3
ACAD_XREC_ROUNDTRIP
360
F8
  0
DICTIONARY
  5
F4
330
65
100
AcDbDictionary
280
     1
281
     1
  3
ACAD_ROUNDTRIP_2008_TABLESTYLE_CELLSTYLEMAP
360
F5
  0
XRECORD
  5
FA
102
{ACAD_REACTORS
330
F9
102
}
330
F9
100
AcDbXrecord
280
     1
102
DISPLAYNAME
  1
Imperial24
102
FLAGS
 90
        0
  0
XRECORD
  5
1C
102
{ACAD_REACTORS
330
1A
102
}
330
1A
100
AcDbXrecord
280
     1
270
     1
271
     1
  0
XRECORD
  5
1B
102
{ACAD_REACTORS
330
1A
102
}
330
1A
100
AcDbXrecord
280
     1
270
     1
271
     1
  0
XRECORD
  5
1F
102
{ACAD_REACTORS
330
1A
102
}
330
1A
100
AcDbXrecord
280
     1
270
     1
271
     1
  0
XRECORD
  5
1E
102
{ACAD_REACTORS
330
1A
102
}
330
1A
100
AcDbXrecord
280
     1
270
     1
271
     1
  0
XRECORD
  5
20
102
{ACAD_REACTORS
330
1A
102
}
330
1A
100
AcDbXrecord
280
     1
270
     1
271
     1
  0
XRECORD
  5
1D
102
{ACAD_REACTORS
330
1A
102
}
330
1A
100
AcDbXrecord
280
     1
270
     1
271
     1
  0
XRECORD
  5
14
102
{ACAD_REACTORS
330
12
102
}
330
12
100
AcDbXrecord
280
     1
270
     1
271
     1
  0
XRECORD
  5
13
102
{ACAD_REACTORS
330
12
102
}
330
12
100
AcDbXrecord
280
     1
270
     1
271
     1
  0
XRECORD
  5
17
102
{ACAD_REACTORS
330
12
102
}
330
12
100
AcDbXrecord
280
     1
270
     1
271
     1
  0
XRECORD
  5
16
102
{ACAD_REACTORS
330
12
102
}
330
12
100
AcDbXrecord
280
     1
270
     1
271
     1
  0
XRECORD
  5
18
102
{ACAD_REACTORS
330
12
102
}
330
12
100
AcDbXrecord
280
     1
270
     1
271
     1
  0
XRECORD
  5
15
102
{ACAD_REACTORS
330
12
102
}
330
12
100
AcDbXrecord
280
     1
270
     1
271
     1
  0
XRECORD
  5
24
102
{ACAD_REACTORS
330
22
102
}
330
22
100
AcDbXrecord
280
     1
270
     1
271
     1
  0
XRECORD
  5
23
102
{ACAD_REACTORS
330
22
102
}
330
22
100
AcDbXrecord
280
     1
270
     1
271
     1
  0
XRECORD
  5
27
102
{ACAD_REACTORS
330
22
102
}
330
22
100
AcDbXrecord
280
     1
270
     1
271
     1
  0
XRECORD
  5
26
102
{ACAD_REACTORS
330
22
102
}
330
22
100
AcDbXrecord
280
     1
270
     1
271
     1
  0
XRECORD
  5
28
102
{ACAD_REACTORS
330
22
102
}
330
22
100
AcDbXrecord
280
     1
270
     1
271
     1
  0
XRECORD
  5
25
102
{ACAD_REACTORS
330
22
102
}
330
22
100
AcDbXrecord
280
     1
270
     1
271
     1
  0
XRECORD
  5
F8
102
{ACAD_REACTORS
330
F7
102
}
330
F7
100
AcDbXrecord
280
     1
102
DISPLAYNAME
  1
Imperial24
102
FLAGS
 90
        0
  0
CELLSTYLEMAP
  5
F5
102
{ACAD_REACTORS
330
F4
102
}
330
F4
100
AcDbCellStyleMap
 90
        3
300
CELLSTYLE
  1
TABLEFORMAT_BEGIN
 90
        5
170
     1
 91
        0
 92
    32768
 62
   257
 93
        1
300
CONTENTFORMAT
  1
CONTENTFORMAT_BEGIN
 90
        0
 91
        0
 92
      512
 93
        0
300

 40
0.0
140
1.0
 94
        5
 62
     0
340
55
144
0.25
309
CONTENTFORMAT_END
171
     0
 94
        0
309
TABLEFORMAT_END
  1
CELLSTYLE_BEGIN
 90
        1
 91
        1
300
_TITLE
309
CELLSTYLE_END
300
CELLSTYLE
  1
TABLEFORMAT_BEGIN
 90
        5
170
     1
 91
        0
 92
        0
 62
   257
 93
        1
300
CONTENTFORMAT
  1
CONTENTFORMAT_BEGIN
 90
        0
 91
        0
 92
      512
 93
        0
300

 40
0.0
140
1.0
 94
        5
 62
     0
340
55
144
0.18
309
CONTENTFORMAT_END
171
     0
 94
        0
309
TABLEFORMAT_END
  1
CELLSTYLE_BEGIN
 90
        2
 91
        1
300
_HEADER
309
CELLSTYLE_END
300
CELLSTYLE
  1
TABLEFORMAT_BEGIN
 90
        5
170
     1
 91
        0
 92
        0
 62
   257
 93
        1
300
CONTENTFORMAT
  1
CONTENTFORMAT_BEGIN
 90
        0
 91
        0
 92
      512
 93
        0
300

 40
0.0
140
1.0
 94
        2
 62
     0
340
55
144
0.18
309
CONTENTFORMAT_END
171
     0
 94
        0
309
TABLEFORMAT_END
  1
CELLSTYLE_BEGIN
 90
        3
 91
        2
300
_DATA
309
CELLSTYLE_END
  0
ENDSEC
  0
EOF
