0
SECTION
2
HEADER
9
$INSUNITS
70
4
9
$ACADVER
1
AC1014
9
$HANDSEED
5
FFFF
0
ENDSEC
0
SECTION
2
TABLES
0
TABLE
2
VPORT
5
8
100
AcDbSymbolTable
0
ENDTAB
0
TABLE
2
LTYPE
5
5
100
AcDbSymbolTable
0
LTYPE
5
14
100
AcDbSymbolTableRecord
100
AcDbLinetypeTableRecord
2
BYBLOCK
70
0
0
LTYPE
5
15
100
AcDbSymbolTableRecord
100
AcDbLinetypeTableRecord
2
BYLAYER
70
0
0
ENDTAB
0
TABLE
2
LAYER
5
2
100
AcDbSymbolTable
70
2
0
LAYER
5
50
100
AcDbSymbolTableRecord
100
AcDbLayerTableRecord
2
0
70
0
6
CONTINUOUS
0
ENDTAB
0
TABLE
2
STYLE
5
3
100
AcDbSymbolTable
70
1
0
STYLE
5
11
100
AcDbSymbolTableRecord
100
AcDbTextStyleTableRecord
2
STANDARD
70
0
0
ENDTAB
0
TABLE
2
VIEW
5
6
100
AcDbSymbolTable
70
0
0
ENDTAB
0
TABLE
2
UCS
5
7
100
AcDbSymbolTable
70
0
0
ENDTAB
0
TABLE
2
APPID
5
9
100
AcDbSymbolTable
70
2
0
APPID
5
12
100
AcDbSymbolTableRecord
100
AcDbRegAppTableRecord
2
ACAD
70
0
0
ENDTAB
0
TABLE
2
DIMSTYLE
5
A
100
AcDbSymbolTable
70
1
0
ENDTAB
0
TABLE
2
BLOCK_RECORD
5
1
100
AcDbSymbolTable
70
1
0
BLOCK_RECORD
5
1F
100
AcDbSymbolTableRecord
100
AcDbBlockTableRecord
2
*MODEL_SPACE
0
BLOCK_RECORD
5
1B
100
AcDbSymbolTableRecord
100
AcDbBlockTableRecord
2
*PAPER_SPACE
0
ENDTAB
0
ENDSEC
0
SECTION
2
BLOCKS
0
BLOCK
5
20
100
AcDbEntity
100
AcDbBlockBegin
2
*MODEL_SPACE
0
ENDBLK
5
21
100
AcDbEntity
100
AcDbBlockEnd
0
BLOCK
5
1C
100
AcDbEntity
100
AcDbBlockBegin
2
*PAPER_SPACE
0
ENDBLK
5
1D
100
AcDbEntity
100
AcDbBlockEnd
0
ENDSEC
0
SECTION
2
ENTITIES
0
CIRCLE
5
100
100
AcDbEntity
8
0
100
AcDbCircle
10
29.5
20
42
30
0
40
12.25
210
0
220
0
230
1
0
LWPOLYLINE
5
101
100
AcDbEntity
8
0
100
AcDbPolyline
90
7
70
1
43
0.0
10
140.82635424095321
20
44.088598608365253
42
-1.1692094602573788
10
142.4813073669427
20
39.771554250911983
10
142.43453865295064
20
40.487441828367885
10
139.99999999999997
20
38.861484583058001
10
142.62538960637946
20
37.566090885761497
10
142.58364973109894
20
38.205002150307607
42
1.2042810281571752
10
140.04882772858414
20
45.441023291134442
0
LWPOLYLINE
5
102
100
AcDbEntity
8
0
100
AcDbPolyline
90
7
70
1
43
0.0
10
108.38454970088016
20
37.441480220472911
10
110.99999999999997
20
38.756826239250842
10
108.55315178341165
20
40.364199631235252
10
108.51183523542117
20
39.647976705726975
42
-1.1692094602573502
10
110.13387015794601
20
43.977496834280686
10
110.90107669045065
20
45.335802446608859
42
1.2042810281571601
10
108.42142365812521
20
38.080690774538965
0
CIRCLE
5
103
100
AcDbEntity
8
0
100
AcDbCircle
10
125.49999999999999
20
42
30
0
40
12.25
210
0
220
0
230
1
0
LWPOLYLINE
5
104
100
AcDbEntity
8
0
100
AcDbPolyline
90
3
70
1
43
0.0
10
49.684929414536555
20
41.905968156801229
10
44.50537392758573
20
38.923916025835936
10
44.494995399472302
20
44.88987554770727
0
LWPOLYLINE
5
105
100
AcDbEntity
8
0
100
AcDbPolyline
90
3
70
1
43
0.0
10
26.556158207870443
20
56.99555187869565
10
29.537805155300397
20
62.214933946863383
10
32.538207720565076
20
57.004625773284673
0
LWPOLYLINE
5
106
100
AcDbEntity
8
0
100
AcDbPolyline
90
3
70
1
43
0.0
10
14.50528079484971
20
39.109545331392795
10
9.3527441190669318
20
42.132015704565831
10
14.494122282588165
20
45.188089475576618
0
LWPOLYLINE
5
107
100
AcDbEntity
8
0
100
AcDbPolyline
90
3
70
1
43
0.0
10
26.327086057493307
20
26.995054548528469
10
32.556801199210113
20
27.004728960045931
10
29.520461409218605
20
21.837463288086489
0
LINE
5
108
100
AcDbEntity
8
0
100
AcDbLine
10
29.5
20
42
30
0
11
125.49999999999999
21
42
31
0
0
LINE
5
109
100
AcDbEntity
8
0
100
AcDbLine
10
27.499999999999993
20
89
30
0
11
127.49999999999999
21
89
31
0
0
LINE
5
110
100
AcDbEntity
8
0
100
AcDbLine
10
7.5
20
-7.9999999999999982
30
0
11
147.5
21
-7.9999999999999982
31
0
0
LINE
5
111
100
AcDbEntity
8
0
100
AcDbLine
10
9.4709329452884248
20
74.309024784648884
30
0
11
-4.4709329452884283
21
6.6909752153511226
31
0
0
LINE
5
112
100
AcDbEntity
8
0
100
AcDbLine
10
145.52906705471156
20
74.309024784648884
30
0
11
159.47093294528844
21
6.6909752153511253
31
0
0
LINE
5
113
100
AcDbEntity
8
0
100
AcDbLine
10
9.4709329452884248
20
74.309024784648884
30
0
11
27.499999999999993
21
89
31
0
0
LINE
5
114
100
AcDbEntity
8
0
100
AcDbLine
10
127.49999999999999
20
89
30
0
11
145.52906705471156
21
74.309024784648884
31
0
0
LINE
5
115
100
AcDbEntity
8
0
100
AcDbLine
10
159.47093294528844
20
6.6909752153511253
30
0
11
147.5
21
-7.9999999999999982
31
0
0
LINE
5
116
100
AcDbEntity
8
0
100
AcDbLine
10
7.5
20
-7.9999999999999982
30
0
11
-4.4709329452884283
21
6.6909752153511226
31
0
0
LWPOLYLINE
5
117
100
AcDbEntity
8
0
100
AcDbPolyline
90
6
70
1
43
0.0
10
87.094542660077934
20
82.972231396489704
10
80.970834423053759
20
72.273378305487043
10
74.117547782076443
20
72.223274266478626
10
67.984794278682472
20
82.916945034819321
10
71.327413234194694
20
88.900000000000006
10
83.654832268001229
20
88.900000000000006
0
LWPOLYLINE
5
118
100
AcDbEntity
8
0
100
AcDbPolyline
90
8
70
1
43
0.0
10
165.92297165483819
20
5.1107062137005776
10
150.97431584954433
20
77.611686869375788
10
129.63502020681779
20
95
10
25.364979793182183
20
95
10
4.0256841504556595
20
77.611686869375788
10
-10.922971654838197
20
5.110706213700551
10
4.6493766248228674
20
-14
10
150.35062337517715
20
-14
0
LWPOLYLINE
5
119
100
AcDbEntity
8
0
100
AcDbPolyline
90
8
70
1
43
0.0
10
148.25169145212794
20
75.96035582701235
10
128.56751010340889
20
92.000000000000014
10
26.432489896591097
20
92.000000000000014
10
6.7483085478720444
20
75.960355827012336
10
-7.6969523000633142
20
5.9008407145258257
10
6.0746883124114248
20
-10.999999999999998
10
148.92531168758859
20
-10.999999999999998
10
162.69695230006332
20
5.9008407145258346
0
LINE
5
120
100
AcDbEntity
8
0
100
AcDbLine
10
18.485466472644209
20
81.654512392324449
30
0
11
22.361575674613754
21
84.812957809678849
31
0
0
LINE
5
121
100
AcDbEntity
8
0
100
AcDbLine
10
18.485466472644209
20
81.654512392324449
30
0
11
14.609357270674661
21
78.496066974970034
31
0
0
LINE
5
122
100
AcDbEntity
8
0
100
AcDbLine
10
14.609357270674661
20
78.496066974970034
30
0
11
12.714290020262023
21
80.821732496151782
31
0
0
LINE
5
123
100
AcDbEntity
8
0
100
AcDbLine
10
22.361575674613754
20
84.812957809678849
30
0
11
20.466508424201116
21
87.138623330860568
31
0
0
LINE
5
124
100
AcDbEntity
8
0
100
AcDbLine
10
77.499999999999986
20
89
30
0
11
77.499999999999986
21
-7.9999999999999982
31
0
0
LINE
5
125
100
AcDbEntity
8
0
100
AcDbLine
10
1.5145335273557858
20
-0.65451239232443781
30
0
11
-1.6439118899986167
21
3.221596809645106
31
0
0
LINE
5
126
100
AcDbEntity
8
0
100
AcDbLine
10
1.5145335273557858
20
-0.65451239232443781
30
0
11
4.6729789447101879
21
-4.5306215942939811
31
0
0
LINE
5
127
100
AcDbEntity
8
0
100
AcDbLine
10
-1.6439118899986167
20
3.221596809645106
30
0
11
-3.9695774111803477
21
1.3265295592324589
31
0
0
LINE
5
128
100
AcDbEntity
8
0
100
AcDbLine
10
4.6729789447101879
20
-4.5306215942939811
30
0
11
2.3473134235284601
21
-6.4256888447066265
31
0
0
LINE
5
129
100
AcDbEntity
8
0
100
AcDbLine
10
7.5
20
-7.9999999999999982
30
0
11
17.5
21
-7.9999999999999982
31
0
0
LINE
5
130
100
AcDbEntity
8
0
100
AcDbLine
10
17.5
20
-7.9999999999999982
30
0
11
17.5
21
-10.999999999999998
31
0
0
CIRCLE
5
131
100
AcDbEntity
8
0
100
AcDbCircle
10
17.5
20
-9.4999999999999982
30
0
40
1.4499999999999993
210
0
220
0
230
1
0
LINE
5
132
100
AcDbEntity
8
0
100
AcDbLine
10
77.499999999999986
20
-7.9999999999999982
30
0
11
77.499999999999986
21
-11.000000163912773
31
0
0
CIRCLE
5
133
100
AcDbEntity
8
0
100
AcDbCircle
10
77.499999999999986
20
-9.5000000819563866
30
0
40
1.449999999999998
210
0
220
0
230
1
0
LINE
5
134
100
AcDbEntity
8
0
100
AcDbLine
10
77.491122751097961
20
88.900000000000006
30
0
11
77.544191102565108
21
72.248326285982856
31
0
0
LINE
5
135
100
AcDbEntity
8
0
100
AcDbLine
10
2.4999999999999978
20
40.5
30
0
11
-0.4381950430702275
21
41.105813410942311
31
0
0
CIRCLE
5
136
100
AcDbEntity
8
0
100
AcDbCircle
10
1.0309024784648853
20
40.802906705471152
30
0
40
1.4500000000000037
210
0
220
0
230
1
0
LINE
5
137
100
AcDbEntity
8
0
100
AcDbLine
10
77.499999999999986
20
-7.9999999999999982
30
0
11
52.499999999999993
21
-7.9999999999999982
31
0
0
LWPOLYLINE
5
138
100
AcDbEntity
8
0
100
AcDbPolyline
90
4
70
1
43
0.0
10
42.499999999999993
20
-7.9999999999999982
10
52.499999999999993
20
-7.9999999999999982
10
52.499999999999993
20
-10.999999999999998
10
42.499999999999993
20
-10.999999999999998
0
LINE
5
139
100
AcDbEntity
8
0
100
AcDbLine
10
2.4999999999999978
20
40.5
30
0
11
7.952320698480789
21
66.943755387632024
31
0
0
LINE
5
140
100
AcDbEntity
8
0
100
AcDbLine
10
2.4999999999999978
20
40.5
30
0
11
-2.9523206984807975
21
14.056244612367985
31
0
0
LINE
5
141
100
AcDbEntity
8
0
100
AcDbLine
10
7.952320698480789
20
66.943755387632024
30
0
11
5.0141256554105764
21
67.549568798574327
31
0
0
LINE
5
142
100
AcDbEntity
8
0
100
AcDbLine
10
-2.9523206984807975
20
14.056244612367985
30
0
11
-5.8905157415510203
21
14.662058023310296
31
0
0
CIRCLE
5
143
100
AcDbEntity
8
0
100
AcDbCircle
10
-4.4214182200159087
20
14.359151317839142
30
0
40
1.4500000000000002
210
0
220
0
230
1
0
CIRCLE
5
144
100
AcDbEntity
8
0
100
AcDbCircle
10
6.4832231769456801
20
67.246662093103168
30
0
40
1.45
210
0
220
0
230
1
0
LINE
5
145
100
AcDbEntity
8
0
100
AcDbLine
10
2.4999999999999978
20
40.5
30
0
11
4.5193780364743663
21
50.293983476900749
31
0
0
LINE
5
146
100
AcDbEntity
8
0
100
AcDbLine
10
4.5193780364743663
20
50.293983476900749
30
0
11
5.9329426620064307
21
57.149771910731275
31
0
0
LINE
5
147
100
AcDbEntity
8
0
100
AcDbLine
10
5.9329426620064307
20
57.149771910731275
30
0
11
2.9947476189362181
21
57.755585321673585
31
0
0
LINE
5
148
100
AcDbEntity
8
0
100
AcDbLine
10
2.9947476189362181
20
57.755585321673585
30
0
11
1.5811829934041537
21
50.899796887843053
31
0
0
LINE
5
149
100
AcDbEntity
8
0
100
AcDbLine
10
1.5811829934041537
20
50.899796887843053
30
0
11
4.5193780364743663
21
50.293983476900749
31
0
0
LINE
5
150
100
AcDbEntity
8
0
100
AcDbLine
10
2.4999999999999978
20
40.5
30
0
11
0.48062196352562897
21
30.706016523099251
31
0
0
LINE
5
151
100
AcDbEntity
8
0
100
AcDbLine
10
0.48062196352562897
20
30.706016523099251
30
0
11
-0.93294266200643716
21
23.850228089268729
31
0
0
LINE
5
152
100
AcDbEntity
8
0
100
AcDbLine
10
-0.93294266200643716
20
23.850228089268729
30
0
11
-3.8711377050766735
21
24.456041500211043
31
0
0
LINE
5
153
100
AcDbEntity
8
0
100
AcDbLine
10
-3.8711377050766735
20
24.456041500211043
30
0
11
-2.4575730795446074
21
31.311829934041565
31
0
0
LINE
5
154
100
AcDbEntity
8
0
100
AcDbLine
10
-2.4575730795446074
20
31.311829934041565
30
0
11
0.48062196352562897
21
30.706016523099251
31
0
0
LINE
5
155
100
AcDbEntity
8
0
100
AcDbLine
10
77.499999999999986
20
89
30
0
11
47.499999999999993
21
89
31
0
0
LWPOLYLINE
5
156
100
AcDbEntity
8
0
100
AcDbPolyline
90
4
70
1
43
0.0
10
37.499999999999993
20
89
10
47.499999999999993
20
89
10
47.499999999999993
20
92.000000000000014
10
37.499999999999993
20
92.000000000000014
0
LINE
5
157
100
AcDbEntity
8
0
100
AcDbLine
10
147.0476793015192
20
66.943755387632024
30
0
11
149.9858743445894
21
67.549568798574327
31
0
0
CIRCLE
5
158
100
AcDbEntity
8
0
100
AcDbCircle
10
148.5167768230543
20
67.246662093103168
30
0
40
1.45
210
0
220
0
230
1
0
LWPOLYLINE
5
159
100
AcDbEntity
8
0
100
AcDbPolyline
90
4
70
1
43
0.0
10
152.00525238106377
20
57.755585321673585
10
149.06705733799356
20
57.149771910731275
10
150.48062196352561
20
50.293983476900749
10
153.41881700659582
20
50.899796887843053
0
CIRCLE
5
160
100
AcDbEntity
8
0
100
AcDbCircle
10
153.9690975215351
20
40.802906705471152
30
0
40
1.4500000000000037
210
0
220
0
230
1
0
LINE
5
161
100
AcDbEntity
8
0
100
AcDbLine
10
152.49999999999997
20
40.5
30
0
11
155.43819504307021
21
41.105813410942311
31
0
0
LWPOLYLINE
5
162
100
AcDbEntity
8
0
100
AcDbPolyline
90
4
70
1
43
0.0
10
157.4575730795446
20
31.311829934041562
10
158.87113770507665
20
24.456041500211043
10
155.93294266200641
20
23.850228089268732
10
154.51937803647436
20
30.706016523099251
0
CIRCLE
5
163
100
AcDbEntity
8
0
100
AcDbCircle
10
159.42141822001588
20
14.359151317839141
30
0
40
1.4500000000000002
210
0
220
0
230
1
0
LINE
5
164
100
AcDbEntity
8
0
100
AcDbLine
10
157.9523206984808
20
14.056244612367985
30
0
11
160.89051574155098
21
14.662058023310296
31
0
0
LINE
5
165
100
AcDbEntity
8
0
100
AcDbLine
10
153.48546647264419
20
-0.65451239232443115
30
0
11
150.3270210552898
21
-4.5306215942939865
31
0
0
LINE
5
166
100
AcDbEntity
8
0
100
AcDbLine
10
153.48546647264419
20
-0.65451239232443115
30
0
11
156.64391188999861
21
3.2215968096451064
31
0
0
LINE
5
167
100
AcDbEntity
8
0
100
AcDbLine
10
150.3270210552898
20
-4.5306215942939865
30
0
11
152.65268657647152
21
-6.4256888447066274
31
0
0
LINE
5
168
100
AcDbEntity
8
0
100
AcDbLine
10
156.64391188999861
20
3.2215968096451064
30
0
11
158.96957741118032
21
1.3265295592324655
31
0
0
CIRCLE
5
169
100
AcDbEntity
8
0
100
AcDbCircle
10
137.49999999999997
20
-9.4999999999999929
30
0
40
1.4499999999999993
210
0
220
0
230
1
0
LINE
5
170
100
AcDbEntity
8
0
100
AcDbLine
10
137.49999999999997
20
-7.9999999999999893
30
0
11
137.49999999999997
21
-10.999999999999996
31
0
0
LWPOLYLINE
5
171
100
AcDbEntity
8
0
100
AcDbPolyline
90
4
70
1
43
0.0
10
112.5
20
-10.999999999999996
10
112.5
20
-7.9999999999999893
10
102.5
20
-7.9999999999999893
10
102.5
20
-10.999999999999996
0
LINE
5
172
100
AcDbEntity
8
0
100
AcDbLine
10
136.51453352735578
20
81.654512392324449
30
0
11
132.63842432538624
21
84.812957809678849
31
0
0
LINE
5
173
100
AcDbEntity
8
0
100
AcDbLine
10
140.39064272932532
20
78.496066974970034
30
0
11
142.28570997973799
21
80.821732496151782
31
0
0
LINE
5
174
100
AcDbEntity
8
0
100
AcDbLine
10
136.51453352735578
20
81.654512392324449
30
0
11
140.39064272932532
21
78.496066974970034
31
0
0
LINE
5
175
100
AcDbEntity
8
0
100
AcDbLine
10
132.63842432538624
20
84.812957809678849
30
0
11
134.53349157579885
21
87.138623330860568
31
0
0
LWPOLYLINE
5
176
100
AcDbEntity
8
0
100
AcDbPolyline
90
4
70
1
43
0.0
10
107.5
20
89
10
107.5
20
92.000000000000014
10
117.5
20
92.000000000000014
10
117.5
20
89
0
LINE
5
177
100
AcDbEntity
8
0
100
AcDbLine
10
76.878261424982156
20
-69.61443574781083
30
0
11
79.778257007868774
21
-69.61949729284828
31
0
0
LINE
5
178
100
AcDbEntity
8
0
100
AcDbLine
10
75.65705712440672
20
-73.112309633996404
30
0
11
80.957049051751227
21
-73.121560043892543
31
0
0
LINE
5
179
100
AcDbEntity
8
0
100
AcDbLine
10
80.953209258964137
20
-75.321556692978902
30
0
11
75.653217331619643
21
-75.312306283082776
31
0
0
LINE
5
180
100
AcDbEntity
8
0
100
AcDbLine
10
79.778257007868774
20
-69.61949729284828
30
0
11
79.732004958388558
21
-96.119456929570717
31
0
0
LINE
5
181
100
AcDbEntity
8
0
100
AcDbLine
10
75.65705712440672
20
-73.112309633996404
30
0
11
80.953209258964137
21
-75.321556692978902
31
0
0
LINE
5
182
100
AcDbEntity
8
0
100
AcDbLine
10
80.957049051751227
20
-73.121560043892543
30
0
11
80.953209258964137
21
-75.321556692978902
31
0
0
LINE
5
183
100
AcDbEntity
8
0
100
AcDbLine
10
79.732004958388558
20
-96.119456929570717
30
0
11
76.832009375501954
21
-96.114395384533324
31
0
0
LINE
5
184
100
AcDbEntity
8
0
100
AcDbLine
10
80.957049051751227
20
-73.121560043892543
30
0
11
75.653217331619643
21
-75.312306283082776
31
0
0
LINE
5
185
100
AcDbEntity
8
0
100
AcDbLine
10
76.832009375501954
20
-96.114395384533324
30
0
11
76.878261424982156
21
-69.61443574781083
31
0
0
LINE
5
186
100
AcDbEntity
8
0
100
AcDbLine
10
79.778257007868774
20
-69.61949729284828
30
0
11
76.832009375501954
21
-96.114395384533324
31
0
0
LINE
5
187
100
AcDbEntity
8
0
100
AcDbLine
10
75.653217331619643
20
-75.312306283082776
30
0
11
75.65705712440672
21
-73.112309633996404
31
0
0
LINE
5
188
100
AcDbEntity
8
0
100
AcDbLine
10
76.878261424982156
20
-69.61443574781083
30
0
11
79.732004958388558
21
-96.119456929570717
31
0
0
LINE
5
189
100
AcDbEntity
8
0
100
AcDbLine
10
78.305133191685357
20
-82.866946338690809
30
0
11
148.30502657170692
21
-82.989121563732851
31
0
0
LINE
5
190
100
AcDbEntity
8
0
100
AcDbLine
10
78.305133191685357
20
-82.866946338690809
30
0
11
8.3052398116637782
21
-82.744771113648753
31
0
0
LINE
5
191
100
AcDbEntity
8
0
100
AcDbLine
10
8.3052398116637782
20
-82.744771113648753
30
0
11
8.3453830998918797
21
-59.744806145927392
31
0
0
LINE
5
192
100
AcDbEntity
8
0
100
AcDbLine
10
8.3453830998918797
20
-59.744806145927392
30
0
11
148.345169859935
21
-59.98915659601149
31
0
0
LINE
5
193
100
AcDbEntity
8
0
100
AcDbLine
10
148.345169859935
20
-59.98915659601149
30
0
11
148.30502657170692
21
-82.989121563732851
31
0
0
LINE
5
194
100
AcDbEntity
8
0
100
AcDbLine
10
78.305133191685357
20
-82.866946338690809
30
0
11
53.305171270249083
21
-82.82331232974721
31
0
0
LINE
5
195
100
AcDbEntity
8
0
100
AcDbLine
10
78.305133191685357
20
-82.866946338690809
30
0
11
103.30509511312164
21
-82.910580347634394
31
0
0
LWPOLYLINE
5
196
100
AcDbEntity
8
0
100
AcDbPolyline
90
4
70
1
43
0.0
10
43.305171270249083
20
-82.82331232974721
10
53.305171270249083
20
-82.82331232974721
10
53.305171270249083
20
-85.823312329747225
10
43.305171270249083
20
-85.823312329747225
0
LINE
5
197
100
AcDbEntity
8
0
100
AcDbLine
10
103.30509511312164
20
-82.910580347634394
30
0
11
113.30509511312164
21
-82.910580347634394
31
0
0
LINE
5
198
100
AcDbEntity
8
0
100
AcDbLine
10
113.30509511312164
20
-82.910580347634394
30
0
11
113.30509511312164
21
-85.910580347634408
31
0
0
LINE
5
199
100
AcDbEntity
8
0
100
AcDbLine
10
113.30509511312164
20
-85.910580347634408
30
0
11
103.30509511312164
21
-85.910580347634408
31
0
0
LINE
5
200
100
AcDbEntity
8
0
100
AcDbLine
10
103.30509511312164
20
-85.910580347634408
30
0
11
103.30509511312164
21
-82.910580347634394
31
0
0
LINE
5
201
100
AcDbEntity
8
0
100
AcDbLine
10
78.345276479913437
20
-59.866981370969441
30
0
11
103.3452384013497
21
-59.910615379913025
31
0
0
LINE
5
202
100
AcDbEntity
8
0
100
AcDbLine
10
78.345276479913437
20
-59.866981370969441
30
0
11
53.34531455847717
21
-59.823347362025849
31
0
0
LINE
5
203
100
AcDbEntity
8
0
100
AcDbLine
10
53.34531455847717
20
-59.823347362025849
30
0
11
43.34531455847717
21
-59.823347362025849
31
0
0
LINE
5
204
100
AcDbEntity
8
0
100
AcDbLine
10
43.34531455847717
20
-59.823347362025849
30
0
11
43.34531455847717
21
-56.823347362025849
31
0
0
LINE
5
205
100
AcDbEntity
8
0
100
AcDbLine
10
43.34531455847717
20
-56.823347362025849
30
0
11
53.34531455847717
21
-56.823347362025849
31
0
0
LINE
5
206
100
AcDbEntity
8
0
100
AcDbLine
10
53.34531455847717
20
-56.823347362025849
30
0
11
53.34531455847717
21
-59.823347362025849
31
0
0
LINE
5
207
100
AcDbEntity
8
0
100
AcDbLine
10
103.3452384013497
20
-59.910615379913025
30
0
11
113.3452384013497
21
-59.910615379913025
31
0
0
LINE
5
208
100
AcDbEntity
8
0
100
AcDbLine
10
113.3452384013497
20
-59.910615379913025
30
0
11
113.3452384013497
21
-56.910615379913025
31
0
0
LINE
5
209
100
AcDbEntity
8
0
100
AcDbLine
10
113.3452384013497
20
-56.910615379913025
30
0
11
103.3452384013497
21
-56.910615379913025
31
0
0
LINE
5
210
100
AcDbEntity
8
0
100
AcDbLine
10
103.3452384013497
20
-56.910615379913025
30
0
11
103.3452384013497
21
-59.910615379913025
31
0
0
LINE
5
211
100
AcDbEntity
8
0
100
AcDbLine
10
8.3453830998918797
20
-59.744806145927392
30
0
11
18.34536786846639
21
-59.762259749504814
31
0
0
LINE
5
212
100
AcDbEntity
8
0
100
AcDbLine
10
148.345169859935
20
-59.98915659601149
30
0
11
138.34518509136049
21
-59.971702992434068
31
0
0
LINE
5
213
100
AcDbEntity
8
0
100
AcDbLine
10
16.872244052282991
20
-73.009708795347137
30
1.6226570088702208e-15
11
19.772239635169594
21
-73.014770340384615
31
1.6226570088702228e-15
0
LINE
5
214
100
AcDbEntity
8
0
100
AcDbLine
10
15.663257274211762
20
-69.50759334353063
30
1.1940306291686513e-15
11
20.963249201556252
21
-69.516843753426599
31
1.1940306291686405e-15
0
LINE
5
215
100
AcDbEntity
8
0
100
AcDbLine
10
20.967088994343243
20
-67.316847104340255
30
9.2460833335623175e-16
11
15.667097066998771
21
-67.307596694444285
31
9.2460833335623865e-16
0
LINE
5
216
100
AcDbEntity
8
0
100
AcDbLine
10
19.772239635169594
20
-73.014770340384615
30
1.6226570088702228e-15
11
19.818491684649821
21
-46.514810703662221
31
-1.6226570088702553e-15
0
LINE
5
217
100
AcDbEntity
8
0
100
AcDbLine
10
15.663257274211762
20
-69.50759334353063
30
1.1940306291686513e-15
11
20.967088994343243
21
-67.316847104340255
31
9.2460833335623175e-16
0
LINE
5
218
100
AcDbEntity
8
0
100
AcDbLine
10
20.963249201556252
20
-69.516843753426599
30
1.1940306291686405e-15
11
20.967088994343243
21
-67.316847104340255
31
9.2460833335623175e-16
0
LINE
5
219
100
AcDbEntity
8
0
100
AcDbLine
10
19.818491684649821
20
-46.514810703662221
30
-1.6226570088702553e-15
11
16.918496101763211
21
-46.5097491586247
31
-1.6226570088702632e-15
0
LINE
5
220
100
AcDbEntity
8
0
100
AcDbLine
10
20.963249201556252
20
-69.516843753426599
30
1.1940306291686405e-15
11
15.667097066998771
21
-67.307596694444285
31
9.2460833335623865e-16
0
LINE
5
221
100
AcDbEntity
8
0
100
AcDbLine
10
16.918496101763211
20
-46.5097491586247
30
-1.6226570088702632e-15
11
16.872244052282991
21
-73.009708795347137
31
1.6226570088702208e-15
0
LINE
5
222
100
AcDbEntity
8
0
100
AcDbLine
10
19.772239635169594
20
-73.014770340384615
30
1.6226570088702228e-15
11
16.918496101763211
21
-46.5097491586247
31
-1.6226570088702632e-15
0
LINE
5
223
100
AcDbEntity
8
0
100
AcDbLine
10
15.667097066998771
20
-67.307596694444285
30
9.2460833335623865e-16
11
15.663257274211762
21
-69.50759334353063
31
1.1940306291686513e-15
0
LINE
5
224
100
AcDbEntity
8
0
100
AcDbLine
10
16.872244052282991
20
-73.009708795347137
30
1.6226570088702208e-15
11
19.818491684649821
21
-46.514810703662221
31
-1.6226570088702553e-15
0
LINE
5
225
100
AcDbEntity
8
0
100
AcDbLine
10
136.87206127517709
20
-73.219152038276391
30
1.6226570088702238e-15
11
139.77205685806371
21
-73.224213583313841
31
1.6226570088702238e-15
0
LINE
5
226
100
AcDbEntity
8
0
100
AcDbLine
10
135.66307449710587
20
-69.717036586459884
30
1.1940306291686543e-15
11
140.9630664244504
21
-69.72628699635581
31
1.1940306291686415e-15
0
LINE
5
227
100
AcDbEntity
8
0
100
AcDbLine
10
140.96690621723735
20
-67.52629034726948
30
9.2460833335622978e-16
11
135.66691428989287
21
-67.517039937373511
31
9.2460833335623964e-16
0
LINE
5
228
100
AcDbEntity
8
0
100
AcDbLine
10
139.77205685806371
20
-73.224213583313841
30
1.6226570088702238e-15
11
139.81830890754392
21
-46.724253946591404
31
-1.6226570088702612e-15
0
LINE
5
229
100
AcDbEntity
8
0
100
AcDbLine
10
135.66307449710587
20
-69.717036586459884
30
1.1940306291686543e-15
11
140.96690621723735
21
-67.52629034726948
31
9.2460833335622978e-16
0
LINE
5
230
100
AcDbEntity
8
0
100
AcDbLine
10
140.9630664244504
20
-69.72628699635581
30
1.1940306291686415e-15
11
140.96690621723735
21
-67.52629034726948
31
9.2460833335622978e-16
0
LINE
5
231
100
AcDbEntity
8
0
100
AcDbLine
10
139.81830890754392
20
-46.724253946591404
30
-1.6226570088702612e-15
11
136.9183133246573
21
-46.719192401553883
31
-1.6226570088702691e-15
0
LINE
5
232
100
AcDbEntity
8
0
100
AcDbLine
10
140.9630664244504
20
-69.72628699635581
30
1.1940306291686415e-15
11
135.66691428989287
21
-67.517039937373511
31
9.2460833335623964e-16
0
LINE
5
233
100
AcDbEntity
8
0
100
AcDbLine
10
136.9183133246573
20
-46.719192401553883
30
-1.6226570088702691e-15
11
136.87206127517709
21
-73.219152038276391
31
1.6226570088702238e-15
0
LINE
5
234
100
AcDbEntity
8
0
100
AcDbLine
10
139.77205685806371
20
-73.224213583313841
30
1.6226570088702238e-15
11
136.9183133246573
21
-46.719192401553883
31
-1.6226570088702691e-15
0
LINE
5
235
100
AcDbEntity
8
0
100
AcDbLine
10
135.66691428989287
20
-67.517039937373511
30
9.2460833335623964e-16
11
135.66307449710587
21
-69.717036586459884
31
1.1940306291686543e-15
0
LINE
5
236
100
AcDbEntity
8
0
100
AcDbLine
10
136.87206127517709
20
-73.219152038276391
30
1.6226570088702238e-15
11
139.81830890754392
21
-46.724253946591404
31
-1.6226570088702612e-15
0
LWPOLYLINE
5
237
100
AcDbEntity
8
0
100
AcDbPolyline
90
4
70
1
43
0.0
10
200.27799176853333
20
-82.814585527958315
10
210.27799176853333
20
-82.814585527958315
10
210.27799176853333
20
-85.814585527958315
10
200.27799176853333
20
-85.814585527958315
0
LINE
5
238
100
AcDbEntity
8
0
100
AcDbLine
10
240.31808936248495
20
-59.866981370970045
30
0
11
210.31813505676143
21
-59.814620560237735
31
0
0
LINE
5
239
100
AcDbEntity
8
0
100
AcDbLine
10
240.31808936248495
20
-59.866981370970045
30
0
11
270.31804366820847
21
-59.919342181702334
31
0
0
LINE
5
240
100
AcDbEntity
8
0
100
AcDbLine
10
240.27794607425682
20
-82.866946338690624
30
0
11
190.27802223138434
21
-82.779678320803441
31
0
0
LINE
5
241
100
AcDbEntity
8
0
100
AcDbLine
10
270.31804366820847
20
-59.919342181702334
30
0
11
280.31804366820847
21
-59.919342181702334
31
0
0
LINE
5
242
100
AcDbEntity
8
0
100
AcDbLine
10
290.31801320535749
20
-59.954249388857988
30
0
11
280.31802843678298
21
-59.936795785281021
31
0
0
LINE
5
243
100
AcDbEntity
8
0
100
AcDbLine
10
270.31804366820847
20
-56.919342181702334
30
0
11
270.31804366820847
21
-59.919342181702334
31
0
0
LINE
5
244
100
AcDbEntity
8
0
100
AcDbLine
10
280.27790037998034
20
-82.919307149422949
30
0
11
280.27790037998034
21
-85.919307149422949
31
0
0
LINE
5
245
100
AcDbEntity
8
0
100
AcDbLine
10
240.27794607425682
20
-82.866946338690624
30
0
11
270.27790037998034
21
-82.919307149422949
31
0
0
LINE
5
246
100
AcDbEntity
8
0
100
AcDbLine
10
270.27790037998034
20
-85.919307149422949
30
0
11
270.27790037998034
21
-82.919307149422949
31
0
0
LINE
5
247
100
AcDbEntity
8
0
100
AcDbLine
10
280.27790037998034
20
-85.919307149422949
30
0
11
270.27790037998034
21
-85.919307149422949
31
0
0
LINE
5
248
100
AcDbEntity
8
0
100
AcDbLine
10
240.27794607425682
20
-82.866946338690624
30
0
11
290.27786991712935
21
-82.954214356577808
31
0
0
LINE
5
249
100
AcDbEntity
8
0
100
AcDbLine
10
280.31804366820847
20
-56.919342181702334
30
0
11
270.31804366820847
21
-56.919342181702334
31
0
0
LINE
5
250
100
AcDbEntity
8
0
100
AcDbLine
10
290.31801320535749
20
-59.954249388857988
30
0
11
290.27786991712935
21
-82.954214356577808
31
0
0
LINE
5
251
100
AcDbEntity
8
0
100
AcDbLine
10
270.27790037998034
20
-82.919307149422949
30
0
11
280.27790037998034
21
-82.919307149422949
31
0
0
LINE
5
252
100
AcDbEntity
8
0
100
AcDbLine
10
280.31804366820847
20
-59.919342181702334
30
0
11
280.31804366820847
21
-56.919342181702334
31
0
0
LINE
5
253
100
AcDbEntity
8
0
100
AcDbLine
10
190.31816551961245
20
-59.779713353082101
30
0
11
290.31801320535749
21
-59.954249388857988
31
0
0
LINE
5
254
100
AcDbEntity
8
0
100
AcDbLine
10
200.31813505676143
20
-56.814620560237742
30
0
11
210.31813505676143
21
-56.814620560237742
31
0
0
LINE
5
255
100
AcDbEntity
8
0
100
AcDbLine
10
190.27802223138434
20
-82.779678320803441
30
0
11
190.31816551961245
21
-59.779713353082101
31
0
0
LINE
5
256
100
AcDbEntity
8
0
100
AcDbLine
10
210.31813505676143
20
-59.814620560237735
30
0
11
200.31813505676143
21
-59.814620560237735
31
0
0
LINE
5
257
100
AcDbEntity
8
0
100
AcDbLine
10
190.31816551961245
20
-59.779713353082101
30
0
11
180.31818075103786
21
-59.762259749504814
31
0
0
LINE
5
258
100
AcDbEntity
8
0
100
AcDbLine
10
210.31813505676143
20
-56.814620560237742
30
0
11
210.31813505676143
21
-59.814620560237735
31
0
0
LINE
5
259
100
AcDbEntity
8
0
100
AcDbLine
10
240.27794607425682
20
-82.866946338690624
30
0
11
210.27799176853333
21
-82.814585527958315
31
0
0
LINE
5
260
100
AcDbEntity
8
0
100
AcDbLine
10
200.31813505676143
20
-59.814620560237735
30
0
11
200.31813505676143
21
-56.814620560237742
31
0
0
LINE
5
261
100
AcDbEntity
8
0
100
AcDbLine
10
80.957049051751227
20
-146.75330731436136
30
0
11
80.953209258964137
21
-148.95330396344772
31
0
0
LINE
5
262
100
AcDbEntity
8
0
100
AcDbLine
10
106.75210715223088
20
-146.79832905477122
30
1.6226570088702238e-15
11
106.79835920171109
21
-120.29836941804875
31
-1.6226570088702612e-15
0
LINE
5
263
100
AcDbEntity
8
0
100
AcDbLine
10
78.305133191685343
20
-156.49869360915946
30
0
11
43.805185740103298
21
-156.43847867681731
31
0
0
LINE
5
264
100
AcDbEntity
8
0
100
AcDbLine
10
76.878261424982156
20
-143.24618301827965
30
0
11
79.732004958388558
21
-169.75120420003952
31
0
0
LINE
5
265
100
AcDbEntity
8
0
100
AcDbLine
10
53.983198907389308
20
-143.20622282290776
30
1.1940306291686405e-15
11
53.987038700176306
21
-141.00622617382143
31
9.2460833335623175e-16
0
LINE
5
266
100
AcDbEntity
8
0
100
AcDbLine
10
68.345291711339101
20
-130.48127503786225
30
0
11
68.345291711339101
21
-133.48127503786228
31
0
0
LINE
5
267
100
AcDbEntity
8
0
100
AcDbLine
10
52.838441390482878
20
-120.20418977314338
30
-1.6226570088702553e-15
11
49.938445807596267
21
-120.19912822810588
31
-1.6226570088702632e-15
0
LINE
5
268
100
AcDbEntity
8
0
100
AcDbLine
10
103.85211156934425
20
-146.79326750973377
30
1.6226570088702238e-15
11
106.79835920171109
21
-120.29836941804875
31
-1.6226570088702612e-15
0
LINE
5
269
100
AcDbEntity
8
0
100
AcDbLine
10
107.94311671861756
20
-143.30040246781317
30
1.1940306291686415e-15
11
107.94695651140452
21
-141.10040581872684
31
9.2460833335622978e-16
0
LINE
5
270
100
AcDbEntity
8
0
100
AcDbLine
10
88.305117960259864
20
-156.51614721273688
30
0
11
95.305117960259849
21
-156.51614721273688
31
0
0
LINE
5
271
100
AcDbEntity
8
0
100
AcDbLine
10
75.653217331619643
20
-148.94405355355158
30
0
11
75.65705712440672
21
-146.74405690446522
31
0
0
LINE
5
272
100
AcDbEntity
8
0
100
AcDbLine
10
43.805185740103298
20
-156.43847867681731
30
0
11
43.845329028331399
21
-133.43851370909596
31
0
0
LINE
5
273
100
AcDbEntity
8
0
100
AcDbLine
10
107.94695651140452
20
-141.10040581872684
30
9.2460833335622978e-16
11
102.64696458406004
21
-141.09115540883087
31
9.2460833335623964e-16
0
LINE
5
274
100
AcDbEntity
8
0
100
AcDbLine
10
102.64312479127304
20
-143.29115205791726
30
1.1940306291686543e-15
11
107.94695651140452
21
-141.10040581872684
31
9.2460833335622978e-16
0
LINE
5
275
100
AcDbEntity
8
0
100
AcDbLine
10
43.845329028331399
20
-133.43851370909596
30
0
11
112.84522393149565
21
-133.55894357378185
31
0
0
LINE
5
276
100
AcDbEntity
8
0
100
AcDbLine
10
88.345261248488129
20
-130.51618224501712
30
0
11
88.345261248488129
21
-133.51618224501715
31
0
0
LINE
5
277
100
AcDbEntity
8
0
100
AcDbLine
10
78.305133191685343
20
-156.49869360915946
30
0
11
112.8050806432674
21
-156.55890854150161
31
0
0
LINE
5
278
100
AcDbEntity
8
0
100
AcDbLine
10
79.778257007868774
20
-143.2512445633171
30
0
11
79.732004958388558
21
-169.75120420003952
31
0
0
LINE
5
279
100
AcDbEntity
8
0
100
AcDbLine
10
78.345276479913622
20
-133.4987286414397
30
0
11
88.345261248488129
21
-133.51618224501715
31
0
0
LINE
5
280
100
AcDbEntity
8
0
100
AcDbLine
10
112.84522393149565
20
-133.55894357378185
30
0
11
112.8050806432674
21
-156.55890854150161
31
0
0
LINE
5
281
100
AcDbEntity
8
0
100
AcDbLine
10
95.345261248488114
20
-130.51618224501712
30
0
11
88.345261248488129
21
-130.51618224501712
31
0
0
LINE
5
282
100
AcDbEntity
8
0
100
AcDbLine
10
106.75210715223088
20
-146.79832905477122
30
1.6226570088702238e-15
11
103.89836361882446
21
-120.29330787301123
31
-1.6226570088702691e-15
0
LINE
5
283
100
AcDbEntity
8
0
100
AcDbLine
10
88.345261248488129
20
-133.51618224501715
30
0
11
95.345261248488114
21
-133.51618224501715
31
0
0
LINE
5
284
100
AcDbEntity
8
0
100
AcDbLine
10
95.305117960259849
20
-156.51614721273688
30
0
11
95.305117960259849
21
-159.51614721273688
31
0
0
LINE
5
285
100
AcDbEntity
8
0
100
AcDbLine
10
102.64696458406004
20
-141.09115540883087
30
9.2460833335623964e-16
11
102.64312479127304
21
-143.29115205791726
31
1.1940306291686543e-15
0
LINE
5
286
100
AcDbEntity
8
0
100
AcDbLine
10
103.85211156934425
20
-146.79326750973377
30
1.6226570088702238e-15
11
106.75210715223088
21
-146.79832905477122
31
1.6226570088702238e-15
0
LINE
5
287
100
AcDbEntity
8
0
100
AcDbLine
10
78.305133191685343
20
-156.49869360915946
30
0
11
88.305117960259864
21
-156.51614721273688
31
0
0
LINE
5
288
100
AcDbEntity
8
0
100
AcDbLine
10
106.79835920171109
20
-120.29836941804875
30
-1.6226570088702612e-15
11
103.89836361882446
21
-120.29330787301123
31
-1.6226570088702691e-15
0
LINE
5
289
100
AcDbEntity
8
0
100
AcDbLine
10
112.84522393149565
20
-133.55894357378185
30
0
11
102.84523916292115
21
-133.54148997020442
31
0
0
LINE
5
290
100
AcDbEntity
8
0
100
AcDbLine
10
107.94311671861756
20
-143.30040246781317
30
1.1940306291686415e-15
11
102.64696458406004
21
-141.09115540883087
31
9.2460833335623964e-16
0
LINE
5
291
100
AcDbEntity
8
0
100
AcDbLine
10
103.89836361882446
20
-120.29330787301123
30
-1.6226570088702691e-15
11
103.85211156934425
21
-146.79326750973377
31
1.6226570088702238e-15
0
LINE
5
292
100
AcDbEntity
8
0
100
AcDbLine
10
88.305117960259864
20
-159.51614721273688
30
0
11
88.305117960259864
21
-156.51614721273688
31
0
0
LINE
5
293
100
AcDbEntity
8
0
100
AcDbLine
10
95.345261248488114
20
-133.51618224501715
30
0
11
95.345261248488114
21
-130.51618224501712
31
0
0
LINE
5
294
100
AcDbEntity
8
0
100
AcDbLine
10
95.305117960259849
20
-159.51614721273688
30
0
11
88.305117960259864
21
-159.51614721273688
31
0
0
LINE
5
295
100
AcDbEntity
8
0
100
AcDbLine
10
102.64312479127304
20
-143.29115205791726
30
1.1940306291686543e-15
11
107.94311671861756
21
-143.30040246781317
31
1.1940306291686415e-15
0
LWPOLYLINE
5
296
100
AcDbEntity
8
0
100
AcDbPolyline
90
4
70
1
43
0.0
10
68.30514842311085
20
-156.48124000558201
10
68.30514842311085
20
-159.48124000558204
10
61.30514842311085
20
-159.48124000558204
10
61.30514842311085
20
-156.48124000558201
0
LINE
5
297
100
AcDbEntity
8
0
100
AcDbLine
10
79.778257007868774
20
-143.2512445633171
30
0
11
76.832009375501954
21
-169.74614265500213
31
0
0
LINE
5
298
100
AcDbEntity
8
0
100
AcDbLine
10
79.732004958388558
20
-169.75120420003952
30
0
11
76.832009375501954
21
-169.74614265500213
31
0
0
LINE
5
299
100
AcDbEntity
8
0
100
AcDbLine
10
75.65705712440672
20
-146.74405690446522
30
0
11
80.953209258964137
21
-148.95330396344772
31
0
0
LINE
5
300
100
AcDbEntity
8
0
100
AcDbLine
10
75.65705712440672
20
-146.74405690446522
30
0
11
80.957049051751227
21
-146.75330731436136
31
0
0
LINE
5
301
100
AcDbEntity
8
0
100
AcDbLine
10
48.687046772831835
20
-140.99697576392546
30
9.2460833335623865e-16
11
48.683206980044815
21
-143.19697241301179
31
1.1940306291686513e-15
0
LINE
5
302
100
AcDbEntity
8
0
100
AcDbLine
10
49.892193758116044
20
-146.6990878648283
30
1.6226570088702208e-15
11
52.838441390482878
21
-120.20418977314338
31
-1.6226570088702553e-15
0
LINE
5
303
100
AcDbEntity
8
0
100
AcDbLine
10
68.345291711339101
20
-133.48127503786228
30
0
11
61.345291711339101
21
-133.48127503786228
31
0
0
LINE
5
304
100
AcDbEntity
8
0
100
AcDbLine
10
52.792189341002654
20
-146.70414940986578
30
1.6226570088702228e-15
11
49.938445807596267
21
-120.19912822810588
31
-1.6226570088702632e-15
0
LINE
5
305
100
AcDbEntity
8
0
100
AcDbLine
10
61.345291711339101
20
-133.48127503786228
30
0
11
61.345291711339101
21
-130.48127503786225
31
0
0
LINE
5
306
100
AcDbEntity
8
0
100
AcDbLine
10
53.987038700176306
20
-141.00622617382143
30
9.2460833335623175e-16
11
48.687046772831835
21
-140.99697576392546
31
9.2460833335623865e-16
0
LINE
5
307
100
AcDbEntity
8
0
100
AcDbLine
10
78.345276479913622
20
-133.4987286414397
30
0
11
68.345291711339101
21
-133.48127503786228
31
0
0
LINE
5
308
100
AcDbEntity
8
0
100
AcDbLine
10
76.832009375501954
20
-169.74614265500213
30
0
11
76.878261424982156
21
-143.24618301827965
31
0
0
LINE
5
309
100
AcDbEntity
8
0
100
AcDbLine
10
78.305133191685343
20
-156.49869360915946
30
0
11
68.30514842311085
21
-156.48124000558201
31
0
0
LINE
5
310
100
AcDbEntity
8
0
100
AcDbLine
10
76.878261424982156
20
-143.24618301827965
30
0
11
79.778257007868774
21
-143.2512445633171
31
0
0
LINE
5
311
100
AcDbEntity
8
0
100
AcDbLine
10
80.953209258964137
20
-148.95330396344772
30
0
11
75.653217331619643
21
-148.94405355355158
31
0
0
LINE
5
312
100
AcDbEntity
8
0
100
AcDbLine
10
48.683206980044815
20
-143.19697241301179
30
1.1940306291686513e-15
11
53.983198907389308
21
-143.20622282290776
31
1.1940306291686405e-15
0
LINE
5
313
100
AcDbEntity
8
0
100
AcDbLine
10
61.345291711339101
20
-130.48127503786225
30
0
11
68.345291711339101
21
-130.48127503786225
31
0
0
LINE
5
314
100
AcDbEntity
8
0
100
AcDbLine
10
48.683206980044815
20
-143.19697241301179
30
1.1940306291686513e-15
11
53.987038700176306
21
-141.00622617382143
31
9.2460833335623175e-16
0
LINE
5
315
100
AcDbEntity
8
0
100
AcDbLine
10
80.957049051751227
20
-146.75330731436136
30
0
11
75.653217331619643
21
-148.94405355355158
31
0
0
LINE
5
316
100
AcDbEntity
8
0
100
AcDbLine
10
49.938445807596267
20
-120.19912822810588
30
-1.6226570088702632e-15
11
49.892193758116044
21
-146.6990878648283
31
1.6226570088702208e-15
0
LINE
5
317
100
AcDbEntity
8
0
100
AcDbLine
10
49.892193758116044
20
-146.6990878648283
30
1.6226570088702208e-15
11
52.792189341002654
21
-146.70414940986578
31
1.6226570088702228e-15
0
LINE
5
318
100
AcDbEntity
8
0
100
AcDbLine
10
53.983198907389308
20
-143.20622282290776
30
1.1940306291686405e-15
11
48.687046772831835
21
-140.99697576392546
31
9.2460833335623865e-16
0
LINE
5
319
100
AcDbEntity
8
0
100
AcDbLine
10
52.792189341002654
20
-146.70414940986578
30
1.6226570088702228e-15
11
52.838441390482878
21
-120.20418977314338
31
-1.6226570088702553e-15
0
LINE
5
320
100
AcDbEntity
8
0
100
AcDbLine
10
43.845329028331399
20
-133.43851370909596
30
0
11
51.365317574299425
21
-133.4516388189862
31
0
0
LINE
5
321
100
AcDbEntity
8
0
100
AcDbLine
10
112.84522393149565
20
-133.55894357378185
30
0
11
105.32523538552763
21
-133.54581846389158
31
0
0
ENDSEC
0
SECTION
2
OBJECTS
0
DICTIONARY
5
C
100
AcDbDictionary
3
ACAD_GROUP
350
D
3
ACAD_MLINESTYLE
350
17
0
DICTIONARY
5
D
100
AcDbDictionary
0
DICTIONARY
5
1A
330
C
100
AcDbDictionary
0
DICTIONARY
5
17
100
AcDbDictionary
0
ENDSEC
0
EOF
