  0
SECTION
  2
HEADER
  9
$ACADVER
  1
AC1032
  9
$ACADMAINTVER
 90
      110
  9
$DWGCODEPAGE
  3
ANSI_1252
  9
$REQUIREDVERSIONS
160
                 0
  9
$INSBASE
 10
0.0
 20
0.0
 30
0.0
  9
$EXTMIN
 10
1.000000000000000E+20
 20
1.000000000000000E+20
 30
1.000000000000000E+20
  9
$EXTMAX
 10
-1.000000000000000E+20
 20
-1.000000000000000E+20
 30
-1.000000000000000E+20
  9
$LIMMIN
 10
0.0
 20
0.0
  9
$LIMMAX
 10
12.0
 20
9.0
  9
$ORTHOMODE
 70
     0
  9
$REGENMODE
 70
     1
  9
$FILLMODE
 70
     1
  9
$QTEXTMODE
 70
     0
  9
$MIRRTEXT
 70
     0
  9
$LTSCALE
 40
1.0
  9
$ATTMODE
 70
     1
  9
$TEXTSIZE
 40
0.2
  9
$TRACEWID
 40
0.05
  9
$TEXTSTYLE
  7
Standard
  9
$CLAYER
  8
0
  9
$CELTYPE
  6
ByLayer
  9
$CECOLOR
 62
   256
  9
$CELTSCALE
 40
1.0
  9
$DISPSILH
 70
     0
  9
$DIMSCALE
 40
1.0
  9
$DIMASZ
 40
0.18
  9
$DIMEXO
 40
0.0625
  9
$DIMDLI
 40
0.38
  9
$DIMRND
 40
0.0
  9
$DIMDLE
 40
0.0
  9
$DIMEXE
 40
0.18
  9
$DIMTP
 40
0.0
  9
$DIMTM
 40
0.0
  9
$DIMTXT
 40
0.18
  9
$DIMCEN
 40
0.09
  9
$DIMTSZ
 40
0.0
  9
$DIMTOL
 70
     0
  9
$DIMLIM
 70
     0
  9
$DIMTIH
 70
     1
  9
$DIMTOH
 70
     1
  9
$DIMSE1
 70
     0
  9
$DIMSE2
 70
     0
  9
$DIMTAD
 70
     0
  9
$DIMZIN
 70
     0
  9
$DIMBLK
  1

  9
$DIMASO
 70
     1
  9
$DIMSHO
 70
     1
  9
$DIMPOST
  1

  9
$DIMAPOST
  1

  9
$DIMALT
 70
     0
  9
$DIMALTD
 70
     2
  9
$DIMALTF
 40
25.4
  9
$DIMLFAC
 40
1.0
  9
$DIMTOFL
 70
     0
  9
$DIMTVP
 40
0.0
  9
$DIMTIX
 70
     0
  9
$DIMSOXD
 70
     0
  9
$DIMSAH
 70
     0
  9
$DIMBLK1
  1

  9
$DIMBLK2
  1

  9
$DIMSTYLE
  2
Standard
  9
$DIMCLRD
 70
     0
  9
$DIMCLRE
 70
     0
  9
$DIMCLRT
 70
     0
  9
$DIMTFAC
 40
1.0
  9
$DIMGAP
 40
0.09
  9
$DIMJUST
 70
     0
  9
$DIMSD1
 70
     0
  9
$DIMSD2
 70
     0
  9
$DIMTOLJ
 70
     1
  9
$DIMTZIN
 70
     0
  9
$DIMALTZ
 70
     0
  9
$DIMALTTZ
 70
     0
  9
$DIMUPT
 70
     0
  9
$DIMDEC
 70
     4
  9
$DIMTDEC
 70
     4
  9
$DIMALTU
 70
     2
  9
$DIMALTTD
 70
     2
  9
$DIMTXSTY
  7
Standard
  9
$DIMAUNIT
 70
     0
  9
$DIMADEC
 70
     0
  9
$DIMALTRND
 40
0.0
  9
$DIMAZIN
 70
     0
  9
$DIMDSEP
 70
    46
  9
$DIMATFIT
 70
     3
  9
$DIMFRAC
 70
     0
  9
$DIMLDRBLK
  1

  9
$DIMLUNIT
 70
     2
  9
$DIMLWD
 70
    -2
  9
$DIMLWE
 70
    -2
  9
$DIMTMOVE
 70
     0
  9
$DIMFXL
 40
1.0
  9
$DIMFXLON
 70
     0
  9
$DIMJOGANG
 40
0.7853981633974483
  9
$DIMTFILL
 70
     0
  9
$DIMTFILLCLR
 70
     0
  9
$DIMARCSYM
 70
     0
  9
$DIMLTYPE
  6

  9
$DIMLTEX1
  6

  9
$DIMLTEX2
  6

  9
$DIMTXTDIRECTION
 70
     0
  9
$LUNITS
 70
     2
  9
$LUPREC
 70
     4
  9
$SKETCHINC
 40
0.1
  9
$FILLETRAD
 40
0.0
  9
$AUNITS
 70
     0
  9
$AUPREC
 70
     0
  9
$MENU
  1
.
  9
$ELEVATION
 40
0.0
  9
$PELEVATION
 40
0.0
  9
$THICKNESS
 40
0.0
  9
$LIMCHECK
 70
     0
  9
$CHAMFERA
 40
0.0
  9
$CHAMFERB
 40
0.0
  9
$CHAMFERC
 40
0.0
  9
$CHAMFERD
 40
0.0
  9
$SKPOLY
 70
     0
  9
$TDCREATE
 40
2459351.589467593
  9
$TDUCREATE
 40
2459351.214467593
  9
$TDUPDATE
 40
2459351.589467593
  9
$TDUUPDATE
 40
2459351.214467593
  9
$TDINDWG
 40
0.0000000000
  9
$TDUSRTIMER
 40
0.0000000000
  9
$USRTIMER
 70
     1
  9
$ANGBASE
 50
0.0
  9
$ANGDIR
 70
     0
  9
$PDMODE
 70
     0
  9
$PDSIZE
 40
0.0
  9
$PLINEWID
 40
0.0
  9
$SPLFRAME
 70
     0
  9
$SPLINETYPE
 70
     6
  9
$SPLINESEGS
 70
     8
  9
$HANDSEED
  5
96
  9
$SURFTAB1
 70
     6
  9
$SURFTAB2
 70
     6
  9
$SURFTYPE
 70
     6
  9
$SURFU
 70
     6
  9
$SURFV
 70
     6
  9
$UCSBASE
  2

  9
$UCSNAME
  2

  9
$UCSORG
 10
0.0
 20
0.0
 30
0.0
  9
$UCSXDIR
 10
1.0
 20
0.0
 30
0.0
  9
$UCSYDIR
 10
0.0
 20
1.0
 30
0.0
  9
$UCSORTHOREF
  2

  9
$UCSORTHOVIEW
 70
     0
  9
$UCSORGTOP
 10
0.0
 20
0.0
 30
0.0
  9
$UCSORGBOTTOM
 10
0.0
 20
0.0
 30
0.0
  9
$UCSORGLEFT
 10
0.0
 20
0.0
 30
0.0
  9
$UCSORGRIGHT
 10
0.0
 20
0.0
 30
0.0
  9
$UCSORGFRONT
 10
0.0
 20
0.0
 30
0.0
  9
$UCSORGBACK
 10
0.0
 20
0.0
 30
0.0
  9
$PUCSBASE
  2

  9
$PUCSNAME
  2

  9
$PUCSORG
 10
0.0
 20
0.0
 30
0.0
  9
$PUCSXDIR
 10
1.0
 20
0.0
 30
0.0
  9
$PUCSYDIR
 10
0.0
 20
1.0
 30
0.0
  9
$PUCSORTHOREF
  2

  9
$PUCSORTHOVIEW
 70
     0
  9
$PUCSORGTOP
 10
0.0
 20
0.0
 30
0.0
  9
$PUCSORGBOTTOM
 10
0.0
 20
0.0
 30
0.0
  9
$PUCSORGLEFT
 10
0.0
 20
0.0
 30
0.0
  9
$PUCSORGRIGHT
 10
0.0
 20
0.0
 30
0.0
  9
$PUCSORGFRONT
 10
0.0
 20
0.0
 30
0.0
  9
$PUCSORGBACK
 10
0.0
 20
0.0
 30
0.0
  9
$USERI1
 70
     0
  9
$USERI2
 70
     0
  9
$USERI3
 70
     0
  9
$USERI4
 70
     0
  9
$USERI5
 70
     0
  9
$USERR1
 40
0.0
  9
$USERR2
 40
0.0
  9
$USERR3
 40
0.0
  9
$USERR4
 40
0.0
  9
$USERR5
 40
0.0
  9
$WORLDVIEW
 70
     1
  9
$SHADEDGE
 70
     3
  9
$SHADEDIF
 70
    70
  9
$TILEMODE
 70
     1
  9
$MAXACTVP
 70
    64
  9
$PINSBASE
 10
0.0
 20
0.0
 30
0.0
  9
$PLIMCHECK
 70
     0
  9
$PEXTMIN
 10
1.000000000000000E+20
 20
1.000000000000000E+20
 30
1.000000000000000E+20
  9
$PEXTMAX
 10
-1.000000000000000E+20
 20
-1.000000000000000E+20
 30
-1.000000000000000E+20
  9
$PLIMMIN
 10
0.0
 20
0.0
  9
$PLIMMAX
 10
12.0
 20
9.0
  9
$UNITMODE
 70
     0
  9
$VISRETAIN
 70
     1
  9
$PLINEGEN
 70
     0
  9
$PSLTSCALE
 70
     1
  9
$TREEDEPTH
 70
  3020
  9
$CMLSTYLE
  2
Standard
  9
$CMLJUST
 70
     0
  9
$CMLSCALE
 40
1.0
  9
$PROXYGRAPHICS
 70
     1
  9
$MEASUREMENT
 70
     0
  9
$CELWEIGHT
370
    -1
  9
$ENDCAPS
280
     0
  9
$JOINSTYLE
280
     0
  9
$LWDISPLAY
290
     1
  9
$INSUNITS
 70
     4
  9
$HYPERLINKBASE
  1

  9
$STYLESHEET
  1

  9
$XEDIT
290
     1
  9
$CEPSNTYPE
380
     0
  9
$PSTYLEMODE
290
     1
  9
$FINGERPRINTGUID
  2
{31660A38-B2B0-BF47-B49C-6F185111B661}
  9
$VERSIONGUID
  2
{1EB8FA4B-4455-A343-A401-945B94328205}
  9
$EXTNAMES
290
     1
  9
$PSVPSCALE
 40
0.0
  9
$OLESTARTUP
290
     0
  9
$SORTENTS
280
   127
  9
$INDEXCTL
280
     0
  9
$HIDETEXT
280
     1
  9
$XCLIPFRAME
280
     2
  9
$HALOGAP
280
     0
  9
$OBSCOLOR
 70
   257
  9
$OBSLTYPE
280
     0
  9
$INTERSECTIONDISPLAY
280
     0
  9
$INTERSECTIONCOLOR
 70
   257
  9
$DIMASSOC
280
     2
  9
$PROJECTNAME
  1

  9
$CAMERADISPLAY
290
     0
  9
$LENSLENGTH
 40
50.0
  9
$CAMERAHEIGHT
 40
0.0
  9
$STEPSPERSEC
 40
2.0
  9
$STEPSIZE
 40
6.0
  9
$3DDWFPREC
 40
2.0
  9
$PSOLWIDTH
 40
0.25
  9
$PSOLHEIGHT
 40
4.0
  9
$LOFTANG1
 40
1.570796326794896
  9
$LOFTANG2
 40
1.570796326794896
  9
$LOFTMAG1
 40
0.0
  9
$LOFTMAG2
 40
0.0
  9
$LOFTPARAM
 70
     7
  9
$LOFTNORMALS
280
     1
  9
$LATITUDE
 40
37.795
  9
$LONGITUDE
 40
-122.394
  9
$NORTHDIRECTION
 40
0.0
  9
$TIMEZONE
 70
 -8000
  9
$LIGHTGLYPHDISPLAY
280
     1
  9
$TILEMODELIGHTSYNCH
280
     1
  9
$CMATERIAL
347
11
  9
$SOLIDHIST
280
     0
  9
$SHOWHIST
280
     1
  9
$DWFFRAME
280
     2
  9
$DGNFRAME
280
     0
  9
$REALWORLDSCALE
290
     1
  9
$INTERFERECOLOR
 62
     1
  9
$INTERFEREOBJVS
345
33
  9
$INTERFEREVPVS
346
30
  9
$CSHADOW
280
     0
  9
$SHADOWPLANELOCATION
 40
0.0
  0
ENDSEC
  0
SECTION
  2
CLASSES
  0
CLASS
  1
ACDBDICTIONARYWDFLT
  2
AcDbDictionaryWithDefault
  3
ObjectDBX Classes
 90
        0
 91
        1
280
     0
281
     0
  0
CLASS
  1
MATERIAL
  2
AcDbMaterial
  3
ObjectDBX Classes
 90
     1153
 91
        3
280
     0
281
     0
  0
CLASS
  1
VISUALSTYLE
  2
AcDbVisualStyle
  3
ObjectDBX Classes
 90
     4095
 91
       24
280
     0
281
     0
  0
CLASS
  1
SCALE
  2
AcDbScale
  3
ObjectDBX Classes
 90
     1153
 91
       17
280
     0
281
     0
  0
CLASS
  1
TABLESTYLE
  2
AcDbTableStyle
  3
ObjectDBX Classes
 90
     4095
 91
        1
280
     0
281
     0
  0
CLASS
  1
MLEADERSTYLE
  2
AcDbMLeaderStyle
  3
ACDB_MLEADERSTYLE_CLASS
 90
     4095
 91
        1
280
     0
281
     0
  0
CLASS
  1
ACDBSECTIONVIEWSTYLE
  2
AcDbSectionViewStyle
  3
ObjectDBX Classes
 90
     1025
 91
        1
280
     0
281
     0
  0
CLASS
  1
ACDBDETAILVIEWSTYLE
  2
AcDbDetailViewStyle
  3
ObjectDBX Classes
 90
     1025
 91
        1
280
     0
281
     0
  0
CLASS
  1
DICTIONARYVAR
  2
AcDbDictionaryVar
  3
ObjectDBX Classes
 90
        0
 91
        5
280
     0
281
     0
  0
CLASS
  1
CELLSTYLEMAP
  2
AcDbCellStyleMap
  3
ObjectDBX Classes
 90
     1152
 91
        1
280
     0
281
     0
  0
ENDSEC
  0
SECTION
  2
TABLES
  0
TABLE
  2
VPORT
  5
8
330
0
100
AcDbSymbolTable
 70
     1
  0
VPORT
  5
57
330
8
100
AcDbSymbolTableRecord
100
AcDbViewportTableRecord
  2
*Active
 70
     0
 10
0.0
 20
0.0
 11
1.0
 21
1.0
 12
0.0
 22
0.0
 13
0.0
 23
0.0
 14
1.0
 24
1.0
 15
0.0
 25
0.0
 16
0.0
 26
0.0
 36
1.0
 17
30.62499981386079
 27
-19.9999998784398
 37
0.0
 40
48.44999970552043
 41
1.342105263157888
 42
50.0
 43
0.0
 44
0.0
 50
0.0
 51
0.0
 71
     0
 72
   100
 73
     1
 74
     0
 75
     1
 76
     0
 77
     0
 78
     0
281
     0
 65
     1
110
0.0
120
0.0
130
0.0
111
1.0
121
0.0
131
0.0
112
0.0
122
1.0
132
0.0
 79
     0
146
0.0
 60
     3
 61
     5
292
     1
282
     1
141
0.0
142
0.0
 63
   250
421
  3355443
  0
ENDTAB
  0
TABLE
  2
LTYPE
  5
5
330
0
100
AcDbSymbolTable
 70
     1
  0
LTYPE
  5
5B
330
5
100
AcDbSymbolTableRecord
100
AcDbLinetypeTableRecord
  2
ByBlock
 70
     0
  3

 72
    65
 73
     0
 40
0.0
  0
LTYPE
  5
5C
330
5
100
AcDbSymbolTableRecord
100
AcDbLinetypeTableRecord
  2
ByLayer
 70
     0
  3

 72
    65
 73
     0
 40
0.0
  0
LTYPE
  5
5D
330
5
100
AcDbSymbolTableRecord
100
AcDbLinetypeTableRecord
  2
Continuous
 70
     0
  3
Solid line
 72
    65
 73
     0
 40
0.0
  0
ENDTAB
  0
TABLE
  2
LAYER
  5
2
330
0
100
AcDbSymbolTable
 70
     2
  0
LAYER
  5
54
330
2
100
AcDbSymbolTableRecord
100
AcDbLayerTableRecord
  2
0
 70
     0
 62
     7
  6
Continuous
370
    -3
390
F
347
21
348
0
  0
LAYER
  5
78
330
2
100
AcDbSymbolTableRecord
100
AcDbLayerTableRecord
  2
Patterns
 70
     0
 62
     7
  6
Continuous
370
     0
390
F
347
21
348
0
  0
ENDTAB
  0
TABLE
  2
STYLE
  5
3
330
0
100
AcDbSymbolTable
 70
     2
  0
STYLE
  5
55
330
3
100
AcDbSymbolTableRecord
100
AcDbTextStyleTableRecord
  2
Standard
 70
     0
 40
0.0
 41
1.0
 50
0.0
 71
     0
 42
0.2
  3
txt
  4

  0
STYLE
  5
5A
330
3
100
AcDbSymbolTableRecord
100
AcDbTextStyleTableRecord
  2
Annotative
 70
     0
 40
0.0
 41
1.0
 50
0.0
 71
     0
 42
0.2
  3
txt
  4

1001
AcadAnnotative
1000
AnnotativeData
1002
{
1070
     1
1070
     1
1002
}
  0
ENDTAB
  0
TABLE
  2
VIEW
  5
6
330
0
100
AcDbSymbolTable
 70
     0
  0
ENDTAB
  0
TABLE
  2
UCS
  5
7
330
0
100
AcDbSymbolTable
 70
     0
  0
ENDTAB
  0
TABLE
  2
APPID
  5
9
330
0
100
AcDbSymbolTable
 70
     2
  0
APPID
  5
56
330
9
100
AcDbSymbolTableRecord
100
AcDbRegAppTableRecord
  2
ACAD
 70
     0
  0
APPID
  5
5E
330
9
100
AcDbSymbolTableRecord
100
AcDbRegAppTableRecord
  2
AcadAnnotative
 70
     0
  0
ENDTAB
  0
TABLE
  2
DIMSTYLE
  5
A
330
0
100
AcDbSymbolTable
 70
     2
100
AcDbDimStyleTable
 71
     0
  0
DIMSTYLE
105
58
330
A
100
AcDbSymbolTableRecord
100
AcDbDimStyleTableRecord
  2
Standard
 70
     0
340
55
  0
DIMSTYLE
105
59
330
A
100
AcDbSymbolTableRecord
100
AcDbDimStyleTableRecord
  2
Annotative
 70
     0
340
55
1001
AcadAnnotative
1000
AnnotativeData
1002
{
1070
     1
1070
     1
1002
}
  0
ENDTAB
  0
TABLE
  2
BLOCK_RECORD
  5
1
330
0
100
AcDbSymbolTable
 70
     1
  0
BLOCK_RECORD
  5
70
330
1
100
AcDbSymbolTableRecord
100
AcDbBlockTableRecord
  2
*Model_Space
340
73
 70
     0
280
     1
281
     0
  0
BLOCK_RECORD
  5
6C
330
1
100
AcDbSymbolTableRecord
100
AcDbBlockTableRecord
  2
*Paper_Space
340
6F
 70
     0
280
     1
281
     0
  0
BLOCK_RECORD
  5
74
330
1
100
AcDbSymbolTableRecord
100
AcDbBlockTableRecord
  2
*Paper_Space0
340
77
 70
     0
280
     1
281
     0
  0
ENDTAB
  0
ENDSEC
  0
SECTION
  2
BLOCKS
  0
BLOCK
  5
71
330
70
100
AcDbEntity
  8
0
100
AcDbBlockBegin
  2
*Model_Space
 70
     0
 10
0.0
 20
0.0
 30
0.0
  3
*Model_Space
  1

  0
ENDBLK
  5
72
330
70
100
AcDbEntity
  8
0
100
AcDbBlockEnd
  0
BLOCK
  5
6D
330
6C
100
AcDbEntity
 67
     1
  8
0
100
AcDbBlockBegin
  2
*Paper_Space
 70
     0
 10
0.0
 20
0.0
 30
0.0
  3
*Paper_Space
  1

  0
ENDBLK
  5
6E
330
6C
100
AcDbEntity
 67
     1
  8
0
100
AcDbBlockEnd
  0
BLOCK
  5
75
330
74
100
AcDbEntity
 67
     1
  8
0
100
AcDbBlockBegin
  2
*Paper_Space0
 70
     0
 10
0.0
 20
0.0
 30
0.0
  3
*Paper_Space0
  1

  0
ENDBLK
  5
76
330
74
100
AcDbEntity
 67
     1
  8
0
100
AcDbBlockEnd
  0
ENDSEC
  0
SECTION
  2
ENTITIES
  0
SPLINE
  5
79
330
70
100
AcDbEntity
  8
Patterns
100
AcDbSpline
210
0.0
220
0.0
230
1.0
 70
     9
 71
     3
 72
   215
 73
   211
 74
     0
 42
0.0000000001
 43
0.0000000001
 40
0.0
 40
0.0
 40
0.0
 40
0.0
 40
1.0
 40
1.0
 40
1.0
 40
2.0
 40
2.0
 40
2.0
 40
3.0
 40
3.0
 40
3.0
 40
4.0
 40
4.0
 40
4.0
 40
5.0
 40
5.0
 40
5.0
 40
6.0
 40
6.0
 40
6.0
 40
7.0
 40
7.0
 40
7.0
 40
8.0
 40
8.0
 40
8.0
 40
9.0
 40
9.0
 40
9.0
 40
10.0
 40
10.0
 40
10.0
 40
11.0
 40
11.0
 40
11.0
 40
12.0
 40
12.0
 40
12.0
 40
13.0
 40
13.0
 40
13.0
 40
14.0
 40
14.0
 40
14.0
 40
15.0
 40
15.0
 40
15.0
 40
16.0
 40
16.0
 40
16.0
 40
17.0
 40
17.0
 40
17.0
 40
18.0
 40
18.0
 40
18.0
 40
19.0
 40
19.0
 40
19.0
 40
20.0
 40
20.0
 40
20.0
 40
21.0
 40
21.0
 40
21.0
 40
22.0
 40
22.0
 40
22.0
 40
23.0
 40
23.0
 40
23.0
 40
24.0
 40
24.0
 40
24.0
 40
25.0
 40
25.0
 40
25.0
 40
26.0
 40
26.0
 40
26.0
 40
27.0
 40
27.0
 40
27.0
 40
28.0
 40
28.0
 40
28.0
 40
29.0
 40
29.0
 40
29.0
 40
30.0
 40
30.0
 40
30.0
 40
31.0
 40
31.0
 40
31.0
 40
32.0
 40
32.0
 40
32.0
 40
33.0
 40
33.0
 40
33.0
 40
34.0
 40
34.0
 40
34.0
 40
35.0
 40
35.0
 40
35.0
 40
36.0
 40
36.0
 40
36.0
 40
37.0
 40
37.0
 40
37.0
 40
38.0
 40
38.0
 40
38.0
 40
39.0
 40
39.0
 40
39.0
 40
40.0
 40
40.0
 40
40.0
 40
41.0
 40
41.0
 40
41.0
 40
42.0
 40
42.0
 40
42.0
 40
43.0
 40
43.0
 40
43.0
 40
44.0
 40
44.0
 40
44.0
 40
45.0
 40
45.0
 40
45.0
 40
46.0
 40
46.0
 40
46.0
 40
47.0
 40
47.0
 40
47.0
 40
48.0
 40
48.0
 40
48.0
 40
49.0
 40
49.0
 40
49.0
 40
50.0
 40
50.0
 40
50.0
 40
51.0
 40
51.0
 40
51.0
 40
52.0
 40
52.0
 40
52.0
 40
53.0
 40
53.0
 40
53.0
 40
54.0
 40
54.0
 40
54.0
 40
55.0
 40
55.0
 40
55.0
 40
56.0
 40
56.0
 40
56.0
 40
57.0
 40
57.0
 40
57.0
 40
58.0
 40
58.0
 40
58.0
 40
59.0
 40
59.0
 40
59.0
 40
60.0
 40
60.0
 40
60.0
 40
61.0
 40
61.0
 40
61.0
 40
62.0
 40
62.0
 40
62.0
 40
63.0
 40
63.0
 40
63.0
 40
64.0
 40
64.0
 40
64.0
 40
65.0
 40
65.0
 40
65.0
 40
66.0
 40
66.0
 40
66.0
 40
67.0
 40
67.0
 40
67.0
 40
68.0
 40
68.0
 40
68.0
 40
69.0
 40
69.0
 40
69.0
 40
70.0
 40
70.0
 40
70.0
 40
70.0
 10
11.44529622109701
 20
-16.77916530613507
 30
0.0
 10
11.44529622109701
 20
-16.77916530613507
 30
0.0
 10
18.55476751923283
 20
-16.77916530613507
 30
0.0
 10
18.55476751923283
 20
-16.77916530613507
 30
0.0
 10
19.2989081440468
 20
-16.77916530613507
 30
0.0
 10
19.9042114208052
 20
-16.12115206845235
 30
0.0
 10
19.9042114208052
 20
-15.31241590328995
 30
0.0
 10
19.9042114208052
 20
-14.50367973812755
 30
0.0
 10
19.2989081440468
 20
-13.84583875521909
 30
0.0
 10
18.55476751923283
 20
-13.84583875521909
 30
0.0
 10
18.55476751923283
 20
-13.84583875521909
 30
0.0
 10
11.44529622109701
 20
-13.84583875521909
 30
0.0
 10
11.44529622109701
 20
-13.84583875521909
 30
0.0
 10
11.29026692426077
 20
-13.84583875521909
 30
0.0
 10
11.1541856525934
 20
-13.65498046533625
 30
0.0
 10
11.1541856525934
 20
-13.43742268544273
 30
0.0
 10
11.1541856525934
 20
-13.2198649055492
 30
0.0
 10
11.29026692426077
 20
-13.02917887044062
 30
0.0
 10
11.44529622109701
 20
-13.02917887044062
 30
0.0
 10
11.44529622109701
 20
-13.02917887044062
 30
0.0
 10
14.1796685077398
 20
-13.02917887044062
 30
0.0
 10
14.1796685077398
 20
-13.02917887044062
 30
0.0
 10
14.92380913255377
 20
-13.02917887044062
 30
0.0
 10
15.52911240931217
 20
-12.3711656327579
 30
0.0
 10
15.52911240931217
 20
-11.5624294675955
 30
0.0
 10
15.52911240931217
 20
-11.5624294675955
 30
0.0
 10
15.52911240931217
 20
-10.75007595217359
 30
0.0
 10
15.52911240931217
 20
-10.75007595217359
 30
0.0
 10
15.52911240931217
 20
-10.75007595217359
 30
0.0
 10
19.22328829814557
 20
-3.361724174506791
 30
0.0
 10
19.22328829814557
 20
-3.361724174506791
 30
0.0
 10
19.35385741703654
 20
-3.100241427176328
 30
0.0
 10
19.2479207308651
 20
-2.782431368662031
 30
0.0
 10
18.9866102383089
 20
-2.651689994996799
 30
0.0
 10
18.72598876484975
 20
-2.521465385654356
 30
0.0
 10
18.40766194201267
 20
-2.627229817051525
 30
0.0
 10
18.27657605879891
 20
-2.888368054833463
 30
0.0
 10
18.27657605879891
 20
-2.888368054833463
 30
0.0
 10
14.99994574277779
 20
-9.441628686875704
 30
0.0
 10
14.99994574277779
 20
-9.441628686875704
 30
0.0
 10
14.99994574277779
 20
-9.441628686875704
 30
0.0
 10
11.72331542675667
 20
-2.888368054833463
 30
0.0
 10
11.72331542675667
 20
-2.888368054833463
 30
0.0
 10
11.59257405309144
 20
-2.627057562277263
 30
0.0
 10
11.27459173980288
 20
-2.521637640428618
 30
0.0
 10
11.01328124724668
 20
-2.651689994996799
 30
0.0
 10
10.75197075469048
 20
-2.782431368662031
 30
0.0
 10
10.64603406851905
 20
-3.100241427176328
 30
0.0
 10
10.77660318741001
 20
-3.361724174506791
 30
0.0
 10
10.77660318741001
 20
-3.361724174506791
 30
0.0
 10
14.47077907624342
 20
-10.74990369739933
 30
0.0
 10
14.47077907624342
 20
-10.74990369739933
 30
0.0
 10
14.47077907624342
 20
-10.74990369739933
 30
0.0
 10
14.47077907624342
 20
-11.5624294675955
 30
0.0
 10
14.47077907624342
 20
-11.5624294675955
 30
0.0
 10
14.47077907624342
 20
-11.77998724748903
 30
0.0
 10
14.33469780457605
 20
-11.97084553737187
 30
0.0
 10
14.1796685077398
 20
-11.97084553737187
 30
0.0
 10
14.1796685077398
 20
-11.97084553737187
 30
0.0
 10
11.44529622109701
 20
-11.97084553737187
 30
0.0
 10
11.44529622109701
 20
-11.97084553737187
 30
0.0
 10
10.70115559628304
 20
-11.97084553737187
 30
0.0
 10
10.09585231952465
 20
-12.62868652028033
 30
0.0
 10
10.09585231952465
 20
-13.43742268544273
 30
0.0
 10
10.09585231952465
 20
-14.24615885060513
 30
0.0
 10
10.70115559628304
 20
-14.90417208828785
 30
0.0
 10
11.44529622109701
 20
-14.90417208828785
 30
0.0
 10
11.44529622109701
 20
-14.90417208828785
 30
0.0
 10
18.55476751923283
 20
-14.90417208828785
 30
0.0
 10
18.55476751923283
 20
-14.90417208828785
 30
0.0
 10
18.70979681606908
 20
-14.90417208828785
 30
0.0
 10
18.84587808773645
 20
-15.09485812339642
 30
0.0
 10
18.84587808773645
 20
-15.31241590328995
 30
0.0
 10
18.84587808773645
 20
-15.52997368318348
 30
0.0
 10
18.70979681606908
 20
-15.72083197306632
 30
0.0
 10
18.55476751923283
 20
-15.72083197306632
 30
0.0
 10
18.55476751923283
 20
-15.72083197306632
 30
0.0
 10
11.44529622109701
 20
-15.72083197306632
 30
0.0
 10
11.44529622109701
 20
-15.72083197306632
 30
0.0
 10
10.70115559628304
 20
-15.72083197306632
 30
0.0
 10
10.09585231952465
 20
-16.37884521074903
 30
0.0
 10
10.09585231952465
 20
-17.18758137591144
 30
0.0
 10
10.09585231952465
 20
-17.99631754107384
 30
0.0
 10
10.70115559628304
 20
-18.65415852398229
 30
0.0
 10
11.44529622109701
 20
-18.65415852398229
 30
0.0
 10
11.44529622109701
 20
-18.65415852398229
 30
0.0
 10
18.55476751923283
 20
-18.65415852398229
 30
0.0
 10
18.55476751923283
 20
-18.65415852398229
 30
0.0
 10
18.70979681606908
 20
-18.65415852398229
 30
0.0
 10
18.84587808773645
 20
-18.84501681386513
 30
0.0
 10
18.84587808773645
 20
-19.06257459375866
 30
0.0
 10
18.84587808773645
 20
-19.28013237365219
 30
0.0
 10
18.70979681606908
 20
-19.47081840876077
 30
0.0
 10
18.55476751923283
 20
-19.47081840876077
 30
0.0
 10
18.55476751923283
 20
-19.47081840876077
 30
0.0
 10
11.44529622109701
 20
-19.47081840876077
 30
0.0
 10
11.44529622109701
 20
-19.47081840876077
 30
0.0
 10
10.70115559628304
 20
-19.47081840876077
 30
0.0
 10
10.09585231952465
 20
-20.12883164644349
 30
0.0
 10
10.09585231952465
 20
-20.93756781160589
 30
0.0
 10
10.09585231952465
 20
-21.74630397676828
 30
0.0
 10
10.70115559628304
 20
-22.40414495967674
 30
0.0
 10
11.44529622109701
 20
-22.40414495967674
 30
0.0
 10
11.44529622109701
 20
-22.40414495967674
 30
0.0
 10
18.55476751923283
 20
-22.40414495967674
 30
0.0
 10
18.55476751923283
 20
-22.40414495967674
 30
0.0
 10
18.70979681606908
 20
-22.40414495967674
 30
0.0
 10
18.84587808773645
 20
-22.59500324955958
 30
0.0
 10
18.84587808773645
 20
-22.81256102945311
 30
0.0
 10
18.84587808773645
 20
-23.03011880934664
 30
0.0
 10
18.70979681606908
 20
-23.22080484445522
 30
0.0
 10
18.55476751923283
 20
-23.22080484445522
 30
0.0
 10
18.55476751923283
 20
-23.22080484445522
 30
0.0
 10
11.44529622109701
 20
-23.22080484445522
 30
0.0
 10
11.44529622109701
 20
-23.22080484445522
 30
0.0
 10
10.70115559628304
 20
-23.22080484445522
 30
0.0
 10
10.09585231952465
 20
-23.87881808213794
 30
0.0
 10
10.09585231952465
 20
-24.68755424730034
 30
0.0
 10
10.09585231952465
 20
-25.49629041246273
 30
0.0
 10
10.70115559628304
 20
-26.15413139537119
 30
0.0
 10
11.44529622109701
 20
-26.15413139537119
 30
0.0
 10
11.44529622109701
 20
-26.15413139537119
 30
0.0
 10
18.55476751923283
 20
-26.15413139537119
 30
0.0
 10
18.55476751923283
 20
-26.15413139537119
 30
0.0
 10
18.70979681606908
 20
-26.15413139537119
 30
0.0
 10
18.84587808773645
 20
-26.34498968525403
 30
0.0
 10
18.84587808773645
 20
-26.56254746514756
 30
0.0
 10
18.84587808773645
 20
-26.78010524504109
 30
0.0
 10
18.70979681606908
 20
-26.97079128014967
 30
0.0
 10
18.55476751923283
 20
-26.97079128014967
 30
0.0
 10
18.55476751923283
 20
-26.97079128014967
 30
0.0
 10
15.82039523259004
 20
-26.97079128014967
 30
0.0
 10
15.82039523259004
 20
-26.97079128014967
 30
0.0
 10
15.07625460777607
 20
-26.97079128014967
 30
0.0
 10
14.47077907624342
 20
-27.62880451783238
 30
0.0
 10
14.47077907624342
 20
-28.43754068299478
 30
0.0
 10
14.47077907624342
 20
-28.43754068299478
 30
0.0
 10
14.47077907624342
 20
-29.37495116453126
 30
0.0
 10
14.47077907624342
 20
-29.37495116453126
 30
0.0
 10
14.47077907624342
 20
-29.37495116453126
 30
0.0
 10
14.47077907624342
 20
-36.87492403592016
 30
0.0
 10
14.47077907624342
 20
-36.87492403592016
 30
0.0
 10
14.47077907624342
 20
-37.16724038784361
 30
0.0
 10
14.70762939085434
 20
-37.40409070245453
 30
0.0
 10
14.99994574277779
 20
-37.40409070245453
 30
0.0
 10
15.29226209470124
 20
-37.40409070245453
 30
0.0
 10
15.52911240931217
 20
-37.16724038784361
 30
0.0
 10
15.52911240931217
 20
-36.87492403592016
 30
0.0
 10
15.52911240931217
 20
-36.87492403592016
 30
0.0
 10
15.52911240931217
 20
-29.37495116453126
 30
0.0
 10
15.52911240931217
 20
-29.37495116453126
 30
0.0
 10
15.52911240931217
 20
-29.37495116453126
 30
0.0
 10
15.52911240931217
 20
-28.43754068299478
 30
0.0
 10
15.52911240931217
 20
-28.43754068299478
 30
0.0
 10
15.52911240931217
 20
-28.21998290310125
 30
0.0
 10
15.66519368097953
 20
-28.02912461321842
 30
0.0
 10
15.82039523259004
 20
-28.02912461321842
 30
0.0
 10
15.82039523259004
 20
-28.02912461321842
 30
0.0
 10
18.55476751923283
 20
-28.02912461321842
 30
0.0
 10
18.55476751923283
 20
-28.02912461321842
 30
0.0
 10
19.2989081440468
 20
-28.02912461321842
 30
0.0
 10
19.9042114208052
 20
-27.37128363030996
 30
0.0
 10
19.9042114208052
 20
-26.56254746514756
 30
0.0
 10
19.9042114208052
 20
-25.75381129998516
 30
0.0
 10
19.2989081440468
 20
-25.09579806230244
 30
0.0
 10
18.55476751923283
 20
-25.09579806230244
 30
0.0
 10
18.55476751923283
 20
-25.09579806230244
 30
0.0
 10
11.44529622109701
 20
-25.09579806230244
 30
0.0
 10
11.44529622109701
 20
-25.09579806230244
 30
0.0
 10
11.29026692426077
 20
-25.09579806230244
 30
0.0
 10
11.1541856525934
 20
-24.90511202719386
 30
0.0
 10
11.1541856525934
 20
-24.68755424730034
 30
0.0
 10
11.1541856525934
 20
-24.46999646740681
 30
0.0
 10
11.29026692426077
 20
-24.27913817752397
 30
0.0
 10
11.44529622109701
 20
-24.27913817752397
 30
0.0
 10
11.44529622109701
 20
-24.27913817752397
 30
0.0
 10
18.55476751923283
 20
-24.27913817752397
 30
0.0
 10
18.55476751923283
 20
-24.27913817752397
 30
0.0
 10
19.2989081440468
 20
-24.27913817752397
 30
0.0
 10
19.9042114208052
 20
-23.62129719461551
 30
0.0
 10
19.9042114208052
 20
-22.81256102945311
 30
0.0
 10
19.9042114208052
 20
-22.00382486429071
 30
0.0
 10
19.2989081440468
 20
-21.34581162660799
 30
0.0
 10
18.55476751923283
 20
-21.34581162660799
 30
0.0
 10
18.55476751923283
 20
-21.34581162660799
 30
0.0
 10
11.44529622109701
 20
-21.34581162660799
 30
0.0
 10
11.44529622109701
 20
-21.34581162660799
 30
0.0
 10
11.29026692426077
 20
-21.34581162660799
 30
0.0
 10
11.1541856525934
 20
-21.15512559149941
 30
0.0
 10
11.1541856525934
 20
-20.93756781160589
 30
0.0
 10
11.1541856525934
 20
-20.72001003171236
 30
0.0
 10
11.29026692426077
 20
-20.52915174182952
 30
0.0
 10
11.44529622109701
 20
-20.52915174182952
 30
0.0
 10
11.44529622109701
 20
-20.52915174182952
 30
0.0
 10
18.55476751923283
 20
-20.52915174182952
 30
0.0
 10
18.55476751923283
 20
-20.52915174182952
 30
0.0
 10
19.2989081440468
 20
-20.52915174182952
 30
0.0
 10
19.9042114208052
 20
-19.87131075892106
 30
0.0
 10
19.9042114208052
 20
-19.06257459375866
 30
0.0
 10
19.9042114208052
 20
-18.25383842859626
 30
0.0
 10
19.2989081440468
 20
-17.59582519091354
 30
0.0
 10
18.55476751923283
 20
-17.59582519091354
 30
0.0
 10
18.55476751923283
 20
-17.59582519091354
 30
0.0
 10
11.44529622109701
 20
-17.59582519091354
 30
0.0
 10
11.44529622109701
 20
-17.59582519091354
 30
0.0
 10
11.29026692426077
 20
-17.59582519091354
 30
0.0
 10
11.1541856525934
 20
-17.40513915580496
 30
0.0
 10
11.1541856525934
 20
-17.18758137591144
 30
0.0
 10
11.1541856525934
 20
-16.97002359601791
 30
0.0
 10
11.29026692426077
 20
-16.77916530613507
 30
0.0
 10
11.44529622109701
 20
-16.77916530613507
 30
0.0
  0
SPLINE
  5
7A
330
70
100
AcDbEntity
  8
Patterns
100
AcDbSpline
210
0.0
220
0.0
230
1.0
 70
     9
 71
     3
 72
    74
 73
    70
 74
     0
 42
0.0000000001
 43
0.0000000001
 40
0.0
 40
0.0
 40
0.0
 40
0.0
 40
1.0
 40
1.0
 40
1.0
 40
2.0
 40
2.0
 40
2.0
 40
3.0
 40
3.0
 40
3.0
 40
4.0
 40
4.0
 40
4.0
 40
5.0
 40
5.0
 40
5.0
 40
6.0
 40
6.0
 40
6.0
 40
7.0
 40
7.0
 40
7.0
 40
8.0
 40
8.0
 40
8.0
 40
9.0
 40
9.0
 40
9.0
 40
10.0
 40
10.0
 40
10.0
 40
11.0
 40
11.0
 40
11.0
 40
12.0
 40
12.0
 40
12.0
 40
13.0
 40
13.0
 40
13.0
 40
14.0
 40
14.0
 40
14.0
 40
15.0
 40
15.0
 40
15.0
 40
16.0
 40
16.0
 40
16.0
 40
17.0
 40
17.0
 40
17.0
 40
18.0
 40
18.0
 40
18.0
 40
19.0
 40
19.0
 40
19.0
 40
20.0
 40
20.0
 40
20.0
 40
21.0
 40
21.0
 40
21.0
 40
22.0
 40
22.0
 40
22.0
 40
23.0
 40
23.0
 40
23.0
 40
23.0
 10
47.18467372138525
 20
-31.92681951784295
 30
0.0
 10
47.18596563219223
 20
-31.90942178564244
 30
0.0
 10
47.1898844283067
 20
-31.89279919992611
 30
0.0
 10
47.1898844283067
 20
-31.87505695817707
 30
0.0
 10
47.1898844283067
 20
-31.87505695817707
 30
0.0
 10
47.1898844283067
 20
-8.125085447187478
 30
0.0
 10
47.1898844283067
 20
-8.125085447187478
 30
0.0
 10
47.1898844283067
 20
-8.107343205438441
 30
0.0
 10
47.18594410034544
 20
-8.090699087875329
 30
0.0
 10
47.18465218953848
 20
-8.073301355674816
 30
0.0
 10
47.18465218953848
 20
-8.073301355674816
 30
0.0
 10
50.65771754375918
 20
-3.4425116636359
 30
0.0
 10
50.65771754375918
 20
-3.4425116636359
 30
0.0
 10
50.8330729039584
 20
-3.208761934961698
 30
0.0
 10
50.78553058626195
 20
-2.876999239732139
 30
0.0
 10
50.55178085758775
 20
-2.701643879532922
 30
0.0
 10
50.31854789323634
 20
-2.526805283656493
 30
0.0
 10
49.98678519800678
 20
-2.573658582255891
 30
0.0
 10
49.81091307348478
 20
-2.807580565704355
 30
0.0
 10
49.81091307348478
 20
-2.807580565704355
 30
0.0
 10
46.48432887292753
 20
-7.24314100296352
 30
0.0
 10
46.48432887292753
 20
-7.24314100296352
 30
0.0
 10
46.48432887292753
 20
-7.24314100296352
 30
0.0
 10
43.15774467237028
 20
-2.807580565704355
 30
0.0
 10
43.15774467237028
 20
-2.807580565704355
 30
0.0
 10
42.9822170573968
 20
-2.573658582255891
 30
0.0
 10
42.65045436216725
 20
-2.526805283656493
 30
0.0
 10
42.41687688826731
 20
-2.701643879532922
 30
0.0
 10
42.1831271595931
 20
-2.876999239732139
 30
0.0
 10
42.13558484189666
 20
-3.208761934961698
 30
0.0
 10
42.31094020209588
 20
-3.4425116636359
 30
0.0
 10
42.31094020209588
 20
-3.4425116636359
 30
0.0
 10
45.78400555631659
 20
-8.073301355674816
 30
0.0
 10
45.78400555631659
 20
-8.073301355674816
 30
0.0
 10
45.78271364550961
 20
-8.090699087875329
 30
0.0
 10
45.77877331754836
 20
-8.107343205438441
 30
0.0
 10
45.77877331754836
 20
-8.125085447187478
 30
0.0
 10
45.77877331754836
 20
-8.125085447187478
 30
0.0
 10
45.77877331754836
 20
-31.87505695817707
 30
0.0
 10
45.77877331754836
 20
-31.87505695817707
 30
0.0
 10
45.77877331754836
 20
-31.89279919992611
 30
0.0
 10
45.78269211366283
 20
-31.90942178564244
 30
0.0
 10
45.7839840244698
 20
-31.92681951784295
 30
0.0
 10
45.7839840244698
 20
-31.92681951784295
 30
0.0
 10
42.31094020209588
 20
-36.55745848695439
 30
0.0
 10
42.31094020209588
 20
-36.55745848695439
 30
0.0
 10
42.13558484189666
 20
-36.79120821562859
 30
0.0
 10
42.18295490481884
 20
-37.12297091085815
 30
0.0
 10
42.41687688826731
 20
-37.29832627105736
 30
0.0
 10
42.65045436216725
 20
-37.47385388603085
 30
0.0
 10
42.9822170573968
 20
-37.42665607788293
 30
0.0
 10
43.15774467237028
 20
-37.19238958488593
 30
0.0
 10
43.15774467237028
 20
-37.19238958488593
 30
0.0
 10
46.48432887292753
 20
-32.75700140240103
 30
0.0
 10
46.48432887292753
 20
-32.75700140240103
 30
0.0
 10
46.48432887292753
 20
-32.75700140240103
 30
0.0
 10
49.81091307348478
 20
-37.19238958488593
 30
0.0
 10
49.81091307348478
 20
-37.19238958488593
 30
0.0
 10
49.91495495713932
 20
-37.33105467816724
 30
0.0
 10
50.07377385900934
 20
-37.40409070245453
 30
0.0
 10
50.2346598181705
 20
-37.40409070245453
 30
0.0
 10
50.34524738324702
 20
-37.40409070245453
 30
0.0
 10
50.45669622219485
 20
-37.36963974760204
 30
0.0
 10
50.55178085758775
 20
-37.29832627105736
 30
0.0
 10
50.78570284103622
 20
-37.12297091085815
 30
0.0
 10
50.8330729039584
 20
-36.79120821562859
 30
0.0
 10
50.65771754375918
 20
-36.55745848695439
 30
0.0
 10
50.65771754375918
 20
-36.55745848695439
 30
0.0
 10
47.18467372138525
 20
-31.92681951784295
 30
0.0
 10
47.18467372138525
 20
-31.92681951784295
 30
0.0
  0
SPLINE
  5
7B
330
70
100
AcDbEntity
  8
Patterns
100
AcDbSpline
210
0.0
220
0.0
230
1.0
 70
    11
 71
     3
 72
    17
 73
    13
 74
     0
 42
0.0000000001
 43
0.0000000001
 40
0.0
 40
0.0
 40
0.0
 40
0.0
 40
1.0
 40
1.0
 40
1.0
 40
2.0
 40
2.0
 40
2.0
 40
3.0
 40
3.0
 40
3.0
 40
4.0
 40
4.0
 40
4.0
 40
4.0
 10
57.10936939083333
 20
-8.249991690374567
 30
0.0
 10
56.19809857129119
 20
-8.249991690374567
 30
0.0
 10
55.45938397186649
 20
-7.511255559103089
 30
0.0
 10
55.45938397186649
 20
-6.599984739560941
 30
0.0
 10
55.45938397186649
 20
-5.688735451865576
 30
0.0
 10
56.19809857129119
 20
-4.949999320594097
 30
0.0
 10
57.10936939083333
 20
-4.949999320594097
 30
0.0
 10
58.02064021037548
 20
-4.949999320594097
 30
0.0
 10
58.75937634164696
 20
-5.688735451865576
 30
0.0
 10
58.75937634164696
 20
-6.599984739560941
 30
0.0
 10
58.75937634164696
 20
-7.511255559103089
 30
0.0
 10
58.02064021037548
 20
-8.249991690374567
 30
0.0
 10
57.10936939083333
 20
-8.249991690374567
 30
0.0
  0
SPLINE
  5
7C
330
70
100
AcDbEntity
  8
Patterns
100
AcDbSpline
210
0.0
220
0.0
230
1.0
 70
    11
 71
     3
 72
    17
 73
    13
 74
     0
 42
0.0000000001
 43
0.0000000001
 40
0.0
 40
0.0
 40
0.0
 40
0.0
 40
1.0
 40
1.0
 40
1.0
 40
2.0
 40
2.0
 40
2.0
 40
3.0
 40
3.0
 40
3.0
 40
4.0
 40
4.0
 40
4.0
 40
4.0
 10
57.10936939083333
 20
-21.64999202610877
 30
0.0
 10
56.19809857129119
 20
-21.64999202610877
 30
0.0
 10
55.45938397186649
 20
-20.91125589483729
 30
0.0
 10
55.45938397186649
 20
-19.99998507529514
 30
0.0
 10
55.45938397186649
 20
-19.088714255753
 30
0.0
 10
56.19809857129119
 20
-18.3499996563283
 30
0.0
 10
57.10936939083333
 20
-18.3499996563283
 30
0.0
 10
58.02064021037548
 20
-18.3499996563283
 30
0.0
 10
58.75937634164696
 20
-19.088714255753
 30
0.0
 10
58.75937634164696
 20
-19.99998507529514
 30
0.0
 10
58.75937634164696
 20
-20.91125589483729
 30
0.0
 10
58.02064021037548
 20
-21.64999202610877
 30
0.0
 10
57.10936939083333
 20
-21.64999202610877
 30
0.0
  0
SPLINE
  5
7D
330
70
100
AcDbEntity
  8
Patterns
100
AcDbSpline
210
0.0
220
0.0
230
1.0
 70
    11
 71
     3
 72
    17
 73
    13
 74
     0
 42
0.0000000001
 43
0.0000000001
 40
0.0
 40
0.0
 40
0.0
 40
0.0
 40
1.0
 40
1.0
 40
1.0
 40
2.0
 40
2.0
 40
2.0
 40
3.0
 40
3.0
 40
3.0
 40
4.0
 40
4.0
 40
4.0
 40
4.0
 10
57.10936939083333
 20
-35.12498778418751
 30
0.0
 10
56.19809857129119
 20
-35.12498778418751
 30
0.0
 10
55.45938397186649
 20
-34.38627318476281
 30
0.0
 10
55.45938397186649
 20
-33.47500236522066
 30
0.0
 10
55.45938397186649
 20
-32.56373154567852
 30
0.0
 10
56.19809857129119
 20
-31.82499541440704
 30
0.0
 10
57.10936939083333
 20
-31.82499541440704
 30
0.0
 10
58.02064021037548
 20
-31.82499541440704
 30
0.0
 10
58.75937634164696
 20
-32.56373154567852
 30
0.0
 10
58.75937634164696
 20
-33.47500236522066
 30
0.0
 10
58.75937634164696
 20
-34.38627318476281
 30
0.0
 10
58.02064021037548
 20
-35.12498778418751
 30
0.0
 10
57.10936939083333
 20
-35.12498778418751
 30
0.0
  0
SPLINE
  5
7E
330
70
100
AcDbEntity
  8
Patterns
100
AcDbSpline
210
0.0
220
0.0
230
1.0
 70
     9
 71
     3
 72
    74
 73
    70
 74
     0
 42
0.0000000001
 43
0.0000000001
 40
0.0
 40
0.0
 40
0.0
 40
0.0
 40
1.0
 40
1.0
 40
1.0
 40
2.0
 40
2.0
 40
2.0
 40
3.0
 40
3.0
 40
3.0
 40
4.0
 40
4.0
 40
4.0
 40
5.0
 40
5.0
 40
5.0
 40
6.0
 40
6.0
 40
6.0
 40
7.0
 40
7.0
 40
7.0
 40
8.0
 40
8.0
 40
8.0
 40
9.0
 40
9.0
 40
9.0
 40
10.0
 40
10.0
 40
10.0
 40
11.0
 40
11.0
 40
11.0
 40
12.0
 40
12.0
 40
12.0
 40
13.0
 40
13.0
 40
13.0
 40
14.0
 40
14.0
 40
14.0
 40
15.0
 40
15.0
 40
15.0
 40
16.0
 40
16.0
 40
16.0
 40
17.0
 40
17.0
 40
17.0
 40
18.0
 40
18.0
 40
18.0
 40
19.0
 40
19.0
 40
19.0
 40
20.0
 40
20.0
 40
20.0
 40
21.0
 40
21.0
 40
21.0
 40
22.0
 40
22.0
 40
22.0
 40
23.0
 40
23.0
 40
23.0
 40
23.0
 10
50.55178085758775
 20
-37.29832627105736
 30
0.0
 10
50.45669622219485
 20
-37.36963974760204
 30
0.0
 10
50.34524738324702
 20
-37.40409070245453
 30
0.0
 10
50.2346598181705
 20
-37.40409070245453
 30
0.0
 10
50.07377385900934
 20
-37.40409070245453
 30
0.0
 10
49.91495495713932
 20
-37.33105467816724
 30
0.0
 10
49.81091307348478
 20
-37.19238958488593
 30
0.0
 10
49.81091307348478
 20
-37.19238958488593
 30
0.0
 10
46.48432887292753
 20
-32.75700140240103
 30
0.0
 10
46.48432887292753
 20
-32.75700140240103
 30
0.0
 10
46.48432887292753
 20
-32.75700140240103
 30
0.0
 10
43.15774467237028
 20
-37.19238958488593
 30
0.0
 10
43.15774467237028
 20
-37.19238958488593
 30
0.0
 10
42.9822170573968
 20
-37.42665607788293
 30
0.0
 10
42.65045436216725
 20
-37.47385388603085
 30
0.0
 10
42.41687688826731
 20
-37.29832627105736
 30
0.0
 10
42.18295490481884
 20
-37.12297091085815
 30
0.0
 10
42.13558484189666
 20
-36.79120821562859
 30
0.0
 10
42.31094020209588
 20
-36.55745848695439
 30
0.0
 10
42.31094020209588
 20
-36.55745848695439
 30
0.0
 10
45.7839840244698
 20
-31.92681951784295
 30
0.0
 10
45.7839840244698
 20
-31.92681951784295
 30
0.0
 10
45.78269211366283
 20
-31.90942178564244
 30
0.0
 10
45.77877331754836
 20
-31.89279919992611
 30
0.0
 10
45.77877331754836
 20
-31.87505695817707
 30
0.0
 10
45.77877331754836
 20
-31.87505695817707
 30
0.0
 10
45.77877331754836
 20
-8.125085447187478
 30
0.0
 10
45.77877331754836
 20
-8.125085447187478
 30
0.0
 10
45.77877331754836
 20
-8.107343205438441
 30
0.0
 10
45.78271364550961
 20
-8.090699087875329
 30
0.0
 10
45.78400555631659
 20
-8.073301355674816
 30
0.0
 10
45.78400555631659
 20
-8.073301355674816
 30
0.0
 10
42.31094020209588
 20
-3.4425116636359
 30
0.0
 10
42.31094020209588
 20
-3.4425116636359
 30
0.0
 10
42.13558484189666
 20
-3.208761934961698
 30
0.0
 10
42.1831271595931
 20
-2.876999239732139
 30
0.0
 10
42.41687688826731
 20
-2.701643879532922
 30
0.0
 10
42.65045436216725
 20
-2.526805283656493
 30
0.0
 10
42.9822170573968
 20
-2.573658582255891
 30
0.0
 10
43.15774467237028
 20
-2.807580565704355
 30
0.0
 10
43.15774467237028
 20
-2.807580565704355
 30
0.0
 10
46.48432887292753
 20
-7.24314100296352
 30
0.0
 10
46.48432887292753
 20
-7.24314100296352
 30
0.0
 10
46.48432887292753
 20
-7.24314100296352
 30
0.0
 10
49.81091307348478
 20
-2.807580565704355
 30
0.0
 10
49.81091307348478
 20
-2.807580565704355
 30
0.0
 10
49.98678519800678
 20
-2.573658582255891
 30
0.0
 10
50.31854789323634
 20
-2.526805283656493
 30
0.0
 10
50.55178085758775
 20
-2.701643879532922
 30
0.0
 10
50.78553058626195
 20
-2.876999239732139
 30
0.0
 10
50.8330729039584
 20
-3.208761934961698
 30
0.0
 10
50.65771754375918
 20
-3.4425116636359
 30
0.0
 10
50.65771754375918
 20
-3.4425116636359
 30
0.0
 10
47.18465218953848
 20
-8.073301355674816
 30
0.0
 10
47.18465218953848
 20
-8.073301355674816
 30
0.0
 10
47.18594410034544
 20
-8.090699087875329
 30
0.0
 10
47.1898844283067
 20
-8.107343205438441
 30
0.0
 10
47.1898844283067
 20
-8.125085447187478
 30
0.0
 10
47.1898844283067
 20
-8.125085447187478
 30
0.0
 10
47.1898844283067
 20
-31.87505695817707
 30
0.0
 10
47.1898844283067
 20
-31.87505695817707
 30
0.0
 10
47.1898844283067
 20
-31.89279919992611
 30
0.0
 10
47.18596563219223
 20
-31.90942178564244
 30
0.0
 10
47.18467372138525
 20
-31.92681951784295
 30
0.0
 10
47.18467372138525
 20
-31.92681951784295
 30
0.0
 10
50.65771754375918
 20
-36.55745848695439
 30
0.0
 10
50.65771754375918
 20
-36.55745848695439
 30
0.0
 10
50.8330729039584
 20
-36.79120821562859
 30
0.0
 10
50.78570284103622
 20
-37.12297091085815
 30
0.0
 10
50.55178085758775
 20
-37.29832627105736
 30
0.0
  0
SPLINE
  5
7F
330
70
100
AcDbEntity
  8
Patterns
100
AcDbSpline
210
0.0
220
0.0
230
1.0
 70
    11
 71
     3
 72
    17
 73
    13
 74
     0
 42
0.0000000001
 43
0.0000000001
 40
0.0
 40
0.0
 40
0.0
 40
0.0
 40
1.0
 40
1.0
 40
1.0
 40
2.0
 40
2.0
 40
2.0
 40
3.0
 40
3.0
 40
3.0
 40
4.0
 40
4.0
 40
4.0
 40
4.0
 10
35.85937448240886
 20
-8.249991690374567
 30
0.0
 10
34.94810366286671
 20
-8.249991690374567
 30
0.0
 10
34.20936753159523
 20
-7.511255559103089
 30
0.0
 10
34.20936753159523
 20
-6.599984739560941
 30
0.0
 10
34.20936753159523
 20
-5.688735451865576
 30
0.0
 10
34.94810366286671
 20
-4.949999320594097
 30
0.0
 10
35.85937448240886
 20
-4.949999320594097
 30
0.0
 10
36.77064530195101
 20
-4.949999320594097
 30
0.0
 10
37.50938143322248
 20
-5.688735451865576
 30
0.0
 10
37.50938143322248
 20
-6.599984739560941
 30
0.0
 10
37.50938143322248
 20
-7.511255559103089
 30
0.0
 10
36.77064530195101
 20
-8.249991690374567
 30
0.0
 10
35.85937448240886
 20
-8.249991690374567
 30
0.0
  0
SPLINE
  5
80
330
70
100
AcDbEntity
  8
Patterns
100
AcDbSpline
210
0.0
220
0.0
230
1.0
 70
    11
 71
     3
 72
    17
 73
    13
 74
     0
 42
0.0000000001
 43
0.0000000001
 40
0.0
 40
0.0
 40
0.0
 40
0.0
 40
1.0
 40
1.0
 40
1.0
 40
2.0
 40
2.0
 40
2.0
 40
3.0
 40
3.0
 40
3.0
 40
4.0
 40
4.0
 40
4.0
 40
4.0
 10
35.85937448240886
 20
-21.64999202610877
 30
0.0
 10
34.94810366286671
 20
-21.64999202610877
 30
0.0
 10
34.20936753159523
 20
-20.91125589483729
 30
0.0
 10
34.20936753159523
 20
-19.99998507529514
 30
0.0
 10
34.20936753159523
 20
-19.088714255753
 30
0.0
 10
34.94810366286671
 20
-18.3499996563283
 30
0.0
 10
35.85937448240886
 20
-18.3499996563283
 30
0.0
 10
36.77064530195101
 20
-18.3499996563283
 30
0.0
 10
37.50938143322248
 20
-19.088714255753
 30
0.0
 10
37.50938143322248
 20
-19.99998507529514
 30
0.0
 10
37.50938143322248
 20
-20.91125589483729
 30
0.0
 10
36.77064530195101
 20
-21.64999202610877
 30
0.0
 10
35.85937448240886
 20
-21.64999202610877
 30
0.0
  0
SPLINE
  5
81
330
70
100
AcDbEntity
  8
Patterns
100
AcDbSpline
210
0.0
220
0.0
230
1.0
 70
    11
 71
     3
 72
    17
 73
    13
 74
     0
 42
0.0000000001
 43
0.0000000001
 40
0.0
 40
0.0
 40
0.0
 40
0.0
 40
1.0
 40
1.0
 40
1.0
 40
2.0
 40
2.0
 40
2.0
 40
3.0
 40
3.0
 40
3.0
 40
4.0
 40
4.0
 40
4.0
 40
4.0
 10
35.85937448240886
 20
-35.12498778418751
 30
0.0
 10
34.94810366286671
 20
-35.12498778418751
 30
0.0
 10
34.20936753159523
 20
-34.38627318476281
 30
0.0
 10
34.20936753159523
 20
-33.47500236522066
 30
0.0
 10
34.20936753159523
 20
-32.56373154567852
 30
0.0
 10
34.94810366286671
 20
-31.82499541440704
 30
0.0
 10
35.85937448240886
 20
-31.82499541440704
 30
0.0
 10
36.77064530195101
 20
-31.82499541440704
 30
0.0
 10
37.50938143322248
 20
-32.56373154567852
 30
0.0
 10
37.50938143322248
 20
-33.47500236522066
 30
0.0
 10
37.50938143322248
 20
-34.38627318476281
 30
0.0
 10
36.77064530195101
 20
-35.12498778418751
 30
0.0
 10
35.85937448240886
 20
-35.12498778418751
 30
0.0
  0
SPLINE
  5
82
330
70
100
AcDbEntity
  8
Patterns
100
AcDbSpline
210
0.0
220
0.0
230
1.0
 70
     9
 71
     3
 72
    29
 73
    25
 74
     0
 42
0.0000000001
 43
0.0000000001
 40
0.0
 40
0.0
 40
0.0
 40
0.0
 40
1.0
 40
1.0
 40
1.0
 40
2.0
 40
2.0
 40
2.0
 40
3.0
 40
3.0
 40
3.0
 40
4.0
 40
4.0
 40
4.0
 40
5.0
 40
5.0
 40
5.0
 40
6.0
 40
6.0
 40
6.0
 40
7.0
 40
7.0
 40
7.0
 40
8.0
 40
8.0
 40
8.0
 40
8.0
 10
59.25000100244011
 20
2.499998134411892
 30
0.0
 10
59.25000100244011
 20
2.499998134411892
 30
0.0
 10
33.71876440264887
 20
2.499998134411892
 30
0.0
 10
33.71876440264887
 20
2.499998134411892
 30
0.0
 10
32.61418066269064
 20
2.499998134411892
 30
0.0
 10
31.71875728238064
 20
1.604574754101894
 30
0.0
 10
31.71875728238064
 20
0.4999910141436656
 30
0.0
 10
31.71875728238064
 20
0.4999910141436656
 30
0.0
 10
31.71875728238064
 20
-40.50000422842752
 30
0.0
 10
31.71875728238064
 20
-40.50000422842752
 30
0.0
 10
31.71875728238064
 20
-41.60456643653897
 30
0.0
 10
32.61418066269064
 20
-42.49998981684895
 30
0.0
 10
33.71876440264887
 20
-42.49998981684895
 30
0.0
 10
33.71876440264887
 20
-42.49998981684895
 30
0.0
 10
59.25000100244011
 20
-42.49998981684895
 30
0.0
 10
59.25000100244011
 20
-42.49998981684895
 30
0.0
 10
60.35458474239834
 20
-42.49998981684895
 30
0.0
 10
61.25000812270833
 20
-41.60456643653897
 30
0.0
 10
61.25000812270833
 20
-40.50000422842752
 30
0.0
 10
61.25000812270833
 20
-40.50000422842752
 30
0.0
 10
61.25000812270833
 20
0.4999910141436656
 30
0.0
 10
61.25000812270833
 20
0.4999910141436656
 30
0.0
 10
61.25000812270833
 20
1.604574754101894
 30
0.0
 10
60.35458474239834
 20
2.499998134411892
 30
0.0
 10
59.25000100244011
 20
2.499998134411892
 30
0.0
  0
HATCH
  5
83
330
70
100
AcDbEntity
  8
Patterns
 62
     3
420
    65280
440
 33554687
100
AcDbHatch
 10
0.0
 20
0.0
 30
0.0
210
0.0
220
0.0
230
1.0
  2
SOLID
 70
     1
 71
     1
 91
        8
 92
        1
 93
        1
 72
     4
 94
        3
 73
     0
 74
     0
 95
       17
 96
       13
 40
0.0
 40
0.0
 40
0.0
 40
0.0
 40
1.0
 40
1.0
 40
1.0
 40
2.0
 40
2.0
 40
2.0
 40
3.0
 40
3.0
 40
3.0
 40
4.0
 40
4.0
 40
4.0
 40
4.0
 10
57.10936939083333
 20
-8.249991690374567
 10
56.19809857129119
 20
-8.249991690374567
 10
55.45938397186649
 20
-7.511255559103089
 10
55.45938397186649
 20
-6.599984739560941
 10
55.45938397186649
 20
-5.688735451865576
 10
56.19809857129119
 20
-4.949999320594097
 10
57.10936939083333
 20
-4.949999320594097
 10
58.02064021037548
 20
-4.949999320594097
 10
58.75937634164696
 20
-5.688735451865576
 10
58.75937634164696
 20
-6.599984739560941
 10
58.75937634164696
 20
-7.511255559103089
 10
58.02064021037548
 20
-8.249991690374567
 10
57.10936939083333
 20
-8.249991690374567
 97
        0
 97
        1
330
7B
 92
        1
 93
        1
 72
     4
 94
        3
 73
     0
 74
     0
 95
       17
 96
       13
 40
0.0
 40
0.0
 40
0.0
 40
0.0
 40
1.0
 40
1.0
 40
1.0
 40
2.0
 40
2.0
 40
2.0
 40
3.0
 40
3.0
 40
3.0
 40
4.0
 40
4.0
 40
4.0
 40
4.0
 10
57.10936939083333
 20
-21.64999202610877
 10
56.19809857129119
 20
-21.64999202610877
 10
55.45938397186649
 20
-20.91125589483729
 10
55.45938397186649
 20
-19.99998507529514
 10
55.45938397186649
 20
-19.088714255753
 10
56.19809857129119
 20
-18.3499996563283
 10
57.10936939083333
 20
-18.3499996563283
 10
58.02064021037548
 20
-18.3499996563283
 10
58.75937634164696
 20
-19.088714255753
 10
58.75937634164696
 20
-19.99998507529514
 10
58.75937634164696
 20
-20.91125589483729
 10
58.02064021037548
 20
-21.64999202610877
 10
57.10936939083333
 20
-21.64999202610877
 97
        0
 97
        1
330
7C
 92
        1
 93
        1
 72
     4
 94
        3
 73
     0
 74
     0
 95
       17
 96
       13
 40
0.0
 40
0.0
 40
0.0
 40
0.0
 40
1.0
 40
1.0
 40
1.0
 40
2.0
 40
2.0
 40
2.0
 40
3.0
 40
3.0
 40
3.0
 40
4.0
 40
4.0
 40
4.0
 40
4.0
 10
57.10936939083333
 20
-35.12498778418751
 10
56.19809857129119
 20
-35.12498778418751
 10
55.45938397186649
 20
-34.38627318476281
 10
55.45938397186649
 20
-33.47500236522066
 10
55.45938397186649
 20
-32.56373154567852
 10
56.19809857129119
 20
-31.82499541440704
 10
57.10936939083333
 20
-31.82499541440704
 10
58.02064021037548
 20
-31.82499541440704
 10
58.75937634164696
 20
-32.56373154567852
 10
58.75937634164696
 20
-33.47500236522066
 10
58.75937634164696
 20
-34.38627318476281
 10
58.02064021037548
 20
-35.12498778418751
 10
57.10936939083333
 20
-35.12498778418751
 97
        0
 97
        1
330
7D
 92
        1
 93
        1
 72
     4
 94
        3
 73
     0
 74
     0
 95
       74
 96
       70
 40
0.0
 40
0.0
 40
0.0
 40
0.0
 40
1.0
 40
1.0
 40
1.0
 40
2.0
 40
2.0
 40
2.0
 40
3.0
 40
3.0
 40
3.0
 40
4.0
 40
4.0
 40
4.0
 40
5.0
 40
5.0
 40
5.0
 40
6.0
 40
6.0
 40
6.0
 40
7.0
 40
7.0
 40
7.0
 40
8.0
 40
8.0
 40
8.0
 40
9.0
 40
9.0
 40
9.0
 40
10.0
 40
10.0
 40
10.0
 40
11.0
 40
11.0
 40
11.0
 40
12.0
 40
12.0
 40
12.0
 40
13.0
 40
13.0
 40
13.0
 40
14.0
 40
14.0
 40
14.0
 40
15.0
 40
15.0
 40
15.0
 40
16.0
 40
16.0
 40
16.0
 40
17.0
 40
17.0
 40
17.0
 40
18.0
 40
18.0
 40
18.0
 40
19.0
 40
19.0
 40
19.0
 40
20.0
 40
20.0
 40
20.0
 40
21.0
 40
21.0
 40
21.0
 40
22.0
 40
22.0
 40
22.0
 40
23.0
 40
23.0
 40
23.0
 40
23.0
 10
50.55178085758775
 20
-37.29832627105736
 10
50.45669622219485
 20
-37.36963974760204
 10
50.34524738324702
 20
-37.40409070245453
 10
50.2346598181705
 20
-37.40409070245453
 10
50.07377385900934
 20
-37.40409070245453
 10
49.91495495713932
 20
-37.33105467816724
 10
49.81091307348478
 20
-37.19238958488593
 10
49.81091307348478
 20
-37.19238958488593
 10
46.48432887292753
 20
-32.75700140240103
 10
46.48432887292753
 20
-32.75700140240103
 10
46.48432887292753
 20
-32.75700140240103
 10
43.15774467237028
 20
-37.19238958488593
 10
43.15774467237028
 20
-37.19238958488593
 10
42.9822170573968
 20
-37.42665607788293
 10
42.65045436216725
 20
-37.47385388603085
 10
42.41687688826731
 20
-37.29832627105736
 10
42.18295490481884
 20
-37.12297091085815
 10
42.13558484189666
 20
-36.79120821562859
 10
42.31094020209588
 20
-36.55745848695439
 10
42.31094020209588
 20
-36.55745848695439
 10
45.7839840244698
 20
-31.92681951784295
 10
45.7839840244698
 20
-31.92681951784295
 10
45.78269211366283
 20
-31.90942178564244
 10
45.77877331754836
 20
-31.89279919992611
 10
45.77877331754836
 20
-31.87505695817707
 10
45.77877331754836
 20
-31.87505695817707
 10
45.77877331754836
 20
-8.125085447187478
 10
45.77877331754836
 20
-8.125085447187478
 10
45.77877331754836
 20
-8.107343205438441
 10
45.78271364550961
 20
-8.090699087875329
 10
45.78400555631659
 20
-8.073301355674816
 10
45.78400555631659
 20
-8.073301355674816
 10
42.31094020209588
 20
-3.4425116636359
 10
42.31094020209588
 20
-3.4425116636359
 10
42.13558484189666
 20
-3.208761934961698
 10
42.1831271595931
 20
-2.876999239732139
 10
42.41687688826731
 20
-2.701643879532922
 10
42.65045436216725
 20
-2.526805283656493
 10
42.9822170573968
 20
-2.573658582255891
 10
43.15774467237028
 20
-2.807580565704355
 10
43.15774467237028
 20
-2.807580565704355
 10
46.48432887292753
 20
-7.24314100296352
 10
46.48432887292753
 20
-7.24314100296352
 10
46.48432887292753
 20
-7.24314100296352
 10
49.81091307348478
 20
-2.807580565704355
 10
49.81091307348478
 20
-2.807580565704355
 10
49.98678519800678
 20
-2.573658582255891
 10
50.31854789323634
 20
-2.526805283656493
 10
50.55178085758775
 20
-2.701643879532922
 10
50.78553058626195
 20
-2.876999239732139
 10
50.8330729039584
 20
-3.208761934961698
 10
50.65771754375918
 20
-3.4425116636359
 10
50.65771754375918
 20
-3.4425116636359
 10
47.18465218953848
 20
-8.073301355674816
 10
47.18465218953848
 20
-8.073301355674816
 10
47.18594410034544
 20
-8.090699087875329
 10
47.1898844283067
 20
-8.107343205438441
 10
47.1898844283067
 20
-8.125085447187478
 10
47.1898844283067
 20
-8.125085447187478
 10
47.1898844283067
 20
-31.87505695817707
 10
47.1898844283067
 20
-31.87505695817707
 10
47.1898844283067
 20
-31.89279919992611
 10
47.18596563219223
 20
-31.90942178564244
 10
47.18467372138525
 20
-31.92681951784295
 10
47.18467372138525
 20
-31.92681951784295
 10
50.65771754375918
 20
-36.55745848695439
 10
50.65771754375918
 20
-36.55745848695439
 10
50.8330729039584
 20
-36.79120821562859
 10
50.78570284103622
 20
-37.12297091085815
 10
50.55178085758775
 20
-37.29832627105736
 97
        0
 97
        1
330
7E
 92
        1
 93
        1
 72
     4
 94
        3
 73
     0
 74
     0
 95
       17
 96
       13
 40
0.0
 40
0.0
 40
0.0
 40
0.0
 40
1.0
 40
1.0
 40
1.0
 40
2.0
 40
2.0
 40
2.0
 40
3.0
 40
3.0
 40
3.0
 40
4.0
 40
4.0
 40
4.0
 40
4.0
 10
35.85937448240886
 20
-8.249991690374567
 10
34.94810366286671
 20
-8.249991690374567
 10
34.20936753159523
 20
-7.511255559103089
 10
34.20936753159523
 20
-6.599984739560941
 10
34.20936753159523
 20
-5.688735451865576
 10
34.94810366286671
 20
-4.949999320594097
 10
35.85937448240886
 20
-4.949999320594097
 10
36.77064530195101
 20
-4.949999320594097
 10
37.50938143322248
 20
-5.688735451865576
 10
37.50938143322248
 20
-6.599984739560941
 10
37.50938143322248
 20
-7.511255559103089
 10
36.77064530195101
 20
-8.249991690374567
 10
35.85937448240886
 20
-8.249991690374567
 97
        0
 97
        1
330
7F
 92
        1
 93
        1
 72
     4
 94
        3
 73
     0
 74
     0
 95
       17
 96
       13
 40
0.0
 40
0.0
 40
0.0
 40
0.0
 40
1.0
 40
1.0
 40
1.0
 40
2.0
 40
2.0
 40
2.0
 40
3.0
 40
3.0
 40
3.0
 40
4.0
 40
4.0
 40
4.0
 40
4.0
 10
35.85937448240886
 20
-21.64999202610877
 10
34.94810366286671
 20
-21.64999202610877
 10
34.20936753159523
 20
-20.91125589483729
 10
34.20936753159523
 20
-19.99998507529514
 10
34.20936753159523
 20
-19.088714255753
 10
34.94810366286671
 20
-18.3499996563283
 10
35.85937448240886
 20
-18.3499996563283
 10
36.77064530195101
 20
-18.3499996563283
 10
37.50938143322248
 20
-19.088714255753
 10
37.50938143322248
 20
-19.99998507529514
 10
37.50938143322248
 20
-20.91125589483729
 10
36.77064530195101
 20
-21.64999202610877
 10
35.85937448240886
 20
-21.64999202610877
 97
        0
 97
        1
330
80
 92
        1
 93
        1
 72
     4
 94
        3
 73
     0
 74
     0
 95
       17
 96
       13
 40
0.0
 40
0.0
 40
0.0
 40
0.0
 40
1.0
 40
1.0
 40
1.0
 40
2.0
 40
2.0
 40
2.0
 40
3.0
 40
3.0
 40
3.0
 40
4.0
 40
4.0
 40
4.0
 40
4.0
 10
35.85937448240886
 20
-35.12498778418751
 10
34.94810366286671
 20
-35.12498778418751
 10
34.20936753159523
 20
-34.38627318476281
 10
34.20936753159523
 20
-33.47500236522066
 10
34.20936753159523
 20
-32.56373154567852
 10
34.94810366286671
 20
-31.82499541440704
 10
35.85937448240886
 20
-31.82499541440704
 10
36.77064530195101
 20
-31.82499541440704
 10
37.50938143322248
 20
-32.56373154567852
 10
37.50938143322248
 20
-33.47500236522066
 10
37.50938143322248
 20
-34.38627318476281
 10
36.77064530195101
 20
-35.12498778418751
 10
35.85937448240886
 20
-35.12498778418751
 97
        0
 97
        1
330
81
 92
        1
 93
        1
 72
     4
 94
        3
 73
     0
 74
     0
 95
       29
 96
       25
 40
0.0
 40
0.0
 40
0.0
 40
0.0
 40
1.0
 40
1.0
 40
1.0
 40
2.0
 40
2.0
 40
2.0
 40
3.0
 40
3.0
 40
3.0
 40
4.0
 40
4.0
 40
4.0
 40
5.0
 40
5.0
 40
5.0
 40
6.0
 40
6.0
 40
6.0
 40
7.0
 40
7.0
 40
7.0
 40
8.0
 40
8.0
 40
8.0
 40
8.0
 10
59.25000100244011
 20
2.499998134411892
 10
59.25000100244011
 20
2.499998134411892
 10
33.71876440264887
 20
2.499998134411892
 10
33.71876440264887
 20
2.499998134411892
 10
32.61418066269064
 20
2.499998134411892
 10
31.71875728238064
 20
1.604574754101894
 10
31.71875728238064
 20
0.4999910141436656
 10
31.71875728238064
 20
0.4999910141436656
 10
31.71875728238064
 20
-40.50000422842752
 10
31.71875728238064
 20
-40.50000422842752
 10
31.71875728238064
 20
-41.60456643653897
 10
32.61418066269064
 20
-42.49998981684895
 10
33.71876440264887
 20
-42.49998981684895
 10
33.71876440264887
 20
-42.49998981684895
 10
59.25000100244011
 20
-42.49998981684895
 10
59.25000100244011
 20
-42.49998981684895
 10
60.35458474239834
 20
-42.49998981684895
 10
61.25000812270833
 20
-41.60456643653897
 10
61.25000812270833
 20
-40.50000422842752
 10
61.25000812270833
 20
-40.50000422842752
 10
61.25000812270833
 20
0.4999910141436656
 10
61.25000812270833
 20
0.4999910141436656
 10
61.25000812270833
 20
1.604574754101894
 10
60.35458474239834
 20
2.499998134411892
 10
59.25000100244011
 20
2.499998134411892
 97
        0
 97
        1
330
82
 75
     2
 76
     1
 98
        1
 10
0.0
 20
0.0
450
        0
451
        0
460
0.0
461
0.0
452
        0
462
0.0
453
        0
470

  0
SPLINE
  5
84
330
70
100
AcDbEntity
  8
Patterns
100
AcDbSpline
210
0.0
220
0.0
230
1.0
 70
    11
 71
     3
 72
    17
 73
    13
 74
     0
 42
0.0000000001
 43
0.0000000001
 40
0.0
 40
0.0
 40
0.0
 40
0.0
 40
1.0
 40
1.0
 40
1.0
 40
2.0
 40
2.0
 40
2.0
 40
3.0
 40
3.0
 40
3.0
 40
4.0
 40
4.0
 40
4.0
 40
4.0
 10
25.62500779253038
 20
-8.124999319800346
 30
0.0
 10
24.71373697298823
 20
-8.124999319800346
 30
0.0
 10
23.97500084171675
 20
-7.386263188528868
 30
0.0
 10
23.97500084171675
 20
-6.47499236898672
 30
0.0
 10
23.97500084171675
 20
-5.563721549444573
 30
0.0
 10
24.71373697298823
 20
-4.824985418173094
 30
0.0
 10
25.62500779253038
 20
-4.824985418173094
 30
0.0
 10
26.53627861207253
 20
-4.824985418173094
 30
0.0
 10
27.27499321149723
 20
-5.563721549444573
 30
0.0
 10
27.27499321149723
 20
-6.47499236898672
 30
0.0
 10
27.27499321149723
 20
-7.386263188528868
 30
0.0
 10
26.53627861207253
 20
-8.124999319800346
 30
0.0
 10
25.62500779253038
 20
-8.124999319800346
 30
0.0
  0
SPLINE
  5
85
330
70
100
AcDbEntity
  8
Patterns
100
AcDbSpline
210
0.0
220
0.0
230
1.0
 70
    11
 71
     3
 72
    17
 73
    13
 74
     0
 42
0.0000000001
 43
0.0000000001
 40
0.0
 40
0.0
 40
0.0
 40
0.0
 40
1.0
 40
1.0
 40
1.0
 40
2.0
 40
2.0
 40
2.0
 40
3.0
 40
3.0
 40
3.0
 40
4.0
 40
4.0
 40
4.0
 40
4.0
 10
25.62500779253038
 20
-21.52499965553455
 30
0.0
 10
24.71373697298823
 20
-21.52499965553455
 30
0.0
 10
23.97500084171675
 20
-20.78626352426307
 30
0.0
 10
23.97500084171675
 20
-19.87499270472092
 30
0.0
 10
23.97500084171675
 20
-18.96372188517877
 30
0.0
 10
24.71373697298823
 20
-18.2249857539073
 30
0.0
 10
25.62500779253038
 20
-18.2249857539073
 30
0.0
 10
26.53627861207253
 20
-18.2249857539073
 30
0.0
 10
27.27499321149723
 20
-18.96372188517877
 30
0.0
 10
27.27499321149723
 20
-19.87499270472092
 30
0.0
 10
27.27499321149723
 20
-20.78626352426307
 30
0.0
 10
26.53627861207253
 20
-21.52499965553455
 30
0.0
 10
25.62500779253038
 20
-21.52499965553455
 30
0.0
  0
SPLINE
  5
86
330
70
100
AcDbEntity
  8
Patterns
100
AcDbSpline
210
0.0
220
0.0
230
1.0
 70
    11
 71
     3
 72
    17
 73
    13
 74
     0
 42
0.0000000001
 43
0.0000000001
 40
0.0
 40
0.0
 40
0.0
 40
0.0
 40
1.0
 40
1.0
 40
1.0
 40
2.0
 40
2.0
 40
2.0
 40
3.0
 40
3.0
 40
3.0
 40
4.0
 40
4.0
 40
4.0
 40
4.0
 10
25.62500779253038
 20
-34.99999541361328
 30
0.0
 10
24.71373697298823
 20
-34.99999541361328
 30
0.0
 10
23.97500084171675
 20
-34.2612592823418
 30
0.0
 10
23.97500084171675
 20
-33.34998846279966
 30
0.0
 10
23.97500084171675
 20
-32.43871764325751
 30
0.0
 10
24.71373697298823
 20
-31.70000304383281
 30
0.0
 10
25.62500779253038
 20
-31.70000304383281
 30
0.0
 10
26.53627861207253
 20
-31.70000304383281
 30
0.0
 10
27.27499321149723
 20
-32.43871764325751
 30
0.0
 10
27.27499321149723
 20
-33.34998846279966
 30
0.0
 10
27.27499321149723
 20
-34.2612592823418
 30
0.0
 10
26.53627861207253
 20
-34.99999541361328
 30
0.0
 10
25.62500779253038
 20
-34.99999541361328
 30
0.0
  0
SPLINE
  5
87
330
70
100
AcDbEntity
  8
Patterns
100
AcDbSpline
210
0.0
220
0.0
230
1.0
 70
     9
 71
     3
 72
   215
 73
   211
 74
     0
 42
0.0000000001
 43
0.0000000001
 40
0.0
 40
0.0
 40
0.0
 40
0.0
 40
1.0
 40
1.0
 40
1.0
 40
2.0
 40
2.0
 40
2.0
 40
3.0
 40
3.0
 40
3.0
 40
4.0
 40
4.0
 40
4.0
 40
5.0
 40
5.0
 40
5.0
 40
6.0
 40
6.0
 40
6.0
 40
7.0
 40
7.0
 40
7.0
 40
8.0
 40
8.0
 40
8.0
 40
9.0
 40
9.0
 40
9.0
 40
10.0
 40
10.0
 40
10.0
 40
11.0
 40
11.0
 40
11.0
 40
12.0
 40
12.0
 40
12.0
 40
13.0
 40
13.0
 40
13.0
 40
14.0
 40
14.0
 40
14.0
 40
15.0
 40
15.0
 40
15.0
 40
16.0
 40
16.0
 40
16.0
 40
17.0
 40
17.0
 40
17.0
 40
18.0
 40
18.0
 40
18.0
 40
19.0
 40
19.0
 40
19.0
 40
20.0
 40
20.0
 40
20.0
 40
21.0
 40
21.0
 40
21.0
 40
22.0
 40
22.0
 40
22.0
 40
23.0
 40
23.0
 40
23.0
 40
24.0
 40
24.0
 40
24.0
 40
25.0
 40
25.0
 40
25.0
 40
26.0
 40
26.0
 40
26.0
 40
27.0
 40
27.0
 40
27.0
 40
28.0
 40
28.0
 40
28.0
 40
29.0
 40
29.0
 40
29.0
 40
30.0
 40
30.0
 40
30.0
 40
31.0
 40
31.0
 40
31.0
 40
32.0
 40
32.0
 40
32.0
 40
33.0
 40
33.0
 40
33.0
 40
34.0
 40
34.0
 40
34.0
 40
35.0
 40
35.0
 40
35.0
 40
36.0
 40
36.0
 40
36.0
 40
37.0
 40
37.0
 40
37.0
 40
38.0
 40
38.0
 40
38.0
 40
39.0
 40
39.0
 40
39.0
 40
40.0
 40
40.0
 40
40.0
 40
41.0
 40
41.0
 40
41.0
 40
42.0
 40
42.0
 40
42.0
 40
43.0
 40
43.0
 40
43.0
 40
44.0
 40
44.0
 40
44.0
 40
45.0
 40
45.0
 40
45.0
 40
46.0
 40
46.0
 40
46.0
 40
47.0
 40
47.0
 40
47.0
 40
48.0
 40
48.0
 40
48.0
 40
49.0
 40
49.0
 40
49.0
 40
50.0
 40
50.0
 40
50.0
 40
51.0
 40
51.0
 40
51.0
 40
52.0
 40
52.0
 40
52.0
 40
53.0
 40
53.0
 40
53.0
 40
54.0
 40
54.0
 40
54.0
 40
55.0
 40
55.0
 40
55.0
 40
56.0
 40
56.0
 40
56.0
 40
57.0
 40
57.0
 40
57.0
 40
58.0
 40
58.0
 40
58.0
 40
59.0
 40
59.0
 40
59.0
 40
60.0
 40
60.0
 40
60.0
 40
61.0
 40
61.0
 40
61.0
 40
62.0
 40
62.0
 40
62.0
 40
63.0
 40
63.0
 40
63.0
 40
64.0
 40
64.0
 40
64.0
 40
65.0
 40
65.0
 40
65.0
 40
66.0
 40
66.0
 40
66.0
 40
67.0
 40
67.0
 40
67.0
 40
68.0
 40
68.0
 40
68.0
 40
69.0
 40
69.0
 40
69.0
 40
70.0
 40
70.0
 40
70.0
 40
70.0
 10
11.44529622109701
 20
-17.59582519091354
 30
0.0
 10
11.44529622109701
 20
-17.59582519091354
 30
0.0
 10
18.55476751923283
 20
-17.59582519091354
 30
0.0
 10
18.55476751923283
 20
-17.59582519091354
 30
0.0
 10
19.2989081440468
 20
-17.59582519091354
 30
0.0
 10
19.9042114208052
 20
-18.25383842859626
 30
0.0
 10
19.9042114208052
 20
-19.06257459375866
 30
0.0
 10
19.9042114208052
 20
-19.87131075892106
 30
0.0
 10
19.2989081440468
 20
-20.52915174182952
 30
0.0
 10
18.55476751923283
 20
-20.52915174182952
 30
0.0
 10
18.55476751923283
 20
-20.52915174182952
 30
0.0
 10
11.44529622109701
 20
-20.52915174182952
 30
0.0
 10
11.44529622109701
 20
-20.52915174182952
 30
0.0
 10
11.29026692426077
 20
-20.52915174182952
 30
0.0
 10
11.1541856525934
 20
-20.72001003171236
 30
0.0
 10
11.1541856525934
 20
-20.93756781160589
 30
0.0
 10
11.1541856525934
 20
-21.15512559149941
 30
0.0
 10
11.29026692426077
 20
-21.34581162660799
 30
0.0
 10
11.44529622109701
 20
-21.34581162660799
 30
0.0
 10
11.44529622109701
 20
-21.34581162660799
 30
0.0
 10
18.55476751923283
 20
-21.34581162660799
 30
0.0
 10
18.55476751923283
 20
-21.34581162660799
 30
0.0
 10
19.2989081440468
 20
-21.34581162660799
 30
0.0
 10
19.9042114208052
 20
-22.00382486429071
 30
0.0
 10
19.9042114208052
 20
-22.81256102945311
 30
0.0
 10
19.9042114208052
 20
-23.62129719461551
 30
0.0
 10
19.2989081440468
 20
-24.27913817752397
 30
0.0
 10
18.55476751923283
 20
-24.27913817752397
 30
0.0
 10
18.55476751923283
 20
-24.27913817752397
 30
0.0
 10
11.44529622109701
 20
-24.27913817752397
 30
0.0
 10
11.44529622109701
 20
-24.27913817752397
 30
0.0
 10
11.29026692426077
 20
-24.27913817752397
 30
0.0
 10
11.1541856525934
 20
-24.46999646740681
 30
0.0
 10
11.1541856525934
 20
-24.68755424730034
 30
0.0
 10
11.1541856525934
 20
-24.90511202719386
 30
0.0
 10
11.29026692426077
 20
-25.09579806230244
 30
0.0
 10
11.44529622109701
 20
-25.09579806230244
 30
0.0
 10
11.44529622109701
 20
-25.09579806230244
 30
0.0
 10
18.55476751923283
 20
-25.09579806230244
 30
0.0
 10
18.55476751923283
 20
-25.09579806230244
 30
0.0
 10
19.2989081440468
 20
-25.09579806230244
 30
0.0
 10
19.9042114208052
 20
-25.75381129998516
 30
0.0
 10
19.9042114208052
 20
-26.56254746514756
 30
0.0
 10
19.9042114208052
 20
-27.37128363030996
 30
0.0
 10
19.2989081440468
 20
-28.02912461321842
 30
0.0
 10
18.55476751923283
 20
-28.02912461321842
 30
0.0
 10
18.55476751923283
 20
-28.02912461321842
 30
0.0
 10
15.82039523259004
 20
-28.02912461321842
 30
0.0
 10
15.82039523259004
 20
-28.02912461321842
 30
0.0
 10
15.66519368097953
 20
-28.02912461321842
 30
0.0
 10
15.52911240931217
 20
-28.21998290310125
 30
0.0
 10
15.52911240931217
 20
-28.43754068299478
 30
0.0
 10
15.52911240931217
 20
-28.43754068299478
 30
0.0
 10
15.52911240931217
 20
-29.37495116453126
 30
0.0
 10
15.52911240931217
 20
-29.37495116453126
 30
0.0
 10
15.52911240931217
 20
-29.37495116453126
 30
0.0
 10
15.52911240931217
 20
-36.87492403592016
 30
0.0
 10
15.52911240931217
 20
-36.87492403592016
 30
0.0
 10
15.52911240931217
 20
-37.16724038784361
 30
0.0
 10
15.29226209470124
 20
-37.40409070245453
 30
0.0
 10
14.99994574277779
 20
-37.40409070245453
 30
0.0
 10
14.70762939085434
 20
-37.40409070245453
 30
0.0
 10
14.47077907624342
 20
-37.16724038784361
 30
0.0
 10
14.47077907624342
 20
-36.87492403592016
 30
0.0
 10
14.47077907624342
 20
-36.87492403592016
 30
0.0
 10
14.47077907624342
 20
-29.37495116453126
 30
0.0
 10
14.47077907624342
 20
-29.37495116453126
 30
0.0
 10
14.47077907624342
 20
-29.37495116453126
 30
0.0
 10
14.47077907624342
 20
-28.43754068299478
 30
0.0
 10
14.47077907624342
 20
-28.43754068299478
 30
0.0
 10
14.47077907624342
 20
-27.62880451783238
 30
0.0
 10
15.07625460777607
 20
-26.97079128014967
 30
0.0
 10
15.82039523259004
 20
-26.97079128014967
 30
0.0
 10
15.82039523259004
 20
-26.97079128014967
 30
0.0
 10
18.55476751923283
 20
-26.97079128014967
 30
0.0
 10
18.55476751923283
 20
-26.97079128014967
 30
0.0
 10
18.70979681606908
 20
-26.97079128014967
 30
0.0
 10
18.84587808773645
 20
-26.78010524504109
 30
0.0
 10
18.84587808773645
 20
-26.56254746514756
 30
0.0
 10
18.84587808773645
 20
-26.34498968525403
 30
0.0
 10
18.70979681606908
 20
-26.15413139537119
 30
0.0
 10
18.55476751923283
 20
-26.15413139537119
 30
0.0
 10
18.55476751923283
 20
-26.15413139537119
 30
0.0
 10
11.44529622109701
 20
-26.15413139537119
 30
0.0
 10
11.44529622109701
 20
-26.15413139537119
 30
0.0
 10
10.70115559628304
 20
-26.15413139537119
 30
0.0
 10
10.09585231952465
 20
-25.49629041246273
 30
0.0
 10
10.09585231952465
 20
-24.68755424730034
 30
0.0
 10
10.09585231952465
 20
-23.87881808213794
 30
0.0
 10
10.70115559628304
 20
-23.22080484445522
 30
0.0
 10
11.44529622109701
 20
-23.22080484445522
 30
0.0
 10
11.44529622109701
 20
-23.22080484445522
 30
0.0
 10
18.55476751923283
 20
-23.22080484445522
 30
0.0
 10
18.55476751923283
 20
-23.22080484445522
 30
0.0
 10
18.70979681606908
 20
-23.22080484445522
 30
0.0
 10
18.84587808773645
 20
-23.03011880934664
 30
0.0
 10
18.84587808773645
 20
-22.81256102945311
 30
0.0
 10
18.84587808773645
 20
-22.59500324955958
 30
0.0
 10
18.70979681606908
 20
-22.40414495967674
 30
0.0
 10
18.55476751923283
 20
-22.40414495967674
 30
0.0
 10
18.55476751923283
 20
-22.40414495967674
 30
0.0
 10
11.44529622109701
 20
-22.40414495967674
 30
0.0
 10
11.44529622109701
 20
-22.40414495967674
 30
0.0
 10
10.70115559628304
 20
-22.40414495967674
 30
0.0
 10
10.09585231952465
 20
-21.74630397676828
 30
0.0
 10
10.09585231952465
 20
-20.93756781160589
 30
0.0
 10
10.09585231952465
 20
-20.12883164644349
 30
0.0
 10
10.70115559628304
 20
-19.47081840876077
 30
0.0
 10
11.44529622109701
 20
-19.47081840876077
 30
0.0
 10
11.44529622109701
 20
-19.47081840876077
 30
0.0
 10
18.55476751923283
 20
-19.47081840876077
 30
0.0
 10
18.55476751923283
 20
-19.47081840876077
 30
0.0
 10
18.70979681606908
 20
-19.47081840876077
 30
0.0
 10
18.84587808773645
 20
-19.28013237365219
 30
0.0
 10
18.84587808773645
 20
-19.06257459375866
 30
0.0
 10
18.84587808773645
 20
-18.84501681386513
 30
0.0
 10
18.70979681606908
 20
-18.65415852398229
 30
0.0
 10
18.55476751923283
 20
-18.65415852398229
 30
0.0
 10
18.55476751923283
 20
-18.65415852398229
 30
0.0
 10
11.44529622109701
 20
-18.65415852398229
 30
0.0
 10
11.44529622109701
 20
-18.65415852398229
 30
0.0
 10
10.70115559628304
 20
-18.65415852398229
 30
0.0
 10
10.09585231952465
 20
-17.99631754107384
 30
0.0
 10
10.09585231952465
 20
-17.18758137591144
 30
0.0
 10
10.09585231952465
 20
-16.37884521074903
 30
0.0
 10
10.70115559628304
 20
-15.72083197306632
 30
0.0
 10
11.44529622109701
 20
-15.72083197306632
 30
0.0
 10
11.44529622109701
 20
-15.72083197306632
 30
0.0
 10
18.55476751923283
 20
-15.72083197306632
 30
0.0
 10
18.55476751923283
 20
-15.72083197306632
 30
0.0
 10
18.70979681606908
 20
-15.72083197306632
 30
0.0
 10
18.84587808773645
 20
-15.52997368318348
 30
0.0
 10
18.84587808773645
 20
-15.31241590328995
 30
0.0
 10
18.84587808773645
 20
-15.09485812339642
 30
0.0
 10
18.70979681606908
 20
-14.90417208828785
 30
0.0
 10
18.55476751923283
 20
-14.90417208828785
 30
0.0
 10
18.55476751923283
 20
-14.90417208828785
 30
0.0
 10
11.44529622109701
 20
-14.90417208828785
 30
0.0
 10
11.44529622109701
 20
-14.90417208828785
 30
0.0
 10
10.70115559628304
 20
-14.90417208828785
 30
0.0
 10
10.09585231952465
 20
-14.24615885060513
 30
0.0
 10
10.09585231952465
 20
-13.43742268544273
 30
0.0
 10
10.09585231952465
 20
-12.62868652028033
 30
0.0
 10
10.70115559628304
 20
-11.97084553737187
 30
0.0
 10
11.44529622109701
 20
-11.97084553737187
 30
0.0
 10
11.44529622109701
 20
-11.97084553737187
 30
0.0
 10
14.1796685077398
 20
-11.97084553737187
 30
0.0
 10
14.1796685077398
 20
-11.97084553737187
 30
0.0
 10
14.33469780457605
 20
-11.97084553737187
 30
0.0
 10
14.47077907624342
 20
-11.77998724748903
 30
0.0
 10
14.47077907624342
 20
-11.5624294675955
 30
0.0
 10
14.47077907624342
 20
-11.5624294675955
 30
0.0
 10
14.47077907624342
 20
-10.74990369739933
 30
0.0
 10
14.47077907624342
 20
-10.74990369739933
 30
0.0
 10
14.47077907624342
 20
-10.74990369739933
 30
0.0
 10
10.77660318741001
 20
-3.361724174506791
 30
0.0
 10
10.77660318741001
 20
-3.361724174506791
 30
0.0
 10
10.64603406851905
 20
-3.100241427176328
 30
0.0
 10
10.75197075469048
 20
-2.782431368662031
 30
0.0
 10
11.01328124724668
 20
-2.651689994996799
 30
0.0
 10
11.27459173980288
 20
-2.521637640428618
 30
0.0
 10
11.59257405309144
 20
-2.627057562277263
 30
0.0
 10
11.72331542675667
 20
-2.888368054833463
 30
0.0
 10
11.72331542675667
 20
-2.888368054833463
 30
0.0
 10
14.99994574277779
 20
-9.441628686875704
 30
0.0
 10
14.99994574277779
 20
-9.441628686875704
 30
0.0
 10
14.99994574277779
 20
-9.441628686875704
 30
0.0
 10
18.27657605879891
 20
-2.888368054833463
 30
0.0
 10
18.27657605879891
 20
-2.888368054833463
 30
0.0
 10
18.40766194201267
 20
-2.627229817051525
 30
0.0
 10
18.72598876484975
 20
-2.521465385654356
 30
0.0
 10
18.9866102383089
 20
-2.651689994996799
 30
0.0
 10
19.2479207308651
 20
-2.782431368662031
 30
0.0
 10
19.35385741703654
 20
-3.100241427176328
 30
0.0
 10
19.22328829814557
 20
-3.361724174506791
 30
0.0
 10
19.22328829814557
 20
-3.361724174506791
 30
0.0
 10
15.52911240931217
 20
-10.75007595217359
 30
0.0
 10
15.52911240931217
 20
-10.75007595217359
 30
0.0
 10
15.52911240931217
 20
-10.75007595217359
 30
0.0
 10
15.52911240931217
 20
-11.5624294675955
 30
0.0
 10
15.52911240931217
 20
-11.5624294675955
 30
0.0
 10
15.52911240931217
 20
-12.3711656327579
 30
0.0
 10
14.92380913255377
 20
-13.02917887044062
 30
0.0
 10
14.1796685077398
 20
-13.02917887044062
 30
0.0
 10
14.1796685077398
 20
-13.02917887044062
 30
0.0
 10
11.44529622109701
 20
-13.02917887044062
 30
0.0
 10
11.44529622109701
 20
-13.02917887044062
 30
0.0
 10
11.29026692426077
 20
-13.02917887044062
 30
0.0
 10
11.1541856525934
 20
-13.2198649055492
 30
0.0
 10
11.1541856525934
 20
-13.43742268544273
 30
0.0
 10
11.1541856525934
 20
-13.65498046533625
 30
0.0
 10
11.29026692426077
 20
-13.84583875521909
 30
0.0
 10
11.44529622109701
 20
-13.84583875521909
 30
0.0
 10
11.44529622109701
 20
-13.84583875521909
 30
0.0
 10
18.55476751923283
 20
-13.84583875521909
 30
0.0
 10
18.55476751923283
 20
-13.84583875521909
 30
0.0
 10
19.2989081440468
 20
-13.84583875521909
 30
0.0
 10
19.9042114208052
 20
-14.50367973812755
 30
0.0
 10
19.9042114208052
 20
-15.31241590328995
 30
0.0
 10
19.9042114208052
 20
-16.12115206845235
 30
0.0
 10
19.2989081440468
 20
-16.77916530613507
 30
0.0
 10
18.55476751923283
 20
-16.77916530613507
 30
0.0
 10
18.55476751923283
 20
-16.77916530613507
 30
0.0
 10
11.44529622109701
 20
-16.77916530613507
 30
0.0
 10
11.44529622109701
 20
-16.77916530613507
 30
0.0
 10
11.29026692426077
 20
-16.77916530613507
 30
0.0
 10
11.1541856525934
 20
-16.97002359601791
 30
0.0
 10
11.1541856525934
 20
-17.18758137591144
 30
0.0
 10
11.1541856525934
 20
-17.40513915580496
 30
0.0
 10
11.29026692426077
 20
-17.59582519091354
 30
0.0
 10
11.44529622109701
 20
-17.59582519091354
 30
0.0
  0
SPLINE
  5
88
330
70
100
AcDbEntity
  8
Patterns
100
AcDbSpline
210
0.0
220
0.0
230
1.0
 70
    11
 71
     3
 72
    17
 73
    13
 74
     0
 42
0.0000000001
 43
0.0000000001
 40
0.0
 40
0.0
 40
0.0
 40
0.0
 40
1.0
 40
1.0
 40
1.0
 40
2.0
 40
2.0
 40
2.0
 40
3.0
 40
3.0
 40
3.0
 40
4.0
 40
4.0
 40
4.0
 40
4.0
 10
4.374991352259116
 20
-8.124999319800346
 30
0.0
 10
3.463720532716969
 20
-8.124999319800346
 30
0.0
 10
2.725005933292273
 20
-7.386263188528868
 30
0.0
 10
2.725005933292273
 20
-6.47499236898672
 30
0.0
 10
2.725005933292273
 20
-5.563721549444573
 30
0.0
 10
3.463720532716969
 20
-4.824985418173094
 30
0.0
 10
4.374991352259116
 20
-4.824985418173094
 30
0.0
 10
5.286262171801264
 20
-4.824985418173094
 30
0.0
 10
6.024998303072743
 20
-5.563721549444573
 30
0.0
 10
6.024998303072743
 20
-6.47499236898672
 30
0.0
 10
6.024998303072743
 20
-7.386263188528868
 30
0.0
 10
5.286262171801264
 20
-8.124999319800346
 30
0.0
 10
4.374991352259116
 20
-8.124999319800346
 30
0.0
  0
SPLINE
  5
89
330
70
100
AcDbEntity
  8
Patterns
100
AcDbSpline
210
0.0
220
0.0
230
1.0
 70
    11
 71
     3
 72
    17
 73
    13
 74
     0
 42
0.0000000001
 43
0.0000000001
 40
0.0
 40
0.0
 40
0.0
 40
0.0
 40
1.0
 40
1.0
 40
1.0
 40
2.0
 40
2.0
 40
2.0
 40
3.0
 40
3.0
 40
3.0
 40
4.0
 40
4.0
 40
4.0
 40
4.0
 10
4.374991352259116
 20
-21.52499965553455
 30
0.0
 10
3.463720532716969
 20
-21.52499965553455
 30
0.0
 10
2.725005933292273
 20
-20.78626352426307
 30
0.0
 10
2.725005933292273
 20
-19.87499270472092
 30
0.0
 10
2.725005933292273
 20
-18.96372188517877
 30
0.0
 10
3.463720532716969
 20
-18.2249857539073
 30
0.0
 10
4.374991352259116
 20
-18.2249857539073
 30
0.0
 10
5.286262171801264
 20
-18.2249857539073
 30
0.0
 10
6.024998303072743
 20
-18.96372188517877
 30
0.0
 10
6.024998303072743
 20
-19.87499270472092
 30
0.0
 10
6.024998303072743
 20
-20.78626352426307
 30
0.0
 10
5.286262171801264
 20
-21.52499965553455
 30
0.0
 10
4.374991352259116
 20
-21.52499965553455
 30
0.0
  0
SPLINE
  5
8A
330
70
100
AcDbEntity
  8
Patterns
100
AcDbSpline
210
0.0
220
0.0
230
1.0
 70
    11
 71
     3
 72
    17
 73
    13
 74
     0
 42
0.0000000001
 43
0.0000000001
 40
0.0
 40
0.0
 40
0.0
 40
0.0
 40
1.0
 40
1.0
 40
1.0
 40
2.0
 40
2.0
 40
2.0
 40
3.0
 40
3.0
 40
3.0
 40
4.0
 40
4.0
 40
4.0
 40
4.0
 10
4.374991352259116
 20
-34.99999541361328
 30
0.0
 10
3.463720532716969
 20
-34.99999541361328
 30
0.0
 10
2.725005933292273
 20
-34.2612592823418
 30
0.0
 10
2.725005933292273
 20
-33.34998846279966
 30
0.0
 10
2.725005933292273
 20
-32.43871764325751
 30
0.0
 10
3.463720532716969
 20
-31.70000304383281
 30
0.0
 10
4.374991352259116
 20
-31.70000304383281
 30
0.0
 10
5.286262171801264
 20
-31.70000304383281
 30
0.0
 10
6.024998303072743
 20
-32.43871764325751
 30
0.0
 10
6.024998303072743
 20
-33.34998846279966
 30
0.0
 10
6.024998303072743
 20
-34.2612592823418
 30
0.0
 10
5.286262171801264
 20
-34.99999541361328
 30
0.0
 10
4.374991352259116
 20
-34.99999541361328
 30
0.0
  0
SPLINE
  5
8B
330
70
100
AcDbEntity
  8
Patterns
100
AcDbSpline
210
0.0
220
0.0
230
1.0
 70
     9
 71
     3
 72
    29
 73
    25
 74
     0
 42
0.0000000001
 43
0.0000000001
 40
0.0
 40
0.0
 40
0.0
 40
0.0
 40
1.0
 40
1.0
 40
1.0
 40
2.0
 40
2.0
 40
2.0
 40
3.0
 40
3.0
 40
3.0
 40
4.0
 40
4.0
 40
4.0
 40
5.0
 40
5.0
 40
5.0
 40
6.0
 40
6.0
 40
6.0
 40
7.0
 40
7.0
 40
7.0
 40
8.0
 40
8.0
 40
8.0
 40
8.0
 10
27.76561787229037
 20
2.499998134411892
 30
0.0
 10
27.76561787229037
 20
2.499998134411892
 30
0.0
 10
2.23438127249913
 20
2.499998134411892
 30
0.0
 10
2.23438127249913
 20
2.499998134411892
 30
0.0
 10
1.129797532540901
 20
2.499998134411892
 30
0.0
 10
0.234374152230903
 20
1.604574754101894
 30
0.0
 10
0.234374152230903
 20
0.4999910141436656
 30
0.0
 10
0.234374152230903
 20
0.4999910141436656
 30
0.0
 10
0.234374152230903
 20
-40.50000422842752
 30
0.0
 10
0.234374152230903
 20
-40.50000422842752
 30
0.0
 10
0.234374152230903
 20
-41.60456643653897
 30
0.0
 10
1.129797532540901
 20
-42.49998981684895
 30
0.0
 10
2.23438127249913
 20
-42.49998981684895
 30
0.0
 10
2.23438127249913
 20
-42.49998981684895
 30
0.0
 10
27.76561787229037
 20
-42.49998981684895
 30
0.0
 10
27.76561787229037
 20
-42.49998981684895
 30
0.0
 10
28.8702016122486
 20
-42.49998981684895
 30
0.0
 10
29.7656249925586
 20
-41.60456643653897
 30
0.0
 10
29.7656249925586
 20
-40.50000422842752
 30
0.0
 10
29.7656249925586
 20
-40.50000422842752
 30
0.0
 10
29.7656249925586
 20
0.4999910141436656
 30
0.0
 10
29.7656249925586
 20
0.4999910141436656
 30
0.0
 10
29.7656249925586
 20
1.604574754101894
 30
0.0
 10
28.8702016122486
 20
2.499998134411892
 30
0.0
 10
27.76561787229037
 20
2.499998134411892
 30
0.0
  0
HATCH
  5
8C
330
70
100
AcDbEntity
  8
Patterns
 62
     6
420
 16711935
440
 33554687
100
AcDbHatch
 10
0.0
 20
0.0
 30
0.0
210
0.0
220
0.0
230
1.0
  2
SOLID
 70
     1
 71
     1
 91
        8
 92
        1
 93
        1
 72
     4
 94
        3
 73
     0
 74
     0
 95
       17
 96
       13
 40
0.0
 40
0.0
 40
0.0
 40
0.0
 40
1.0
 40
1.0
 40
1.0
 40
2.0
 40
2.0
 40
2.0
 40
3.0
 40
3.0
 40
3.0
 40
4.0
 40
4.0
 40
4.0
 40
4.0
 10
25.62500779253038
 20
-8.124999319800346
 10
24.71373697298823
 20
-8.124999319800346
 10
23.97500084171675
 20
-7.386263188528868
 10
23.97500084171675
 20
-6.47499236898672
 10
23.97500084171675
 20
-5.563721549444573
 10
24.71373697298823
 20
-4.824985418173094
 10
25.62500779253038
 20
-4.824985418173094
 10
26.53627861207253
 20
-4.824985418173094
 10
27.27499321149723
 20
-5.563721549444573
 10
27.27499321149723
 20
-6.47499236898672
 10
27.27499321149723
 20
-7.386263188528868
 10
26.53627861207253
 20
-8.124999319800346
 10
25.62500779253038
 20
-8.124999319800346
 97
        0
 97
        1
330
84
 92
        1
 93
        1
 72
     4
 94
        3
 73
     0
 74
     0
 95
       17
 96
       13
 40
0.0
 40
0.0
 40
0.0
 40
0.0
 40
1.0
 40
1.0
 40
1.0
 40
2.0
 40
2.0
 40
2.0
 40
3.0
 40
3.0
 40
3.0
 40
4.0
 40
4.0
 40
4.0
 40
4.0
 10
25.62500779253038
 20
-21.52499965553455
 10
24.71373697298823
 20
-21.52499965553455
 10
23.97500084171675
 20
-20.78626352426307
 10
23.97500084171675
 20
-19.87499270472092
 10
23.97500084171675
 20
-18.96372188517877
 10
24.71373697298823
 20
-18.2249857539073
 10
25.62500779253038
 20
-18.2249857539073
 10
26.53627861207253
 20
-18.2249857539073
 10
27.27499321149723
 20
-18.96372188517877
 10
27.27499321149723
 20
-19.87499270472092
 10
27.27499321149723
 20
-20.78626352426307
 10
26.53627861207253
 20
-21.52499965553455
 10
25.62500779253038
 20
-21.52499965553455
 97
        0
 97
        1
330
85
 92
        1
 93
        1
 72
     4
 94
        3
 73
     0
 74
     0
 95
       17
 96
       13
 40
0.0
 40
0.0
 40
0.0
 40
0.0
 40
1.0
 40
1.0
 40
1.0
 40
2.0
 40
2.0
 40
2.0
 40
3.0
 40
3.0
 40
3.0
 40
4.0
 40
4.0
 40
4.0
 40
4.0
 10
25.62500779253038
 20
-34.99999541361328
 10
24.71373697298823
 20
-34.99999541361328
 10
23.97500084171675
 20
-34.2612592823418
 10
23.97500084171675
 20
-33.34998846279966
 10
23.97500084171675
 20
-32.43871764325751
 10
24.71373697298823
 20
-31.70000304383281
 10
25.62500779253038
 20
-31.70000304383281
 10
26.53627861207253
 20
-31.70000304383281
 10
27.27499321149723
 20
-32.43871764325751
 10
27.27499321149723
 20
-33.34998846279966
 10
27.27499321149723
 20
-34.2612592823418
 10
26.53627861207253
 20
-34.99999541361328
 10
25.62500779253038
 20
-34.99999541361328
 97
        0
 97
        1
330
86
 92
        1
 93
        1
 72
     4
 94
        3
 73
     0
 74
     0
 95
      215
 96
      211
 40
0.0
 40
0.0
 40
0.0
 40
0.0
 40
1.0
 40
1.0
 40
1.0
 40
2.0
 40
2.0
 40
2.0
 40
3.0
 40
3.0
 40
3.0
 40
4.0
 40
4.0
 40
4.0
 40
5.0
 40
5.0
 40
5.0
 40
6.0
 40
6.0
 40
6.0
 40
7.0
 40
7.0
 40
7.0
 40
8.0
 40
8.0
 40
8.0
 40
9.0
 40
9.0
 40
9.0
 40
10.0
 40
10.0
 40
10.0
 40
11.0
 40
11.0
 40
11.0
 40
12.0
 40
12.0
 40
12.0
 40
13.0
 40
13.0
 40
13.0
 40
14.0
 40
14.0
 40
14.0
 40
15.0
 40
15.0
 40
15.0
 40
16.0
 40
16.0
 40
16.0
 40
17.0
 40
17.0
 40
17.0
 40
18.0
 40
18.0
 40
18.0
 40
19.0
 40
19.0
 40
19.0
 40
20.0
 40
20.0
 40
20.0
 40
21.0
 40
21.0
 40
21.0
 40
22.0
 40
22.0
 40
22.0
 40
23.0
 40
23.0
 40
23.0
 40
24.0
 40
24.0
 40
24.0
 40
25.0
 40
25.0
 40
25.0
 40
26.0
 40
26.0
 40
26.0
 40
27.0
 40
27.0
 40
27.0
 40
28.0
 40
28.0
 40
28.0
 40
29.0
 40
29.0
 40
29.0
 40
30.0
 40
30.0
 40
30.0
 40
31.0
 40
31.0
 40
31.0
 40
32.0
 40
32.0
 40
32.0
 40
33.0
 40
33.0
 40
33.0
 40
34.0
 40
34.0
 40
34.0
 40
35.0
 40
35.0
 40
35.0
 40
36.0
 40
36.0
 40
36.0
 40
37.0
 40
37.0
 40
37.0
 40
38.0
 40
38.0
 40
38.0
 40
39.0
 40
39.0
 40
39.0
 40
40.0
 40
40.0
 40
40.0
 40
41.0
 40
41.0
 40
41.0
 40
42.0
 40
42.0
 40
42.0
 40
43.0
 40
43.0
 40
43.0
 40
44.0
 40
44.0
 40
44.0
 40
45.0
 40
45.0
 40
45.0
 40
46.0
 40
46.0
 40
46.0
 40
47.0
 40
47.0
 40
47.0
 40
48.0
 40
48.0
 40
48.0
 40
49.0
 40
49.0
 40
49.0
 40
50.0
 40
50.0
 40
50.0
 40
51.0
 40
51.0
 40
51.0
 40
52.0
 40
52.0
 40
52.0
 40
53.0
 40
53.0
 40
53.0
 40
54.0
 40
54.0
 40
54.0
 40
55.0
 40
55.0
 40
55.0
 40
56.0
 40
56.0
 40
56.0
 40
57.0
 40
57.0
 40
57.0
 40
58.0
 40
58.0
 40
58.0
 40
59.0
 40
59.0
 40
59.0
 40
60.0
 40
60.0
 40
60.0
 40
61.0
 40
61.0
 40
61.0
 40
62.0
 40
62.0
 40
62.0
 40
63.0
 40
63.0
 40
63.0
 40
64.0
 40
64.0
 40
64.0
 40
65.0
 40
65.0
 40
65.0
 40
66.0
 40
66.0
 40
66.0
 40
67.0
 40
67.0
 40
67.0
 40
68.0
 40
68.0
 40
68.0
 40
69.0
 40
69.0
 40
69.0
 40
70.0
 40
70.0
 40
70.0
 40
70.0
 10
11.44529622109701
 20
-17.59582519091354
 10
11.44529622109701
 20
-17.59582519091354
 10
18.55476751923283
 20
-17.59582519091354
 10
18.55476751923283
 20
-17.59582519091354
 10
19.2989081440468
 20
-17.59582519091354
 10
19.9042114208052
 20
-18.25383842859626
 10
19.9042114208052
 20
-19.06257459375866
 10
19.9042114208052
 20
-19.87131075892106
 10
19.2989081440468
 20
-20.52915174182952
 10
18.55476751923283
 20
-20.52915174182952
 10
18.55476751923283
 20
-20.52915174182952
 10
11.44529622109701
 20
-20.52915174182952
 10
11.44529622109701
 20
-20.52915174182952
 10
11.29026692426077
 20
-20.52915174182952
 10
11.1541856525934
 20
-20.72001003171236
 10
11.1541856525934
 20
-20.93756781160589
 10
11.1541856525934
 20
-21.15512559149941
 10
11.29026692426077
 20
-21.34581162660799
 10
11.44529622109701
 20
-21.34581162660799
 10
11.44529622109701
 20
-21.34581162660799
 10
18.55476751923283
 20
-21.34581162660799
 10
18.55476751923283
 20
-21.34581162660799
 10
19.2989081440468
 20
-21.34581162660799
 10
19.9042114208052
 20
-22.00382486429071
 10
19.9042114208052
 20
-22.81256102945311
 10
19.9042114208052
 20
-23.62129719461551
 10
19.2989081440468
 20
-24.27913817752397
 10
18.55476751923283
 20
-24.27913817752397
 10
18.55476751923283
 20
-24.27913817752397
 10
11.44529622109701
 20
-24.27913817752397
 10
11.44529622109701
 20
-24.27913817752397
 10
11.29026692426077
 20
-24.27913817752397
 10
11.1541856525934
 20
-24.46999646740681
 10
11.1541856525934
 20
-24.68755424730034
 10
11.1541856525934
 20
-24.90511202719386
 10
11.29026692426077
 20
-25.09579806230244
 10
11.44529622109701
 20
-25.09579806230244
 10
11.44529622109701
 20
-25.09579806230244
 10
18.55476751923283
 20
-25.09579806230244
 10
18.55476751923283
 20
-25.09579806230244
 10
19.2989081440468
 20
-25.09579806230244
 10
19.9042114208052
 20
-25.75381129998516
 10
19.9042114208052
 20
-26.56254746514756
 10
19.9042114208052
 20
-27.37128363030996
 10
19.2989081440468
 20
-28.02912461321842
 10
18.55476751923283
 20
-28.02912461321842
 10
18.55476751923283
 20
-28.02912461321842
 10
15.82039523259004
 20
-28.02912461321842
 10
15.82039523259004
 20
-28.02912461321842
 10
15.66519368097953
 20
-28.02912461321842
 10
15.52911240931217
 20
-28.21998290310125
 10
15.52911240931217
 20
-28.43754068299478
 10
15.52911240931217
 20
-28.43754068299478
 10
15.52911240931217
 20
-29.37495116453126
 10
15.52911240931217
 20
-29.37495116453126
 10
15.52911240931217
 20
-29.37495116453126
 10
15.52911240931217
 20
-36.87492403592016
 10
15.52911240931217
 20
-36.87492403592016
 10
15.52911240931217
 20
-37.16724038784361
 10
15.29226209470124
 20
-37.40409070245453
 10
14.99994574277779
 20
-37.40409070245453
 10
14.70762939085434
 20
-37.40409070245453
 10
14.47077907624342
 20
-37.16724038784361
 10
14.47077907624342
 20
-36.87492403592016
 10
14.47077907624342
 20
-36.87492403592016
 10
14.47077907624342
 20
-29.37495116453126
 10
14.47077907624342
 20
-29.37495116453126
 10
14.47077907624342
 20
-29.37495116453126
 10
14.47077907624342
 20
-28.43754068299478
 10
14.47077907624342
 20
-28.43754068299478
 10
14.47077907624342
 20
-27.62880451783238
 10
15.07625460777607
 20
-26.97079128014967
 10
15.82039523259004
 20
-26.97079128014967
 10
15.82039523259004
 20
-26.97079128014967
 10
18.55476751923283
 20
-26.97079128014967
 10
18.55476751923283
 20
-26.97079128014967
 10
18.70979681606908
 20
-26.97079128014967
 10
18.84587808773645
 20
-26.78010524504109
 10
18.84587808773645
 20
-26.56254746514756
 10
18.84587808773645
 20
-26.34498968525403
 10
18.70979681606908
 20
-26.15413139537119
 10
18.55476751923283
 20
-26.15413139537119
 10
18.55476751923283
 20
-26.15413139537119
 10
11.44529622109701
 20
-26.15413139537119
 10
11.44529622109701
 20
-26.15413139537119
 10
10.70115559628304
 20
-26.15413139537119
 10
10.09585231952465
 20
-25.49629041246273
 10
10.09585231952465
 20
-24.68755424730034
 10
10.09585231952465
 20
-23.87881808213794
 10
10.70115559628304
 20
-23.22080484445522
 10
11.44529622109701
 20
-23.22080484445522
 10
11.44529622109701
 20
-23.22080484445522
 10
18.55476751923283
 20
-23.22080484445522
 10
18.55476751923283
 20
-23.22080484445522
 10
18.70979681606908
 20
-23.22080484445522
 10
18.84587808773645
 20
-23.03011880934664
 10
18.84587808773645
 20
-22.81256102945311
 10
18.84587808773645
 20
-22.59500324955958
 10
18.70979681606908
 20
-22.40414495967674
 10
18.55476751923283
 20
-22.40414495967674
 10
18.55476751923283
 20
-22.40414495967674
 10
11.44529622109701
 20
-22.40414495967674
 10
11.44529622109701
 20
-22.40414495967674
 10
10.70115559628304
 20
-22.40414495967674
 10
10.09585231952465
 20
-21.74630397676828
 10
10.09585231952465
 20
-20.93756781160589
 10
10.09585231952465
 20
-20.12883164644349
 10
10.70115559628304
 20
-19.47081840876077
 10
11.44529622109701
 20
-19.47081840876077
 10
11.44529622109701
 20
-19.47081840876077
 10
18.55476751923283
 20
-19.47081840876077
 10
18.55476751923283
 20
-19.47081840876077
 10
18.70979681606908
 20
-19.47081840876077
 10
18.84587808773645
 20
-19.28013237365219
 10
18.84587808773645
 20
-19.06257459375866
 10
18.84587808773645
 20
-18.84501681386513
 10
18.70979681606908
 20
-18.65415852398229
 10
18.55476751923283
 20
-18.65415852398229
 10
18.55476751923283
 20
-18.65415852398229
 10
11.44529622109701
 20
-18.65415852398229
 10
11.44529622109701
 20
-18.65415852398229
 10
10.70115559628304
 20
-18.65415852398229
 10
10.09585231952465
 20
-17.99631754107384
 10
10.09585231952465
 20
-17.18758137591144
 10
10.09585231952465
 20
-16.37884521074903
 10
10.70115559628304
 20
-15.72083197306632
 10
11.44529622109701
 20
-15.72083197306632
 10
11.44529622109701
 20
-15.72083197306632
 10
18.55476751923283
 20
-15.72083197306632
 10
18.55476751923283
 20
-15.72083197306632
 10
18.70979681606908
 20
-15.72083197306632
 10
18.84587808773645
 20
-15.52997368318348
 10
18.84587808773645
 20
-15.31241590328995
 10
18.84587808773645
 20
-15.09485812339642
 10
18.70979681606908
 20
-14.90417208828785
 10
18.55476751923283
 20
-14.90417208828785
 10
18.55476751923283
 20
-14.90417208828785
 10
11.44529622109701
 20
-14.90417208828785
 10
11.44529622109701
 20
-14.90417208828785
 10
10.70115559628304
 20
-14.90417208828785
 10
10.09585231952465
 20
-14.24615885060513
 10
10.09585231952465
 20
-13.43742268544273
 10
10.09585231952465
 20
-12.62868652028033
 10
10.70115559628304
 20
-11.97084553737187
 10
11.44529622109701
 20
-11.97084553737187
 10
11.44529622109701
 20
-11.97084553737187
 10
14.1796685077398
 20
-11.97084553737187
 10
14.1796685077398
 20
-11.97084553737187
 10
14.33469780457605
 20
-11.97084553737187
 10
14.47077907624342
 20
-11.77998724748903
 10
14.47077907624342
 20
-11.5624294675955
 10
14.47077907624342
 20
-11.5624294675955
 10
14.47077907624342
 20
-10.74990369739933
 10
14.47077907624342
 20
-10.74990369739933
 10
14.47077907624342
 20
-10.74990369739933
 10
10.77660318741001
 20
-3.361724174506791
 10
10.77660318741001
 20
-3.361724174506791
 10
10.64603406851905
 20
-3.100241427176328
 10
10.75197075469048
 20
-2.782431368662031
 10
11.01328124724668
 20
-2.651689994996799
 10
11.27459173980288
 20
-2.521637640428618
 10
11.59257405309144
 20
-2.627057562277263
 10
11.72331542675667
 20
-2.888368054833463
 10
11.72331542675667
 20
-2.888368054833463
 10
14.99994574277779
 20
-9.441628686875704
 10
14.99994574277779
 20
-9.441628686875704
 10
14.99994574277779
 20
-9.441628686875704
 10
18.27657605879891
 20
-2.888368054833463
 10
18.27657605879891
 20
-2.888368054833463
 10
18.40766194201267
 20
-2.627229817051525
 10
18.72598876484975
 20
-2.521465385654356
 10
18.9866102383089
 20
-2.651689994996799
 10
19.2479207308651
 20
-2.782431368662031
 10
19.35385741703654
 20
-3.100241427176328
 10
19.22328829814557
 20
-3.361724174506791
 10
19.22328829814557
 20
-3.361724174506791
 10
15.52911240931217
 20
-10.75007595217359
 10
15.52911240931217
 20
-10.75007595217359
 10
15.52911240931217
 20
-10.75007595217359
 10
15.52911240931217
 20
-11.5624294675955
 10
15.52911240931217
 20
-11.5624294675955
 10
15.52911240931217
 20
-12.3711656327579
 10
14.92380913255377
 20
-13.02917887044062
 10
14.1796685077398
 20
-13.02917887044062
 10
14.1796685077398
 20
-13.02917887044062
 10
11.44529622109701
 20
-13.02917887044062
 10
11.44529622109701
 20
-13.02917887044062
 10
11.29026692426077
 20
-13.02917887044062
 10
11.1541856525934
 20
-13.2198649055492
 10
11.1541856525934
 20
-13.43742268544273
 10
11.1541856525934
 20
-13.65498046533625
 10
11.29026692426077
 20
-13.84583875521909
 10
11.44529622109701
 20
-13.84583875521909
 10
11.44529622109701
 20
-13.84583875521909
 10
18.55476751923283
 20
-13.84583875521909
 10
18.55476751923283
 20
-13.84583875521909
 10
19.2989081440468
 20
-13.84583875521909
 10
19.9042114208052
 20
-14.50367973812755
 10
19.9042114208052
 20
-15.31241590328995
 10
19.9042114208052
 20
-16.12115206845235
 10
19.2989081440468
 20
-16.77916530613507
 10
18.55476751923283
 20
-16.77916530613507
 10
18.55476751923283
 20
-16.77916530613507
 10
11.44529622109701
 20
-16.77916530613507
 10
11.44529622109701
 20
-16.77916530613507
 10
11.29026692426077
 20
-16.77916530613507
 10
11.1541856525934
 20
-16.97002359601791
 10
11.1541856525934
 20
-17.18758137591144
 10
11.1541856525934
 20
-17.40513915580496
 10
11.29026692426077
 20
-17.59582519091354
 10
11.44529622109701
 20
-17.59582519091354
 97
        0
 97
        1
330
87
 92
        1
 93
        1
 72
     4
 94
        3
 73
     0
 74
     0
 95
       17
 96
       13
 40
0.0
 40
0.0
 40
0.0
 40
0.0
 40
1.0
 40
1.0
 40
1.0
 40
2.0
 40
2.0
 40
2.0
 40
3.0
 40
3.0
 40
3.0
 40
4.0
 40
4.0
 40
4.0
 40
4.0
 10
4.374991352259116
 20
-8.124999319800346
 10
3.463720532716969
 20
-8.124999319800346
 10
2.725005933292273
 20
-7.386263188528868
 10
2.725005933292273
 20
-6.47499236898672
 10
2.725005933292273
 20
-5.563721549444573
 10
3.463720532716969
 20
-4.824985418173094
 10
4.374991352259116
 20
-4.824985418173094
 10
5.286262171801264
 20
-4.824985418173094
 10
6.024998303072743
 20
-5.563721549444573
 10
6.024998303072743
 20
-6.47499236898672
 10
6.024998303072743
 20
-7.386263188528868
 10
5.286262171801264
 20
-8.124999319800346
 10
4.374991352259116
 20
-8.124999319800346
 97
        0
 97
        1
330
88
 92
        1
 93
        1
 72
     4
 94
        3
 73
     0
 74
     0
 95
       17
 96
       13
 40
0.0
 40
0.0
 40
0.0
 40
0.0
 40
1.0
 40
1.0
 40
1.0
 40
2.0
 40
2.0
 40
2.0
 40
3.0
 40
3.0
 40
3.0
 40
4.0
 40
4.0
 40
4.0
 40
4.0
 10
4.374991352259116
 20
-21.52499965553455
 10
3.463720532716969
 20
-21.52499965553455
 10
2.725005933292273
 20
-20.78626352426307
 10
2.725005933292273
 20
-19.87499270472092
 10
2.725005933292273
 20
-18.96372188517877
 10
3.463720532716969
 20
-18.2249857539073
 10
4.374991352259116
 20
-18.2249857539073
 10
5.286262171801264
 20
-18.2249857539073
 10
6.024998303072743
 20
-18.96372188517877
 10
6.024998303072743
 20
-19.87499270472092
 10
6.024998303072743
 20
-20.78626352426307
 10
5.286262171801264
 20
-21.52499965553455
 10
4.374991352259116
 20
-21.52499965553455
 97
        0
 97
        1
330
89
 92
        1
 93
        1
 72
     4
 94
        3
 73
     0
 74
     0
 95
       17
 96
       13
 40
0.0
 40
0.0
 40
0.0
 40
0.0
 40
1.0
 40
1.0
 40
1.0
 40
2.0
 40
2.0
 40
2.0
 40
3.0
 40
3.0
 40
3.0
 40
4.0
 40
4.0
 40
4.0
 40
4.0
 10
4.374991352259116
 20
-34.99999541361328
 10
3.463720532716969
 20
-34.99999541361328
 10
2.725005933292273
 20
-34.2612592823418
 10
2.725005933292273
 20
-33.34998846279966
 10
2.725005933292273
 20
-32.43871764325751
 10
3.463720532716969
 20
-31.70000304383281
 10
4.374991352259116
 20
-31.70000304383281
 10
5.286262171801264
 20
-31.70000304383281
 10
6.024998303072743
 20
-32.43871764325751
 10
6.024998303072743
 20
-33.34998846279966
 10
6.024998303072743
 20
-34.2612592823418
 10
5.286262171801264
 20
-34.99999541361328
 10
4.374991352259116
 20
-34.99999541361328
 97
        0
 97
        1
330
8A
 92
        1
 93
        1
 72
     4
 94
        3
 73
     0
 74
     0
 95
       29
 96
       25
 40
0.0
 40
0.0
 40
0.0
 40
0.0
 40
1.0
 40
1.0
 40
1.0
 40
2.0
 40
2.0
 40
2.0
 40
3.0
 40
3.0
 40
3.0
 40
4.0
 40
4.0
 40
4.0
 40
5.0
 40
5.0
 40
5.0
 40
6.0
 40
6.0
 40
6.0
 40
7.0
 40
7.0
 40
7.0
 40
8.0
 40
8.0
 40
8.0
 40
8.0
 10
27.76561787229037
 20
2.499998134411892
 10
27.76561787229037
 20
2.499998134411892
 10
2.23438127249913
 20
2.499998134411892
 10
2.23438127249913
 20
2.499998134411892
 10
1.129797532540901
 20
2.499998134411892
 10
0.234374152230903
 20
1.604574754101894
 10
0.234374152230903
 20
0.4999910141436656
 10
0.234374152230903
 20
0.4999910141436656
 10
0.234374152230903
 20
-40.50000422842752
 10
0.234374152230903
 20
-40.50000422842752
 10
0.234374152230903
 20
-41.60456643653897
 10
1.129797532540901
 20
-42.49998981684895
 10
2.23438127249913
 20
-42.49998981684895
 10
2.23438127249913
 20
-42.49998981684895
 10
27.76561787229037
 20
-42.49998981684895
 10
27.76561787229037
 20
-42.49998981684895
 10
28.8702016122486
 20
-42.49998981684895
 10
29.7656249925586
 20
-41.60456643653897
 10
29.7656249925586
 20
-40.50000422842752
 10
29.7656249925586
 20
-40.50000422842752
 10
29.7656249925586
 20
0.4999910141436656
 10
29.7656249925586
 20
0.4999910141436656
 10
29.7656249925586
 20
1.604574754101894
 10
28.8702016122486
 20
2.499998134411892
 10
27.76561787229037
 20
2.499998134411892
 97
        0
 97
        1
330
8B
 75
     2
 76
     1
 98
        1
 10
0.0
 20
0.0
450
        0
451
        0
460
0.0
461
0.0
452
        0
462
0.0
453
        0
470

  0
ENDSEC
  0
SECTION
  2
OBJECTS
  0
DICTIONARY
  5
C
330
0
100
AcDbDictionary
281
     1
  3
ACAD_COLOR
350
63
  3
ACAD_DETAILVIEWSTYLE
350
6A
  3
ACAD_GROUP
350
D
  3
ACAD_LAYOUT
350
62
  3
ACAD_MATERIAL
350
10
  3
ACAD_MLEADERSTYLE
350
66
  3
ACAD_MLINESTYLE
350
5F
  3
ACAD_PLOTSETTINGS
350
61
  3
ACAD_PLOTSTYLENAME
350
E
  3
ACAD_SCALELIST
350
42
  3
ACAD_SECTIONVIEWSTYLE
350
68
  3
ACAD_TABLESTYLE
350
64
  3
ACAD_VISUALSTYLE
350
29
  3
ACDB_RECOMPOSE_DATA
350
95
  3
AcDbVariableDictionary
350
8D
  0
DICTIONARY
  5
63
102
{ACAD_REACTORS
330
C
102
}
330
C
100
AcDbDictionary
281
     1
  0
DICTIONARY
  5
6A
102
{ACAD_REACTORS
330
C
102
}
330
C
100
AcDbDictionary
281
     1
  3
Imperial24
350
6B
  0
DICTIONARY
  5
D
102
{ACAD_REACTORS
330
C
102
}
330
C
100
AcDbDictionary
281
     1
  0
DICTIONARY
  5
62
102
{ACAD_REACTORS
330
C
102
}
330
C
100
AcDbDictionary
281
     1
  3
Layout1
350
6F
  3
Layout2
350
77
  3
Model
350
73
  0
DICTIONARY
  5
10
102
{ACAD_REACTORS
330
C
102
}
330
C
100
AcDbDictionary
281
     1
  3
ByBlock
350
19
  3
ByLayer
350
11
  3
Global
350
21
  0
DICTIONARY
  5
66
102
{ACAD_REACTORS
330
C
102
}
330
C
100
AcDbDictionary
281
     1
  3
Standard
350
67
  0
DICTIONARY
  5
5F
102
{ACAD_REACTORS
330
C
102
}
330
C
100
AcDbDictionary
281
     1
  3
Standard
350
60
  0
DICTIONARY
  5
61
102
{ACAD_REACTORS
330
C
102
}
330
C
100
AcDbDictionary
281
     1
  0
ACDBDICTIONARYWDFLT
  5
E
102
{ACAD_REACTORS
330
C
102
}
330
C
100
AcDbDictionary
281
     1
  3
Normal
350
F
100
AcDbDictionaryWithDefault
340
F
  0
DICTIONARY
  5
42
102
{ACAD_REACTORS
330
C
102
}
330
C
100
AcDbDictionary
281
     1
  3
A0
350
43
  3
A1
350
44
  3
A2
350
45
  3
A3
350
46
  3
A4
350
47
  3
A5
350
48
  3
A6
350
49
  3
A7
350
4A
  3
A8
350
4B
  3
A9
350
4C
  3
B0
350
4D
  3
B1
350
4E
  3
B2
350
4F
  3
B3
350
50
  3
B4
350
51
  3
B5
350
52
  3
B6
350
53
  0
DICTIONARY
  5
68
102
{ACAD_REACTORS
330
C
102
}
330
C
100
AcDbDictionary
281
     1
  3
Imperial24
350
69
  0
DICTIONARY
  5
64
102
{ACAD_REACTORS
330
C
102
}
330
C
100
AcDbDictionary
281
     1
  3
Standard
350
65
  0
DICTIONARY
  5
29
102
{ACAD_REACTORS
330
C
102
}
330
C
100
AcDbDictionary
281
     1
  3
2dWireframe
350
2F
  3
Basic
350
2E
  3
Brighten
350
35
  3
ColorChange
350
39
  3
Conceptual
350
32
  3
Dim
350
34
  3
EdgeColorOff
350
41
  3
Facepattern
350
38
  3
Flat
350
2A
  3
FlatWithEdges
350
2B
  3
Gouraud
350
2C
  3
GouraudWithEdges
350
2D
  3
Hidden
350
31
  3
JitterOff
350
3F
  3
Linepattern
350
37
  3
OverhangOff
350
40
  3
Realistic
350
33
  3
Shaded
350
3E
  3
Shaded with edges
350
3D
  3
Shades of Gray
350
3A
  3
Sketchy
350
3B
  3
Thicken
350
36
  3
Wireframe
350
30
  3
X-Ray
350
3C
  0
XRECORD
  5
95
102
{ACAD_REACTORS
330
C
102
}
330
C
100
AcDbXrecord
280
     1
 90
        1
330
65
  0
DICTIONARY
  5
8D
102
{ACAD_REACTORS
330
C
102
}
330
C
100
AcDbDictionary
281
     1
  3
CANNOSCALE
350
92
  3
CMLEADERSTYLE
350
8F
  3
CTABLESTYLE
350
8E
  3
CVIEWDETAILSTYLE
350
90
  3
CVIEWSECTIONSTYLE
350
91
  0
ACDBDETAILVIEWSTYLE
  5
6B
102
{ACAD_REACTORS
330
6A
102
}
330
6A
100
AcDbModelDocViewStyle
 70
     0
  3
Imperial24
290
     1
300
Imperial24
 90
        0
100
AcDbDetailViewStyle
 70
     0
 71
     0
 90
        3
 71
     1
340
55
 62
   256
 40
0.24
340
0
 62
   256
 40
0.24
300

 40
0.36
280
     3
 71
     2
340
5D
 90
       25
 62
   256
 71
     3
340
55
 62
   256
 40
0.24
 90
        1
 40
0.75
 90
        1
300
%<\AcVar ViewType \f "%tc1">% %<\AcVar ViewDetailId>%\PSCALE %<\AcVar ViewScale \f "%sn">%
 71
     4
340
5D
 90
       25
 62
   256
340
5D
 90
       25
 62
   256
280
     0
  0
LAYOUT
  5
6F
102
{ACAD_REACTORS
330
62
102
}
330
62
100
AcDbPlotSettings
  1

  2

  4

  6

 40
0.0
 41
0.0
 42
0.0
 43
0.0
 44
0.0
 45
0.0
 46
0.0
 47
0.0
 48
0.0
 49
0.0
140
0.0
141
0.0
142
1.0
143
1.0
 70
   688
 72
     0
 73
     0
 74
     5
  7

 75
    16
147
1.0
 76
     0
 77
     2
 78
   300
148
0.0
149
0.0
100
AcDbLayout
  1
Layout1
 70
     1
 71
     1
 10
0.0
 20
0.0
 11
12.0
 21
9.0
 12
0.0
 22
0.0
 32
0.0
 14
0.0
 24
0.0
 34
0.0
 15
0.0
 25
0.0
 35
0.0
146
0.0
 13
0.0
 23
0.0
 33
0.0
 16
1.0
 26
0.0
 36
0.0
 17
0.0
 27
1.0
 37
0.0
 76
     0
330
6C
  0
LAYOUT
  5
77
102
{ACAD_REACTORS
330
62
102
}
330
62
100
AcDbPlotSettings
  1

  2

  4

  6

 40
0.0
 41
0.0
 42
0.0
 43
0.0
 44
0.0
 45
0.0
 46
0.0
 47
0.0
 48
0.0
 49
0.0
140
0.0
141
0.0
142
1.0
143
1.0
 70
   688
 72
     0
 73
     0
 74
     5
  7

 75
    16
147
1.0
 76
     0
 77
     2
 78
   300
148
0.0
149
0.0
100
AcDbLayout
  1
Layout2
 70
     1
 71
     2
 10
0.0
 20
0.0
 11
12.0
 21
9.0
 12
0.0
 22
0.0
 32
0.0
 14
0.0
 24
0.0
 34
0.0
 15
0.0
 25
0.0
 35
0.0
146
0.0
 13
0.0
 23
0.0
 33
0.0
 16
1.0
 26
0.0
 36
0.0
 17
0.0
 27
1.0
 37
0.0
 76
     0
330
74
  0
LAYOUT
  5
73
102
{ACAD_REACTORS
330
62
102
}
330
62
100
AcDbPlotSettings
  1

  2

  4

  6

 40
0.0
 41
0.0
 42
0.0
 43
0.0
 44
0.0
 45
0.0
 46
0.0
 47
0.0
 48
0.0
 49
0.0
140
0.0
141
0.0
142
1.0
143
1.0
 70
  1712
 72
     0
 73
     0
 74
     0
  7

 75
     0
147
1.0
 76
     0
 77
     2
 78
   300
148
0.0
149
0.0
100
AcDbLayout
  1
Model
 70
     1
 71
     0
 10
0.0
 20
0.0
 11
12.0
 21
9.0
 12
0.0
 22
0.0
 32
0.0
 14
0.0
 24
0.0
 34
0.0
 15
0.0
 25
0.0
 35
0.0
146
0.0
 13
0.0
 23
0.0
 33
0.0
 16
1.0
 26
0.0
 36
0.0
 17
0.0
 27
1.0
 37
0.0
 76
     0
330
70
  0
MATERIAL
  5
19
102
{ACAD_XDICTIONARY
360
1A
102
}
102
{ACAD_REACTORS
330
10
102
}
330
10
100
AcDbMaterial
  1
ByBlock
 72
     0
 43
0.0208333333333333
 43
0.0
 43
0.0
 43
0.0
 43
0.0
 43
0.0208333333333333
 43
0.0
 43
0.0
 43
0.0
 43
0.0
 43
1.0
 43
0.0
 43
0.0
 43
0.0
 43
0.0
 43
1.0
 77
     0
 47
0.0208333333333333
 47
0.0
 47
0.0
 47
0.0
 47
0.0
 47
0.0208333333333333
 47
0.0
 47
0.0
 47
0.0
 47
0.0
 47
1.0
 47
0.0
 47
0.0
 47
0.0
 47
0.0
 47
1.0
171
     0
 49
0.0208333333333333
 49
0.0
 49
0.0
 49
0.0
 49
0.0
 49
0.0208333333333333
 49
0.0
 49
0.0
 49
0.0
 49
0.0
 49
1.0
 49
0.0
 49
0.0
 49
0.0
 49
0.0
 49
1.0
175
     0
142
0.0208333333333333
142
0.0
142
0.0
142
0.0
142
0.0
142
0.0208333333333333
142
0.0
142
0.0
142
0.0
142
0.0
142
1.0
142
0.0
142
0.0
142
0.0
142
0.0
142
1.0
179
     0
144
0.0208333333333333
144
0.0
144
0.0
144
0.0
144
0.0
144
0.0208333333333333
144
0.0
144
0.0
144
0.0
144
0.0
144
1.0
144
0.0
144
0.0
144
0.0
144
0.0
144
1.0
147
0.0208333333333333
147
0.0
147
0.0
147
0.0
147
0.0
147
0.0208333333333333
147
0.0
147
0.0
147
0.0
147
0.0
147
1.0
147
0.0
147
0.0
147
0.0
147
0.0
147
1.0
  0
MATERIAL
  5
11
102
{ACAD_XDICTIONARY
360
12
102
}
102
{ACAD_REACTORS
330
10
102
}
330
10
100
AcDbMaterial
  1
ByLayer
 72
     0
 43
0.0208333333333333
 43
0.0
 43
0.0
 43
0.0
 43
0.0
 43
0.0208333333333333
 43
0.0
 43
0.0
 43
0.0
 43
0.0
 43
1.0
 43
0.0
 43
0.0
 43
0.0
 43
0.0
 43
1.0
 77
     0
 47
0.0208333333333333
 47
0.0
 47
0.0
 47
0.0
 47
0.0
 47
0.0208333333333333
 47
0.0
 47
0.0
 47
0.0
 47
0.0
 47
1.0
 47
0.0
 47
0.0
 47
0.0
 47
0.0
 47
1.0
171
     0
 49
0.0208333333333333
 49
0.0
 49
0.0
 49
0.0
 49
0.0
 49
0.0208333333333333
 49
0.0
 49
0.0
 49
0.0
 49
0.0
 49
1.0
 49
0.0
 49
0.0
 49
0.0
 49
0.0
 49
1.0
175
     0
142
0.0208333333333333
142
0.0
142
0.0
142
0.0
142
0.0
142
0.0208333333333333
142
0.0
142
0.0
142
0.0
142
0.0
142
1.0
142
0.0
142
0.0
142
0.0
142
0.0
142
1.0
179
     0
144
0.0208333333333333
144
0.0
144
0.0
144
0.0
144
0.0
144
0.0208333333333333
144
0.0
144
0.0
144
0.0
144
0.0
144
1.0
144
0.0
144
0.0
144
0.0
144
0.0
144
1.0
147
0.0208333333333333
147
0.0
147
0.0
147
0.0
147
0.0
147
0.0208333333333333
147
0.0
147
0.0
147
0.0
147
0.0
147
1.0
147
0.0
147
0.0
147
0.0
147
0.0
147
1.0
  0
MATERIAL
  5
21
102
{ACAD_XDICTIONARY
360
22
102
}
102
{ACAD_REACTORS
330
10
102
}
330
10
100
AcDbMaterial
  1
Global
 72
     0
 43
0.0208333333333333
 43
0.0
 43
0.0
 43
0.0
 43
0.0
 43
0.0208333333333333
 43
0.0
 43
0.0
 43
0.0
 43
0.0
 43
1.0
 43
0.0
 43
0.0
 43
0.0
 43
0.0
 43
1.0
 77
     0
 47
0.0208333333333333
 47
0.0
 47
0.0
 47
0.0
 47
0.0
 47
0.0208333333333333
 47
0.0
 47
0.0
 47
0.0
 47
0.0
 47
1.0
 47
0.0
 47
0.0
 47
0.0
 47
0.0
 47
1.0
171
     0
 49
0.0208333333333333
 49
0.0
 49
0.0
 49
0.0
 49
0.0
 49
0.0208333333333333
 49
0.0
 49
0.0
 49
0.0
 49
0.0
 49
1.0
 49
0.0
 49
0.0
 49
0.0
 49
0.0
 49
1.0
175
     0
142
0.0208333333333333
142
0.0
142
0.0
142
0.0
142
0.0
142
0.0208333333333333
142
0.0
142
0.0
142
0.0
142
0.0
142
1.0
142
0.0
142
0.0
142
0.0
142
0.0
142
1.0
179
     0
144
0.0208333333333333
144
0.0
144
0.0
144
0.0
144
0.0
144
0.0208333333333333
144
0.0
144
0.0
144
0.0
144
0.0
144
1.0
144
0.0
144
0.0
144
0.0
144
0.0
144
1.0
147
0.0208333333333333
147
0.0
147
0.0
147
0.0
147
0.0
147
0.0208333333333333
147
0.0
147
0.0
147
0.0
147
0.0
147
1.0
147
0.0
147
0.0
147
0.0
147
0.0
147
1.0
  0
MLEADERSTYLE
  5
67
102
{ACAD_REACTORS
330
66
102
}
330
66
100
AcDbMLeaderStyle
179
     2
170
     2
171
     1
172
     0
 90
        2
 40
0.0
 41
0.0
173
     1
 91
-1056964608
340
5B
 92
       -2
290
     1
 42
0.09
291
     1
 43
0.36
  3
Standard
 44
0.18
300

342
55
174
     1
178
     6
175
     1
176
     0
 93
-1056964608
 45
0.18
292
     0
297
     0
 46
0.18
 94
-1056964608
 47
1.0
 49
1.0
140
1.0
293
     1
141
0.0
294
     1
177
     0
142
1.0
295
     1
296
     0
143
0.125
271
     0
272
     9
273
     9
298
     1
  0
MLINESTYLE
  5
60
102
{ACAD_REACTORS
330
5F
102
}
330
5F
100
AcDbMlineStyle
  2
STANDARD
 70
     0
  3

 62
   256
 51
90.0
 52
90.0
 71
     2
 49
0.5
 62
   256
  6
BYLAYER
 49
-0.5
 62
   256
  6
BYLAYER
  0
ACDBPLACEHOLDER
  5
F
102
{ACAD_REACTORS
330
E
102
}
330
E
  0
SCALE
  5
43
102
{ACAD_REACTORS
330
42
102
}
330
42
100
AcDbScale
 70
     0
300
1:1
140
1.0
141
1.0
290
     1
  0
SCALE
  5
44
102
{ACAD_REACTORS
330
42
102
}
330
42
100
AcDbScale
 70
     0
300
1/128" = 1'-0"
140
0.0078125
141
12.0
290
     0
  0
SCALE
  5
45
102
{ACAD_REACTORS
330
42
102
}
330
42
100
AcDbScale
 70
     0
300
1/64" = 1'-0"
140
0.015625
141
12.0
290
     0
  0
SCALE
  5
46
102
{ACAD_REACTORS
330
42
102
}
330
42
100
AcDbScale
 70
     0
300
1/32" = 1'-0"
140
0.03125
141
12.0
290
     0
  0
SCALE
  5
47
102
{ACAD_REACTORS
330
42
102
}
330
42
100
AcDbScale
 70
     0
300
1/16" = 1'-0"
140
0.0625
141
12.0
290
     0
  0
SCALE
  5
48
102
{ACAD_REACTORS
330
42
102
}
330
42
100
AcDbScale
 70
     0
300
3/32" = 1'-0"
140
0.09375
141
12.0
290
     0
  0
SCALE
  5
49
102
{ACAD_REACTORS
330
42
102
}
330
42
100
AcDbScale
 70
     0
300
1/8" = 1'-0"
140
0.125
141
12.0
290
     0
  0
SCALE
  5
4A
102
{ACAD_REACTORS
330
42
102
}
330
42
100
AcDbScale
 70
     0
300
3/16" = 1'-0"
140
0.1875
141
12.0
290
     0
  0
SCALE
  5
4B
102
{ACAD_REACTORS
330
42
102
}
330
42
100
AcDbScale
 70
     0
300
1/4" = 1'-0"
140
0.25
141
12.0
290
     0
  0
SCALE
  5
4C
102
{ACAD_REACTORS
330
42
102
}
330
42
100
AcDbScale
 70
     0
300
3/8" = 1'-0"
140
0.375
141
12.0
290
     0
  0
SCALE
  5
4D
102
{ACAD_REACTORS
330
42
102
}
330
42
100
AcDbScale
 70
     0
300
1/2" = 1'-0"
140
0.5
141
12.0
290
     0
  0
SCALE
  5
4E
102
{ACAD_REACTORS
330
42
102
}
330
42
100
AcDbScale
 70
     0
300
3/4" = 1'-0"
140
0.75
141
12.0
290
     0
  0
SCALE
  5
4F
102
{ACAD_REACTORS
330
42
102
}
330
42
100
AcDbScale
 70
     0
300
1" = 1'-0"
140
1.0
141
12.0
290
     0
  0
SCALE
  5
50
102
{ACAD_REACTORS
330
42
102
}
330
42
100
AcDbScale
 70
     0
300
1-1/2" = 1'-0"
140
1.5
141
12.0
290
     0
  0
SCALE
  5
51
102
{ACAD_REACTORS
330
42
102
}
330
42
100
AcDbScale
 70
     0
300
3" = 1'-0"
140
3.0
141
12.0
290
     0
  0
SCALE
  5
52
102
{ACAD_REACTORS
330
42
102
}
330
42
100
AcDbScale
 70
     0
300
6" = 1'-0"
140
6.0
141
12.0
290
     0
  0
SCALE
  5
53
102
{ACAD_REACTORS
330
42
102
}
330
42
100
AcDbScale
 70
     0
300
1'-0" = 1'-0"
140
12.0
141
12.0
290
     0
  0
ACDBSECTIONVIEWSTYLE
  5
69
102
{ACAD_REACTORS
330
68
102
}
330
68
100
AcDbModelDocViewStyle
 70
     0
  3
Imperial24
290
     1
300
Imperial24
 90
        0
100
AcDbSectionViewStyle
 70
     0
 71
     0
 90
       78
 71
     1
340
55
 62
   256
 40
0.24
340
0
340
0
 62
   256
 40
0.24
300
I, O, Q, S, X, Z
 40
0.48
 90
        3
 40
0.18
 90
        1
 71
     2
340
5D
 90
       25
 62
   256
340
5D
 90
       50
 62
   256
 40
0.24
 40
0.0
 40
0.24
 71
     3
340
55
 62
   256
 40
0.24
 90
        1
 40
0.75
 90
        1
300
%<\AcVar ViewType \f "%tc1">% %<\AcVar ViewSectionStartId>%-%<\AcVar ViewSectionEndId>%\PSCALE %<\AcVar ViewScale \f "%sn">%
 71
     4
 62
   256
 62
   257
300
ANSI31
 40
1.0
 90
        0
290
     0
290
     0
 90
        6
 40
0.0
 40
1.570796326794896
 40
0.2617993877991494
 40
1.308996938995747
 40
-0.2617993877991494
 40
1.832595714594046
  0
TABLESTYLE
  5
65
102
{ACAD_XDICTIONARY
360
93
102
}
102
{ACAD_REACTORS
330
64
102
}
330
64
100
AcDbTableStyle
280
     0
  3
Standard
 70
     0
 71
     0
 40
0.06
 41
0.06
280
     0
281
     0
  7
Standard
140
0.18
170
     2
 62
     0
 63
     7
283
     0
 90
      512
 91
        0
  1

274
    -2
284
     1
 64
     0
275
    -2
285
     1
 65
     0
276
    -2
286
     1
 66
     0
277
    -2
287
     1
 67
     0
278
    -2
288
     1
 68
     0
279
    -2
289
     1
 69
     0
  7
Standard
140
0.25
170
     5
 62
     0
 63
     7
283
     0
 90
      512
 91
        0
  1

274
    -2
284
     1
 64
     0
275
    -2
285
     1
 65
     0
276
    -2
286
     1
 66
     0
277
    -2
287
     1
 67
     0
278
    -2
288
     1
 68
     0
279
    -2
289
     1
 69
     0
  7
Standard
140
0.18
170
     5
 62
     0
 63
     7
283
     0
 90
      512
 91
        0
  1

274
    -2
284
     1
 64
     0
275
    -2
285
     1
 65
     0
276
    -2
286
     1
 66
     0
277
    -2
287
     1
 67
     0
278
    -2
288
     1
 68
     0
279
    -2
289
     1
 69
     0
  0
VISUALSTYLE
  5
2F
102
{ACAD_REACTORS
330
29
102
}
330
29
100
AcDbVisualStyle
  2
2dWireframe
 70
     4
177
     3
291
     0
 70
    58
 90
        0
176
     1
 90
        2
176
     1
 90
        0
176
     1
 90
        0
176
     1
 40
0.6
176
     1
 40
30.0
176
     1
 62
     7
420
 16777215
176
     1
 90
        1
176
     1
 90
        4
176
     1
 62
     7
176
     1
 62
   257
176
     1
 90
        1
176
     1
 90
        1
176
     1
 40
1.0
176
     1
 90
        0
176
     1
 62
   257
176
     1
 40
1.0
176
     1
 90
        1
176
     1
 90
        6
176
     1
 90
        2
176
     1
 62
     7
176
     1
 90
        5
176
     1
 90
        0
176
     1
 90
        0
176
     1
290
     0
176
     1
 90
        1
176
     1
 40
0.0
176
     1
 90
        0
176
     1
290
     1
176
     1
290
     1
176
     1
290
     0
176
     1
290
     0
176
     1
290
     0
176
     1
290
     0
176
     1
290
     0
176
     1
290
     0
176
     1
290
     0
176
     1
 90
       50
176
     1
 40
0.0
176
     1
 40
1.0
176
     1
 90
        0
176
     1
 62
    18
420
        0
176
     1
 90
       50
176
     1
 90
        3
176
     1
 62
     5
420
      255
176
     1
290
     0
176
     1
 90
       50
176
     1
 90
       50
176
     1
 90
       50
176
     1
290
     0
176
     1
 90
       50
176
     1
 62
   256
176
     0
 40
1.0
176
     0
 90
        2
176
     1
  1
strokes_ogs.tif
176
     1
290
     0
176
     1
 40
1.0
176
     1
 40
1.0
176
     1
  0
VISUALSTYLE
  5
2E
102
{ACAD_REACTORS
330
29
102
}
330
29
100
AcDbVisualStyle
  2
Basic
 70
     7
177
     3
291
     1
 70
    58
 90
        1
176
     1
 90
        0
176
     1
 90
        1
176
     1
 90
        0
176
     1
 40
0.6
176
     1
 40
30.0
176
     1
 62
     7
420
 16777215
176
     1
 90
        0
176
     1
 90
        4
176
     1
 62
     7
176
     1
 62
   257
176
     1
 90
        1
176
     1
 90
        1
176
     1
 40
1.0
176
     1
 90
        8
176
     1
 62
     7
176
     1
 40
1.0
176
     1
 90
        1
176
     1
 90
        6
176
     1
 90
        2
176
     1
 62
     7
176
     1
 90
        5
176
     1
 90
        0
176
     1
 90
        0
176
     1
290
     0
176
     1
 90
        1
176
     1
 40
0.0
176
     1
 90
        0
176
     1
290
     0
176
     1
290
     1
176
     1
290
     1
176
     1
290
     0
176
     1
290
     0
176
     1
290
     0
176
     1
290
     0
176
     1
290
     0
176
     1
290
     0
176
     1
 90
       50
176
     1
 40
0.0
176
     1
 40
1.0
176
     1
 90
        0
176
     1
 62
    18
420
        0
176
     1
 90
       50
176
     1
 90
        3
176
     1
 62
     5
420
      255
176
     1
290
     0
176
     1
 90
       50
176
     1
 90
       50
176
     1
 90
       50
176
     1
290
     0
176
     1
 90
       50
176
     1
 62
   256
176
     0
 40
1.0
176
     0
 90
        2
176
     1
  1
strokes_ogs.tif
176
     1
290
     0
176
     1
 40
1.0
176
     1
 40
1.0
176
     1
  0
VISUALSTYLE
  5
35
102
{ACAD_REACTORS
330
29
102
}
330
29
100
AcDbVisualStyle
  2
Brighten
 70
    12
177
     3
291
     1
 70
    58
 90
        2
176
     1
 90
        2
176
     1
 90
        0
176
     1
 90
        0
176
     1
 40
0.6
176
     1
 40
30.0
176
     1
 62
     7
420
 16777215
176
     1
 90
        1
176
     1
 90
        4
176
     1
 62
     7
176
     1
 62
   257
176
     1
 90
        1
176
     1
 90
        1
176
     1
 40
1.0
176
     1
 90
        8
176
     1
 62
     7
176
     1
 40
1.0
176
     1
 90
        1
176
     1
 90
        6
176
     1
 90
        2
176
     1
 62
     7
176
     1
 90
        5
176
     1
 90
        0
176
     1
 90
        0
176
     1
290
     0
176
     1
 90
        1
176
     1
 40
50.0
176
     1
 90
        0
176
     1
290
     0
176
     1
290
     1
176
     1
290
     1
176
     1
290
     0
176
     1
290
     0
176
     1
290
     0
176
     1
290
     0
176
     1
290
     0
176
     1
290
     0
176
     1
 90
       50
176
     1
 40
0.0
176
     1
 40
1.0
176
     1
 90
        0
176
     1
 62
    18
420
        0
176
     1
 90
       50
176
     1
 90
        3
176
     1
 62
     5
420
      255
176
     1
290
     0
176
     1
 90
       50
176
     1
 90
       50
176
     1
 90
       50
176
     1
290
     0
176
     1
 90
       50
176
     1
 62
   256
176
     0
 40
1.0
176
     0
 90
        2
176
     1
  1
strokes_ogs.tif
176
     1
290
     0
176
     1
 40
1.0
176
     1
 40
1.0
176
     1
  0
VISUALSTYLE
  5
39
102
{ACAD_REACTORS
330
29
102
}
330
29
100
AcDbVisualStyle
  2
ColorChange
 70
    16
177
     3
291
     1
 70
    58
 90
        2
176
     1
 90
        2
176
     1
 90
        3
176
     1
 90
        0
176
     1
 40
0.6
176
     1
 40
30.0
176
     1
 62
     8
420
  8421504
176
     1
 90
        1
176
     1
 90
        4
176
     1
 62
     7
176
     1
 62
   257
176
     1
 90
        1
176
     1
 90
        1
176
     1
 40
1.0
176
     1
 90
        8
176
     1
 62
     8
420
  8421504
176
     1
 40
1.0
176
     1
 90
        1
176
     1
 90
        6
176
     1
 90
        2
176
     1
 62
     7
176
     1
 90
        5
176
     1
 90
        0
176
     1
 90
        0
176
     1
290
     0
176
     1
 90
        1
176
     1
 40
0.0
176
     1
 90
        0
176
     1
290
     0
176
     1
290
     1
176
     1
290
     1
176
     1
290
     0
176
     1
290
     0
176
     1
290
     0
176
     1
290
     0
176
     1
290
     0
176
     1
290
     0
176
     1
 90
       50
176
     1
 40
0.0
176
     1
 40
1.0
176
     1
 90
        0
176
     1
 62
    18
420
        0
176
     1
 90
       50
176
     1
 90
        3
176
     1
 62
     5
420
      255
176
     1
290
     0
176
     1
 90
       50
176
     1
 90
       50
176
     1
 90
       50
176
     1
290
     0
176
     1
 90
       50
176
     1
 62
   256
176
     0
 40
1.0
176
     0
 90
        2
176
     1
  1
strokes_ogs.tif
176
     1
290
     0
176
     1
 40
1.0
176
     1
 40
1.0
176
     1
  0
VISUALSTYLE
  5
32
102
{ACAD_REACTORS
330
29
102
}
330
29
100
AcDbVisualStyle
  2
Conceptual
 70
     9
177
     3
291
     0
 70
    58
 90
        3
176
     1
 90
        2
176
     1
 90
        0
176
     1
 90
        0
176
     1
 40
0.6
176
     1
 40
30.0
176
     1
 62
     7
420
 16777215
176
     1
 90
        2
176
     1
 90
        2
176
     1
 62
     7
176
     1
 62
   257
176
     1
 90
        1
176
     1
 90
        1
176
     1
 40
179.0
176
     1
 90
        8
176
     1
 62
     7
176
     1
 40
1.0
176
     1
 90
        1
176
     1
 90
        6
176
     1
 90
        2
176
     1
 62
     7
176
     1
 90
        3
176
     1
 90
        0
176
     1
 90
        0
176
     1
290
     0
176
     1
 90
        1
176
     1
 40
0.0
176
     1
 90
        0
176
     1
290
     0
176
     1
290
     1
176
     1
290
     1
176
     1
290
     0
176
     1
290
     0
176
     1
290
     0
176
     1
290
     0
176
     1
290
     0
176
     1
290
     0
176
     1
 90
       50
176
     1
 40
0.0
176
     1
 40
1.0
176
     1
 90
        0
176
     1
 62
    18
420
        0
176
     1
 90
       50
176
     1
 90
        3
176
     1
 62
     5
420
      255
176
     1
290
     0
176
     1
 90
       50
176
     1
 90
       50
176
     1
 90
       50
176
     1
290
     0
176
     1
 90
       50
176
     1
 62
   256
176
     0
 40
1.0
176
     0
 90
        2
176
     1
  1
strokes_ogs.tif
176
     1
290
     0
176
     1
 40
1.0
176
     1
 40
1.0
176
     1
  0
VISUALSTYLE
  5
34
102
{ACAD_REACTORS
330
29
102
}
330
29
100
AcDbVisualStyle
  2
Dim
 70
    11
177
     3
291
     1
 70
    58
 90
        2
176
     1
 90
        2
176
     1
 90
        0
176
     1
 90
        0
176
     1
 40
0.6
176
     1
 40
30.0
176
     1
 62
     7
420
 16777215
176
     1
 90
        1
176
     1
 90
        4
176
     1
 62
     7
176
     1
 62
   257
176
     1
 90
        1
176
     1
 90
        1
176
     1
 40
1.0
176
     1
 90
        8
176
     1
 62
     7
176
     1
 40
1.0
176
     1
 90
        1
176
     1
 90
        6
176
     1
 90
        2
176
     1
 62
     7
176
     1
 90
        5
176
     1
 90
        0
176
     1
 90
        0
176
     1
290
     0
176
     1
 90
        1
176
     1
 40
-50.0
176
     1
 90
        0
176
     1
290
     0
176
     1
290
     1
176
     1
290
     1
176
     1
290
     0
176
     1
290
     0
176
     1
290
     0
176
     1
290
     0
176
     1
290
     0
176
     1
290
     0
176
     1
 90
       50
176
     1
 40
0.0
176
     1
 40
1.0
176
     1
 90
        0
176
     1
 62
    18
420
        0
176
     1
 90
       50
176
     1
 90
        3
176
     1
 62
     5
420
      255
176
     1
290
     0
176
     1
 90
       50
176
     1
 90
       50
176
     1
 90
       50
176
     1
290
     0
176
     1
 90
       50
176
     1
 62
   256
176
     0
 40
1.0
176
     0
 90
        2
176
     1
  1
strokes_ogs.tif
176
     1
290
     0
176
     1
 40
1.0
176
     1
 40
1.0
176
     1
  0
VISUALSTYLE
  5
41
102
{ACAD_REACTORS
330
29
102
}
330
29
100
AcDbVisualStyle
  2
EdgeColorOff
 70
    22
177
     3
291
     1
 70
    58
 90
        2
176
     0
 90
        2
176
     0
 90
        0
176
     0
 90
        0
176
     0
 40
0.6
176
     0
 40
30.0
176
     0
 62
     7
420
 16777215
176
     0
 90
        1
176
     0
 90
        4
176
     0
 62
     7
176
     0
 62
   257
176
     0
 90
        1
176
     0
 90
        1
176
     0
 40
1.0
176
     0
 90
        8
176
     2
 62
     7
176
     0
 40
1.0
176
     0
 90
        1
176
     0
 90
        6
176
     0
 90
        2
176
     0
 62
     7
176
     0
 90
        5
176
     0
 90
        0
176
     0
 90
        0
176
     0
290
     0
176
     0
 90
        1
176
     0
 40
0.0
176
     0
 90
        0
176
     0
290
     0
176
     0
290
     1
176
     0
290
     1
176
     0
290
     0
176
     0
290
     0
176
     0
290
     0
176
     0
290
     0
176
     0
290
     0
176
     0
290
     0
176
     0
 90
       50
176
     0
 40
0.0
176
     0
 40
1.0
176
     0
 90
        0
176
     0
 62
    18
420
        0
176
     0
 90
       50
176
     0
 90
        3
176
     0
 62
     5
420
      255
176
     0
290
     0
176
     0
 90
       50
176
     0
 90
       50
176
     0
 90
       50
176
     0
290
     0
176
     0
 90
       50
176
     0
 62
   256
176
     0
 40
1.0
176
     0
 90
        2
176
     0
  1
strokes_ogs.tif
176
     0
290
     0
176
     0
 40
1.0
176
     0
 40
1.0
176
     0
  0
VISUALSTYLE
  5
38
102
{ACAD_REACTORS
330
29
102
}
330
29
100
AcDbVisualStyle
  2
Facepattern
 70
    15
177
     3
291
     1
 70
    58
 90
        2
176
     1
 90
        2
176
     1
 90
        0
176
     1
 90
        0
176
     1
 40
0.6
176
     1
 40
30.0
176
     1
 62
     7
420
 16777215
176
     1
 90
        1
176
     1
 90
        4
176
     1
 62
     7
176
     1
 62
   257
176
     1
 90
        1
176
     1
 90
        1
176
     1
 40
1.0
176
     1
 90
        8
176
     1
 62
     7
176
     1
 40
1.0
176
     1
 90
        1
176
     1
 90
        6
176
     1
 90
        2
176
     1
 62
     7
176
     1
 90
        5
176
     1
 90
        0
176
     1
 90
        0
176
     1
290
     0
176
     1
 90
        1
176
     1
 40
0.0
176
     1
 90
        0
176
     1
290
     0
176
     1
290
     1
176
     1
290
     1
176
     1
290
     0
176
     1
290
     0
176
     1
290
     0
176
     1
290
     0
176
     1
290
     0
176
     1
290
     0
176
     1
 90
       50
176
     1
 40
0.0
176
     1
 40
1.0
176
     1
 90
        0
176
     1
 62
    18
420
        0
176
     1
 90
       50
176
     1
 90
        3
176
     1
 62
     5
420
      255
176
     1
290
     0
176
     1
 90
       50
176
     1
 90
       50
176
     1
 90
       50
176
     1
290
     0
176
     1
 90
       50
176
     1
 62
   256
176
     0
 40
1.0
176
     0
 90
        2
176
     1
  1
strokes_ogs.tif
176
     1
290
     0
176
     1
 40
1.0
176
     1
 40
1.0
176
     1
  0
VISUALSTYLE
  5
2A
102
{ACAD_REACTORS
330
29
102
}
330
29
100
AcDbVisualStyle
  2
Flat
 70
     0
177
     3
291
     1
 70
    58
 90
        2
176
     1
 90
        1
176
     1
 90
        1
176
     1
 90
        2
176
     1
 40
0.6
176
     1
 40
30.0
176
     1
 62
     7
420
 16777215
176
     1
 90
        0
176
     1
 90
        0
176
     1
 62
     7
176
     1
 62
   257
176
     1
 90
        1
176
     1
 90
        1
176
     1
 40
1.0
176
     1
 90
        8
176
     1
 62
     7
176
     1
 40
1.0
176
     1
 90
        1
176
     1
 90
        6
176
     1
 90
        2
176
     1
 62
     7
176
     1
 90
        5
176
     1
 90
        0
176
     1
 90
        0
176
     1
290
     0
176
     1
 90
       13
176
     1
 40
0.0
176
     1
 90
        0
176
     1
290
     0
176
     1
290
     1
176
     1
290
     1
176
     1
290
     0
176
     1
290
     0
176
     1
290
     0
176
     1
290
     0
176
     1
290
     0
176
     1
290
     0
176
     1
 90
       50
176
     1
 40
0.0
176
     1
 40
1.0
176
     1
 90
        0
176
     1
 62
    18
420
        0
176
     1
 90
       50
176
     1
 90
        3
176
     1
 62
     5
420
      255
176
     1
290
     0
176
     1
 90
       50
176
     1
 90
       50
176
     1
 90
       50
176
     1
290
     0
176
     1
 90
       50
176
     1
 62
   256
176
     0
 40
1.0
176
     0
 90
        2
176
     1
  1
strokes_ogs.tif
176
     1
290
     0
176
     1
 40
1.0
176
     1
 40
1.0
176
     1
  0
VISUALSTYLE
  5
2B
102
{ACAD_REACTORS
330
29
102
}
330
29
100
AcDbVisualStyle
  2
FlatWithEdges
 70
     1
177
     3
291
     1
 70
    58
 90
        2
176
     1
 90
        1
176
     1
 90
        1
176
     1
 90
        2
176
     1
 40
0.6
176
     1
 40
30.0
176
     1
 62
     7
420
 16777215
176
     1
 90
        1
176
     1
 90
        0
176
     1
 62
     7
176
     1
 62
   257
176
     1
 90
        1
176
     1
 90
        1
176
     1
 40
1.0
176
     1
 90
        0
176
     1
 62
   257
176
     1
 40
1.0
176
     1
 90
        1
176
     1
 90
        6
176
     1
 90
        2
176
     1
 62
     7
176
     1
 90
        5
176
     1
 90
        0
176
     1
 90
        0
176
     1
290
     0
176
     1
 90
       13
176
     1
 40
0.0
176
     1
 90
        0
176
     1
290
     0
176
     1
290
     1
176
     1
290
     1
176
     1
290
     0
176
     1
290
     0
176
     1
290
     0
176
     1
290
     0
176
     1
290
     0
176
     1
290
     0
176
     1
 90
       50
176
     1
 40
0.0
176
     1
 40
1.0
176
     1
 90
        0
176
     1
 62
    18
420
        0
176
     1
 90
       50
176
     1
 90
        3
176
     1
 62
     5
420
      255
176
     1
290
     0
176
     1
 90
       50
176
     1
 90
       50
176
     1
 90
       50
176
     1
290
     0
176
     1
 90
       50
176
     1
 62
   256
176
     0
 40
1.0
176
     0
 90
        2
176
     1
  1
strokes_ogs.tif
176
     1
290
     0
176
     1
 40
1.0
176
     1
 40
1.0
176
     1
  0
VISUALSTYLE
  5
2C
102
{ACAD_REACTORS
330
29
102
}
330
29
100
AcDbVisualStyle
  2
Gouraud
 70
     2
177
     3
291
     1
 70
    58
 90
        2
176
     1
 90
        2
176
     1
 90
        1
176
     1
 90
        2
176
     1
 40
0.6
176
     1
 40
30.0
176
     1
 62
     7
420
 16777215
176
     1
 90
        0
176
     1
 90
        0
176
     1
 62
     7
176
     1
 62
   257
176
     1
 90
        1
176
     1
 90
        1
176
     1
 40
1.0
176
     1
 90
        0
176
     1
 62
     7
176
     1
 40
1.0
176
     1
 90
        1
176
     1
 90
        6
176
     1
 90
        2
176
     1
 62
     7
176
     1
 90
        5
176
     1
 90
        0
176
     1
 90
        0
176
     1
290
     0
176
     1
 90
       13
176
     1
 40
0.0
176
     1
 90
        0
176
     1
290
     0
176
     1
290
     1
176
     1
290
     1
176
     1
290
     0
176
     1
290
     0
176
     1
290
     0
176
     1
290
     0
176
     1
290
     0
176
     1
290
     0
176
     1
 90
       50
176
     1
 40
0.0
176
     1
 40
1.0
176
     1
 90
        0
176
     1
 62
    18
420
        0
176
     1
 90
       50
176
     1
 90
        3
176
     1
 62
     5
420
      255
176
     1
290
     0
176
     1
 90
       50
176
     1
 90
       50
176
     1
 90
       50
176
     1
290
     0
176
     1
 90
       50
176
     1
 62
   256
176
     0
 40
1.0
176
     0
 90
        2
176
     1
  1
strokes_ogs.tif
176
     1
290
     0
176
     1
 40
1.0
176
     1
 40
1.0
176
     1
  0
VISUALSTYLE
  5
2D
102
{ACAD_REACTORS
330
29
102
}
330
29
100
AcDbVisualStyle
  2
GouraudWithEdges
 70
     3
177
     3
291
     1
 70
    58
 90
        2
176
     1
 90
        2
176
     1
 90
        1
176
     1
 90
        2
176
     1
 40
0.6
176
     1
 40
30.0
176
     1
 62
     7
420
 16777215
176
     1
 90
        1
176
     1
 90
        0
176
     1
 62
     7
176
     1
 62
   257
176
     1
 90
        1
176
     1
 90
        1
176
     1
 40
1.0
176
     1
 90
        0
176
     1
 62
   257
176
     1
 40
1.0
176
     1
 90
        1
176
     1
 90
        6
176
     1
 90
        2
176
     1
 62
     7
176
     1
 90
        5
176
     1
 90
        0
176
     1
 90
        0
176
     1
290
     0
176
     1
 90
       13
176
     1
 40
0.0
176
     1
 90
        0
176
     1
290
     0
176
     1
290
     1
176
     1
290
     1
176
     1
290
     0
176
     1
290
     0
176
     1
290
     0
176
     1
290
     0
176
     1
290
     0
176
     1
290
     0
176
     1
 90
       50
176
     1
 40
0.0
176
     1
 40
1.0
176
     1
 90
        0
176
     1
 62
    18
420
        0
176
     1
 90
       50
176
     1
 90
        3
176
     1
 62
     5
420
      255
176
     1
290
     0
176
     1
 90
       50
176
     1
 90
       50
176
     1
 90
       50
176
     1
290
     0
176
     1
 90
       50
176
     1
 62
   256
176
     0
 40
1.0
176
     0
 90
        2
176
     1
  1
strokes_ogs.tif
176
     1
290
     0
176
     1
 40
1.0
176
     1
 40
1.0
176
     1
  0
VISUALSTYLE
  5
31
102
{ACAD_REACTORS
330
29
102
}
330
29
100
AcDbVisualStyle
  2
Hidden
 70
     6
177
     3
291
     0
 70
    58
 90
        1
176
     1
 90
        2
176
     1
 90
        2
176
     1
 90
        0
176
     1
 40
0.6
176
     1
 40
30.0
176
     1
 62
     7
420
 16777215
176
     1
 90
        2
176
     1
 90
        2
176
     1
 62
     7
176
     1
 62
   257
176
     1
 90
        2
176
     1
 90
        1
176
     1
 40
40.0
176
     1
 90
        0
176
     1
 62
   257
176
     1
 40
1.0
176
     1
 90
        1
176
     1
 90
        6
176
     1
 90
        2
176
     1
 62
     7
176
     1
 90
        3
176
     1
 90
        0
176
     1
 90
        0
176
     1
290
     0
176
     1
 90
        1
176
     1
 40
0.0
176
     1
 90
        0
176
     1
290
     0
176
     1
290
     1
176
     1
290
     1
176
     1
290
     0
176
     1
290
     0
176
     1
290
     0
176
     1
290
     0
176
     1
290
     0
176
     1
290
     0
176
     1
 90
       50
176
     1
 40
0.0
176
     1
 40
1.0
176
     1
 90
        0
176
     1
 62
    18
420
        0
176
     1
 90
       50
176
     1
 90
        3
176
     1
 62
     5
420
      255
176
     1
290
     0
176
     1
 90
       50
176
     1
 90
       50
176
     1
 90
       50
176
     1
290
     0
176
     1
 90
       50
176
     1
 62
   256
176
     0
 40
1.0
176
     0
 90
        2
176
     1
  1
strokes_ogs.tif
176
     1
290
     0
176
     1
 40
1.0
176
     1
 40
1.0
176
     1
  0
VISUALSTYLE
  5
3F
102
{ACAD_REACTORS
330
29
102
}
330
29
100
AcDbVisualStyle
  2
JitterOff
 70
    20
177
     3
291
     1
 70
    58
 90
        2
176
     0
 90
        2
176
     0
 90
        0
176
     0
 90
        0
176
     0
 40
0.6
176
     0
 40
30.0
176
     0
 62
     7
420
 16777215
176
     0
 90
        1
176
     0
 90
        4
176
     0
 62
     7
176
     0
 62
   257
176
     0
 90
        1
176
     0
 90
        1
176
     0
 40
1.0
176
     0
 90
       10
176
     2
 62
     7
176
     0
 40
1.0
176
     0
 90
        1
176
     0
 90
        6
176
     0
 90
        2
176
     0
 62
     7
176
     0
 90
        5
176
     0
 90
        0
176
     0
 90
        0
176
     0
290
     0
176
     0
 90
        1
176
     0
 40
0.0
176
     0
 90
        0
176
     0
290
     0
176
     0
290
     1
176
     0
290
     1
176
     0
290
     0
176
     0
290
     0
176
     0
290
     0
176
     0
290
     0
176
     0
290
     0
176
     0
290
     0
176
     0
 90
       50
176
     0
 40
0.0
176
     0
 40
1.0
176
     0
 90
        0
176
     0
 62
    18
420
        0
176
     0
 90
       50
176
     0
 90
        3
176
     0
 62
     5
420
      255
176
     0
290
     0
176
     0
 90
       50
176
     0
 90
       50
176
     0
 90
       50
176
     0
290
     0
176
     0
 90
       50
176
     0
 62
   256
176
     0
 40
1.0
176
     0
 90
        2
176
     0
  1
strokes_ogs.tif
176
     0
290
     0
176
     0
 40
1.0
176
     0
 40
1.0
176
     0
  0
VISUALSTYLE
  5
37
102
{ACAD_REACTORS
330
29
102
}
330
29
100
AcDbVisualStyle
  2
Linepattern
 70
    14
177
     3
291
     1
 70
    58
 90
        2
176
     1
 90
        2
176
     1
 90
        0
176
     1
 90
        0
176
     1
 40
0.6
176
     1
 40
30.0
176
     1
 62
     7
420
 16777215
176
     1
 90
        1
176
     1
 90
        4
176
     1
 62
     7
176
     1
 62
   257
176
     1
 90
        7
176
     1
 90
        7
176
     1
 40
1.0
176
     1
 90
        8
176
     1
 62
     7
176
     1
 40
1.0
176
     1
 90
        1
176
     1
 90
        6
176
     1
 90
        2
176
     1
 62
     7
176
     1
 90
        5
176
     1
 90
        0
176
     1
 90
        0
176
     1
290
     0
176
     1
 90
        1
176
     1
 40
0.0
176
     1
 90
        0
176
     1
290
     0
176
     1
290
     1
176
     1
290
     1
176
     1
290
     0
176
     1
290
     0
176
     1
290
     0
176
     1
290
     0
176
     1
290
     0
176
     1
290
     0
176
     1
 90
       50
176
     1
 40
0.0
176
     1
 40
1.0
176
     1
 90
        0
176
     1
 62
    18
420
        0
176
     1
 90
       50
176
     1
 90
        3
176
     1
 62
     5
420
      255
176
     1
290
     0
176
     1
 90
       50
176
     1
 90
       50
176
     1
 90
       50
176
     1
290
     0
176
     1
 90
       50
176
     1
 62
   256
176
     0
 40
1.0
176
     0
 90
        2
176
     1
  1
strokes_ogs.tif
176
     1
290
     0
176
     1
 40
1.0
176
     1
 40
1.0
176
     1
  0
VISUALSTYLE
  5
40
102
{ACAD_REACTORS
330
29
102
}
330
29
100
AcDbVisualStyle
  2
OverhangOff
 70
    21
177
     3
291
     1
 70
    58
 90
        2
176
     0
 90
        2
176
     0
 90
        0
176
     0
 90
        0
176
     0
 40
0.6
176
     0
 40
30.0
176
     0
 62
     7
420
 16777215
176
     0
 90
        1
176
     0
 90
        4
176
     0
 62
     7
176
     0
 62
   257
176
     0
 90
        1
176
     0
 90
        1
176
     0
 40
1.0
176
     0
 90
        9
176
     2
 62
     7
176
     0
 40
1.0
176
     0
 90
        1
176
     0
 90
        6
176
     0
 90
        2
176
     0
 62
     7
176
     0
 90
        5
176
     0
 90
        0
176
     0
 90
        0
176
     0
290
     0
176
     0
 90
        1
176
     0
 40
0.0
176
     0
 90
        0
176
     0
290
     0
176
     0
290
     1
176
     0
290
     1
176
     0
290
     0
176
     0
290
     0
176
     0
290
     0
176
     0
290
     0
176
     0
290
     0
176
     0
290
     0
176
     0
 90
       50
176
     0
 40
0.0
176
     0
 40
1.0
176
     0
 90
        0
176
     0
 62
    18
420
        0
176
     0
 90
       50
176
     0
 90
        3
176
     0
 62
     5
420
      255
176
     0
290
     0
176
     0
 90
       50
176
     0
 90
       50
176
     0
 90
       50
176
     0
290
     0
176
     0
 90
       50
176
     0
 62
   256
176
     0
 40
1.0
176
     0
 90
        2
176
     0
  1
strokes_ogs.tif
176
     0
290
     0
176
     0
 40
1.0
176
     0
 40
1.0
176
     0
  0
VISUALSTYLE
  5
33
102
{ACAD_REACTORS
330
29
102
}
330
29
100
AcDbVisualStyle
  2
Realistic
 70
     8
177
     3
291
     0
 70
    58
 90
        2
176
     1
 90
        3
176
     1
 90
        0
176
     1
 90
        2
176
     1
 40
0.6
176
     1
 40
30.0
176
     1
 62
     7
420
 16777215
176
     1
 90
        0
176
     1
 90
        0
176
     1
 62
     7
176
     1
 62
   257
176
     1
 90
        1
176
     1
 90
        1
176
     1
 40
1.0
176
     1
 90
        8
176
     1
 62
   257
176
     1
 40
1.0
176
     1
 90
        1
176
     1
 90
        6
176
     1
 90
        2
176
     1
 62
     7
176
     1
 90
        3
176
     1
 90
        0
176
     1
 90
        0
176
     1
290
     0
176
     1
 90
       13
176
     1
 40
0.0
176
     1
 90
        0
176
     1
290
     0
176
     1
290
     1
176
     1
290
     1
176
     1
290
     0
176
     1
290
     0
176
     1
290
     0
176
     1
290
     0
176
     1
290
     0
176
     1
290
     0
176
     1
 90
       50
176
     1
 40
0.0
176
     1
 40
1.0
176
     1
 90
        0
176
     1
 62
    18
420
        0
176
     1
 90
       50
176
     1
 90
        3
176
     1
 62
     5
420
      255
176
     1
290
     0
176
     1
 90
       50
176
     1
 90
       50
176
     1
 90
       50
176
     1
290
     0
176
     1
 90
       50
176
     1
 62
   256
176
     0
 40
1.0
176
     0
 90
        2
176
     1
  1
strokes_ogs.tif
176
     1
290
     0
176
     1
 40
1.0
176
     1
 40
1.0
176
     1
  0
VISUALSTYLE
  5
3E
102
{ACAD_REACTORS
330
29
102
}
330
29
100
AcDbVisualStyle
  2
Shaded
 70
    27
177
     3
291
     0
 70
    58
 90
        2
176
     1
 90
        2
176
     1
 90
        1
176
     1
 90
        2
176
     1
 40
0.6
176
     1
 40
30.0
176
     1
 62
     7
420
 16777215
176
     1
 90
        0
176
     1
 90
        4
176
     1
 62
     7
176
     1
 62
   257
176
     1
 90
        1
176
     1
 90
        1
176
     1
 40
1.0
176
     1
 90
        8
176
     1
 62
   257
176
     1
 40
1.0
176
     1
 90
        1
176
     1
 90
        6
176
     1
 90
        2
176
     1
 62
     8
420
  7895160
176
     1
 90
        3
176
     1
 90
        0
176
     1
 90
        0
176
     1
290
     0
176
     1
 90
        5
176
     1
 40
0.0
176
     1
 90
        0
176
     1
290
     0
176
     1
290
     1
176
     1
290
     1
176
     1
290
     0
176
     1
290
     0
176
     1
290
     0
176
     1
290
     0
176
     1
290
     0
176
     1
290
     0
176
     1
 90
       50
176
     1
 40
0.0
176
     1
 40
1.0
176
     1
 90
        0
176
     1
 62
    18
420
        0
176
     1
 90
       50
176
     1
 90
        3
176
     1
 62
     5
420
      255
176
     1
290
     0
176
     1
 90
       50
176
     1
 90
       50
176
     1
 90
       50
176
     1
290
     0
176
     1
 90
       50
176
     1
 62
   256
176
     0
 40
1.0
176
     0
 90
        2
176
     1
  1
strokes_ogs.tif
176
     1
290
     0
176
     1
 40
1.0
176
     1
 40
1.0
176
     1
  0
VISUALSTYLE
  5
3D
102
{ACAD_REACTORS
330
29
102
}
330
29
100
AcDbVisualStyle
  2
Shaded with edges
 70
    26
177
     3
291
     0
 70
    58
 90
        2
176
     1
 90
        2
176
     1
 90
        1
176
     1
 90
        2
176
     1
 40
0.6
176
     1
 40
30.0
176
     1
 62
     7
420
 16777215
176
     1
 90
        1
176
     1
 90
        2
176
     1
 62
     7
176
     1
 62
   257
176
     1
 90
        2
176
     1
 90
        1
176
     1
 40
1.0
176
     1
 90
        8
176
     1
 62
   257
176
     1
 40
1.0
176
     1
 90
        1
176
     1
 90
        6
176
     1
 90
        2
176
     1
 62
     7
176
     1
 90
        3
176
     1
 90
        0
176
     1
 90
        0
176
     1
290
     0
176
     1
 90
        5
176
     1
 40
0.0
176
     1
 90
        0
176
     1
290
     0
176
     1
290
     1
176
     1
290
     1
176
     1
290
     0
176
     1
290
     0
176
     1
290
     0
176
     1
290
     0
176
     1
290
     0
176
     1
290
     0
176
     1
 90
       50
176
     1
 40
0.0
176
     1
 40
1.0
176
     1
 90
        0
176
     1
 62
    18
420
        0
176
     1
 90
       50
176
     1
 90
        3
176
     1
 62
     5
420
      255
176
     1
290
     0
176
     1
 90
       50
176
     1
 90
       50
176
     1
 90
       50
176
     1
290
     0
176
     1
 90
       50
176
     1
 62
   256
176
     0
 40
1.0
176
     0
 90
        2
176
     1
  1
strokes_ogs.tif
176
     1
290
     0
176
     1
 40
1.0
176
     1
 40
1.0
176
     1
  0
VISUALSTYLE
  5
3A
102
{ACAD_REACTORS
330
29
102
}
330
29
100
AcDbVisualStyle
  2
Shades of Gray
 70
    23
177
     3
291
     0
 70
    58
 90
        2
176
     1
 90
        2
176
     1
 90
        3
176
     1
 90
        0
176
     1
 40
0.6
176
     1
 40
30.0
176
     1
 62
     7
420
 16777215
176
     1
 90
        2
176
     1
 90
        2
176
     1
 62
     7
176
     1
 62
     7
176
     1
 90
        1
176
     1
 90
        1
176
     1
 40
40.0
176
     1
 90
        8
176
     1
 62
     7
176
     1
 40
1.0
176
     1
 90
        1
176
     1
 90
        6
176
     1
 90
        2
176
     1
 62
     7
176
     1
 90
        3
176
     1
 90
        0
176
     1
 90
        0
176
     1
290
     0
176
     1
 90
        1
176
     1
 40
0.0
176
     1
 90
        0
176
     1
290
     0
176
     1
290
     1
176
     1
290
     1
176
     1
290
     0
176
     1
290
     0
176
     1
290
     0
176
     1
290
     0
176
     1
290
     0
176
     1
290
     0
176
     1
 90
       50
176
     1
 40
0.0
176
     1
 40
1.0
176
     1
 90
        0
176
     1
 62
    18
420
        0
176
     1
 90
       50
176
     1
 90
        3
176
     1
 62
     5
420
      255
176
     1
290
     0
176
     1
 90
       50
176
     1
 90
       50
176
     1
 90
       50
176
     1
290
     0
176
     1
 90
       50
176
     1
 62
   256
176
     0
 40
1.0
176
     0
 90
        2
176
     1
  1
strokes_ogs.tif
176
     1
290
     0
176
     1
 40
1.0
176
     1
 40
1.0
176
     1
  0
VISUALSTYLE
  5
3B
102
{ACAD_REACTORS
330
29
102
}
330
29
100
AcDbVisualStyle
  2
Sketchy
 70
    24
177
     3
291
     0
 70
    58
 90
        1
176
     1
 90
        2
176
     1
 90
        2
176
     1
 90
        0
176
     1
 40
0.6
176
     1
 40
30.0
176
     1
 62
     7
420
 16777215
176
     1
 90
        2
176
     1
 90
        2
176
     1
 62
     7
176
     1
 62
     7
176
     1
 90
        1
176
     1
 90
        1
176
     1
 40
40.0
176
     1
 90
       11
176
     1
 62
     7
176
     1
 40
1.0
176
     1
 90
        1
176
     1
 90
        6
176
     1
 90
        2
176
     1
 62
     7
176
     1
 90
        6
176
     1
 90
        0
176
     1
 90
        0
176
     1
290
     0
176
     1
 90
        1
176
     1
 40
0.0
176
     1
 90
        0
176
     1
290
     0
176
     1
290
     1
176
     1
290
     1
176
     1
290
     0
176
     1
290
     0
176
     1
290
     0
176
     1
290
     0
176
     1
290
     0
176
     1
290
     0
176
     1
 90
       50
176
     1
 40
0.0
176
     1
 40
1.0
176
     1
 90
        0
176
     1
 62
    18
420
        0
176
     1
 90
       50
176
     1
 90
        3
176
     1
 62
     5
420
      255
176
     1
290
     0
176
     1
 90
       50
176
     1
 90
       50
176
     1
 90
       50
176
     1
290
     0
176
     1
 90
       50
176
     1
 62
   256
176
     0
 40
1.0
176
     0
 90
        2
176
     1
  1
strokes_ogs.tif
176
     1
290
     0
176
     1
 40
1.0
176
     1
 40
1.0
176
     1
  0
VISUALSTYLE
  5
36
102
{ACAD_REACTORS
330
29
102
}
330
29
100
AcDbVisualStyle
  2
Thicken
 70
    13
177
     3
291
     1
 70
    58
 90
        2
176
     1
 90
        2
176
     1
 90
        0
176
     1
 90
        0
176
     1
 40
0.6
176
     1
 40
30.0
176
     1
 62
     7
420
 16777215
176
     1
 90
        1
176
     1
 90
        4
176
     1
 62
     7
176
     1
 62
   257
176
     1
 90
        1
176
     1
 90
        1
176
     1
 40
1.0
176
     1
 90
       12
176
     1
 62
     7
176
     1
 40
1.0
176
     1
 90
        1
176
     1
 90
        6
176
     1
 90
        2
176
     1
 62
     7
176
     1
 90
        5
176
     1
 90
        0
176
     1
 90
        0
176
     1
290
     0
176
     1
 90
        1
176
     1
 40
0.0
176
     1
 90
        0
176
     1
290
     0
176
     1
290
     1
176
     1
290
     1
176
     1
290
     0
176
     1
290
     0
176
     1
290
     0
176
     1
290
     0
176
     1
290
     0
176
     1
290
     0
176
     1
 90
       50
176
     1
 40
0.0
176
     1
 40
1.0
176
     1
 90
        0
176
     1
 62
    18
420
        0
176
     1
 90
       50
176
     1
 90
        3
176
     1
 62
     5
420
      255
176
     1
290
     0
176
     1
 90
       50
176
     1
 90
       50
176
     1
 90
       50
176
     1
290
     0
176
     1
 90
       50
176
     1
 62
   256
176
     0
 40
1.0
176
     0
 90
        2
176
     1
  1
strokes_ogs.tif
176
     1
290
     0
176
     1
 40
1.0
176
     1
 40
1.0
176
     1
  0
VISUALSTYLE
  5
30
102
{ACAD_REACTORS
330
29
102
}
330
29
100
AcDbVisualStyle
  2
Wireframe
 70
     5
177
     3
291
     0
 70
    58
 90
        0
176
     1
 90
        2
176
     1
 90
        0
176
     1
 90
        0
176
     1
 40
0.6
176
     1
 40
30.0
176
     1
 62
     7
420
 16777215
176
     1
 90
        1
176
     1
 90
        4
176
     1
 62
     7
176
     1
 62
   257
176
     1
 90
        1
176
     1
 90
        1
176
     1
 40
1.0
176
     1
 90
        0
176
     1
 62
   257
176
     1
 40
1.0
176
     1
 90
        1
176
     1
 90
        6
176
     1
 90
        2
176
     1
 62
     7
176
     1
 90
        3
176
     1
 90
        0
176
     1
 90
        0
176
     1
290
     0
176
     1
 90
        1
176
     1
 40
0.0
176
     1
 90
        0
176
     1
290
     0
176
     1
290
     1
176
     1
290
     1
176
     1
290
     0
176
     1
290
     0
176
     1
290
     0
176
     1
290
     0
176
     1
290
     0
176
     1
290
     0
176
     1
 90
       50
176
     1
 40
0.0
176
     1
 40
1.0
176
     1
 90
        0
176
     1
 62
    18
420
        0
176
     1
 90
       50
176
     1
 90
        3
176
     1
 62
     5
420
      255
176
     1
290
     0
176
     1
 90
       50
176
     1
 90
       50
176
     1
 90
       50
176
     1
290
     0
176
     1
 90
       50
176
     1
 62
   256
176
     0
 40
1.0
176
     0
 90
        2
176
     1
  1
strokes_ogs.tif
176
     1
290
     0
176
     1
 40
1.0
176
     1
 40
1.0
176
     1
  0
VISUALSTYLE
  5
3C
102
{ACAD_REACTORS
330
29
102
}
330
29
100
AcDbVisualStyle
  2
X-Ray
 70
    25
177
     3
291
     0
 70
    58
 90
        2
176
     1
 90
        2
176
     1
 90
        1
176
     1
 90
        1
176
     1
 40
0.5
176
     1
 40
30.0
176
     1
 62
     7
420
 16777215
176
     1
 90
        1
176
     1
 90
        0
176
     1
 62
     7
176
     1
 62
   257
176
     1
 90
        1
176
     1
 90
        1
176
     1
 40
1.0
176
     1
 90
        8
176
     1
 62
     7
176
     1
 40
1.0
176
     1
 90
        1
176
     1
 90
        6
176
     1
 90
        2
176
     1
 62
     7
176
     1
 90
        3
176
     1
 90
        0
176
     1
 90
        0
176
     1
290
     0
176
     1
 90
       13
176
     1
 40
0.0
176
     1
 90
        0
176
     1
290
     0
176
     1
290
     1
176
     1
290
     1
176
     1
290
     0
176
     1
290
     0
176
     1
290
     0
176
     1
290
     0
176
     1
290
     0
176
     1
290
     0
176
     1
 90
       50
176
     1
 40
0.0
176
     1
 40
1.0
176
     1
 90
        0
176
     1
 62
    18
420
        0
176
     1
 90
       50
176
     1
 90
        3
176
     1
 62
     5
420
      255
176
     1
290
     0
176
     1
 90
       50
176
     1
 90
       50
176
     1
 90
       50
176
     1
290
     0
176
     1
 90
       50
176
     1
 62
   256
176
     0
 40
1.0
176
     0
 90
        2
176
     1
  1
strokes_ogs.tif
176
     1
290
     0
176
     1
 40
1.0
176
     1
 40
1.0
176
     1
  0
DICTIONARYVAR
  5
92
102
{ACAD_REACTORS
330
8D
102
}
330
8D
100
DictionaryVariables
280
     0
  1
1:1
  0
DICTIONARYVAR
  5
8F
102
{ACAD_REACTORS
330
8D
102
}
330
8D
100
DictionaryVariables
280
     0
  1
STANDARD
  0
DICTIONARYVAR
  5
8E
102
{ACAD_REACTORS
330
8D
102
}
330
8D
100
DictionaryVariables
280
     0
  1
STANDARD
  0
DICTIONARYVAR
  5
90
102
{ACAD_REACTORS
330
8D
102
}
330
8D
100
DictionaryVariables
280
     0
  1
Imperial24
  0
DICTIONARYVAR
  5
91
102
{ACAD_REACTORS
330
8D
102
}
330
8D
100
DictionaryVariables
280
     0
  1
Imperial24
  0
DICTIONARY
  5
1A
330
19
100
AcDbDictionary
280
     1
281
     1
  3
BUMPTILE
360
1C
  3
DIFFUSETILE
360
1B
  3
OPACITYTILE
360
1F
  3
REFLECTIONTILE
360
1E
  3
REFRACTIONTILE
360
20
  3
SPECULARTILE
360
1D
  0
DICTIONARY
  5
12
330
11
100
AcDbDictionary
280
     1
281
     1
  3
BUMPTILE
360
14
  3
DIFFUSETILE
360
13
  3
OPACITYTILE
360
17
  3
REFLECTIONTILE
360
16
  3
REFRACTIONTILE
360
18
  3
SPECULARTILE
360
15
  0
DICTIONARY
  5
22
330
21
100
AcDbDictionary
280
     1
281
     1
  3
BUMPTILE
360
24
  3
DIFFUSETILE
360
23
  3
OPACITYTILE
360
27
  3
REFLECTIONTILE
360
26
  3
REFRACTIONTILE
360
28
  3
SPECULARTILE
360
25
  0
DICTIONARY
  5
93
330
65
100
AcDbDictionary
280
     1
281
     1
  3
ACAD_ROUNDTRIP_2008_TABLESTYLE_CELLSTYLEMAP
360
94
  0
XRECORD
  5
1C
102
{ACAD_REACTORS
330
1A
102
}
330
1A
100
AcDbXrecord
280
     1
270
     1
271
     1
  0
XRECORD
  5
1B
102
{ACAD_REACTORS
330
1A
102
}
330
1A
100
AcDbXrecord
280
     1
270
     1
271
     1
  0
XRECORD
  5
1F
102
{ACAD_REACTORS
330
1A
102
}
330
1A
100
AcDbXrecord
280
     1
270
     1
271
     1
  0
XRECORD
  5
1E
102
{ACAD_REACTORS
330
1A
102
}
330
1A
100
AcDbXrecord
280
     1
270
     1
271
     1
  0
XRECORD
  5
20
102
{ACAD_REACTORS
330
1A
102
}
330
1A
100
AcDbXrecord
280
     1
270
     1
271
     1
  0
XRECORD
  5
1D
102
{ACAD_REACTORS
330
1A
102
}
330
1A
100
AcDbXrecord
280
     1
270
     1
271
     1
  0
XRECORD
  5
14
102
{ACAD_REACTORS
330
12
102
}
330
12
100
AcDbXrecord
280
     1
270
     1
271
     1
  0
XRECORD
  5
13
102
{ACAD_REACTORS
330
12
102
}
330
12
100
AcDbXrecord
280
     1
270
     1
271
     1
  0
XRECORD
  5
17
102
{ACAD_REACTORS
330
12
102
}
330
12
100
AcDbXrecord
280
     1
270
     1
271
     1
  0
XRECORD
  5
16
102
{ACAD_REACTORS
330
12
102
}
330
12
100
AcDbXrecord
280
     1
270
     1
271
     1
  0
XRECORD
  5
18
102
{ACAD_REACTORS
330
12
102
}
330
12
100
AcDbXrecord
280
     1
270
     1
271
     1
  0
XRECORD
  5
15
102
{ACAD_REACTORS
330
12
102
}
330
12
100
AcDbXrecord
280
     1
270
     1
271
     1
  0
XRECORD
  5
24
102
{ACAD_REACTORS
330
22
102
}
330
22
100
AcDbXrecord
280
     1
270
     1
271
     1
  0
XRECORD
  5
23
102
{ACAD_REACTORS
330
22
102
}
330
22
100
AcDbXrecord
280
     1
270
     1
271
     1
  0
XRECORD
  5
27
102
{ACAD_REACTORS
330
22
102
}
330
22
100
AcDbXrecord
280
     1
270
     1
271
     1
  0
XRECORD
  5
26
102
{ACAD_REACTORS
330
22
102
}
330
22
100
AcDbXrecord
280
     1
270
     1
271
     1
  0
XRECORD
  5
28
102
{ACAD_REACTORS
330
22
102
}
330
22
100
AcDbXrecord
280
     1
270
     1
271
     1
  0
XRECORD
  5
25
102
{ACAD_REACTORS
330
22
102
}
330
22
100
AcDbXrecord
280
     1
270
     1
271
     1
  0
CELLSTYLEMAP
  5
94
102
{ACAD_REACTORS
330
93
102
}
330
93
100
AcDbCellStyleMap
 90
        3
300
CELLSTYLE
  1
TABLEFORMAT_BEGIN
 90
        5
170
     1
 91
        0
 92
    32768
 62
   257
 93
        1
300
CONTENTFORMAT
  1
CONTENTFORMAT_BEGIN
 90
        0
 91
        0
 92
      512
 93
        0
300

 40
0.0
140
1.0
 94
        5
 62
     0
340
55
144
0.25
309
CONTENTFORMAT_END
171
     0
 94
        0
309
TABLEFORMAT_END
  1
CELLSTYLE_BEGIN
 90
        1
 91
        1
300
_TITLE
309
CELLSTYLE_END
300
CELLSTYLE
  1
TABLEFORMAT_BEGIN
 90
        5
170
     1
 91
        0
 92
        0
 62
   257
 93
        1
300
CONTENTFORMAT
  1
CONTENTFORMAT_BEGIN
 90
        0
 91
        0
 92
      512
 93
        0
300

 40
0.0
140
1.0
 94
        5
 62
     0
340
55
144
0.18
309
CONTENTFORMAT_END
171
     0
 94
        0
309
TABLEFORMAT_END
  1
CELLSTYLE_BEGIN
 90
        2
 91
        1
300
_HEADER
309
CELLSTYLE_END
300
CELLSTYLE
  1
TABLEFORMAT_BEGIN
 90
        5
170
     1
 91
        0
 92
        0
 62
   257
 93
        1
300
CONTENTFORMAT
  1
CONTENTFORMAT_BEGIN
 90
        0
 91
        0
 92
      512
 93
        0
300

 40
0.0
140
1.0
 94
        2
 62
     0
340
55
144
0.18
309
CONTENTFORMAT_END
171
     0
 94
        0
309
TABLEFORMAT_END
  1
CELLSTYLE_BEGIN
 90
        3
 91
        2
300
_DATA
309
CELLSTYLE_END
  0
ENDSEC
  0
EOF
