0
SECTION
2
HEADER
9
$INSUNITS
70
4
9
$ACADVER
1
AC1014
9
$HANDSEED
5
FFFF
0
ENDSEC
0
SECTION
2
TABLES
0
TABLE
2
VPORT
5
8
100
AcDbSymbolTable
0
ENDTAB
0
TABLE
2
LTYPE
5
5
100
AcDbSymbolTable
0
LTYPE
5
14
100
AcDbSymbolTableRecord
100
AcDbLinetypeTableRecord
2
BYBLOCK
70
0
0
LTYPE
5
15
100
AcDbSymbolTableRecord
100
AcDbLinetypeTableRecord
2
BYLAYER
70
0
0
ENDTAB
0
TABLE
2
LAYER
5
2
100
AcDbSymbolTable
70
2
0
LAYER
5
50
100
AcDbSymbolTableRecord
100
AcDbLayerTableRecord
2
0
70
0
6
CONTINUOUS
0
ENDTAB
0
TABLE
2
STYLE
5
3
100
AcDbSymbolTable
70
1
0
STYLE
5
11
100
AcDbSymbolTableRecord
100
AcDbTextStyleTableRecord
2
STANDARD
70
0
0
ENDTAB
0
TABLE
2
VIEW
5
6
100
AcDbSymbolTable
70
0
0
ENDTAB
0
TABLE
2
UCS
5
7
100
AcDbSymbolTable
70
0
0
ENDTAB
0
TABLE
2
APPID
5
9
100
AcDbSymbolTable
70
2
0
APPID
5
12
100
AcDbSymbolTableRecord
100
AcDbRegAppTableRecord
2
ACAD
70
0
0
ENDTAB
0
TABLE
2
DIMSTYLE
5
A
100
AcDbSymbolTable
70
1
0
ENDTAB
0
TABLE
2
BLOCK_RECORD
5
1
100
AcDbSymbolTable
70
1
0
BLOCK_RECORD
5
1F
100
AcDbSymbolTableRecord
100
AcDbBlockTableRecord
2
*MODEL_SPACE
0
BLOCK_RECORD
5
1B
100
AcDbSymbolTableRecord
100
AcDbBlockTableRecord
2
*PAPER_SPACE
0
ENDTAB
0
ENDSEC
0
SECTION
2
BLOCKS
0
BLOCK
5
20
100
AcDbEntity
100
AcDbBlockBegin
2
*MODEL_SPACE
0
ENDBLK
5
21
100
AcDbEntity
100
AcDbBlockEnd
0
BLOCK
5
1C
100
AcDbEntity
100
AcDbBlockBegin
2
*PAPER_SPACE
0
ENDBLK
5
1D
100
AcDbEntity
100
AcDbBlockEnd
0
ENDSEC
0
SECTION
2
ENTITIES
0
SPLINE
5
100
100
AcDbEntity
8
0
100
AcDbSpline
70
0
71
3
72
8
73
4
74
0
42
0.000000001
43
0.0000000001
44
0.0000000001
40
0
40
0
40
0
40
0
40
1
40
1
40
1
40
1
10
80.819184027777766
20
-7.5639386071099155
30
0
10
80.787101576063691
20
-7.4382572174072266
30
0
10
80.755363633897559
20
-7.3135878245035801
30
0
10
80.722139994303376
20
-7.1844828711615669
30
0
0
SPLINE
5
101
100
AcDbEntity
8
0
100
AcDbSpline
70
0
71
3
72
8
73
4
74
0
42
0.000000001
43
0.0000000001
44
0.0000000001
40
1
40
1
40
1
40
1
40
2
40
2
40
2
40
2
10
80.722139994303376
20
-7.1844828711615669
30
0
10
80.745286729600679
20
-7.3234063466389969
30
0
10
80.77993147108289
20
-7.4469776153564435
30
0
10
80.819184027777766
20
-7.5639386071099155
30
0
0
SPLINE
5
102
100
AcDbEntity
8
0
100
AcDbSpline
70
0
71
3
72
8
73
4
74
0
42
0.000000001
43
0.0000000001
44
0.0000000001
40
0
40
0
40
0
40
0
40
1
40
1
40
1
40
1
10
82.795376925998241
20
-8.8607802073160791
30
0
10
82.829634094238287
20
-8.8598758697509776
30
0
10
82.852580204707721
20
-8.8584363665660941
30
0
10
82.852630106608061
20
-8.8584332360161664
30
0
0
SPLINE
5
103
100
AcDbEntity
8
0
100
AcDbSpline
70
0
71
3
72
8
73
4
74
0
42
0.000000001
43
0.0000000001
44
0.0000000001
40
1
40
1
40
1
40
1
40
2
40
2
40
2
40
2
10
82.852630106608061
20
-8.8584332360161664
30
0
10
82.852580106625112
20
-8.8584332773043446
30
0
10
82.826555040147554
20
-8.8584547678629537
30
0
10
82.795376925998241
20
-8.8607802073160791
30
0
0
SPLINE
5
104
100
AcDbEntity
8
0
100
AcDbSpline
70
0
71
3
72
8
73
4
74
0
42
0.000000001
43
0.0000000001
44
0.0000000001
40
0
40
0
40
0
40
0
40
1
40
1
40
1
40
1
10
100.48942174829133
20
-40.575635065287258
30
0
10
100.4970116809544
20
-40.439649549040823
30
0
10
100.5046267918552
20
-40.304786231485039
30
0
10
100.51215585977666
20
-40.165012013512055
30
0
0
SPLINE
5
105
100
AcDbEntity
8
0
100
AcDbSpline
70
0
71
3
72
8
73
4
74
0
42
0.000000001
43
0.0000000001
44
0.0000000001
40
1
40
1
40
1
40
1
40
2
40
2
40
2
40
2
10
100.51215585977666
20
-40.165012013512055
30
0
10
100.49143394856318
20
-40.311433476716886
30
0
10
100.48707648374177
20
-40.446115754738301
30
0
10
100.48942174829133
20
-40.575635065287258
30
0
0
SPLINE
5
106
100
AcDbEntity
8
0
100
AcDbSpline
70
0
71
3
72
8
73
4
74
0
42
0.000000001
43
0.0000000001
44
0.0000000001
40
0
40
0
40
0
40
0
40
1
40
1
40
1
40
1
10
102.05843127772076
20
-42.498660570976455
30
0
10
102.09301951481494
20
-42.508580163996072
30
0
10
102.116453273041
20
-42.514390236847632
30
0
10
102.11650180364288
20
-42.514402269332116
30
0
0
SPLINE
5
107
100
AcDbEntity
8
0
100
AcDbSpline
70
0
71
3
72
8
73
4
74
0
42
0.000000001
43
0.0000000001
44
0.0000000001
40
1
40
1
40
1
40
1
40
2
40
2
40
2
40
2
10
102.11650180364288
20
-42.514402269332116
30
0
10
102.11645410921423
20
-42.514387261285044
30
0
10
102.09038545141192
20
-42.506184214207806
30
0
10
102.05843127772076
20
-42.498660570976455
30
0
0
SPLINE
5
108
100
AcDbEntity
8
0
100
AcDbSpline
70
0
71
3
72
17
73
13
74
0
42
0.000000001
43
0.0000000001
44
0.0000000001
40
0
40
0
40
0
40
0
40
1
40
1
40
1
40
2
40
2
40
2
40
3
40
3
40
3
40
4
40
4
40
4
40
4
10
186.43027365978853
20
-43.153394806257793
30
0
10
179.74888122607956
20
-41.044890141357811
30
0
10
172.68442700355456
20
-44.558122132805131
30
0
10
170.65137163318218
20
-51.000432171308063
30
0
10
168.6183162628098
20
-57.4427422098113
30
0
10
172.38653648055416
20
-64.374558458425611
30
0
10
179.06792891426304
20
-66.483063123325891
30
0
10
185.74932134797197
20
-68.591567788226172
30
0
10
192.81378237447299
20
-65.078314236457629
30
0
10
194.84683774484537
20
-58.636004197954712
30
0
10
196.87989311521716
20
-52.193694159451468
30
0
10
193.11166609349743
20
-45.261899471158074
30
0
10
186.43027365978853
20
-43.153394806257793
30
0
0
SPLINE
5
109
100
AcDbEntity
8
0
100
AcDbSpline
70
0
71
3
72
8
73
4
74
0
42
0.000000001
43
0.0000000001
44
0.0000000001
40
0
40
0
40
0
40
0
40
1
40
1
40
1
40
1
10
206.90425676044438
20
-60.170433761331367
30
0
10
201.49043885072268
20
-56.618856444698586
30
0
10
195.0156717088347
20
-40.501067991882103
30
0
10
195.01565307070237
20
-40.50102159554578
30
0
0
LINE
5
110
100
AcDbEntity
8
0
100
AcDbLine
10
195.01565307070237
20
-40.50102159554578
30
0
11
191.9118874366257
21
-39.186434309301838
31
0
0
SPLINE
5
111
100
AcDbEntity
8
0
100
AcDbSpline
70
0
71
3
72
8
73
4
74
0
42
0.000000001
43
0.0000000001
44
0.0000000001
40
2
40
2
40
2
40
2
40
3
40
3
40
3
40
3
10
191.9118874366257
20
-39.186434309301838
30
0
10
192.64942972884978
20
-37.911199543559555
30
0
10
192.63320468789999
20
-36.900788376955248
30
0
10
192.63320388511048
20
-36.90073838340038
30
0
0
SPLINE
5
112
100
AcDbEntity
8
0
100
AcDbSpline
70
0
71
3
72
8
73
4
74
0
42
0.000000001
43
0.0000000001
44
0.0000000001
40
3
40
3
40
3
40
3
40
4
40
4
40
4
40
4
10
192.63320388511048
20
-36.90073838340038
30
0
10
191.23677529425035
20
-35.977868541160532
30
0
10
189.83816670229976
20
-35.100895992968269
30
0
10
188.45122384903198
20
-34.265536915511888
30
0
0
SPLINE
5
113
100
AcDbEntity
8
0
100
AcDbSpline
70
0
71
3
72
14
73
10
74
0
42
0.000000001
43
0.0000000001
44
0.0000000001
40
4
40
4
40
4
40
4
40
5
40
5
40
5
40
6
40
6
40
6
40
7
40
7
40
7
40
7
10
188.45122384903198
20
-34.265536915511888
30
0
10
187.97037731113565
20
-34.86325758223056
30
0
10
187.15852129721043
20
-35.140140345266609
30
0
10
186.38288873043319
20
-34.895367397974212
30
0
10
185.37300327031286
20
-34.576669278414293
30
0
10
184.81268998020994
20
-33.499648631445297
30
0
10
185.13138809977019
20
-32.489763171324725
30
0
10
185.14559479647494
20
-32.444745219985471
30
0
10
185.16898564677334
20
-32.405707566076757
30
0
10
185.1861247200693
20
-32.362515895035848
30
0
0
SPLINE
5
114
100
AcDbEntity
8
0
100
AcDbSpline
70
0
71
3
72
8
73
4
74
0
42
0.000000001
43
0.0000000001
44
0.0000000001
40
7
40
7
40
7
40
7
40
8
40
8
40
8
40
8
10
185.1861247200693
20
-32.362515895035848
30
0
10
184.72513178096517
20
-32.102813664441697
30
0
10
184.26664053061626
20
-31.847504454376324
30
0
10
183.81190623413858
20
-31.598169774954883
30
0
0
SPLINE
5
115
100
AcDbEntity
8
0
100
AcDbSpline
70
0
71
3
72
14
73
10
74
0
42
0.000000001
43
0.0000000001
44
0.0000000001
40
8
40
8
40
8
40
8
40
9
40
9
40
9
40
10
40
10
40
10
40
11
40
11
40
11
40
11
10
183.81190623413858
20
-31.598169774954883
30
0
10
183.33697459586548
20
-32.23026005175803
30
0
10
182.5043437545921
20
-32.531430195740299
30
0
10
181.70749583143743
20
-32.279962138507052
30
0
10
180.6976103713165
20
-31.961264018946807
30
0
10
180.13729708121357
20
-30.884243371977167
30
0
10
180.45599520077383
20
-29.874357911856599
30
0
10
180.4612342603819
20
-29.857756464284179
30
0
10
180.47052011576025
20
-29.843807133904964
30
0
10
180.4761563619314
20
-29.827449567410564
30
0
0
SPLINE
5
116
100
AcDbEntity
8
0
100
AcDbSpline
70
0
71
3
72
8
73
4
74
0
42
0.000000001
43
0.0000000001
44
0.0000000001
40
11
40
11
40
11
40
11
40
12
40
12
40
12
40
12
10
180.4761563619314
20
-29.827449567410564
30
0
10
179.89152594431079
20
-29.526738578374182
30
0
10
179.31723340439206
20
-29.236615621407999
30
0
10
178.75198256678436
20
-28.955178078374662
30
0
0
SPLINE
5
117
100
AcDbEntity
8
0
100
AcDbSpline
70
0
71
3
72
14
73
10
74
0
42
0.000000001
43
0.0000000001
44
0.0000000001
40
12
40
12
40
12
40
12
40
13
40
13
40
13
40
14
40
14
40
14
40
15
40
15
40
15
40
15
10
178.75198256678436
20
-28.955178078374662
30
0
10
178.30193645289535
20
-29.68577920615521
30
0
10
177.40322021190826
20
-30.050919687815373
30
0
10
176.54770665389012
20
-29.780938018640807
30
0
10
175.53782119376928
20
-29.46223989908086
30
0
10
174.97750790366689
20
-28.385219252111224
30
0
10
175.2962060232272
20
-27.375333791990656
30
0
10
175.30423471197736
20
-27.349892612593965
30
0
10
175.31813840308774
20
-27.328296888287188
30
0
10
175.32712033958956
20
-27.303441023477575
30
0
0
SPLINE
5
118
100
AcDbEntity
8
0
100
AcDbSpline
70
0
71
3
72
8
73
4
74
0
42
0.000000001
43
0.0000000001
44
0.0000000001
40
15
40
15
40
15
40
15
40
16
40
16
40
16
40
16
10
175.32712033958956
20
-27.303441023477575
30
0
10
174.81871547496382
20
-27.066115936354937
30
0
10
174.31907159630785
20
-26.83513546175913
30
0
10
173.83848383119127
20
-26.617091279201141
30
0
0
SPLINE
5
119
100
AcDbEntity
8
0
100
AcDbSpline
70
0
71
3
72
14
73
10
74
0
42
0.000000001
43
0.0000000001
44
0.0000000001
40
16
40
16
40
16
40
16
40
17
40
17
40
17
40
18
40
18
40
18
40
19
40
19
40
19
40
19
10
173.83848383119127
20
-26.617091279201141
30
0
10
173.4882279462015
20
-27.574249441133137
30
0
10
172.44884024841684
20
-28.099000154367793
30
0
10
171.4670694475621
20
-27.789174416274761
30
0
10
170.45718398744123
20
-27.470476296714843
30
0
10
169.8968706973383
20
-26.393455649745533
30
0
10
170.2155688168985
20
-25.383570189624947
30
0
10
170.24888787521348
20
-25.277989295128911
30
0
10
170.29495551701135
20
-25.180390733271896
30
0
10
170.34391364959222
20
-25.085126798654848
30
0
0
ELLIPSE
5
120
100
AcDbEntity
8
0
100
AcDbEllipse
10
171.34200045211946
20
-25.987564079520592
30
0
11
7.4391769492058692
21
-3.2197817726101459
31
0.0
40
0.053932886951099927
41
1.7286702409712236
42
1.9312391726550708
0
SPLINE
5
121
100
AcDbEntity
8
0
100
AcDbSpline
70
0
71
3
72
11
73
7
74
0
42
0.000000001
43
0.0000000001
44
0.0000000001
40
20
40
20
40
20
40
20
40
21
40
21
40
21
40
22
40
22
40
22
40
22
10
168.88078049381301
20
-24.476549148071435
30
0
10
168.47915290851716
20
-25.333333849367182
30
0
10
167.50289899511526
20
-25.786639486115064
30
0
10
166.57582672996287
20
-25.494075428835735
30
0
10
165.56747205267084
20
-25.175860391395588
30
0
10
165.0078037940057
20
-24.101603713456036
30
0
10
165.32337044353346
20
-23.093077072184855
30
0
0
SPLINE
5
122
100
AcDbEntity
8
0
100
AcDbSpline
70
0
71
3
72
8
73
4
74
0
42
0.000000001
43
0.0000000001
44
0.0000000001
40
22
40
22
40
22
40
22
40
23
40
23
40
23
40
23
10
165.32337044353346
20
-23.093077072184855
30
0
10
165.22443606771708
20
-23.057327377891205
30
0
10
165.1724487216722
20
-23.039002722230745
30
0
10
165.17240156537849
20
-23.038986100438905
30
0
0
SPLINE
5
123
100
AcDbEntity
8
0
100
AcDbSpline
70
0
71
3
72
8
73
4
74
0
42
0.000000001
43
0.0000000001
44
0.0000000001
40
23
40
23
40
23
40
23
40
24
40
24
40
24
40
24
10
165.17240156537849
20
-23.038986100438905
30
0
10
140.6394291524818
20
-15.296907930232425
30
0
10
117.48620397326093
20
-11.677967183973326
30
0
10
117.48615457306587
20
-11.677959462527292
30
0
0
SPLINE
5
124
100
AcDbEntity
8
0
100
AcDbSpline
70
0
71
3
72
8
73
4
74
0
42
0.000000001
43
0.0000000001
44
0.0000000001
40
24
40
24
40
24
40
24
40
25
40
25
40
25
40
25
10
117.48615457306587
20
-11.677959462527292
30
0
10
117.29003996039593
20
-11.736124737283944
30
0
10
117.09172851651377
20
-11.787954352204849
30
0
10
116.89418908276443
20
-11.841995320171105
30
0
0
SPLINE
5
125
100
AcDbEntity
8
0
100
AcDbSpline
70
0
71
3
72
11
73
7
74
0
42
0.000000001
43
0.0000000001
44
0.0000000001
40
25
40
25
40
25
40
25
40
26
40
26
40
26
40
27
40
27
40
27
40
27
10
116.89418908276443
20
-11.841995320171105
30
0
10
116.83258158070429
20
-12.304432149241764
30
0
10
116.6978897853823
20
-12.875924133620698
30
0
10
116.40362289494871
20
-12.954539211925018
30
0
10
116.10106693779034
20
-13.035368761686447
30
0
10
115.85854611141116
20
-12.545544447040662
30
0
10
115.7124855702946
20
-12.140922222446948
30
0
0
SPLINE
5
126
100
AcDbEntity
8
0
100
AcDbSpline
70
0
71
3
72
8
73
4
74
0
42
0.000000001
43
0.0000000001
44
0.0000000001
40
27
40
27
40
27
40
27
40
28
40
28
40
28
40
28
10
115.7124855702946
20
-12.140922222446948
30
0
10
115.34627991293303
20
-12.225423267059218
30
0
10
114.97854022518655
20
-12.304343090224634
30
0
10
114.60886225722035
20
-12.376107961337336
30
0
0
SPLINE
5
127
100
AcDbEntity
8
0
100
AcDbSpline
70
0
71
3
72
11
73
7
74
0
42
0.000000001
43
0.0000000001
44
0.0000000001
40
28
40
28
40
28
40
28
40
29
40
29
40
29
40
30
40
30
40
30
40
30
10
114.60886225722035
20
-12.376107961337336
30
0
10
114.59811031813148
20
-12.839136415758299
30
0
10
114.5433237989032
20
-13.408140161939928
30
0
10
114.3424577204712
20
-13.506809191153256
30
0
10
114.12799925306774
20
-13.612155046214788
30
0
10
113.83054294779183
20
-13.019400191479455
30
0
10
113.63410020853541
20
-12.550183205528715
30
0
0
SPLINE
5
128
100
AcDbEntity
8
0
100
AcDbSpline
70
0
71
3
72
8
73
4
74
0
42
0.000000001
43
0.0000000001
44
0.0000000001
40
30
40
30
40
30
40
30
40
31
40
31
40
31
40
31
10
113.63410020853541
20
-12.550183205528715
30
0
10
113.22255382481916
20
-12.617744159070654
30
0
10
112.80999094486548
20
-12.680337656481752
30
0
10
112.39587063434647
20
-12.733667883933906
30
0
0
SPLINE
5
129
100
AcDbEntity
8
0
100
AcDbSpline
70
0
71
3
72
8
73
4
74
0
42
0.000000001
43
0.0000000001
44
0.0000000001
40
31
40
31
40
31
40
31
40
32
40
32
40
32
40
32
10
112.39587063434647
20
-12.733667883933906
30
0
10
112.31776695560526
20
-13.142227358338817
30
0
10
112.19008269886959
20
-13.589501587731061
30
0
10
112.00062558298657
20
-13.619659288590405
30
0
0
SPLINE
5
130
100
AcDbEntity
8
0
100
AcDbSpline
70
0
71
3
72
8
73
4
74
0
42
0.000000001
43
0.0000000001
44
0.0000000001
40
32
40
32
40
32
40
32
40
33
40
33
40
33
40
33
10
112.00062558298657
20
-13.619659288590405
30
0
10
111.81140448224053
20
-13.649820348219636
30
0
10
111.53224483962609
20
-13.242359716460966
30
0
10
111.31327320538809
20
-12.857378128807909
30
0
0
SPLINE
5
131
100
AcDbEntity
8
0
100
AcDbSpline
70
0
71
3
72
8
73
4
74
0
42
0.000000001
43
0.0000000001
44
0.0000000001
40
33
40
33
40
33
40
33
40
34
40
34
40
34
40
34
10
111.31327320538809
20
-12.857378128807909
30
0
10
110.90572258189566
20
-12.898154074967865
30
0
10
110.49755655087579
20
-12.930888626226205
30
0
10
110.089221766565
20
-12.959349985947535
30
0
0
SPLINE
5
132
100
AcDbEntity
8
0
100
AcDbSpline
70
0
71
3
72
11
73
7
74
0
42
0.000000001
43
0.0000000001
44
0.0000000001
40
34
40
34
40
34
40
34
40
35
40
35
40
35
40
36
40
36
40
36
40
36
10
110.089221766565
20
-12.959349985947535
30
0
10
110.00256091220103
20
-13.371135877154725
30
0
10
109.87198373377014
20
-13.816381729752633
30
0
10
109.70701427626393
20
-13.845496610291795
30
0
10
109.54219415172165
20
-13.874585135580285
30
0
10
109.2777332754102
20
-13.436700891092904
30
0
10
109.06515265937118
20
-13.018696472732072
30
0
0
SPLINE
5
133
100
AcDbEntity
8
0
100
AcDbSpline
70
0
71
3
72
8
73
4
74
0
42
0.000000001
43
0.0000000001
44
0.0000000001
40
36
40
36
40
36
40
36
40
37
40
37
40
37
40
37
10
109.06515265937118
20
-13.018696472732072
30
0
10
108.59890105988354
20
-13.040094183720745
30
0
10
108.13321289371309
20
-13.052945338771305
30
0
10
107.66821918978395
20
-13.060065066365263
30
0
0
SPLINE
5
134
100
AcDbEntity
8
0
100
AcDbSpline
70
0
71
3
72
11
73
7
74
0
42
0.000000001
43
0.0000000001
44
0.0000000001
40
37
40
37
40
37
40
37
40
38
40
38
40
38
40
39
40
39
40
39
40
39
10
107.66821918978395
20
-13.060065066365263
30
0
10
107.57156171775925
20
-13.501199235200822
30
0
10
107.43054561624987
20
-13.975910774330355
30
0
10
107.26442217291753
20
-14.011919771199919
30
0
10
107.08905472843439
20
-14.04993250217121
30
0
10
106.88143746895832
20
-13.532221181549149
30
0
10
106.73162737148216
20
-13.065558501665675
30
0
0
ARC
5
135
100
AcDbEntity
8
0
100
AcDbCircle
10
-106.93469510060682
20
37.823597093739927
30
0
40
50.889560753812987
210
-0
220
0
230
-1
100
AcDbArc
50
270.2286314627035
51
271.56565059245082
0
SPLINE
5
136
100
AcDbEntity
8
0
100
AcDbSpline
70
0
71
3
72
11
73
7
74
0
42
0.000000001
43
0.0000000001
44
0.0000000001
40
40
40
40
40
40
40
40
40
41
40
41
40
41
40
42
40
42
40
42
40
42
10
105.54427234272056
20
-13.046965300147306
30
0
10
105.35535680972976
20
-13.486935963525028
30
0
10
105.10605870860523
20
-13.996022670011678
30
0
10
104.96251690043559
20
-13.998325386880365
30
0
10
104.80572892823112
20
-14.000840600482636
30
0
10
104.58647984462267
20
-13.435685660118828
30
0
10
104.44239333284037
20
-13.005726674184157
30
0
0
SPLINE
5
137
100
AcDbEntity
8
0
100
AcDbSpline
70
0
71
3
72
8
73
4
74
0
42
0.000000001
43
0.0000000001
44
0.0000000001
40
42
40
42
40
42
40
42
40
43
40
43
40
43
40
43
10
104.44239333284037
20
-13.005726674184157
30
0
10
104.04032760171125
20
-12.986451765498106
30
0
10
103.64002223508191
20
-12.963702113411845
30
0
10
103.24233479291367
20
-12.936112527263111
30
0
0
SPLINE
5
138
100
AcDbEntity
8
0
100
AcDbSpline
70
0
71
3
72
11
73
7
74
0
42
0.000000001
43
0.0000000001
44
0.0000000001
40
43
40
43
40
43
40
43
40
44
40
44
40
44
40
45
40
45
40
45
40
45
10
103.24233479291367
20
-12.936112527263111
30
0
10
103.03060764916975
20
-13.388419324708511
30
0
10
102.75757445237956
20
-13.920430220127443
30
0
10
102.62247822315285
20
-13.972673213086487
30
0
10
102.471749256046
20
-14.030961534028982
30
0
10
102.30986970757071
20
-13.384531751138427
30
0
10
102.20375449230366
20
-12.855059273747134
30
0
0
SPLINE
5
139
100
AcDbEntity
8
0
100
AcDbSpline
70
0
71
3
72
8
73
4
74
0
42
0.000000001
43
0.0000000001
44
0.0000000001
40
45
40
45
40
45
40
45
40
46
40
46
40
46
40
46
10
102.20375449230366
20
-12.855059273747134
30
0
10
101.81455328419547
20
-12.821162614485583
30
0
10
101.42731460872098
20
-12.784803312101968
30
0
10
101.04407486668522
20
-12.744111014899133
30
0
0
LINE
5
140
100
AcDbEntity
8
0
100
AcDbLine
10
101.04407486668522
20
-12.744111014899133
30
0
11
100.76829622963785
21
-13.534915591220217
31
0
0
SPLINE
5
141
100
AcDbEntity
8
0
100
AcDbSpline
70
0
71
3
72
13
73
9
74
0
42
0.000000001
43
0.0000000001
44
0.0000000001
40
47
40
47
40
47
40
47
40
48
40
48
40
49
40
49
40
49
40
50
40
50
40
50
40
50
10
100.76829622963785
20
-13.534915591220217
30
0
10
100.74148587389635
20
-13.611795193789389
30
0
10
100.6695495323404
20
-13.663770780729456
30
0
10
100.50673043422192
20
-13.666419394081641
30
0
10
100.43305947356615
20
-13.61682602526249
30
0
10
100.40379955708315
20
-13.540844937130966
30
0
10
100.30318138182204
20
-13.279563315000026
30
0
10
100.17872841626243
20
-12.947515929471617
30
0
10
100.07053909323253
20
-12.632660684809627
30
0
0
ELLIPSE
5
142
100
AcDbEntity
8
0
100
AcDbEllipse
10
102.74563295135891
20
-9.007416121335126
30
0
11
16.542766404267372
21
-1.4547204694870866
31
0.0
40
0.23392159081816086
41
4.4619274289842048
42
4.5705701349421979
0
LINE
5
143
100
AcDbEntity
8
0
100
AcDbLine
10
98.315816683991173
20
-12.395830034525282
30
0
11
98.070517052798664
21
-13.173131548748112
31
0
0
SPLINE
5
144
100
AcDbEntity
8
0
100
AcDbSpline
70
0
71
3
72
13
73
9
74
0
42
0.000000001
43
0.0000000001
44
0.0000000001
40
52
40
52
40
52
40
52
40
53
40
53
40
54
40
54
40
54
40
55
40
55
40
55
40
55
10
98.070517052798664
20
-13.173131548748112
30
0
10
98.05594982017432
20
-13.219291960494193
30
0
10
98.011615975396012
20
-13.249426256350356
30
0
10
97.915050964555093
20
-13.242559656255539
30
0
10
97.875346295023235
20
-13.206457887590462
30
0
10
97.867492959062503
20
-13.158694795215757
30
0
10
97.824187581063953
20
-12.89531643218197
30
0
10
97.752869583986126
20
-12.565729216642501
30
0
10
97.640134913719521
20
-12.291914732469465
30
0
0
SPLINE
5
145
100
AcDbEntity
8
0
100
AcDbSpline
70
0
71
3
72
8
73
4
74
0
42
0.000000001
43
0.0000000001
44
0.0000000001
40
55
40
55
40
55
40
55
40
56
40
56
40
56
40
56
10
97.640134913719521
20
-12.291914732469465
30
0
10
97.200233634315481
20
-12.222151329049836
30
0
10
96.76750295241709
20
-12.149198084794063
30
0
10
96.342074613186639
20
-12.073689263370458
30
0
0
LINE
5
146
100
AcDbEntity
8
0
100
AcDbLine
10
96.342074613186639
20
-12.073689263370458
30
0
11
95.861272297661628
21
-12.913915124795064
31
0
0
SPLINE
5
147
100
AcDbEntity
8
0
100
AcDbSpline
70
0
71
3
72
10
73
6
74
0
42
0.000000001
43
0.0000000001
44
0.0000000001
40
57
40
57
40
57
40
57
40
58
40
58
40
59
40
59
40
59
40
59
10
95.861272297661628
20
-12.913915124795064
30
0
10
95.808047172946857
20
-13.006928666574387
30
0
10
95.701596039412266
20
-13.05583828281466
30
0
10
95.491108728099675
20
-13.01543007576085
30
0
10
95.4103363748888
20
-12.930578314739696
30
0
10
95.395338038975837
20
-12.824467604747607
30
0
0
LINE
5
148
100
AcDbEntity
8
0
100
AcDbLine
10
95.395338038975837
20
-12.824467604747607
30
0
11
95.260955984974416
21
-11.873737120831834
31
0
0
SPLINE
5
149
100
AcDbEntity
8
0
100
AcDbSpline
70
0
71
3
72
8
73
4
74
0
42
0.000000001
43
0.0000000001
44
0.0000000001
40
60
40
60
40
60
40
60
40
61
40
61
40
61
40
61
10
95.260955984974416
20
-11.873737120831834
30
0
10
94.830365652905172
20
-11.790696115770986
30
0
10
94.409515041805349
20
-11.705489397536809
30
0
10
93.998094527663739
20
-11.618872725783575
30
0
0
LINE
5
150
100
AcDbEntity
8
0
100
AcDbLine
10
93.998094527663739
20
-11.618872725783575
30
0
11
93.535392328829587
21
-12.293581640337855
31
0
0
SPLINE
5
151
100
AcDbEntity
8
0
100
AcDbSpline
70
0
71
3
72
10
73
6
74
0
42
0.000000001
43
0.0000000001
44
0.0000000001
40
62
40
62
40
62
40
62
40
63
40
63
40
64
40
64
40
64
40
64
10
93.535392328829587
20
-12.293581640337855
30
0
10
93.47787457335329
20
-12.377453604773601
30
0
10
93.374762796512186
20
-12.417406814136143
30
0
10
93.17673630287905
20
-12.370966505430474
30
0
10
93.102137483671115
20
-12.28933738296562
30
0
10
93.087904423438914
20
-12.188638730493137
30
0
0
LINE
5
152
100
AcDbEntity
8
0
100
AcDbLine
10
93.087904423438914
20
-12.188638730493137
30
0
11
92.975950269824196
21
-11.396565049657607
31
0
0
ELLIPSE
5
153
100
AcDbEntity
8
0
100
AcDbEllipse
10
95.325843564851425
20
-10.796803512072877
30
0
11
9.6177709513565244
21
-1.9096300668517838
31
0.0
40
0.10942578838531253
41
4.3418710486835579
42
4.4873448450631281
0
LINE
5
154
100
AcDbEntity
8
0
100
AcDbLine
10
91.64848284034062
20
-11.086343824046001
30
0
11
91.110953714874356
21
-11.870152115610114
31
0
0
ARC
5
155
100
AcDbEntity
8
0
100
AcDbCircle
10
-91.021779882690694
20
-11.808997452481423
30
0
40
0.10812892845443171
210
0
220
-0
230
-1
100
AcDbArc
50
214.44200139897811
51
354.01634241689851
0
LINE
5
156
100
AcDbEntity
8
0
100
AcDbLine
10
90.9142400763794
20
-11.820269330196929
30
0
11
90.81555922570189
21
-10.878800673738848
31
0
0
SPLINE
5
157
100
AcDbEntity
8
0
100
AcDbSpline
70
0
71
3
72
8
73
4
74
0
42
0.000000001
43
0.0000000001
44
0.0000000001
40
70
40
70
40
70
40
70
40
71
40
71
40
71
40
71
10
90.81555922570189
20
-10.878800673738848
30
0
10
87.322622494610471
20
-9.9888531651269723
30
0
10
85.103178741983214
20
-9.1660926066192641
30
0
10
85.10313185966821
20
-9.1660752270755665
30
0
0
LINE
5
158
100
AcDbEntity
8
0
100
AcDbLine
10
85.10313185966821
20
-9.1660752270755665
30
0
11
80.24108038930045
21
-9.9774796095795981
31
0
0
LINE
5
159
100
AcDbEntity
8
0
100
AcDbLine
10
80.24108038930045
20
-9.9774796095795981
30
0
11
80.331223853684932
21
-11.217001344594312
31
0
0
SPLINE
5
160
100
AcDbEntity
8
0
100
AcDbSpline
70
0
71
3
72
8
73
4
74
0
42
0.000000001
43
0.0000000001
44
0.0000000001
40
73
40
73
40
73
40
73
40
74
40
74
40
74
40
74
10
80.331223853684932
20
-11.217001344594312
30
0
10
3.461358545616493
20
-24.635637513056814
30
0
10
3.0962478201080614
20
-80.396404979468144
30
0
10
3.0962474927247454
20
-80.396454978396349
30
0
0
SPLINE
5
161
100
AcDbEntity
8
0
100
AcDbSpline
70
0
71
3
72
14
73
10
74
0
42
0.000000001
43
0.0000000001
44
0.0000000001
40
74
40
74
40
74
40
74
40
75
40
75
40
75
40
76
40
76
40
76
40
77
40
77
40
77
40
77
10
3.0962474927247454
20
-80.396454978396349
30
0
10
3.0962465947985702
20
-80.396504970332984
30
0
10
3.042567477879778
20
-83.385083636842708
30
0
10
4.0965859650280336
20
-81.621275834947227
30
0
10
28.536277223686589
20
-40.723588893451151
30
0
10
75.590552686812998
20
-43.02599500401481
30
0
10
79.479965746425435
20
-42.912983824197077
30
0
10
83.369357461432969
20
-42.799973264570355
30
0
10
84.861269999215253
20
-44.443616553983389
30
0
10
84.861303604373461
20
-44.443653576859319
30
0
0
LINE
5
162
100
AcDbEntity
8
0
100
AcDbLine
10
84.861303604373461
20
-44.443653576859319
30
0
11
88.462194274834616
21
-45.24491154330132
31
0
0
SPLINE
5
163
100
AcDbEntity
8
0
100
AcDbSpline
70
0
71
3
72
8
73
4
74
0
42
0.000000001
43
0.0000000001
44
0.0000000001
40
78
40
78
40
78
40
78
40
79
40
79
40
79
40
79
10
88.462194274834616
20
-45.24491154330132
30
0
10
88.217599711124407
20
-46.97390305455108
30
0
10
89.702988047163871
20
-47.4909992605957
30
0
10
90.008470007000739
20
-47.578559892562275
30
0
0
SPLINE
5
164
100
AcDbEntity
8
0
100
AcDbSpline
70
0
71
3
72
8
73
4
74
0
42
0.000000001
43
0.0000000001
44
0.0000000001
40
79
40
79
40
79
40
79
40
80
40
80
40
80
40
80
10
90.008470007000739
20
-47.578559892562275
30
0
10
90.040424181704864
20
-47.586083531491035
30
0
10
90.066492840611744
20
-47.594286575058852
30
0
10
90.066540535042407
20
-47.594301583099501
30
0
0
SPLINE
5
165
100
AcDbEntity
8
0
100
AcDbSpline
70
0
71
3
72
8
73
4
74
0
42
0.000000001
43
0.0000000001
44
0.0000000001
40
80
40
80
40
80
40
80
40
81
40
81
40
81
40
81
10
90.066540535042407
20
-47.594301583099501
30
0
10
90.066492004438913
20
-47.594289550621546
30
0
10
90.043058245430316
20
-47.588479480925102
30
0
10
90.008470007000739
20
-47.578559892562275
30
0
0
SPLINE
5
166
100
AcDbEntity
8
0
100
AcDbSpline
70
0
71
3
72
8
73
4
74
0
42
0.000000001
43
0.0000000001
44
0.0000000001
40
81
40
81
40
81
40
81
40
82
40
82
40
82
40
82
10
90.008470007000739
20
-47.578559892562275
30
0
10
89.836218176982342
20
-47.538046107027618
30
0
10
93.048552704630808
20
-48.527157655945445
30
0
10
93.17958365687187
20
-48.579295121490631
30
0
0
SPLINE
5
167
100
AcDbEntity
8
0
100
AcDbSpline
70
0
71
3
72
8
73
4
74
0
42
0.000000001
43
0.0000000001
44
0.0000000001
40
82
40
82
40
82
40
82
40
83
40
83
40
83
40
83
10
93.17958365687187
20
-48.579295121490631
30
0
10
96.015436044788899
20
-49.708008858343263
30
0
10
96.265358277580958
20
-46.534591671118577
30
0
10
96.265362203172089
20
-46.534541825459442
30
0
0
SPLINE
5
168
100
AcDbEntity
8
0
100
AcDbSpline
70
0
71
3
72
8
73
4
74
0
42
0.000000001
43
0.0000000001
44
0.0000000001
40
83
40
83
40
83
40
83
40
84
40
84
40
84
40
84
10
96.265362203172089
20
-46.534541825459442
30
0
10
97.323284829514932
20
-43.182213673190546
30
0
10
102.029528371762
20
-37.295080233477883
30
0
10
102.02955959250347
20
-37.295041178832811
30
0
0
SPLINE
5
169
100
AcDbEntity
8
0
100
AcDbSpline
70
0
71
3
72
8
73
4
74
0
42
0.000000001
43
0.0000000001
44
0.0000000001
40
84
40
84
40
84
40
84
40
85
40
85
40
85
40
85
10
102.02955959250347
20
-37.295041178832811
30
0
10
112.56498389599551
20
-26.210133241172674
30
0
10
122.52761570463306
20
-39.239794729922188
30
0
10
122.52764607477823
20
-39.239834449618598
30
0
0
SPLINE
5
170
100
AcDbEntity
8
0
100
AcDbSpline
70
0
71
3
72
8
73
4
74
0
42
0.000000001
43
0.0000000001
44
0.0000000001
40
85
40
85
40
85
40
85
40
86
40
86
40
86
40
86
10
122.52764607477823
20
-39.239834449618598
30
0
10
123.57054416606699
20
-41.244502561902678
30
0
10
124.66901583060744
20
-40.418317645619709
30
0
10
124.66905578986601
20
-40.418287591374551
30
0
0
SPLINE
5
171
100
AcDbEntity
8
0
100
AcDbSpline
70
0
71
3
72
8
73
4
74
0
42
0.000000001
43
0.0000000001
44
0.0000000001
40
86
40
86
40
86
40
86
40
87
40
87
40
87
40
87
10
124.66905578986601
20
-40.418287591374551
30
0
10
138.12464331279037
20
-34.946446727799653
30
0
10
144.62253078847158
20
-46.212469178315871
30
0
10
144.62255576957267
20
-46.212512490491847
30
0
0
SPLINE
5
172
100
AcDbEntity
8
0
100
AcDbSpline
70
0
71
3
72
8
73
4
74
0
42
0.000000001
43
0.0000000001
44
0.0000000001
40
87
40
87
40
87
40
87
40
88
40
88
40
88
40
88
10
144.62255576957267
20
-46.212512490491847
30
0
10
145.71354434568394
20
-48.06479225025398
30
0
10
147.22106180769609
20
-47.535246853616052
30
0
10
147.22110898190573
20
-47.53523028273964
30
0
0
SPLINE
5
173
100
AcDbEntity
8
0
100
AcDbSpline
70
0
71
3
72
11
73
7
74
0
42
0.000000001
43
0.0000000001
44
0.0000000001
40
88
40
88
40
88
40
88
40
89
40
89
40
89
40
90
40
90
40
90
40
90
10
147.22110898190573
20
-47.53523028273964
30
0
10
157.47734260307664
20
-44.237257625704274
30
0
10
162.08178643990306
20
-50.884488127654343
30
0
10
163.07661481508836
20
-53.041533339189961
30
0
10
164.07143682105851
20
-55.19856474061978
30
0
10
164.87326504982494
20
-54.781436164925481
30
0
10
164.87330940663614
20
-54.781413089542482
30
0
0
SPLINE
5
174
100
AcDbEntity
8
0
100
AcDbSpline
70
0
71
3
72
8
73
4
74
0
42
0.000000001
43
0.0000000001
44
0.0000000001
40
90
40
90
40
90
40
90
40
91
40
91
40
91
40
91
10
164.87330940663614
20
-54.781413089542482
30
0
10
166.67994327118964
20
-66.577669838386953
30
0
10
177.21025082343499
20
-70.906144518871685
30
0
10
177.21029706898062
20
-70.90616352806704
30
0
0
SPLINE
5
175
100
AcDbEntity
8
0
100
AcDbSpline
70
0
71
3
72
8
73
4
74
0
42
0.000000001
43
0.0000000001
44
0.0000000001
40
91
40
91
40
91
40
91
40
92
40
92
40
92
40
92
10
177.21029706898062
20
-70.90616352806704
30
0
10
187.33972836035363
20
-75.443216636477956
30
0
10
196.49620627189529
20
-66.604057812095846
30
0
10
196.49624224506692
20
-66.60402308557974
30
0
0
SPLINE
5
176
100
AcDbEntity
8
0
100
AcDbSpline
70
0
71
3
72
8
73
4
74
0
42
0.000000001
43
0.0000000001
44
0.0000000001
40
92
40
92
40
92
40
92
40
93
40
93
40
93
40
93
10
196.49624224506692
20
-66.60402308557974
30
0
10
199.95976229408706
20
-62.00021586296846
30
0
10
204.91576454269921
20
-62.223790759473765
30
0
10
204.91581449189954
20
-62.223793012779296
30
0
0
SPLINE
5
177
100
AcDbEntity
8
0
100
AcDbSpline
70
0
71
3
72
8
73
4
74
0
42
0.000000001
43
0.0000000001
44
0.0000000001
40
93
40
93
40
93
40
93
40
94
40
94
40
94
40
94
10
204.91581449189954
20
-62.223793012779296
30
0
10
207.03288941756608
20
-61.886579376605212
30
0
10
206.90426049768064
20
-60.170483621466389
30
0
10
206.90425676044438
20
-60.170433761331367
30
0
0
SPLINE
5
178
100
AcDbEntity
8
0
100
AcDbSpline
70
0
71
3
72
17
73
13
74
0
42
0.000000001
43
0.0000000001
44
0.0000000001
40
0
40
0
40
0
40
0
40
1
40
1
40
1
40
2
40
2
40
2
40
3
40
3
40
3
40
4
40
4
40
4
40
4
10
165.16988946667988
20
-37.915978821428752
30
0
10
164.38039538126856
20
-40.417713769677889
30
0
10
161.71232708714194
20
-41.805759241847042
30
0
10
159.21059213889242
20
-41.016265156435374
30
0
10
156.70885719064361
20
-40.226771071024004
30
0
10
155.32081171847483
20
-37.558702776897398
30
0
10
156.11030580388609
20
-35.056967828648247
30
0
10
156.89979988929809
20
-32.555232880399089
30
0
10
159.56786818342408
20
-31.167187408229928
30
0
10
162.06960313167289
20
-31.956681493641625
30
0
10
164.57133807992238
20
-32.746175579053293
30
0
10
165.95938355209185
20
-35.414243873179892
30
0
10
165.16988946667988
20
-37.915978821428752
30
0
0
SPLINE
5
179
100
AcDbEntity
8
0
100
AcDbSpline
70
0
71
3
72
8
73
4
74
0
42
0.000000001
43
0.0000000001
44
0.0000000001
40
0
40
0
40
0
40
0
40
1
40
1
40
1
40
1
10
164.61584400147896
20
-78.307808829512865
30
0
10
165.05961476566108
20
-76.90308874407458
30
0
10
164.82487581119275
20
-75.920174790990629
30
0
10
164.8248641968392
20
-75.920126158627014
30
0
0
SPLINE
5
180
100
AcDbEntity
8
0
100
AcDbSpline
70
0
71
3
72
8
73
4
74
0
42
0.000000001
43
0.0000000001
44
0.0000000001
40
1
40
1
40
1
40
1
40
2
40
2
40
2
40
2
10
164.8248641968392
20
-75.920126158627014
30
0
10
163.26167832445174
20
-75.321688011562173
30
0
10
161.70628542693078
20
-74.768543782851893
30
0
10
160.1713130918445
20
-74.253477458939614
30
0
0
SPLINE
5
181
100
AcDbEntity
8
0
100
AcDbSpline
70
0
71
3
72
14
73
10
74
0
42
0.000000001
43
0.0000000001
44
0.0000000001
40
2
40
2
40
2
40
2
40
3
40
3
40
3
40
4
40
4
40
4
40
5
40
5
40
5
40
5
10
160.1713130918445
20
-74.253477458939614
30
0
10
159.83137885710778
20
-74.941180357633371
30
0
10
159.09878456001297
20
-75.38735831272075
30
0
10
158.2885393951361
20
-75.316427335463018
30
0
10
157.23359478511398
20
-75.224074729874502
30
0
10
156.45327905431461
20
-74.294005850329199
30
0
10
156.54563165990311
20
-73.239061240307123
30
0
10
156.54974773715617
20
-73.192043254353351
30
0
10
156.56411884479689
20
-73.148862551220873
30
0
10
156.57150598168431
20
-73.102995490216841
30
0
0
SPLINE
5
182
100
AcDbEntity
8
0
100
AcDbSpline
70
0
71
3
72
8
73
4
74
0
42
0.000000001
43
0.0000000001
44
0.0000000001
40
5
40
5
40
5
40
5
40
6
40
6
40
6
40
6
10
156.57150598168431
20
-73.102995490216841
30
0
10
156.06518057502825
20
-72.949324223467073
30
0
10
155.56228886968327
20
-72.799390209093303
30
0
10
155.06433820176883
20
-72.65449256983095
30
0
0
SPLINE
5
183
100
AcDbEntity
8
0
100
AcDbSpline
70
0
71
3
72
14
73
10
74
0
42
0.000000001
43
0.0000000001
44
0.0000000001
40
6
40
6
40
6
40
6
40
7
40
7
40
7
40
8
40
8
40
8
40
9
40
9
40
9
40
9
10
155.06433820176883
20
-72.65449256983095
30
0
10
154.73761761229272
20
-73.374455053884617
30
0
10
153.98999405997714
20
-73.848863914954975
30
0
10
153.15759124022276
20
-73.775993198736145
30
0
10
152.10264663020064
20
-73.683640593147629
30
0
10
151.32230944959053
20
-72.753569835829865
30
0
10
151.41466205517904
20
-71.698625225807774
30
0
10
151.41617929533399
20
-71.681293778430742
30
0
10
151.42223847815254
20
-71.665656796346326
30
0
10
151.42419677547824
20
-71.648472031246641
30
0
0
SPLINE
5
184
100
AcDbEntity
8
0
100
AcDbSpline
70
0
71
3
72
8
73
4
74
0
42
0.000000001
43
0.0000000001
44
0.0000000001
40
9
40
9
40
9
40
9
40
10
40
10
40
10
40
10
10
151.42419677547824
20
-71.648472031246641
30
0
10
150.78830815520581
20
-71.481556413224212
30
0
10
150.16478827237404
20
-71.322726586345652
30
0
10
149.55200029768372
20
-71.170434335545892
30
0
0
SPLINE
5
185
100
AcDbEntity
8
0
100
AcDbSpline
70
0
71
3
72
14
73
10
74
0
42
0.000000001
43
0.0000000001
44
0.0000000001
40
10
40
10
40
10
40
10
40
11
40
11
40
11
40
12
40
12
40
12
40
13
40
13
40
13
40
13
10
149.55200029768372
20
-71.170434335545892
30
0
10
149.27091453348567
20
-71.981172809158394
30
0
10
148.47265205159908
20
-72.532331527100894
30
0
10
147.57896712150293
20
-72.454096014937221
30
0
10
146.52402251148092
20
-72.361743409348705
30
0
10
145.74368345309833
20
-71.431694101842268
30
0
10
145.83603605868686
20
-70.376749491820192
30
0
10
145.83836261877619
20
-70.350173175854536
30
0
10
145.8472591755768
20
-70.32607406382219
30
0
10
145.85063381518043
20
-70.299870484024211
30
0
0
SPLINE
5
186
100
AcDbEntity
8
0
100
AcDbSpline
70
0
71
3
72
8
73
4
74
0
42
0.000000001
43
0.0000000001
44
0.0000000001
40
13
40
13
40
13
40
13
40
14
40
14
40
14
40
14
10
145.85063381518043
20
-70.299870484024211
30
0
10
145.30289321021695
20
-70.17832350322044
30
0
10
144.76508747710346
20
-70.061061290039788
30
0
10
144.24866987441877
20
-69.952307007878645
30
0
0
SPLINE
5
187
100
AcDbEntity
8
0
100
AcDbSpline
70
0
71
3
72
14
73
10
74
0
42
0.000000001
43
0.0000000001
44
0.0000000001
40
14
40
14
40
14
40
14
40
15
40
15
40
15
40
16
40
16
40
16
40
17
40
17
40
17
40
17
10
144.24866987441877
20
-69.952307007878645
30
0
10
144.11407842316731
20
-70.962616631436248
30
0
10
143.21305102257907
20
-71.700063302881972
30
0
10
142.18749265377812
20
-71.610283245576539
30
0
10
141.13254804375546
20
-71.517930639988066
30
0
10
140.3522089853729
20
-70.587881332481317
30
0
10
140.44456159096137
20
-69.532936722459212
30
0
10
140.454217096999
20
-69.422641793730492
30
0
10
140.47804406516491
20
-69.317369956135479
30
0
10
140.50520427548105
20
-69.213773227818919
30
0
0
ELLIPSE
5
188
100
AcDbEntity
8
0
100
AcDbEllipse
10
141.6646387262825
20
-69.879516649221443
30
0
11
7.9743381070476804
21
-1.5342308065352133
31
0.0
40
0.054191527266411771
41
1.727127103736271
42
1.9292382594904078
0
SPLINE
5
189
100
AcDbEntity
8
0
100
AcDbSpline
70
0
71
3
72
11
73
7
74
0
42
0.000000001
43
0.0000000001
44
0.0000000001
40
18
40
18
40
18
40
18
40
19
40
19
40
19
40
20
40
20
40
20
40
20
10
138.94497455475485
20
-68.936607912173656
30
0
10
138.73851248381695
20
-69.860048070542604
30
0
10
137.88362786120518
20
-70.514083163363864
30
0
10
136.91519033939002
20
-70.42930361414416
30
0
10
135.86185446520122
20
-70.337091841491159
30
0
10
135.08276180568501
20
-69.409594051167971
30
0
10
135.17234514560346
20
-68.356654888804954
30
0
0
SPLINE
5
190
100
AcDbEntity
8
0
100
AcDbSpline
70
0
71
3
72
8
73
4
74
0
42
0.000000001
43
0.0000000001
44
0.0000000001
40
20
40
20
40
20
40
20
40
21
40
21
40
21
40
21
10
135.17234514560346
20
-68.356654888804954
30
0
10
135.0680046000297
20
-68.343176191576148
30
0
10
135.01328088188129
20
-68.3365499926674
30
0
10
135.01323124443638
20
-68.336543982337801
30
0
0
SPLINE
5
191
100
AcDbEntity
8
0
100
AcDbSpline
70
0
71
3
72
8
73
4
74
0
42
0.000000001
43
0.0000000001
44
0.0000000001
40
21
40
21
40
21
40
21
40
22
40
22
40
22
40
22
10
135.01323124443638
20
-68.336543982337801
30
0
10
109.38566187410507
20
-66.093039646883696
30
0
10
85.99826957628855
20
-67.575863782843555
30
0
10
85.998219676484169
20
-67.575866946626562
30
0
0
SPLINE
5
192
100
AcDbEntity
8
0
100
AcDbSpline
70
0
71
3
72
8
73
4
74
0
42
0.000000001
43
0.0000000001
44
0.0000000001
40
22
40
22
40
22
40
22
40
23
40
23
40
23
40
23
10
85.998219676484169
20
-67.575866946626562
30
0
10
85.819361197393832
20
-67.675131889647943
30
0
10
85.63698249655431
20
-67.768685114212971
30
0
10
85.455854239271105
20
-67.864249855138297
30
0
0
SPLINE
5
193
100
AcDbEntity
8
0
100
AcDbSpline
70
0
71
3
72
11
73
7
74
0
42
0.000000001
43
0.0000000001
44
0.0000000001
40
23
40
23
40
23
40
23
40
24
40
24
40
24
40
25
40
25
40
25
40
25
10
85.455854239271105
20
-67.864249855138297
30
0
10
85.495872413915208
20
-68.329043326252872
30
0
10
85.488197903032969
20
-68.916141809963364
30
0
10
85.217936059754166
20
-69.056648324249593
30
0
10
84.940079924301429
20
-69.201103037470929
30
0
10
84.597218149275108
20
-68.775446454218866
30
0
10
84.366956338604979
20
-68.412076912408736
30
0
0
SPLINE
5
194
100
AcDbEntity
8
0
100
AcDbSpline
70
0
71
3
72
8
73
4
74
0
42
0.000000001
43
0.0000000001
44
0.0000000001
40
25
40
25
40
25
40
25
40
26
40
26
40
26
40
26
10
84.366956338604979
20
-68.412076912408736
30
0
10
84.027755137278461
20
-68.573905746262199
30
0
10
83.685846640108082
20
-68.730612768023931
30
0
10
83.340493032087409
20
-68.880750078884333
30
0
0
SPLINE
5
195
100
AcDbEntity
8
0
100
AcDbSpline
70
0
71
3
72
11
73
7
74
0
42
0.000000001
43
0.0000000001
44
0.0000000001
40
26
40
26
40
26
40
26
40
27
40
27
40
27
40
28
40
28
40
28
40
28
10
83.340493032087409
20
-68.880750078884333
30
0
10
83.430315075831899
20
-69.335119400525286
30
0
10
83.500086511863017
20
-69.902483088278217
30
0
10
83.325371611186682
20
-70.042313294975358
30
0
10
83.138825947394025
20
-70.191612058993812
30
0
10
82.720023942880175
20
-69.677383499773839
30
0
10
82.426588779407126
20
-69.261861776479847
30
0
0
SPLINE
5
196
100
AcDbEntity
8
0
100
AcDbSpline
70
0
71
3
72
8
73
4
74
0
42
0.000000001
43
0.0000000001
44
0.0000000001
40
28
40
28
40
28
40
28
40
29
40
29
40
29
40
29
10
82.426588779407126
20
-69.261861776479847
30
0
10
82.039450573744759
20
-69.416986833050785
30
0
10
81.650255788517143
20
-69.567457712659916
30
0
10
81.257521066596624
20
-69.709232388837137
30
0
0
SPLINE
5
197
100
AcDbEntity
8
0
100
AcDbSpline
70
0
71
3
72
8
73
4
74
0
42
0.000000001
43
0.0000000001
44
0.0000000001
40
29
40
29
40
29
40
29
40
30
40
30
40
30
40
30
10
81.257521066596624
20
-69.709232388837137
30
0
10
81.269775771035825
20
-70.125016780437278
30
0
10
81.242032689564979
20
-70.589325031715362
30
0
10
81.063596649498891
20
-70.659815232597623
30
0
0
SPLINE
5
198
100
AcDbEntity
8
0
100
AcDbSpline
70
0
71
3
72
8
73
4
74
0
42
0.000000001
43
0.0000000001
44
0.0000000001
40
30
40
30
40
30
40
30
40
31
40
31
40
31
40
31
10
81.063596649498891
20
-70.659815232597623
30
0
10
80.885402190672053
20
-70.730261739543536
30
0
10
80.52460114341217
20
-70.392943468365246
30
0
10
80.227429478527768
20
-70.064545679868061
30
0
0
SPLINE
5
199
100
AcDbEntity
8
0
100
AcDbSpline
70
0
71
3
72
8
73
4
74
0
42
0.000000001
43
0.0000000001
44
0.0000000001
40
31
40
31
40
31
40
31
40
32
40
32
40
32
40
32
10
80.227429478527768
20
-70.064545679868061
30
0
10
79.838399731256274
20
-70.192638700052171
30
0
10
79.447018597475846
20
-70.31302574763528
30
0
10
79.0545300199922
20
-70.429273992013194
30
0
0
SPLINE
5
200
100
AcDbEntity
8
0
100
AcDbSpline
70
0
71
3
72
11
73
7
74
0
42
0.000000001
43
0.0000000001
44
0.0000000001
40
32
40
32
40
32
40
32
40
33
40
33
40
33
40
34
40
34
40
34
40
34
10
79.0545300199922
20
-70.429273992013194
30
0
10
79.05914996094468
20
-70.850052935891682
30
0
10
79.028128901399825
20
-71.313009623307678
30
0
10
78.873376981292836
20
-71.377170777050381
30
0
10
78.718776108331525
20
-71.441269305662928
30
0
10
78.36574126529608
20
-71.071069561672616
30
0
10
78.067644387095342
20
-70.709045545059951
30
0
0
SPLINE
5
201
100
AcDbEntity
8
0
100
AcDbSpline
70
0
71
3
72
8
73
4
74
0
42
0.000000001
43
0.0000000001
44
0.0000000001
40
34
40
34
40
34
40
34
40
35
40
35
40
35
40
35
10
78.067644387095342
20
-70.709045545059951
30
0
10
77.617101709707768
20
-70.830953837473572
30
0
10
77.16524799821029
20
-70.944382664603026
30
0
10
76.712838977900276
20
-71.052056730748305
30
0
0
SPLINE
5
202
100
AcDbEntity
8
0
100
AcDbSpline
70
0
71
3
72
11
73
7
74
0
42
0.000000001
43
0.0000000001
44
0.0000000001
40
35
40
35
40
35
40
35
40
36
40
36
40
36
40
37
40
37
40
37
40
37
10
76.712838977900276
20
-71.052056730748305
30
0
10
76.714047082730502
20
-71.503661436134138
30
0
10
76.67922804675942
20
-71.997646665960545
30
0
10
76.524837563434872
20
-72.068800403528599
30
0
10
76.361880206364404
20
-72.143902344853558
30
0
10
76.047028321745373
20
-71.683457314521689
30
0
10
75.799692780586611
20
-71.260321220770265
30
0
0
ARC
5
203
100
AcDbEntity
8
0
100
AcDbCircle
10
-64.989109396544677
20
-21.610674360151734
30
0
40
50.812952546446809
210
0
220
0
230
-1
100
AcDbArc
50
257.71629446097364
51
259.05533956361404
0
SPLINE
5
204
100
AcDbEntity
8
0
100
AcDbSpline
70
0
71
3
72
11
73
7
74
0
42
0.000000001
43
0.0000000001
44
0.0000000001
40
38
40
38
40
38
40
38
40
39
40
39
40
39
40
40
40
40
40
40
40
40
10
74.636496935647642
20
-71.499391122139272
30
0
10
74.547393232986551
20
-71.969848071010148
30
0
10
74.4142975203101
20
-72.520850796320588
30
0
10
74.274649252196838
20
-72.554194832295352
30
0
10
74.122126270114805
20
-72.590612983914639
30
0
10
73.785665423461893
20
-72.086387971031442
30
0
10
73.551857401376111
20
-71.697851658967636
30
0
0
SPLINE
5
205
100
AcDbEntity
8
0
100
AcDbSpline
70
0
71
3
72
8
73
4
74
0
42
0.000000001
43
0.0000000001
44
0.0000000001
40
40
40
40
40
40
40
40
40
41
40
41
40
41
40
41
10
73.551857401376111
20
-71.697851658967636
30
0
10
73.155159702347802
20
-71.766136965790267
30
0
10
72.759441618924953
20
-71.830639089597952
30
0
10
72.365222569552827
20
-71.889868893706932
30
0
0
SPLINE
5
206
100
AcDbEntity
8
0
100
AcDbSpline
70
0
71
3
72
11
73
7
74
0
42
0.000000001
43
0.0000000001
44
0.0000000001
40
41
40
41
40
41
40
41
40
42
40
42
40
42
40
43
40
43
40
43
40
43
10
72.365222569552827
20
-71.889868893706932
30
0
10
72.256498202184289
20
-72.377304478086387
30
0
10
72.105194078437961
20
-72.95580856694356
30
0
10
71.98463051949949
20
-73.03608078777539
30
0
10
71.850105290210934
20
-73.125648804910782
30
0
10
71.55202721690523
20
-72.529635405407916
30
0
10
71.333733530306333
20
-72.035726357870729
30
0
0
SPLINE
5
207
100
AcDbEntity
8
0
100
AcDbSpline
70
0
71
3
72
8
73
4
74
0
42
0.000000001
43
0.0000000001
44
0.0000000001
40
43
40
43
40
43
40
43
40
44
40
44
40
44
40
44
10
71.333733530306333
20
-72.035726357870729
30
0
10
70.946439379976482
20
-72.086959935628926
30
0
10
70.560517874652945
20
-72.135352533433476
30
0
10
70.17757168480145
20
-72.178645277461456
30
0
0
LINE
5
208
100
AcDbEntity
8
0
100
AcDbLine
10
70.17757168480145
20
-72.178645277461456
30
0
11
70.079641088454778
21
-73.010410512005834
31
0
0
ELLIPSE
5
209
100
AcDbEntity
8
0
100
AcDbEllipse
10
69.889097483473918
20
-72.989744557887107
30
0
11
0.1285969445858054
21
0.14360403339874722
31
0.0
40
0.99134476110746106
41
4.1016496147843977
42
5.3305634914471849
0
SPLINE
5
210
100
AcDbEntity
8
0
100
AcDbSpline
70
0
71
3
72
11
73
7
74
0
42
0.000000001
43
0.0000000001
44
0.0000000001
40
46
40
46
40
46
40
46
40
47
40
47
40
47
40
48
40
48
40
48
40
48
10
69.931976234690879
20
-73.176535546603986
30
0
10
69.852789946365021
20
-73.195453950844055
30
0
10
69.770125009810968
20
-73.162994113805112
30
0
10
69.725097894906597
20
-73.095160124265149
30
0
10
69.570247908046596
20
-72.861876414855104
30
0
10
69.376841404756803
20
-72.56467164078957
30
0
10
69.202997758559988
20
-72.280745226756508
30
0
0
ELLIPSE
5
211
100
AcDbEntity
8
0
100
AcDbEllipse
10
71.078022728454044
20
-68.171858634331372
30
0
11
16.439257907525079
21
2.1716520160874664
31
0.0
40
0.23329818067501268
41
4.458454877681735
42
4.5673276358578887
0
LINE
5
212
100
AcDbEntity
8
0
100
AcDbLine
10
67.438648949164161
20
-72.429666383396352
30
0
11
67.367565872336201
21
-73.241648982973288
31
0
0
SPLINE
5
213
100
AcDbEntity
8
0
100
AcDbSpline
70
0
71
3
72
10
73
6
74
0
42
0.000000001
43
0.0000000001
44
0.0000000001
40
50
40
50
40
50
40
50
40
51
40
51
40
52
40
52
40
52
40
52
10
67.367565872336201
20
-73.241648982973288
30
0
10
67.363344639825272
20
-73.289868158349037
30
0
10
67.326578413876902
20
-73.328883686338187
30
0
10
67.230835689700129
20
-73.343110567523254
30
0
10
67.184233711804637
20
-73.316465687853707
30
0
10
67.166228965101368
20
-73.271531427710158
30
0
0
ELLIPSE
5
214
100
AcDbEntity
8
0
100
AcDbEllipse
10
66.822142496569654
20
-74.791028474581807
30
0
11
0.58615189887245411
21
-2.6827283631422896
31
0.0
40
0.28037716975093163
41
2.1104584005283638
42
2.5485037341043744
0
SPLINE
5
215
100
AcDbEntity
8
0
100
AcDbSpline
70
0
71
3
72
8
73
4
74
0
42
0.000000001
43
0.0000000001
44
0.0000000001
40
53
40
53
40
53
40
53
40
54
40
54
40
54
40
54
10
66.756504601851319
20
-72.474605624248071
30
0
10
66.311920688136482
20
-72.501781799672514
30
0
10
65.873666565830817
20
-72.524303080275743
30
0
10
65.441993710205651
20
-72.542753449961282
30
0
0
LINE
5
216
100
AcDbEntity
8
0
100
AcDbLine
10
65.441993710205651
20
-72.542753449961282
30
0
11
65.15462850862265
21
-73.46719484642243
31
0
0
SPLINE
5
217
100
AcDbEntity
8
0
100
AcDbSpline
70
0
71
3
72
8
73
4
74
0
42
0.000000001
43
0.0000000001
44
0.0000000001
40
55
40
55
40
55
40
55
40
56
40
56
40
56
40
56
10
65.15462850862265
20
-73.46719484642243
30
0
10
65.122803000949631
20
-73.569518594578554
30
0
10
65.029477431761322
20
-73.640326903551212
30
0
10
64.922367540728658
20
-73.643421615245771
30
0
0
SPLINE
5
218
100
AcDbEntity
8
0
100
AcDbSpline
70
0
71
3
72
8
73
4
74
0
42
0.000000001
43
0.0000000001
44
0.0000000001
40
56
40
56
40
56
40
56
40
57
40
57
40
57
40
57
10
64.922367540728658
20
-73.643421615245771
30
0
10
64.815238077657412
20
-73.646492999356838
30
0
10
64.718009291161678
20
-73.581157615676489
30
0
10
64.680366295284387
20
-73.480814508527459
30
0
0
LINE
5
219
100
AcDbEntity
8
0
100
AcDbLine
10
64.680366295284387
20
-73.480814508527459
30
0
11
64.343214715966695
21
-72.581760265253209
31
0
0
SPLINE
5
220
100
AcDbEntity
8
0
100
AcDbSpline
70
0
71
3
72
8
73
4
74
0
42
0.000000001
43
0.0000000001
44
0.0000000001
40
58
40
58
40
58
40
58
40
59
40
59
40
59
40
59
10
64.343214715966695
20
-72.581760265253209
30
0
10
63.904867722045189
20
-72.593985058234423
30
0
10
63.475559623364305
20
-72.60196503198712
30
0
10
63.05513138755326
20
-72.606529218054831
30
0
0
LINE
5
221
100
AcDbEntity
8
0
100
AcDbLine
10
63.05513138755326
20
-72.606529218054831
30
0
11
62.749596547790595
21
-73.365457932854554
31
0
0
ELLIPSE
5
222
100
AcDbEntity
8
0
100
AcDbEllipse
10
62.522975288847825
20
-73.276659036097911
30
0
11
0.20627832073970701
21
0.13183150600934143
31
0.0
40
0.99124195553814798
41
4.1269175576402644
42
5.3368851811422662
0
ELLIPSE
5
223
100
AcDbEntity
8
0
100
AcDbEllipse
10
62.518581584972324
20
-73.276657737703189
30
0
11
0.200997988519869
21
-0.13966971196497566
31
0.0
40
0.99103425776699283
41
4.1025704952526318
42
5.3126661596055502
0
LINE
5
224
100
AcDbEntity
8
0
100
AcDbLine
10
62.289998288140744
20
-73.35995751452586
30
0
11
62.00911468793835
21
-72.610946830444746
31
0
0
ELLIPSE
5
225
100
AcDbEntity
8
0
100
AcDbEllipse
10
64.379554599846244
20
-71.524764069231651
30
0
11
9.8470328974604797
21
0.23910153680090318
31
0.0
40
0.10763199940596863
41
4.3208903615581953
42
4.4666622588698353
0
LINE
5
226
100
AcDbEntity
8
0
100
AcDbLine
10
60.645969965694739
20
-72.595664322910409
30
0
11
60.291002417469684
21
-73.477313814695847
31
0
0
ELLIPSE
5
227
100
AcDbEntity
8
0
100
AcDbEllipse
10
60.190701835389632
20
-73.436952398354137
30
0
11
0.10363899815440056
21
0.030845881210655391
31
0.0
40
0.99964031537252807
41
3.1748574911523373
42
5.6111531003235653
0
LINE
5
228
100
AcDbEntity
8
0
100
AcDbLine
10
60.088145697789258
20
-73.471226873758781
30
0
11
59.787859989258322
21
-72.573497915801894
31
0
0
SPLINE
5
229
100
AcDbEntity
8
0
100
AcDbSpline
70
0
71
3
72
8
73
4
74
0
42
0.000000001
43
0.0000000001
44
0.0000000001
40
68
40
68
40
68
40
68
40
69
40
69
40
69
40
69
10
59.787859989258322
20
-72.573497915801894
30
0
10
56.185079987996517
20
-72.46136104895217
30
0
10
53.840094461307999
20
-72.138950038045849
30
0
10
53.840044927296169
20
-72.13894322763673
30
0
0
LINE
5
230
100
AcDbEntity
8
0
100
AcDbLine
10
53.840044927296169
20
-72.13894322763673
30
0
11
50.04610184011905
21
-73.379781184039501
31
0
0
SPLINE
5
231
100
AcDbEntity
8
0
100
AcDbSpline
70
0
71
3
72
8
73
4
74
0
42
0.000000001
43
0.0000000001
44
0.0000000001
40
70
40
70
40
70
40
70
40
71
40
71
40
71
40
71
10
50.04610184011905
20
-73.379781184039501
30
0
10
49.735773580329123
20
-73.481276402824918
30
0
10
49.533710787929749
20
-73.780209148204335
30
0
10
49.555213183633469
20
-74.106004414037685
30
0
0
LINE
5
232
100
AcDbEntity
8
0
100
AcDbLine
10
49.555213183633469
20
-74.106004414037685
30
0
11
49.625762731227795
21
-75.174941518973299
31
0
0
SPLINE
5
233
100
AcDbEntity
8
0
100
AcDbSpline
70
0
71
3
72
8
73
4
74
0
42
0.000000001
43
0.0000000001
44
0.0000000001
40
72
40
72
40
72
40
72
40
73
40
73
40
73
40
73
10
49.625762731227795
20
-75.174941518973299
30
0
10
49.598718773463077
20
-75.186104507130239
30
0
10
49.682188071663553
20
-75.433376543418845
30
0
10
49.655165563710156
20
-75.444541409348574
30
0
0
SPLINE
5
234
100
AcDbEntity
8
0
100
AcDbSpline
70
0
71
3
72
8
73
4
74
0
42
0.000000001
43
0.0000000001
44
0.0000000001
40
73
40
73
40
73
40
73
40
74
40
74
40
74
40
74
10
49.655165563710156
20
-75.444541409348574
30
0
10
50.186332976488316
20
-76.585407064671415
30
0
10
51.350792914508062
20
-80.242039251725586
30
0
10
46.46366347055276
20
-83.9908047714666
30
0
0
SPLINE
5
235
100
AcDbEntity
8
0
100
AcDbSpline
70
0
71
3
72
11
73
7
74
0
42
0.000000001
43
0.0000000001
44
0.0000000001
40
74
40
74
40
74
40
74
40
75
40
75
40
75
40
76
40
76
40
76
40
76
10
46.46366347055276
20
-83.9908047714666
30
0
10
46.46361567815493
20
-83.990819464550341
30
0
10
44.613730130605511
20
-84.559540108572264
30
0
10
45.246543368022365
20
-86.608464962372409
30
0
10
45.57715041801881
20
-87.678905594026006
30
0
10
45.879336005205793
20
-88.657335345586574
30
0
10
45.87935075990476
20
-88.657383118998197
30
0
0
SPLINE
5
236
100
AcDbEntity
8
0
100
AcDbSpline
70
0
71
3
72
14
73
10
74
0
42
0.000000001
43
0.0000000001
44
0.0000000001
40
76
40
76
40
76
40
76
40
77
40
77
40
77
40
78
40
78
40
78
40
79
40
79
40
79
40
79
10
45.87935075990476
20
-88.657383118998197
30
0
10
45.879358060987869
20
-88.657432583067845
30
0
10
45.968000558313264
20
-89.257976173555249
30
0
10
47.566487090631639
20
-89.512922750293953
30
0
10
49.461721807243862
20
-89.815198430036986
30
0
10
54.357771710357227
20
-90.237472132485053
30
0
10
59.208132178763094
20
-95.76118524756744
30
0
10
63.453440312604606
20
-100.59584946875539
30
0
10
64.425427721353429
20
-103.18450057459114
30
0
10
64.884202021829509
20
-106.63328646039118
30
0
0
LINE
5
237
100
AcDbEntity
8
0
100
AcDbLine
10
64.884202021829509
20
-106.63328646039118
30
0
11
64.935296196422769
21
-106.63330685342012
31
0
0
SPLINE
5
238
100
AcDbEntity
8
0
100
AcDbSpline
70
0
71
3
72
8
73
4
74
0
42
0.000000001
43
0.0000000001
44
0.0000000001
40
80
40
80
40
80
40
80
40
81
40
81
40
81
40
81
10
64.935296196422769
20
-106.63330685342012
30
0
10
65.0710722414955
20
-108.37424228332611
30
0
10
66.633209888850317
20
-108.55727188576402
30
0
10
66.950416488778444
20
-108.57656821482186
30
0
0
SPLINE
5
239
100
AcDbEntity
8
0
100
AcDbSpline
70
0
71
3
72
8
73
4
74
0
42
0.000000001
43
0.0000000001
44
0.0000000001
40
81
40
81
40
81
40
81
40
82
40
82
40
82
40
82
10
66.950416488778444
20
-108.57656821482186
30
0
10
66.983234267727482
20
-108.57697715050868
30
0
10
67.010470492317978
20
-108.57933990598468
30
0
10
67.010520305232134
20
-108.57934422727874
30
0
0
SPLINE
5
240
100
AcDbEntity
8
0
100
AcDbSpline
70
0
71
3
72
8
73
4
74
0
42
0.000000001
43
0.0000000001
44
0.0000000001
40
82
40
82
40
82
40
82
40
83
40
83
40
83
40
83
10
67.010520305232134
20
-108.57934422727874
30
0
10
67.010470319781106
20
-108.57934302117549
30
0
10
66.986320295321121
20
-108.57876030315693
30
0
10
66.950416488778444
20
-108.57656821482186
30
0
0
SPLINE
5
241
100
AcDbEntity
8
0
100
AcDbSpline
70
0
71
3
72
11
73
7
74
0
42
0.000000001
43
0.0000000001
44
0.0000000001
40
83
40
83
40
83
40
83
40
84
40
84
40
84
40
85
40
85
40
85
40
85
10
66.950416488778444
20
-108.57656821482186
30
0
10
66.773462762395283
20
-108.5743267258737
30
0
10
70.123806144733095
20
-108.84403925727204
30
0
10
70.263018067583374
20
-108.86656200612887
30
0
10
73.276057116790028
20
-109.35403405889332
30
0
10
72.832554946279998
20
-106.20193136974947
30
0
10
72.832547979876665
20
-106.20188185743559
30
0
0
SPLINE
5
242
100
AcDbEntity
8
0
100
AcDbSpline
70
0
71
3
72
8
73
4
74
0
42
0.000000001
43
0.0000000001
44
0.0000000001
40
85
40
85
40
85
40
85
40
86
40
86
40
86
40
86
10
72.832547979876665
20
-106.20188185743559
30
0
10
73.13911499099801
20
-102.69996424577192
30
0
10
76.458224159626923
20
-95.933107198672644
30
0
10
76.458246178304165
20
-95.93306230794029
30
0
0
SPLINE
5
243
100
AcDbEntity
8
0
100
AcDbSpline
70
0
71
3
72
8
73
4
74
0
42
0.000000001
43
0.0000000001
44
0.0000000001
40
86
40
86
40
86
40
86
40
87
40
87
40
87
40
87
10
76.458246178304165
20
-95.93306230794029
30
0
10
84.342098123045531
20
-82.829033653075129
30
0
10
96.890836286378615
20
-93.391027321838621
30
0
10
96.890874539995067
20
-93.391059519056341
30
0
0
SPLINE
5
244
100
AcDbEntity
8
0
100
AcDbSpline
70
0
71
3
72
8
73
4
74
0
42
0.000000001
43
0.0000000001
44
0.0000000001
40
87
40
87
40
87
40
87
40
88
40
88
40
88
40
88
10
96.890874539995067
20
-93.391059519056341
30
0
10
98.34329595549309
20
-95.122176168913001
30
0
10
99.236680016326119
20
-94.077655148000417
30
0
10
99.236712515619644
20
-94.077617150685768
30
0
0
SPLINE
5
245
100
AcDbEntity
8
0
100
AcDbSpline
70
0
71
3
72
8
73
4
74
0
42
0.000000001
43
0.0000000001
44
0.0000000001
40
88
40
88
40
88
40
88
40
89
40
89
40
89
40
89
10
99.236712515619644
20
-94.077617150685768
30
0
10
111.18737965342515
20
-85.820757105069646
30
0
10
119.97158826713742
20
-95.411571546312899
30
0
10
119.97162203796665
20
-95.411608418132658
30
0
0
SPLINE
5
246
100
AcDbEntity
8
0
100
AcDbSpline
70
0
71
3
72
8
73
4
74
0
42
0.000000001
43
0.0000000001
44
0.0000000001
40
89
40
89
40
89
40
89
40
90
40
90
40
90
40
90
10
119.97162203796665
20
-95.411608418132658
30
0
10
121.43795695314896
20
-96.983544141967883
30
0
10
122.79495469418008
20
-96.139997295127415
30
0
10
122.79499715833815
20
-96.139970898247327
30
0
0
SPLINE
5
247
100
AcDbEntity
8
0
100
AcDbSpline
70
0
71
3
72
11
73
7
74
0
42
0.000000001
43
0.0000000001
44
0.0000000001
40
90
40
90
40
90
40
90
40
91
40
91
40
91
40
92
40
92
40
92
40
92
10
122.79499715833815
20
-96.139970898247327
30
0
10
132.09321828754759
20
-90.698445627309525
30
0
10
138.02834252857883
20
-96.190340745733621
30
0
10
139.46684410507658
20
-98.080643145769216
30
0
10
140.90533691035705
20
-99.970934019746494
30
0
10
141.59774825812613
20
-99.389994586205987
30
0
10
141.59778656205543
20
-99.389962448860103
30
0
0
LINE
5
248
100
AcDbEntity
8
0
100
AcDbLine
10
141.59778656205543
20
-99.389962448860103
30
0
11
141.59800264879431
21
-99.390456877974245
31
0
0
SPLINE
5
249
100
AcDbEntity
8
0
100
AcDbSpline
70
0
71
3
72
11
73
7
74
0
42
0.000000001
43
0.0000000001
44
0.0000000001
40
93
40
93
40
93
40
93
40
94
40
94
40
94
40
95
40
95
40
95
40
95
10
141.59800264879431
20
-99.390456877974245
30
0
10
141.94114496993524
20
-96.610672558949432
30
0
10
142.20006557541197
20
-88.565864383069112
30
0
10
147.87245801450246
20
-83.21425012151866
30
0
10
154.37560427963092
20
-77.07886180501724
30
0
10
164.61579435770486
20
-78.307802871686675
30
0
10
164.61584400147896
20
-78.307808829512865
30
0
0
SPLINE
5
250
100
AcDbEntity
8
0
100
AcDbSpline
70
0
71
3
72
17
73
13
74
0
42
0.000000001
43
0.0000000001
44
0.0000000001
40
0
40
0
40
0
40
0
40
1
40
1
40
1
40
2
40
2
40
2
40
3
40
3
40
3
40
4
40
4
40
4
40
4
10
100.38533584052922
20
-27.433184820833301
30
0
10
99.595841755117533
20
-29.934919769082477
30
0
10
96.927773460990934
20
-31.322965241251616
30
0
10
94.426038512741798
20
-30.533471155840253
30
0
10
91.924303564492931
20
-29.743977070428581
30
0
10
90.536258092323465
20
-27.075908776301976
30
0
10
91.325752177735183
20
-24.574173828052814
30
0
10
92.11524626314683
20
-22.072438879803975
30
0
10
94.783314557273428
20
-20.684393407634506
30
0
10
97.285049505522295
20
-21.473887493046185
30
0
10
99.786784453771432
20
-22.263381578457864
30
0
10
101.17482992594061
20
-24.931449872584466
30
0
10
100.38533584052922
20
-27.433184820833301
30
0
0
SPLINE
5
251
100
AcDbEntity
8
0
100
AcDbSpline
70
0
71
3
72
8
73
4
74
0
42
0.000000001
43
0.0000000001
44
0.0000000001
40
0
40
0
40
0
40
0
40
1
40
1
40
1
40
1
10
45.3349531709639
20
-124.32927544744879
30
0
10
44.858953635533815
20
-122.93514652520142
30
0
10
45.070996822885689
20
-121.94708787177569
30
0
10
45.071007314303948
20
-121.94703898486392
30
0
0
SPLINE
5
252
100
AcDbEntity
8
0
100
AcDbSpline
70
0
71
3
72
8
73
4
74
0
42
0.000000001
43
0.0000000001
44
0.0000000001
40
1
40
1
40
1
40
1
40
2
40
2
40
2
40
2
10
45.071007314303948
20
-121.94703898486392
30
0
10
46.619998485052761
20
-121.3127640914322
30
0
10
48.162241728737676
20
-120.72395055497051
30
0
10
49.684946643180766
20
-120.17367505030026
30
0
0
SPLINE
5
253
100
AcDbEntity
8
0
100
AcDbSpline
70
0
71
3
72
14
73
10
74
0
42
0.000000001
43
0.0000000001
44
0.0000000001
40
2
40
2
40
2
40
2
40
3
40
3
40
3
40
4
40
4
40
4
40
5
40
5
40
5
40
5
10
49.684946643180766
20
-120.17367505030026
30
0
10
50.040626452679518
20
-120.85336794707978
30
0
10
50.783300622169889
20
-121.28255817263643
30
0
10
51.591697620823389
20
-121.19298851645115
30
0
10
52.644235906093115
20
-121.07636822655529
30
0
10
53.402928068617861
20
-120.12857765741305
30
0
10
53.286307778722019
20
-119.07603937214334
30
0
10
53.281110111375291
20
-119.0291286340418
30
0
10
53.2657484937954
20
-118.98629030350484
30
0
10
53.257307136462238
20
-118.94060550775286
30
0
0
SPLINE
5
254
100
AcDbEntity
8
0
100
AcDbSpline
70
0
71
3
72
8
73
4
74
0
42
0.000000001
43
0.0000000001
44
0.0000000001
40
5
40
5
40
5
40
5
40
6
40
6
40
6
40
6
10
53.257307136462238
20
-118.94060550775286
30
0
10
53.759959705239162
20
-118.7753158506307
30
0
10
54.259265540748984
20
-118.61384152264904
30
0
10
54.753747621403619
20
-118.45751601144903
30
0
0
SPLINE
5
255
100
AcDbEntity
8
0
100
AcDbSpline
70
0
71
3
72
14
73
10
74
0
42
0.000000001
43
0.0000000001
44
0.0000000001
40
6
40
6
40
6
40
6
40
7
40
7
40
7
40
8
40
8
40
8
40
9
40
9
40
9
40
9
10
54.753747621403619
20
-118.45751601144903
30
0
10
55.096960129643399
20
-119.16976420991614
30
0
10
55.855309641332894
20
-119.62683177774329
30
0
10
56.685813753334607
20
-119.53481267339647
30
0
10
57.738352038604319
20
-119.41819238350095
30
0
10
58.497065602012754
20
-118.4703994431601
30
0
10
58.38044531211726
20
-117.4178611578904
30
0
10
58.378529383642828
20
-117.40056924348065
30
0
10
58.372111735219576
20
-117.38507593221911
30
0
10
58.369758244170484
20
-117.36794081740092
30
0
0
SPLINE
5
256
100
AcDbEntity
8
0
100
AcDbSpline
70
0
71
3
72
8
73
4
74
0
42
0.000000001
43
0.0000000001
44
0.0000000001
40
9
40
9
40
9
40
9
40
10
40
10
40
10
40
10
10
58.369758244170484
20
-117.36794081740092
30
0
10
59.001634694932797
20
-117.18642687329555
30
0
10
59.621331879120383
20
-117.01328139081888
30
0
10
60.230450541326334
20
-116.84691887421397
30
0
0
SPLINE
5
257
100
AcDbEntity
8
0
100
AcDbSpline
70
0
71
3
72
14
73
10
74
0
42
0.000000001
43
0.0000000001
44
0.0000000001
40
10
40
10
40
10
40
10
40
11
40
11
40
11
40
12
40
12
40
12
40
13
40
13
40
13
40
13
10
60.230450541326334
20
-116.84691887421397
30
0
10
60.530130620115237
20
-117.65096982397245
30
0
10
61.340872950407281
20
-118.18360083717403
30
0
10
62.232519388483958
20
-118.08480721840681
30
0
10
63.28505767375367
20
-117.96818692851132
30
0
10
64.043773608360709
20
-117.02041538905445
30
0
10
63.927153318465201
20
-115.96787710378479
30
0
10
63.924215403391109
20
-115.94136140829768
30
0
10
63.914766276164521
20
-115.91747354698016
30
0
10
63.910789142463898
20
-115.89135462291767
30
0
0
SPLINE
5
258
100
AcDbEntity
8
0
100
AcDbSpline
70
0
71
3
72
8
73
4
74
0
42
0.000000001
43
0.0000000001
44
0.0000000001
40
13
40
13
40
13
40
13
40
14
40
14
40
14
40
14
10
63.910789142463898
20
-115.89135462291767
30
0
10
64.455585652865381
20
-115.75722706750064
30
0
10
64.990548590897376
20
-115.62761191351848
30
0
10
65.504324981511218
20
-115.50699493835019
30
0
0
SPLINE
5
259
100
AcDbEntity
8
0
100
AcDbSpline
70
0
71
3
72
14
73
10
74
0
42
0.000000001
43
0.0000000001
44
0.0000000001
40
14
40
14
40
14
40
14
40
15
40
15
40
15
40
16
40
16
40
16
40
17
40
17
40
17
40
17
10
65.504324981511218
20
-115.50699493835019
30
0
10
65.662145108948991
20
-116.51393743997495
30
0
10
66.579914755338237
20
-117.23044064722792
30
0
10
67.603133829294251
20
-117.11706889942377
30
0
10
68.655672114563956
20
-117.00044860952828
30
0
10
69.414388049171322
20
-116.05267707007147
30
0
10
69.297767759275814
20
-115.00013878480173
30
0
10
69.285575056037814
20
-114.89009543839744
30
0
10
69.259330314856967
20
-114.7854001769816
30
0
10
69.229791788035712
20
-114.68245633512807
30
0
0
ELLIPSE
5
260
100
AcDbEntity
8
0
100
AcDbEllipse
10
68.085994844350608
20
-115.37472147569505
30
0
11
7.9368949339041066
21
1.7174487842253159
31
0.0
40
0.054191526975870492
41
1.2123543952579721
42
1.4144655522928071
0
SPLINE
5
261
100
AcDbEntity
8
0
100
AcDbSpline
70
0
71
3
72
11
73
7
74
0
42
0.000000001
43
0.0000000001
44
0.0000000001
40
18
40
18
40
18
40
18
40
19
40
19
40
19
40
20
40
20
40
20
40
20
10
70.783225529060417
20
-114.36943715699242
30
0
10
71.010896879185267
20
-115.28787826515133
30
0
10
71.880615267155903
20
-115.92205453894776
30
0
10
72.846843786566183
20
-115.81499729303458
30
0
10
73.897777005522968
20
-115.69855484303461
30
0
10
74.655305625449287
20
-114.75336284499434
30
0
10
74.541500046309409
20
-113.70276570784563
30
0
0
SPLINE
5
262
100
AcDbEntity
8
0
100
AcDbSpline
70
0
71
3
72
8
73
4
74
0
42
0.000000001
43
0.0000000001
44
0.0000000001
40
20
40
20
40
20
40
20
40
21
40
21
40
21
40
21
10
74.541500046309409
20
-113.70276570784563
30
0
10
74.645502551909587
20
-113.68688793852726
30
0
10
74.700059178504816
20
-113.67900337547559
30
0
10
74.700108664388438
20
-113.67899622373997
30
0
0
SPLINE
5
263
100
AcDbEntity
8
0
100
AcDbSpline
70
0
71
3
72
8
73
4
74
0
42
0.000000001
43
0.0000000001
44
0.0000000001
40
21
40
21
40
21
40
21
40
22
40
22
40
22
40
22
10
74.700108664388438
20
-113.67899622373997
30
0
10
100.26922164379937
20
-110.84596163510335
30
0
10
123.68455757999888
20
-111.78985193865303
30
0
10
123.68460753942436
20
-111.78985395255611
30
0
0
SPLINE
5
264
100
AcDbEntity
8
0
100
AcDbSpline
70
0
71
3
72
8
73
4
74
0
42
0.000000001
43
0.0000000001
44
0.0000000001
40
22
40
22
40
22
40
22
40
23
40
23
40
23
40
23
10
123.68460753942436
20
-111.78985395255611
30
0
10
123.86570436349176
20
-111.88497400705627
30
0
10
124.05018895236326
20
-111.97430279757316
30
0
10
124.23346974835735
20
-112.06567136500502
30
0
0
SPLINE
5
265
100
AcDbEntity
8
0
100
AcDbSpline
70
0
71
3
72
11
73
7
74
0
42
0.000000001
43
0.0000000001
44
0.0000000001
40
23
40
23
40
23
40
23
40
24
40
24
40
24
40
25
40
25
40
25
40
25
10
124.23346974835735
20
-112.06567136500502
30
0
10
124.20416496753796
20
-112.53126309056911
30
0
10
124.2253565394461
20
-113.118029181079
30
0
10
124.49878215977833
20
-113.25227512937997
30
0
10
124.77989097365155
20
-113.39029335623198
30
0
10
125.11286025787463
20
-112.95685457231437
30
0
10
125.3346937157585
20
-112.58827914946082
30
0
0
SPLINE
5
266
100
AcDbEntity
8
0
100
AcDbSpline
70
0
71
3
72
8
73
4
74
0
42
0.000000001
43
0.0000000001
44
0.0000000001
40
25
40
25
40
25
40
25
40
26
40
26
40
26
40
26
10
125.3346937157585
20
-112.58827914946082
30
0
10
125.67753140277046
20
-112.74225429944103
30
0
10
126.02295772798732
20
-112.89104665460199
30
0
10
126.37167697006346
20
-113.03319171041268
30
0
0
SPLINE
5
267
100
AcDbEntity
8
0
100
AcDbSpline
70
0
71
3
72
11
73
7
74
0
42
0.000000001
43
0.0000000001
44
0.0000000001
40
26
40
26
40
26
40
26
40
27
40
27
40
27
40
28
40
28
40
28
40
28
10
126.37167697006346
20
-113.03319171041268
30
0
10
126.29234148940348
20
-113.48950888245349
30
0
10
126.23565321718613
20
-114.05832875487305
30
0
10
126.41354165642169
20
-114.19409873097139
30
0
10
126.60347575391225
20
-114.33906232718581
30
0
10
127.01032558788836
20
-113.81532637969275
30
0
10
127.29411474136623
20
-113.39315791324857
30
0
0
SPLINE
5
268
100
AcDbEntity
8
0
100
AcDbSpline
70
0
71
3
72
8
73
4
74
0
42
0.000000001
43
0.0000000001
44
0.0000000001
40
28
40
28
40
28
40
28
40
29
40
29
40
29
40
29
10
127.29411474136623
20
-113.39315791324857
30
0
10
127.68472235430247
20
-113.53932721979197
30
0
10
128.07727882992396
20
-113.68079622667118
30
0
10
128.47317405643489
20
-113.81348982196891
30
0
0
SPLINE
5
269
100
AcDbEntity
8
0
100
AcDbSpline
70
0
71
3
72
8
73
4
74
0
42
0.000000001
43
0.0000000001
44
0.0000000001
40
29
40
29
40
29
40
29
40
30
40
30
40
30
40
30
10
128.47317405643489
20
-113.81348982196891
30
0
10
128.47049685384175
20
-114.22944615461161
30
0
10
128.50892418871479
20
-114.69299245295602
30
0
10
128.68893609080291
20
-114.75935512259235
30
0
0
SPLINE
5
270
100
AcDbEntity
8
0
100
AcDbSpline
70
0
71
3
72
8
73
4
74
0
42
0.000000001
43
0.0000000001
44
0.0000000001
40
30
40
30
40
30
40
30
40
31
40
31
40
31
40
31
10
128.68893609080291
20
-114.75935512259235
30
0
10
128.86870546957059
20
-114.82567967276046
30
0
10
129.2216434325068
20
-114.48014269052395
30
0
10
129.51117429639854
20
-114.14498901718282
30
0
0
SPLINE
5
271
100
AcDbEntity
8
0
100
AcDbSpline
70
0
71
3
72
8
73
4
74
0
42
0.000000001
43
0.0000000001
44
0.0000000001
40
31
40
31
40
31
40
31
40
32
40
32
40
32
40
32
10
129.51117429639854
20
-114.14498901718282
30
0
10
129.90305048364769
20
-114.2640898985768
30
0
10
130.2970999887649
20
-114.37543270535868
30
0
10
130.69216133986652
20
-114.48261230529542
30
0
0
SPLINE
5
272
100
AcDbEntity
8
0
100
AcDbSpline
70
0
71
3
72
11
73
7
74
0
42
0.000000001
43
0.0000000001
44
0.0000000001
40
32
40
32
40
32
40
32
40
33
40
33
40
33
40
34
40
34
40
34
40
34
10
130.69216133986652
20
-114.48261230529542
30
0
10
130.69723188573766
20
-114.90338606045421
30
0
10
130.73890520709554
20
-115.36550567142655
30
0
10
130.89509353046117
20
-115.42608634549678
30
0
10
131.05112940466489
20
-115.48660788919933
30
0
10
131.3955460621215
20
-115.10837698496977
30
0
10
131.68522758404188
20
-114.73958469484546
30
0
0
SPLINE
5
273
100
AcDbEntity
8
0
100
AcDbSpline
70
0
71
3
72
8
73
4
74
0
42
0.000000001
43
0.0000000001
44
0.0000000001
40
34
40
34
40
34
40
34
40
35
40
35
40
35
40
35
10
131.68522758404188
20
-114.73958469484546
30
0
10
132.13845797539557
20
-114.85108603232428
30
0
10
132.59280379688599
20
-114.95407996376103
30
0
10
133.04757226526723
20
-115.0513078730452
30
0
0
SPLINE
5
274
100
AcDbEntity
8
0
100
AcDbSpline
70
0
71
3
72
11
73
7
74
0
42
0.000000001
43
0.0000000001
44
0.0000000001
40
35
40
35
40
35
40
35
40
36
40
36
40
36
40
37
40
37
40
37
40
37
10
133.04757226526723
20
-115.0513078730452
30
0
10
133.05676356631008
20
-115.50282065185567
30
0
10
133.10294835018578
20
-115.99587312197527
30
0
10
133.25893635058549
20
-116.06345284853919
30
0
10
133.42357986832394
20
-116.13478246287346
30
0
10
133.72774561678369
20
-115.66720943898397
30
0
10
133.96527203568667
20
-115.23849015544444
30
0
0
ARC
5
275
100
AcDbEntity
8
0
100
AcDbCircle
10
143.62970827421665
20
-65.353073261420661
30
0
40
50.812952546561966
210
0
220
0
230
1
100
AcDbArc
50
259.03575896738533
51
260.37480407002306
0
SPLINE
5
276
100
AcDbEntity
8
0
100
AcDbSpline
70
0
71
3
72
11
73
7
74
0
42
0.000000001
43
0.0000000001
44
0.0000000001
40
38
40
38
40
38
40
38
40
39
40
39
40
39
40
40
40
40
40
40
40
40
10
135.13366450675699
20
-115.45071179659082
30
0
10
135.23357777854281
20
-115.91899221331798
30
0
10
135.37932612034979
20
-116.46678404685792
30
0
10
135.51970517186291
20
-116.49690356575341
30
0
10
135.67302631109217
20
-116.52979991959194
30
0
10
135.99778717174138
20
-116.01796093286084
30
0
10
136.22258638641546
20
-115.62414375438163
30
0
0
SPLINE
5
277
100
AcDbEntity
8
0
100
AcDbSpline
70
0
71
3
72
8
73
4
74
0
42
0.000000001
43
0.0000000001
44
0.0000000001
40
40
40
40
40
40
40
40
40
41
40
41
40
41
40
41
10
136.22258638641546
20
-115.62414375438163
30
0
10
136.62075130212654
20
-115.68327621111703
30
0
10
137.01784974676048
20
-115.73864904554404
30
0
10
137.41332814930277
20
-115.78878547646154
30
0
0
SPLINE
5
278
100
AcDbEntity
8
0
100
AcDbSpline
70
0
71
3
72
11
73
7
74
0
42
0.000000001
43
0.0000000001
44
0.0000000001
40
41
40
41
40
41
40
41
40
42
40
42
40
42
40
43
40
43
40
43
40
43
10
137.41332814930277
20
-115.78878547646154
30
0
10
137.53324784970266
20
-116.27358822236442
30
0
10
137.69783304743902
20
-116.84845484287104
30
0
10
137.82021306384553
20
-116.92592956626952
30
0
10
137.95676510255663
20
-117.01237612624953
30
0
10
138.24103975934574
20
-116.40965692987422
30
0
10
138.44790233800504
20
-115.91085220415624
30
0
0
SPLINE
5
279
100
AcDbEntity
8
0
100
AcDbSpline
70
0
71
3
72
8
73
4
74
0
42
0.000000001
43
0.0000000001
44
0.0000000001
40
43
40
43
40
43
40
43
40
44
40
44
40
44
40
44
10
138.44790233800504
20
-115.91085220415624
30
0
10
138.83627354886113
20
-115.95315398837295
30
0
10
139.22320705953015
20
-115.99264715378554
30
0
10
139.60704860949767
20
-116.02711033016101
30
0
0
LINE
5
280
100
AcDbEntity
8
0
100
AcDbLine
10
139.60704860949767
20
-116.02711033016101
30
0
11
139.72410626755035
21
-116.85639997304158
31
0
0
ELLIPSE
5
281
100
AcDbEntity
8
0
100
AcDbEllipse
10
139.9141234746192
20
-116.83135185777783
30
0
11
0.13186961130989147
21
-0.14060475873619388
31
0.0
40
0.99134476112598457
41
4.094214469690403
42
5.323128346334693
0
SPLINE
5
282
100
AcDbEntity
8
0
100
AcDbSpline
70
0
71
3
72
11
73
7
74
0
42
0.000000001
43
0.0000000001
44
0.0000000001
40
46
40
46
40
46
40
46
40
47
40
47
40
47
40
48
40
48
40
48
40
48
10
139.8755573224179
20
-117.01908068528802
30
0
10
139.95515824747096
20
-117.036170653352
30
0
10
140.03705381342959
20
-117.0018159006613
30
0
10
140.08050697826621
20
-116.93296305991194
30
0
10
140.22994409006466
20
-116.69617548185188
30
0
10
140.41645558672326
20
-116.39459594863284
30
0
10
140.58371517381849
20
-116.10674172783078
30
0
0
ELLIPSE
5
283
100
AcDbEntity
8
0
100
AcDbEllipse
10
138.61457220338485
20
-112.04212078284287
30
0
11
16.484905459079112
21
-1.7925299736103897
31
0.0
40
0.23329818016174886
41
4.8574503243777567
42
4.9663230828091338
0
LINE
5
284
100
AcDbEntity
8
0
100
AcDbLine
10
142.35102535826019
20
-116.21499579970616
30
0
11
142.44078708153293
21
-117.02512626997742
31
0
0
SPLINE
5
285
100
AcDbEntity
8
0
100
AcDbSpline
70
0
71
3
72
10
73
6
74
0
42
0.000000001
43
0.0000000001
44
0.0000000001
40
50
40
50
40
50
40
50
40
51
40
51
40
52
40
52
40
52
40
52
10
142.44078708153293
20
-117.02512626997742
30
0
10
142.44611753600199
20
-117.07323545759235
30
0
10
142.48377242235523
20
-117.1113940258106
30
0
10
142.57981736169111
20
-117.12341247034252
30
0
10
142.62579343210749
20
-117.09570155362212
30
0
10
142.64275870513481
20
-117.05036461338993
30
0
0
ELLIPSE
5
286
100
AcDbEntity
8
0
100
AcDbEllipse
10
143.02174334187572
20
-118.56153549124315
30
0
11
0.52422138644875349
21
2.6955143226434588
31
0.0
40
0.28037716974638133
41
0.59308891935612418
42
1.0311342528067207
0
SPLINE
5
287
100
AcDbEntity
8
0
100
AcDbSpline
70
0
71
3
72
8
73
4
74
0
42
0.000000001
43
0.0000000001
44
0.0000000001
40
53
40
53
40
53
40
53
40
54
40
54
40
54
40
54
10
143.03402364541614
20
-116.24421541096469
30
0
10
143.47911545999878
20
-116.26114696245467
30
0
10
143.91777197345488
20
-116.27357060927805
30
0
10
144.34975522456944
20
-116.28207597120353
30
0
0
LINE
5
288
100
AcDbEntity
8
0
100
AcDbLine
10
144.34975522456944
20
-116.28207597120353
30
0
11
144.65833130888652
21
-117.19965509845026
31
0
0
SPLINE
5
289
100
AcDbEntity
8
0
100
AcDbSpline
70
0
71
3
72
8
73
4
74
0
42
0.000000001
43
0.0000000001
44
0.0000000001
40
55
40
55
40
55
40
55
40
56
40
56
40
56
40
56
10
144.65833130888652
20
-117.19965509845026
30
0
10
144.6925045831652
20
-117.30121887004452
30
0
10
144.78743590696726
20
-117.36985939921809
30
0
10
144.89458865901798
20
-117.37048687466925
30
0
0
SPLINE
5
290
100
AcDbEntity
8
0
100
AcDbSpline
70
0
71
3
72
8
73
4
74
0
42
0.000000001
43
0.0000000001
44
0.0000000001
40
56
40
56
40
56
40
56
40
57
40
57
40
57
40
57
10
144.89458865901798
20
-117.37048687466925
30
0
10
145.00176044075388
20
-117.37109057803779
30
0
10
145.09745897091949
20
-117.30353363458802
30
0
10
145.13278138837236
20
-117.20235033005468
30
0
0
LINE
5
291
100
AcDbEntity
8
0
100
AcDbLine
10
145.13278138837236
20
-117.20235033005468
30
0
11
145.44914107984667
21
-116.29577089867757
31
0
0
SPLINE
5
292
100
AcDbEntity
8
0
100
AcDbSpline
70
0
71
3
72
8
73
4
74
0
42
0.000000001
43
0.0000000001
44
0.0000000001
40
58
40
58
40
58
40
58
40
59
40
59
40
59
40
59
10
145.44914107984667
20
-116.29577089867757
30
0
10
145.88765334343731
20
-116.29789864949977
30
0
10
146.31703136320067
20
-116.29599084495186
30
0
10
146.73745321941797
20
-116.29087263472171
30
0
0
LINE
5
293
100
AcDbEntity
8
0
100
AcDbLine
10
146.73745321941797
20
-116.29087263472171
30
0
11
147.0603828694808
21
-117.04256457532449
31
0
0
ELLIPSE
5
294
100
AcDbEntity
8
0
100
AcDbEllipse
10
147.28489926945198
20
-116.94857082441665
30
0
11
0.20925930426529113
21
-0.1270465865730428
31
0.0
40
0.99124195551546601
41
4.0878927797039086
42
5.2978604032309207
0
ELLIPSE
5
295
100
AcDbEntity
8
0
100
AcDbEllipse
10
147.28929177842031
20
-116.94846835269627
30
0
11
0.19772852325731793
21
0.14426105128986688
31
0.0
40
0.99103425776171561
41
4.1121118012019213
42
5.3222074655634746
0
LINE
5
296
100
AcDbEntity
8
0
100
AcDbLine
10
147.51973260609319
20
-117.02648246263499
30
0
11
147.78329428594509
21
-116.27120248630563
31
0
0
ELLIPSE
5
297
100
AcDbEntity
8
0
100
AcDbEllipse
10
145.38847140253702
20
-115.23989176216359
30
0
11
9.8499277151599696
21
-0.012290861949404075
31
0.0
40
0.10763199969201903
41
4.9581157026971061
42
5.1038875995610136
0
LINE
5
298
100
AcDbEntity
8
0
100
AcDbLine
10
149.14572565283453
20
-116.22453494583283
30
0
11
149.52090079097499
21
-117.09777683808261
31
0
0
ELLIPSE
5
299
100
AcDbEntity
8
0
100
AcDbEllipse
10
149.62024537688097
20
-117.05511650585136
30
0
11
0.10432180450084033
21
-0.028451211431559764
31
0.0
40
0.99964031538709752
41
3.8136248673367295
42
6.2499204764789926
0
LINE
5
300
100
AcDbEntity
8
0
100
AcDbLine
10
149.72356355826645
20
-117.08702033664161
30
0
11
150.00309767144753
21
-116.18261474827405
31
0
0
SPLINE
5
301
100
AcDbEntity
8
0
100
AcDbSpline
70
0
71
3
72
8
73
4
74
0
42
0.000000001
43
0.0000000001
44
0.0000000001
40
68
40
68
40
68
40
68
40
69
40
69
40
69
40
69
10
150.00309767144753
20
-116.18261474827405
30
0
10
153.60234020339357
20
-115.98754652781791
30
0
10
155.9392797968834
20
-115.61122310745878
30
0
10
155.93932916093794
20
-115.61121515823754
30
0
0
LINE
5
302
100
AcDbEntity
8
0
100
AcDbLine
10
155.93932916093794
20
-115.61121515823754
30
0
11
159.76083899409602
21
-116.76436110644408
31
0
0
SPLINE
5
303
100
AcDbEntity
8
0
100
AcDbSpline
70
0
71
3
72
8
73
4
74
0
42
0.000000001
43
0.0000000001
44
0.0000000001
40
70
40
70
40
70
40
70
40
71
40
71
40
71
40
71
10
159.76083899409602
20
-116.76436110644408
30
0
10
160.07342209538248
20
-116.85868349535949
30
0
10
160.282314823408
20
-117.15288408426146
30
0
10
160.26832020522048
20
-117.47908809852581
30
0
0
LINE
5
304
100
AcDbEntity
8
0
100
AcDbLine
10
160.26832020522048
20
-117.47908809852581
30
0
11
160.22240374105229
21
-118.54936631062424
31
0
0
SPLINE
5
305
100
AcDbEntity
8
0
100
AcDbSpline
70
0
71
3
72
8
73
4
74
0
42
0.000000001
43
0.0000000001
44
0.0000000001
40
72
40
72
40
72
40
72
40
73
40
73
40
73
40
73
10
160.22240374105229
20
-118.54936631062424
30
0
10
160.24969757768946
20
-118.55990359859453
30
0
10
160.17194433626111
20
-118.80903211386332
30
0
10
160.19921677201452
20
-118.81957177303222
30
0
0
SPLINE
5
306
100
AcDbEntity
8
0
100
AcDbSpline
70
0
71
3
72
8
73
4
74
0
42
0.000000001
43
0.0000000001
44
0.0000000001
40
73
40
73
40
73
40
73
40
74
40
74
40
74
40
74
10
160.19921677201452
20
-118.81957177303222
30
0
10
159.69446087429566
20
-119.97236609450087
30
0
10
158.61451083917603
20
-123.65484268238305
30
0
10
163.58666712358809
20
-127.29007843916108
30
0
0
SPLINE
5
307
100
AcDbEntity
8
0
100
AcDbSpline
70
0
71
3
72
11
73
7
74
0
42
0.000000001
43
0.0000000001
44
0.0000000001
40
74
40
74
40
74
40
74
40
75
40
75
40
75
40
76
40
76
40
76
40
76
10
163.58666712358809
20
-127.29007843916108
30
0
10
163.58671524165061
20
-127.29009202783502
30
0
10
165.44920619160268
20
-127.81606462342799
30
0
10
164.86374126817881
20
-129.87901796109935
30
0
10
164.55787087899461
20
-130.95678763613358
30
0
10
164.2782956852335
20
-131.94191636826693
30
0
10
164.2782820345235
20
-131.94196446876708
30
0
0
SPLINE
5
308
100
AcDbEntity
8
0
100
AcDbSpline
70
0
71
3
72
14
73
10
74
0
42
0.000000001
43
0.0000000001
44
0.0000000001
40
76
40
76
40
76
40
76
40
77
40
77
40
77
40
78
40
78
40
78
40
79
40
79
40
79
40
79
10
164.2782820345235
20
-131.94196446876708
30
0
10
164.2782758743837
20
-131.94201408784284
30
0
10
164.20348557708411
20
-132.54443960841621
30
0
10
162.61129353836608
20
-132.83612687731468
30
0
10
160.72352184540492
20
-133.18196390955296
30
0
10
155.83849383941086
20
-133.71686681122816
30
0
10
151.11661381777131
20
-139.35080436079815
30
0
10
146.98375899317409
20
-144.2819432030627
30
0
10
146.07163808964992
20
-146.89228983289371
30
0
10
145.69240050609591
20
-150.35072543300095
30
0
0
LINE
5
309
100
AcDbEntity
8
0
100
AcDbLine
10
145.69240050609591
20
-150.35072543300095
30
0
11
145.6413203490043
21
-150.35192236436893
31
0
0
SPLINE
5
310
100
AcDbEntity
8
0
100
AcDbSpline
70
0
71
3
72
8
73
4
74
0
42
0.000000001
43
0.0000000001
44
0.0000000001
40
80
40
80
40
80
40
80
40
81
40
81
40
81
40
81
10
145.6413203490043
20
-150.35192236436893
30
0
10
145.54566876413512
20
-152.0955226854947
30
0
10
143.98815994264947
20
-152.31447504480306
30
0
10
143.67148178774528
20
-152.34107056245733
30
0
0
SPLINE
5
311
100
AcDbEntity
8
0
100
AcDbSpline
70
0
71
3
72
8
73
4
74
0
42
0.000000001
43
0.0000000001
44
0.0000000001
40
81
40
81
40
81
40
81
40
82
40
82
40
82
40
82
10
143.67148178774528
20
-152.34107056245733
30
0
10
143.63868212716537
20
-152.34223508354481
30
0
10
143.61150753150145
20
-152.34522438010049
30
0
10
143.61145783130175
20
-152.34522984728895
30
0
0
SPLINE
5
312
100
AcDbEntity
8
0
100
AcDbSpline
70
0
71
3
72
8
73
4
74
0
42
0.000000001
43
0.0000000001
44
0.0000000001
40
82
40
82
40
82
40
82
40
83
40
83
40
83
40
83
10
143.61145783130175
20
-152.34522984728895
30
0
10
143.61150777572595
20
-152.34522749049231
30
0
10
143.63563797844282
20
-152.34408882522811
30
0
10
143.67148178774528
20
-152.34107056245733
30
0
0
SPLINE
5
313
100
AcDbEntity
8
0
100
AcDbSpline
70
0
71
3
72
11
73
7
74
0
42
0.000000001
43
0.0000000001
44
0.0000000001
40
83
40
83
40
83
40
83
40
84
40
84
40
84
40
85
40
85
40
85
40
85
10
143.67148178774528
20
-152.34107056245733
30
0
10
143.84833697915246
20
-152.33475496067024
30
0
10
140.50509262036198
20
-152.68154421451669
30
0
10
140.36643624088606
20
-152.70726661934941
30
0
10
137.36542111783655
20
-153.26399055946632
30
0
10
137.73622233436652
20
-150.10251115956706
30
0
10
137.73622815880435
20
-150.10246149996652
30
0
0
SPLINE
5
314
100
AcDbEntity
8
0
100
AcDbSpline
70
0
71
3
72
8
73
4
74
0
42
0.000000001
43
0.0000000001
44
0.0000000001
40
85
40
85
40
85
40
85
40
86
40
86
40
86
40
86
10
137.73622815880435
20
-150.10246149996652
30
0
10
137.34910390300601
20
-146.6085317494194
30
0
10
133.87505463782406
20
-139.91989798218091
30
0
10
133.87503159128786
20
-139.91985361037487
30
0
0
SPLINE
5
315
100
AcDbEntity
8
0
100
AcDbSpline
70
0
71
3
72
8
73
4
74
0
42
0.000000001
43
0.0000000001
44
0.0000000001
40
86
40
86
40
86
40
86
40
87
40
87
40
87
40
87
10
133.87503159128786
20
-139.91985361037487
30
0
10
125.69152409166867
20
-127.00084074259719
30
0
10
113.38932395149706
20
-137.8489931872324
30
0
10
113.38928644942797
20
-137.84902625677751
30
0
0
SPLINE
5
316
100
AcDbEntity
8
0
100
AcDbSpline
70
0
71
3
72
8
73
4
74
0
42
0.000000001
43
0.0000000001
44
0.0000000001
40
87
40
87
40
87
40
87
40
88
40
88
40
88
40
88
10
113.38928644942797
20
-137.84902625677751
30
0
10
111.97711251346092
20
-139.61312874761629
30
0
10
111.05991318999556
20
-138.58945661049776
30
0
10
111.05987982435657
20
-138.58941937161839
30
0
0
SPLINE
5
317
100
AcDbEntity
8
0
100
AcDbSpline
70
0
71
3
72
8
73
4
74
0
42
0.000000001
43
0.0000000001
44
0.0000000001
40
88
40
88
40
88
40
88
40
89
40
89
40
89
40
89
10
111.05987982435657
20
-138.58941937161839
30
0
10
98.922251050596159
20
-130.60993626793928
30
0
10
90.361218963935727
20
-140.4004813103129
30
0
10
90.361186051107097
20
-140.40051894999556
30
0
0
SPLINE
5
318
100
AcDbEntity
8
0
100
AcDbSpline
70
0
71
3
72
8
73
4
74
0
42
0.000000001
43
0.0000000001
44
0.0000000001
40
89
40
89
40
89
40
89
40
90
40
90
40
90
40
90
10
90.361186051107097
20
-140.40051894999556
30
0
10
88.93143685116101
20
-142.00580310820729
30
0
10
87.55537460248749
20
-141.19372747148739
30
0
10
87.555331541748998
20
-141.19370205942727
30
0
0
SPLINE
5
319
100
AcDbEntity
8
0
100
AcDbSpline
70
0
71
3
72
11
73
7
74
0
42
0.000000001
43
0.0000000001
44
0.0000000001
40
90
40
90
40
90
40
90
40
91
40
91
40
91
40
92
40
92
40
92
40
92
10
87.555331541748998
20
-141.19370205942727
30
0
10
78.134274079428479
20
-135.96772944817283
30
0
10
72.327185244582438
20
-141.59483625473476
30
0
10
70.932593021315995
20
-143.51776175510426
30
0
10
69.538009301531062
20
-145.440675530497
30
0
10
68.83240427884229
20
-144.87583426791178
30
0
10
68.832365245043974
20
-144.87580302111053
30
0
0
LINE
5
320
100
AcDbEntity
8
0
100
AcDbLine
10
68.832365245043974
20
-144.87580302111053
30
0
11
68.832160600803263
21
-144.87630229494559
31
0
0
SPLINE
5
321
100
AcDbEntity
8
0
100
AcDbSpline
70
0
71
3
72
11
73
7
74
0
42
0.000000001
43
0.0000000001
44
0.0000000001
40
93
40
93
40
93
40
93
40
94
40
94
40
94
40
95
40
95
40
95
40
95
10
68.832160600803263
20
-144.87630229494559
30
0
10
68.425099270860755
20
-142.10515657764395
30
0
10
67.980999807058112
20
-134.06844368412243
30
0
10
62.186880003330089
20
-128.84886641316155
30
0
10
55.544178715307893
20
-122.86485264830296
30
0
10
45.335002664384021
20
-124.32926834805693
30
0
10
45.3349531709639
20
-124.32927544744879
30
0
0
SPLINE
5
322
100
AcDbEntity
8
0
100
AcDbSpline
70
0
71
3
72
17
73
13
74
0
42
0.000000001
43
0.0000000001
44
0.0000000001
40
0
40
0
40
0
40
0
40
1
40
1
40
1
40
2
40
2
40
2
40
3
40
3
40
3
40
4
40
4
40
4
40
4
10
138.23367193148013
20
-82.860791964553982
30
0
10
138.00489089858985
20
-85.474149556078885
30
0
10
135.70088231281287
20
-87.407230798965031
30
0
10
133.08752472128796
20
-87.178449766075076
30
0
10
130.47416712976369
20
-86.949668733185462
30
0
10
128.54108588687689
20
-84.645660147408449
30
0
10
128.76986691976714
20
-82.032302555883518
30
0
10
128.9986479526568
20
-79.418944964358616
30
0
10
131.30265653843381
20
-77.485863721472498
30
0
10
133.91601412995809
20
-77.714644754362112
30
0
10
136.52937172148367
20
-77.943425787252067
30
0
10
138.46245296436976
20
-80.247434373029037
30
0
10
138.23367193148013
20
-82.860791964553982
30
0
0
SPLINE
5
323
100
AcDbEntity
8
0
100
AcDbSpline
70
0
71
3
72
17
73
13
74
0
42
0.000000001
43
0.0000000001
44
0.0000000001
40
0
40
0
40
0
40
0
40
1
40
1
40
1
40
2
40
2
40
2
40
3
40
3
40
3
40
4
40
4
40
4
40
4
10
72.716640292904131
20
-86.661571341001746
30
0
10
72.487859260014517
20
-89.274928932526308
30
0
10
70.183850674237505
20
-91.208010175412809
30
0
10
67.570493082712616
20
-90.979229142522811
30
0
10
64.957135491187671
20
-90.750448109633183
30
0
10
63.024054248301553
20
-88.446439523856185
30
0
10
63.252835281191189
20
-85.833081932331297
30
0
10
63.481616314080789
20
-83.21972434080638
30
0
10
65.785624899858149
20
-81.286643097920233
30
0
10
68.398982491382739
20
-81.51542413080989
30
0
10
71.012340082907656
20
-81.744205163699789
30
0
10
72.945421325793745
20
-84.048213749476815
30
0
10
72.716640292904131
20
-86.661571341001746
30
0
0
SPLINE
5
324
100
AcDbEntity
8
0
100
AcDbSpline
70
0
71
3
72
17
73
13
74
0
42
0.000000001
43
0.0000000001
44
0.0000000001
40
0
40
0
40
0
40
0
40
1
40
1
40
1
40
2
40
2
40
2
40
3
40
3
40
3
40
4
40
4
40
4
40
4
10
71.814970523556525
20
-128.2735547942271
30
0
10
72.103868113612222
20
-130.88095135874258
30
0
10
74.451778430775349
20
-132.76046613588395
30
0
10
77.059174995291812
20
-132.47156854582761
30
0
10
79.666571559807608
20
-132.18267095577121
30
0
10
81.546086336948647
20
-129.83476063860843
30
0
10
81.257188746892922
20
-127.22736407409229
30
0
10
80.968291156836258
20
-124.61996750957621
30
0
10
78.62038083967343
20
-122.74045273243482
30
0
10
76.012984275157351
20
-123.02935032249117
30
0
10
73.405587710641228
20
-123.31824791254752
30
0
10
71.526072933499833
20
-125.66615822971102
30
0
10
71.814970523556525
20
-128.2735547942271
30
0
0
SPLINE
5
325
100
AcDbEntity
8
0
100
AcDbSpline
70
0
71
3
72
17
73
13
74
0
42
0.000000001
43
0.0000000001
44
0.0000000001
40
0
40
0
40
0
40
0
40
1
40
1
40
1
40
2
40
2
40
2
40
3
40
3
40
3
40
4
40
4
40
4
40
4
10
137.40214994408345
20
-130.56467990170501
30
0
10
137.69104753414047
20
-133.17207646622052
30
0
10
140.03895785130322
20
-135.05159124336123
30
0
10
142.64635441581876
20
-134.76269365330549
30
0
10
145.2537509803355
20
-134.4737960632485
30
0
10
147.13326575747558
20
-132.12588574608571
30
0
10
146.8443681674199
20
-129.51848918156958
30
0
10
146.55547057736419
20
-126.91109261705348
30
0
10
144.20756026020007
20
-125.03157783991207
30
0
10
141.60016369568459
20
-125.32047542996906
30
0
10
138.9927671311691
20
-125.60937302002479
30
0
10
137.11325235402711
20
-127.95728333718827
30
0
10
137.40214994408345
20
-130.56467990170501
30
0
0
ENDSEC
0
SECTION
2
OBJECTS
0
DICTIONARY
5
C
100
AcDbDictionary
3
ACAD_GROUP
350
D
3
ACAD_MLINESTYLE
350
17
0
DICTIONARY
5
D
100
AcDbDictionary
0
DICTIONARY
5
1A
330
C
100
AcDbDictionary
0
DICTIONARY
5
17
100
AcDbDictionary
0
ENDSEC
0
EOF
