  0
SECTION
  2
HEADER
  9
$ACADVER
  1
AC1032
  9
$ACADMAINTVER
 90
      110
  9
$DWGCODEPAGE
  3
ANSI_1252
  9
$REQUIREDVERSIONS
160
                 0
  9
$INSBASE
 10
0.0
 20
0.0
 30
0.0
  9
$EXTMIN
 10
1.000000000000000E+20
 20
1.000000000000000E+20
 30
1.000000000000000E+20
  9
$EXTMAX
 10
-1.000000000000000E+20
 20
-1.000000000000000E+20
 30
-1.000000000000000E+20
  9
$LIMMIN
 10
0.0
 20
0.0
  9
$LIMMAX
 10
12.0
 20
9.0
  9
$ORTHOMODE
 70
     0
  9
$REGENMODE
 70
     1
  9
$FILLMODE
 70
     1
  9
$QTEXTMODE
 70
     0
  9
$MIRRTEXT
 70
     0
  9
$LTSCALE
 40
1.0
  9
$ATTMODE
 70
     1
  9
$TEXTSIZE
 40
0.2
  9
$TRACEWID
 40
0.05
  9
$TEXTSTYLE
  7
Standard
  9
$CLAYER
  8
0
  9
$CELTYPE
  6
ByLayer
  9
$CECOLOR
 62
   256
  9
$CELTSCALE
 40
1.0
  9
$DISPSILH
 70
     0
  9
$DIMSCALE
 40
1.0
  9
$DIMASZ
 40
0.18
  9
$DIMEXO
 40
0.0625
  9
$DIMDLI
 40
0.38
  9
$DIMRND
 40
0.0
  9
$DIMDLE
 40
0.0
  9
$DIMEXE
 40
0.18
  9
$DIMTP
 40
0.0
  9
$DIMTM
 40
0.0
  9
$DIMTXT
 40
0.18
  9
$DIMCEN
 40
0.09
  9
$DIMTSZ
 40
0.0
  9
$DIMTOL
 70
     0
  9
$DIMLIM
 70
     0
  9
$DIMTIH
 70
     1
  9
$DIMTOH
 70
     1
  9
$DIMSE1
 70
     0
  9
$DIMSE2
 70
     0
  9
$DIMTAD
 70
     0
  9
$DIMZIN
 70
     0
  9
$DIMBLK
  1

  9
$DIMASO
 70
     1
  9
$DIMSHO
 70
     1
  9
$DIMPOST
  1

  9
$DIMAPOST
  1

  9
$DIMALT
 70
     0
  9
$DIMALTD
 70
     2
  9
$DIMALTF
 40
25.4
  9
$DIMLFAC
 40
1.0
  9
$DIMTOFL
 70
     0
  9
$DIMTVP
 40
0.0
  9
$DIMTIX
 70
     0
  9
$DIMSOXD
 70
     0
  9
$DIMSAH
 70
     0
  9
$DIMBLK1
  1

  9
$DIMBLK2
  1

  9
$DIMSTYLE
  2
Standard
  9
$DIMCLRD
 70
     0
  9
$DIMCLRE
 70
     0
  9
$DIMCLRT
 70
     0
  9
$DIMTFAC
 40
1.0
  9
$DIMGAP
 40
0.09
  9
$DIMJUST
 70
     0
  9
$DIMSD1
 70
     0
  9
$DIMSD2
 70
     0
  9
$DIMTOLJ
 70
     1
  9
$DIMTZIN
 70
     0
  9
$DIMALTZ
 70
     0
  9
$DIMALTTZ
 70
     0
  9
$DIMUPT
 70
     0
  9
$DIMDEC
 70
     4
  9
$DIMTDEC
 70
     4
  9
$DIMALTU
 70
     2
  9
$DIMALTTD
 70
     2
  9
$DIMTXSTY
  7
Standard
  9
$DIMAUNIT
 70
     0
  9
$DIMADEC
 70
     0
  9
$DIMALTRND
 40
0.0
  9
$DIMAZIN
 70
     0
  9
$DIMDSEP
 70
    46
  9
$DIMATFIT
 70
     3
  9
$DIMFRAC
 70
     0
  9
$DIMLDRBLK
  1

  9
$DIMLUNIT
 70
     2
  9
$DIMLWD
 70
    -2
  9
$DIMLWE
 70
    -2
  9
$DIMTMOVE
 70
     0
  9
$DIMFXL
 40
1.0
  9
$DIMFXLON
 70
     0
  9
$DIMJOGANG
 40
0.7853981633974483
  9
$DIMTFILL
 70
     0
  9
$DIMTFILLCLR
 70
     0
  9
$DIMARCSYM
 70
     0
  9
$DIMLTYPE
  6

  9
$DIMLTEX1
  6

  9
$DIMLTEX2
  6

  9
$DIMTXTDIRECTION
 70
     0
  9
$LUNITS
 70
     2
  9
$LUPREC
 70
     4
  9
$SKETCHINC
 40
0.1
  9
$FILLETRAD
 40
0.0
  9
$AUNITS
 70
     0
  9
$AUPREC
 70
     0
  9
$MENU
  1
.
  9
$ELEVATION
 40
0.0
  9
$PELEVATION
 40
0.0
  9
$THICKNESS
 40
0.0
  9
$LIMCHECK
 70
     0
  9
$CHAMFERA
 40
0.0
  9
$CHAMFERB
 40
0.0
  9
$CHAMFERC
 40
0.0
  9
$CHAMFERD
 40
0.0
  9
$SKPOLY
 70
     0
  9
$TDCREATE
 40
2459290.675335648
  9
$TDUCREATE
 40
2459290.842002315
  9
$TDUPDATE
 40
2459290.675335648
  9
$TDUUPDATE
 40
2459290.842002315
  9
$TDINDWG
 40
0.0000000000
  9
$TDUSRTIMER
 40
0.0000000000
  9
$USRTIMER
 70
     1
  9
$ANGBASE
 50
0.0
  9
$ANGDIR
 70
     0
  9
$PDMODE
 70
     0
  9
$PDSIZE
 40
0.0
  9
$PLINEWID
 40
0.0
  9
$SPLFRAME
 70
     0
  9
$SPLINETYPE
 70
     6
  9
$SPLINESEGS
 70
     8
  9
$HANDSEED
  5
35A
  9
$SURFTAB1
 70
     6
  9
$SURFTAB2
 70
     6
  9
$SURFTYPE
 70
     6
  9
$SURFU
 70
     6
  9
$SURFV
 70
     6
  9
$UCSBASE
  2

  9
$UCSNAME
  2

  9
$UCSORG
 10
0.0
 20
0.0
 30
0.0
  9
$UCSXDIR
 10
1.0
 20
0.0
 30
0.0
  9
$UCSYDIR
 10
0.0
 20
1.0
 30
0.0
  9
$UCSORTHOREF
  2

  9
$UCSORTHOVIEW
 70
     0
  9
$UCSORGTOP
 10
0.0
 20
0.0
 30
0.0
  9
$UCSORGBOTTOM
 10
0.0
 20
0.0
 30
0.0
  9
$UCSORGLEFT
 10
0.0
 20
0.0
 30
0.0
  9
$UCSORGRIGHT
 10
0.0
 20
0.0
 30
0.0
  9
$UCSORGFRONT
 10
0.0
 20
0.0
 30
0.0
  9
$UCSORGBACK
 10
0.0
 20
0.0
 30
0.0
  9
$PUCSBASE
  2

  9
$PUCSNAME
  2

  9
$PUCSORG
 10
0.0
 20
0.0
 30
0.0
  9
$PUCSXDIR
 10
1.0
 20
0.0
 30
0.0
  9
$PUCSYDIR
 10
0.0
 20
1.0
 30
0.0
  9
$PUCSORTHOREF
  2

  9
$PUCSORTHOVIEW
 70
     0
  9
$PUCSORGTOP
 10
0.0
 20
0.0
 30
0.0
  9
$PUCSORGBOTTOM
 10
0.0
 20
0.0
 30
0.0
  9
$PUCSORGLEFT
 10
0.0
 20
0.0
 30
0.0
  9
$PUCSORGRIGHT
 10
0.0
 20
0.0
 30
0.0
  9
$PUCSORGFRONT
 10
0.0
 20
0.0
 30
0.0
  9
$PUCSORGBACK
 10
0.0
 20
0.0
 30
0.0
  9
$USERI1
 70
     0
  9
$USERI2
 70
     0
  9
$USERI3
 70
     0
  9
$USERI4
 70
     0
  9
$USERI5
 70
     0
  9
$USERR1
 40
0.0
  9
$USERR2
 40
0.0
  9
$USERR3
 40
0.0
  9
$USERR4
 40
0.0
  9
$USERR5
 40
0.0
  9
$WORLDVIEW
 70
     1
  9
$SHADEDGE
 70
     3
  9
$SHADEDIF
 70
    70
  9
$TILEMODE
 70
     1
  9
$MAXACTVP
 70
    64
  9
$PINSBASE
 10
0.0
 20
0.0
 30
0.0
  9
$PLIMCHECK
 70
     0
  9
$PEXTMIN
 10
1.000000000000000E+20
 20
1.000000000000000E+20
 30
1.000000000000000E+20
  9
$PEXTMAX
 10
-1.000000000000000E+20
 20
-1.000000000000000E+20
 30
-1.000000000000000E+20
  9
$PLIMMIN
 10
0.0
 20
0.0
  9
$PLIMMAX
 10
12.0
 20
9.0
  9
$UNITMODE
 70
     0
  9
$VISRETAIN
 70
     1
  9
$PLINEGEN
 70
     0
  9
$PSLTSCALE
 70
     1
  9
$TREEDEPTH
 70
  3020
  9
$CMLSTYLE
  2
Standard
  9
$CMLJUST
 70
     0
  9
$CMLSCALE
 40
1.0
  9
$PROXYGRAPHICS
 70
     1
  9
$MEASUREMENT
 70
     0
  9
$CELWEIGHT
370
    -1
  9
$ENDCAPS
280
     0
  9
$JOINSTYLE
280
     0
  9
$LWDISPLAY
290
     1
  9
$INSUNITS
 70
     1
  9
$HYPERLINKBASE
  1

  9
$STYLESHEET
  1

  9
$XEDIT
290
     1
  9
$CEPSNTYPE
380
     0
  9
$PSTYLEMODE
290
     1
  9
$FINGERPRINTGUID
  2
{B82336B0-B42B-7746-BB35-74722A99FF74}
  9
$VERSIONGUID
  2
{134600D1-71DE-714B-BFC0-F84AFF895178}
  9
$EXTNAMES
290
     1
  9
$PSVPSCALE
 40
0.0
  9
$OLESTARTUP
290
     0
  9
$SORTENTS
280
   127
  9
$INDEXCTL
280
     0
  9
$HIDETEXT
280
     1
  9
$XCLIPFRAME
280
     2
  9
$HALOGAP
280
     0
  9
$OBSCOLOR
 70
   257
  9
$OBSLTYPE
280
     0
  9
$INTERSECTIONDISPLAY
280
     0
  9
$INTERSECTIONCOLOR
 70
   257
  9
$DIMASSOC
280
     2
  9
$PROJECTNAME
  1

  9
$CAMERADISPLAY
290
     0
  9
$LENSLENGTH
 40
50.0
  9
$CAMERAHEIGHT
 40
0.0
  9
$STEPSPERSEC
 40
2.0
  9
$STEPSIZE
 40
6.0
  9
$3DDWFPREC
 40
2.0
  9
$PSOLWIDTH
 40
0.25
  9
$PSOLHEIGHT
 40
4.0
  9
$LOFTANG1
 40
1.570796326794896
  9
$LOFTANG2
 40
1.570796326794896
  9
$LOFTMAG1
 40
0.0
  9
$LOFTMAG2
 40
0.0
  9
$LOFTPARAM
 70
     7
  9
$LOFTNORMALS
280
     1
  9
$LATITUDE
 40
37.795
  9
$LONGITUDE
 40
-122.394
  9
$NORTHDIRECTION
 40
0.0
  9
$TIMEZONE
 70
 -8000
  9
$LIGHTGLYPHDISPLAY
280
     1
  9
$TILEMODELIGHTSYNCH
280
     1
  9
$CMATERIAL
347
11
  9
$SOLIDHIST
280
     0
  9
$SHOWHIST
280
     1
  9
$DWFFRAME
280
     2
  9
$DGNFRAME
280
     0
  9
$REALWORLDSCALE
290
     1
  9
$INTERFERECOLOR
 62
     1
  9
$INTERFEREOBJVS
345
33
  9
$INTERFEREVPVS
346
30
  9
$CSHADOW
280
     0
  9
$SHADOWPLANELOCATION
 40
0.0
  0
ENDSEC
  0
SECTION
  2
CLASSES
  0
CLASS
  1
ACDBDICTIONARYWDFLT
  2
AcDbDictionaryWithDefault
  3
ObjectDBX Classes
 90
        0
 91
        1
280
     0
281
     0
  0
CLASS
  1
MATERIAL
  2
AcDbMaterial
  3
ObjectDBX Classes
 90
     1153
 91
        3
280
     0
281
     0
  0
CLASS
  1
VISUALSTYLE
  2
AcDbVisualStyle
  3
ObjectDBX Classes
 90
     4095
 91
       24
280
     0
281
     0
  0
CLASS
  1
SCALE
  2
AcDbScale
  3
ObjectDBX Classes
 90
     1153
 91
       17
280
     0
281
     0
  0
CLASS
  1
TABLESTYLE
  2
AcDbTableStyle
  3
ObjectDBX Classes
 90
     4095
 91
        1
280
     0
281
     0
  0
CLASS
  1
MLEADERSTYLE
  2
AcDbMLeaderStyle
  3
ACDB_MLEADERSTYLE_CLASS
 90
     4095
 91
        1
280
     0
281
     0
  0
CLASS
  1
ACDBSECTIONVIEWSTYLE
  2
AcDbSectionViewStyle
  3
ObjectDBX Classes
 90
     1025
 91
        1
280
     0
281
     0
  0
CLASS
  1
ACDBDETAILVIEWSTYLE
  2
AcDbDetailViewStyle
  3
ObjectDBX Classes
 90
     1025
 91
        1
280
     0
281
     0
  0
CLASS
  1
DICTIONARYVAR
  2
AcDbDictionaryVar
  3
ObjectDBX Classes
 90
        0
 91
        5
280
     0
281
     0
  0
CLASS
  1
CELLSTYLEMAP
  2
AcDbCellStyleMap
  3
ObjectDBX Classes
 90
     1152
 91
        1
280
     0
281
     0
  0
ENDSEC
  0
SECTION
  2
TABLES
  0
TABLE
  2
VPORT
  5
8
330
0
100
AcDbSymbolTable
 70
     1
  0
VPORT
  5
57
330
8
100
AcDbSymbolTableRecord
100
AcDbViewportTableRecord
  2
*Active
 70
     0
 10
0.0
 20
0.0
 11
1.0
 21
1.0
 12
0.0
 22
0.0
 13
0.0
 23
0.0
 14
1.0
 24
1.0
 15
0.0
 25
0.0
 16
0.0
 26
0.0
 36
1.0
 17
48.0
 27
-24.0
 37
0.0
 40
48.96
 41
2.0
 42
50.0
 43
0.0
 44
0.0
 50
0.0
 51
0.0
 71
     0
 72
   100
 73
     1
 74
     0
 75
     1
 76
     0
 77
     0
 78
     0
281
     0
 65
     1
110
0.0
120
0.0
130
0.0
111
1.0
121
0.0
131
0.0
112
0.0
122
1.0
132
0.0
 79
     0
146
0.0
 60
     3
 61
     5
292
     1
282
     1
141
0.0
142
0.0
 63
   250
421
  3355443
  0
ENDTAB
  0
TABLE
  2
LTYPE
  5
5
330
0
100
AcDbSymbolTable
 70
     1
  0
LTYPE
  5
5B
330
5
100
AcDbSymbolTableRecord
100
AcDbLinetypeTableRecord
  2
ByBlock
 70
     0
  3

 72
    65
 73
     0
 40
0.0
  0
LTYPE
  5
5C
330
5
100
AcDbSymbolTableRecord
100
AcDbLinetypeTableRecord
  2
ByLayer
 70
     0
  3

 72
    65
 73
     0
 40
0.0
  0
LTYPE
  5
5D
330
5
100
AcDbSymbolTableRecord
100
AcDbLinetypeTableRecord
  2
Continuous
 70
     0
  3
Solid line
 72
    65
 73
     0
 40
0.0
  0
ENDTAB
  0
TABLE
  2
LAYER
  5
2
330
0
100
AcDbSymbolTable
 70
     2
  0
LAYER
  5
54
330
2
100
AcDbSymbolTableRecord
100
AcDbLayerTableRecord
  2
0
 70
     0
 62
     7
  6
Continuous
370
    -3
390
F
347
21
348
0
  0
LAYER
  5
78
330
2
100
AcDbSymbolTableRecord
100
AcDbLayerTableRecord
  2
Layer 1
 70
     0
 62
     7
  6
Continuous
370
     0
390
F
347
21
348
0
  0
ENDTAB
  0
TABLE
  2
STYLE
  5
3
330
0
100
AcDbSymbolTable
 70
     2
  0
STYLE
  5
55
330
3
100
AcDbSymbolTableRecord
100
AcDbTextStyleTableRecord
  2
Standard
 70
     0
 40
0.0
 41
1.0
 50
0.0
 71
     0
 42
0.2
  3
txt
  4

  0
STYLE
  5
5A
330
3
100
AcDbSymbolTableRecord
100
AcDbTextStyleTableRecord
  2
Annotative
 70
     0
 40
0.0
 41
1.0
 50
0.0
 71
     0
 42
0.2
  3
txt
  4

1001
AcadAnnotative
1000
AnnotativeData
1002
{
1070
     1
1070
     1
1002
}
  0
ENDTAB
  0
TABLE
  2
VIEW
  5
6
330
0
100
AcDbSymbolTable
 70
     0
  0
ENDTAB
  0
TABLE
  2
UCS
  5
7
330
0
100
AcDbSymbolTable
 70
     0
  0
ENDTAB
  0
TABLE
  2
APPID
  5
9
330
0
100
AcDbSymbolTable
 70
     2
  0
APPID
  5
56
330
9
100
AcDbSymbolTableRecord
100
AcDbRegAppTableRecord
  2
ACAD
 70
     0
  0
APPID
  5
5E
330
9
100
AcDbSymbolTableRecord
100
AcDbRegAppTableRecord
  2
AcadAnnotative
 70
     0
  0
ENDTAB
  0
TABLE
  2
DIMSTYLE
  5
A
330
0
100
AcDbSymbolTable
 70
     2
100
AcDbDimStyleTable
 71
     0
  0
DIMSTYLE
105
58
330
A
100
AcDbSymbolTableRecord
100
AcDbDimStyleTableRecord
  2
Standard
 70
     0
340
55
  0
DIMSTYLE
105
59
330
A
100
AcDbSymbolTableRecord
100
AcDbDimStyleTableRecord
  2
Annotative
 70
     0
340
55
1001
AcadAnnotative
1000
AnnotativeData
1002
{
1070
     1
1070
     1
1002
}
  0
ENDTAB
  0
TABLE
  2
BLOCK_RECORD
  5
1
330
0
100
AcDbSymbolTable
 70
    31
  0
BLOCK_RECORD
  5
70
330
1
100
AcDbSymbolTableRecord
100
AcDbBlockTableRecord
  2
*Model_Space
340
73
 70
     0
280
     1
281
     0
  0
BLOCK_RECORD
  5
6C
330
1
100
AcDbSymbolTableRecord
100
AcDbBlockTableRecord
  2
*Paper_Space
340
6F
 70
     0
280
     1
281
     0
  0
BLOCK_RECORD
  5
74
330
1
100
AcDbSymbolTableRecord
100
AcDbBlockTableRecord
  2
*Paper_Space0
340
77
 70
     0
280
     1
281
     0
  0
BLOCK_RECORD
  5
79
330
1
100
AcDbSymbolTableRecord
100
AcDbBlockTableRecord
  2
Block_0
340
0
102
{BLKREFS
331
7A
102
}
 70
     0
280
     1
281
     0
  0
BLOCK_RECORD
  5
DD
330
1
100
AcDbSymbolTableRecord
100
AcDbBlockTableRecord
  2
Block_1
340
0
102
{BLKREFS
331
DE
102
}
 70
     0
280
     1
281
     0
  0
BLOCK_RECORD
  5
F9
330
1
100
AcDbSymbolTableRecord
100
AcDbBlockTableRecord
  2
Block_2
340
0
102
{BLKREFS
331
FA
102
}
 70
     0
280
     1
281
     0
  0
BLOCK_RECORD
  5
115
330
1
100
AcDbSymbolTableRecord
100
AcDbBlockTableRecord
  2
Block_3
340
0
102
{BLKREFS
331
116
102
}
 70
     0
280
     1
281
     0
  0
BLOCK_RECORD
  5
127
330
1
100
AcDbSymbolTableRecord
100
AcDbBlockTableRecord
  2
Block_4
340
0
102
{BLKREFS
331
128
102
}
 70
     0
280
     1
281
     0
  0
BLOCK_RECORD
  5
139
330
1
100
AcDbSymbolTableRecord
100
AcDbBlockTableRecord
  2
Block_5
340
0
102
{BLKREFS
331
13A
102
}
 70
     0
280
     1
281
     0
  0
BLOCK_RECORD
  5
14B
330
1
100
AcDbSymbolTableRecord
100
AcDbBlockTableRecord
  2
Block_6
340
0
102
{BLKREFS
331
14C
102
}
 70
     0
280
     1
281
     0
  0
BLOCK_RECORD
  5
15D
330
1
100
AcDbSymbolTableRecord
100
AcDbBlockTableRecord
  2
Block_7
340
0
102
{BLKREFS
331
15E
102
}
 70
     0
280
     1
281
     0
  0
BLOCK_RECORD
  5
16F
330
1
100
AcDbSymbolTableRecord
100
AcDbBlockTableRecord
  2
Block_8
340
0
102
{BLKREFS
331
170
102
}
 70
     0
280
     1
281
     0
  0
BLOCK_RECORD
  5
181
330
1
100
AcDbSymbolTableRecord
100
AcDbBlockTableRecord
  2
Block_9
340
0
102
{BLKREFS
331
182
102
}
 70
     0
280
     1
281
     0
  0
BLOCK_RECORD
  5
19D
330
1
100
AcDbSymbolTableRecord
100
AcDbBlockTableRecord
  2
Block_10
340
0
102
{BLKREFS
331
19E
102
}
 70
     0
280
     1
281
     0
  0
BLOCK_RECORD
  5
1C9
330
1
100
AcDbSymbolTableRecord
100
AcDbBlockTableRecord
  2
Block_11
340
0
102
{BLKREFS
331
1CA
102
}
 70
     0
280
     1
281
     0
  0
BLOCK_RECORD
  5
1E1
330
1
100
AcDbSymbolTableRecord
100
AcDbBlockTableRecord
  2
Block_12
340
0
102
{BLKREFS
331
1E2
102
}
 70
     0
280
     1
281
     0
  0
BLOCK_RECORD
  5
1F9
330
1
100
AcDbSymbolTableRecord
100
AcDbBlockTableRecord
  2
Block_13
340
0
102
{BLKREFS
331
1FA
102
}
 70
     0
280
     1
281
     0
  0
BLOCK_RECORD
  5
211
330
1
100
AcDbSymbolTableRecord
100
AcDbBlockTableRecord
  2
Block_14
340
0
102
{BLKREFS
331
212
102
}
 70
     0
280
     1
281
     0
  0
BLOCK_RECORD
  5
229
330
1
100
AcDbSymbolTableRecord
100
AcDbBlockTableRecord
  2
Block_15
340
0
102
{BLKREFS
331
22A
102
}
 70
     0
280
     1
281
     0
  0
BLOCK_RECORD
  5
235
330
1
100
AcDbSymbolTableRecord
100
AcDbBlockTableRecord
  2
Block_16
340
0
102
{BLKREFS
331
236
102
}
 70
     0
280
     1
281
     0
  0
BLOCK_RECORD
  5
241
330
1
100
AcDbSymbolTableRecord
100
AcDbBlockTableRecord
  2
Block_17
340
0
102
{BLKREFS
331
242
102
}
 70
     0
280
     1
281
     0
  0
BLOCK_RECORD
  5
24D
330
1
100
AcDbSymbolTableRecord
100
AcDbBlockTableRecord
  2
Block_18
340
0
102
{BLKREFS
331
24E
102
}
 70
     0
280
     1
281
     0
  0
BLOCK_RECORD
  5
259
330
1
100
AcDbSymbolTableRecord
100
AcDbBlockTableRecord
  2
Block_19
340
0
102
{BLKREFS
331
25A
102
}
 70
     0
280
     1
281
     0
  0
BLOCK_RECORD
  5
265
330
1
100
AcDbSymbolTableRecord
100
AcDbBlockTableRecord
  2
Block_20
340
0
102
{BLKREFS
331
266
102
}
 70
     0
280
     1
281
     0
  0
BLOCK_RECORD
  5
271
330
1
100
AcDbSymbolTableRecord
100
AcDbBlockTableRecord
  2
Block_21
340
0
102
{BLKREFS
331
272
102
}
 70
     0
280
     1
281
     0
  0
BLOCK_RECORD
  5
27D
330
1
100
AcDbSymbolTableRecord
100
AcDbBlockTableRecord
  2
Block_22
340
0
102
{BLKREFS
331
27E
102
}
 70
     0
280
     1
281
     0
  0
BLOCK_RECORD
  5
289
330
1
100
AcDbSymbolTableRecord
100
AcDbBlockTableRecord
  2
Block_23
340
0
102
{BLKREFS
331
28A
102
}
 70
     0
280
     1
281
     0
  0
BLOCK_RECORD
  5
295
330
1
100
AcDbSymbolTableRecord
100
AcDbBlockTableRecord
  2
Block_24
340
0
102
{BLKREFS
331
296
102
}
 70
     0
280
     1
281
     0
  0
BLOCK_RECORD
  5
2A1
330
1
100
AcDbSymbolTableRecord
100
AcDbBlockTableRecord
  2
Block_25
340
0
102
{BLKREFS
331
2A2
102
}
 70
     0
280
     1
281
     0
  0
BLOCK_RECORD
  5
2AD
330
1
100
AcDbSymbolTableRecord
100
AcDbBlockTableRecord
  2
Block_26
340
0
102
{BLKREFS
331
2AE
102
}
 70
     0
280
     1
281
     0
  0
BLOCK_RECORD
  5
2B9
330
1
100
AcDbSymbolTableRecord
100
AcDbBlockTableRecord
  2
Block_27
340
0
102
{BLKREFS
331
2BA
102
}
 70
     0
280
     1
281
     0
  0
BLOCK_RECORD
  5
2D1
330
1
100
AcDbSymbolTableRecord
100
AcDbBlockTableRecord
  2
Block_28
340
0
102
{BLKREFS
331
2D2
102
}
 70
     0
280
     1
281
     0
  0
BLOCK_RECORD
  5
335
330
1
100
AcDbSymbolTableRecord
100
AcDbBlockTableRecord
  2
Block_29
340
0
102
{BLKREFS
331
336
102
}
 70
     0
280
     1
281
     0
  0
ENDTAB
  0
ENDSEC
  0
SECTION
  2
BLOCKS
  0
BLOCK
  5
71
330
70
100
AcDbEntity
  8
0
100
AcDbBlockBegin
  2
*Model_Space
 70
     0
 10
0.0
 20
0.0
 30
0.0
  3
*Model_Space
  1

  0
ENDBLK
  5
72
330
70
100
AcDbEntity
  8
0
100
AcDbBlockEnd
  0
BLOCK
  5
6D
330
6C
100
AcDbEntity
 67
     1
  8
0
100
AcDbBlockBegin
  2
*Paper_Space
 70
     0
 10
0.0
 20
0.0
 30
0.0
  3
*Paper_Space
  1

  0
ENDBLK
  5
6E
330
6C
100
AcDbEntity
 67
     1
  8
0
100
AcDbBlockEnd
  0
BLOCK
  5
75
330
74
100
AcDbEntity
 67
     1
  8
0
100
AcDbBlockBegin
  2
*Paper_Space0
 70
     0
 10
0.0
 20
0.0
 30
0.0
  3
*Paper_Space0
  1

  0
ENDBLK
  5
76
330
74
100
AcDbEntity
 67
     1
  8
0
100
AcDbBlockEnd
  0
BLOCK
  5
7B
330
79
100
AcDbEntity
  8
0
100
AcDbBlockBegin
  2
Block_0
 70
     0
 10
0.0
 20
0.0
 30
0.0
  3
Block_0
  1

  0
LINE
  5
7D
330
79
100
AcDbEntity
  8
Layer 1
 62
    18
420
    65793
370
    70
100
AcDbLine
 10
19.80792520781229
 20
-13.49401138770889
 30
0.0
 11
20.14735496572061
 21
-15.21077795294795
 31
0.0
  0
LINE
  5
7E
330
79
100
AcDbEntity
  8
Layer 1
 62
    18
420
    65793
370
    70
100
AcDbLine
 10
20.52661274258678
 20
-13.35191639307983
 30
0.0
 11
19.80792520781229
 21
-13.49401138770889
 31
0.0
  0
LINE
  5
7F
330
79
100
AcDbEntity
  8
Layer 1
 62
    18
420
    65793
370
    70
100
AcDbLine
 10
20.86604250039506
 20
-15.06868295831891
 30
0.0
 11
20.52661274258678
 21
-13.35191639307983
 31
0.0
  0
LINE
  5
80
330
79
100
AcDbEntity
  8
Layer 1
 62
    18
420
    65793
370
    70
100
AcDbLine
 10
20.14735496572061
 20
-15.21077795294795
 30
0.0
 11
20.86604250039506
 21
-15.06868295831891
 31
0.0
  0
LINE
  5
81
330
79
100
AcDbEntity
  8
Layer 1
 62
    18
420
    65793
370
    70
100
AcDbLine
 10
20.97169233268918
 20
-16.70634717289993
 30
0.0
 11
20.23909233268921
 21
-16.70634717303145
 31
0.0
  0
LINE
  5
82
330
79
100
AcDbEntity
  8
Layer 1
 62
    18
420
    65793
370
    70
100
AcDbLine
 10
20.97169233300349
 20
-18.45634717289993
 30
0.0
 11
20.97169233268918
 21
-16.70634717289993
 31
0.0
  0
LINE
  5
83
330
79
100
AcDbEntity
  8
Layer 1
 62
    18
420
    65793
370
    70
100
AcDbLine
 10
20.23909233300347
 20
-18.45634717303145
 30
0.0
 11
20.97169233300349
 21
-18.45634717289993
 31
0.0
  0
LINE
  5
84
330
79
100
AcDbEntity
  8
Layer 1
 62
    18
420
    65793
370
    70
100
AcDbLine
 10
20.23909233268921
 20
-16.70634717303145
 30
0.0
 11
20.23909233300347
 21
-18.45634717303145
 31
0.0
  0
LINE
  5
85
330
79
100
AcDbEntity
  8
Layer 1
 62
    18
420
    65793
370
    70
100
AcDbLine
 10
20.24588742037492
 20
-19.96790718953027
 30
0.0
 11
20.03043888908679
 21
-21.70459424546892
 31
0.0
  0
LINE
  5
86
330
79
100
AcDbEntity
  8
Layer 1
 62
    18
420
    65793
370
    70
100
AcDbLine
 10
20.9729142416911
 20
-20.05810010039969
 30
0.0
 11
20.24588742037492
 21
-19.96790718953027
 31
0.0
  0
LINE
  5
87
330
79
100
AcDbEntity
  8
Layer 1
 62
    18
420
    65793
370
    70
100
AcDbLine
 10
20.75746571030298
 20
-21.79478715633834
 30
0.0
 11
20.9729142416911
 21
-20.05810010039969
 31
0.0
  0
LINE
  5
88
330
79
100
AcDbEntity
  8
Layer 1
 62
    18
420
    65793
370
    70
100
AcDbLine
 10
20.03043888908679
 20
-21.70459424546892
 30
0.0
 11
20.75746571030298
 21
-21.79478715633834
 31
0.0
  0
LINE
  5
89
330
79
100
AcDbEntity
  8
Layer 1
 62
    18
420
    65793
370
    70
100
AcDbLine
 10
19.33178941361803
 20
-26.89006279589444
 30
0.0
 11
18.93775267942425
 21
-28.5951243936652
 31
0.0
  0
LINE
  5
8A
330
79
100
AcDbEntity
  8
Layer 1
 62
    18
420
    65793
370
    70
100
AcDbLine
 10
20.04557691444766
 20
-27.05501783096621
 30
0.0
 11
19.33178941361803
 21
-26.89006279589444
 31
0.0
  0
LINE
  5
8B
330
79
100
AcDbEntity
  8
Layer 1
 62
    18
420
    65793
370
    70
100
AcDbLine
 10
19.65154018035386
 20
-28.76007942873697
 30
0.0
 11
20.04557691444766
 21
-27.05501783096621
 31
0.0
  0
LINE
  5
8C
330
79
100
AcDbEntity
  8
Layer 1
 62
    18
420
    65793
370
    70
100
AcDbLine
 10
18.93775267942425
 20
-28.5951243936652
 30
0.0
 11
19.65154018035386
 21
-28.76007942873697
 31
0.0
  0
LINE
  5
8D
330
79
100
AcDbEntity
  8
Layer 1
 62
    18
420
    65793
370
    70
100
AcDbLine
 10
19.86775692682619
 20
-23.59463864579814
 30
0.0
 11
19.51914292943422
 21
-25.30956379896075
 31
0.0
  0
LINE
  5
8E
330
79
100
AcDbEntity
  8
Layer 1
 62
    18
420
    65793
370
    70
100
AcDbLine
 10
20.58567359375246
 20
-23.74057842556925
 30
0.0
 11
19.86775692682619
 21
-23.59463864579814
 31
0.0
  0
LINE
  5
8F
330
79
100
AcDbEntity
  8
Layer 1
 62
    18
420
    65793
370
    70
100
AcDbLine
 10
20.23705959636043
 20
-25.45550357863181
 30
0.0
 11
20.58567359375246
 21
-23.74057842556925
 31
0.0
  0
LINE
  5
90
330
79
100
AcDbEntity
  8
Layer 1
 62
    18
420
    65793
370
    70
100
AcDbLine
 10
19.51914292943422
 20
-25.30956379896075
 30
0.0
 11
20.23705959636043
 21
-25.45550357863181
 31
0.0
  0
LINE
  5
91
330
79
100
AcDbEntity
  8
Layer 1
 62
    18
420
    65793
370
    70
100
AcDbLine
 10
18.75050904831122
 20
-30.19289848919877
 30
0.0
 11
18.38534671951858
 21
-31.90437635166434
 31
0.0
  0
LINE
  5
92
330
79
100
AcDbEntity
  8
Layer 1
 62
    18
420
    65793
370
    70
100
AcDbLine
 10
19.46698258083866
 20
-30.34576587327018
 30
0.0
 11
18.75050904831122
 21
-30.19289848919877
 31
0.0
  0
LINE
  5
93
330
79
100
AcDbEntity
  8
Layer 1
 62
    18
420
    65793
370
    70
100
AcDbLine
 10
19.10182025214601
 20
-32.05724373563572
 30
0.0
 11
19.46698258083866
 21
-30.34576587327018
 31
0.0
  0
LINE
  5
94
330
79
100
AcDbEntity
  8
Layer 1
 62
    18
420
    65793
370
    70
100
AcDbLine
 10
18.38534671951858
 20
-31.90437635166434
 30
0.0
 11
19.10182025214601
 21
-32.05724373563572
 31
0.0
  0
SPLINE
  5
95
330
79
100
AcDbEntity
  8
Layer 1
 62
    18
420
    65793
370
    70
100
AcDbSpline
210
0.0
220
0.0
230
1.0
 70
     8
 71
     3
 72
     8
 73
     4
 74
     0
 42
0.0000000001
 43
0.0000000001
 40
0.0
 40
0.0
 40
0.0
 40
0.0
 40
1.0
 40
1.0
 40
1.0
 40
1.0
 10
13.32010496472399
 20
-44.33493841416402
 30
0.0
 10
24.73642065381148
 20
-46.53103027300648
 30
0.0
 10
36.15273634247664
 20
-46.37522664662671
 30
0.0
 10
47.56905203071941
 20
-43.86752753502466
 30
0.0
  0
SPLINE
  5
96
330
79
100
AcDbEntity
  8
Layer 1
 62
    18
420
    65793
370
    70
100
AcDbSpline
210
0.0
220
0.0
230
1.0
 70
     8
 71
     3
 72
    11
 73
     7
 74
     0
 42
0.0000000001
 43
0.0000000001
 40
0.0
 40
0.0
 40
0.0
 40
0.0
 40
1.0
 40
1.0
 40
1.0
 40
2.0
 40
2.0
 40
2.0
 40
2.0
 10
47.56905203076327
 20
-43.86752753504694
 30
0.0
 10
47.83876422569398
 20
-43.8082827620322
 30
0.0
 10
48.00938178209835
 20
-43.54161044988937
 30
0.0
 10
47.95013700908355
 20
-43.27189825495863
 30
0.0
 10
47.9499358500308
 20
-43.27098247712872
 30
0.0
 10
47.94973211544635
 20
-43.27006726693699
 30
0.0
 10
47.94952580774822
 20
-43.26915263524498
 30
0.0
  0
LINE
  5
97
330
79
100
AcDbEntity
  8
Layer 1
 62
    18
420
    65793
370
    70
100
AcDbLine
 10
47.91101246272886
 20
-43.09840997176194
 30
0.0
 11
47.94952580765949
 21
-43.26915263525498
 31
0.0
  0
SPLINE
  5
98
330
79
100
AcDbEntity
  8
Layer 1
 62
    18
420
    65793
370
    70
100
AcDbSpline
210
0.0
220
0.0
230
1.0
 70
     8
 71
     3
 72
     8
 73
     4
 74
     0
 42
0.0000000001
 43
0.0000000001
 40
0.0
 40
0.0
 40
0.0
 40
0.0
 40
1.0
 40
1.0
 40
1.0
 40
1.0
 10
47.91101246277231
 20
-43.09840997171181
 30
0.0
 10
47.61328829957204
 20
-41.77849822072557
 30
0.0
 10
46.31947896781761
 20
-40.9350019294234
 30
0.0
 10
44.99164727407673
 20
-41.19513593497077
 30
0.0
  0
SPLINE
  5
99
330
79
100
AcDbEntity
  8
Layer 1
 62
    18
420
    65793
370
    70
100
AcDbSpline
210
0.0
220
0.0
230
1.0
 70
     8
 71
     3
 72
    11
 73
     7
 74
     0
 42
0.0000000001
 43
0.0000000001
 40
0.0
 40
0.0
 40
0.0
 40
0.0
 40
1.0
 40
1.0
 40
1.0
 40
2.0
 40
2.0
 40
2.0
 40
2.0
 10
42.73687243879489
 20
-41.60516261911841
 30
0.0
 10
43.14950683155882
 20
-41.53592578989484
 30
0.0
 10
43.56219344195213
 20
-41.46349553267921
 30
0.0
 10
43.97493226997474
 20
-41.38787184747148
 30
0.0
 10
44.31379302226384
 20
-41.32578440349841
 30
0.0
 10
44.65269802361385
 20
-41.26153909933754
 30
0.0
 10
44.99164727402473
 20
-41.19513593498865
 30
0.0
  0
SPLINE
  5
9A
330
79
100
AcDbEntity
  8
Layer 1
 62
    18
420
    65793
370
    70
100
AcDbSpline
210
0.0
220
0.0
230
1.0
 70
     8
 71
     3
 72
     8
 73
     4
 74
     0
 42
0.0000000001
 43
0.0000000001
 40
0.0
 40
0.0
 40
0.0
 40
0.0
 40
1.0
 40
1.0
 40
1.0
 40
1.0
 10
41.0102046802106
 20
-40.37919480967555
 30
0.0
 10
41.14978388957267
 20
-41.19371629592435
 30
0.0
 10
41.92187132259658
 20
-41.74191344286612
 30
0.0
 10
42.73687243882991
 20
-41.60516261915575
 30
0.0
  0
LINE
  5
9B
330
79
100
AcDbEntity
  8
Layer 1
 62
    18
420
    65793
370
    70
100
AcDbLine
 10
38.52378080693475
 20
-25.86954342284776
 30
0.0
 11
41.01020468014047
 21
-40.37919480960122
 31
0.0
  0
SPLINE
  5
9C
330
79
100
AcDbEntity
  8
Layer 1
 62
    18
420
    65793
370
    70
100
AcDbSpline
210
0.0
220
0.0
230
1.0
 70
     8
 71
     3
 72
     8
 73
     4
 74
     0
 42
0.0000000001
 43
0.0000000001
 40
0.0
 40
0.0
 40
0.0
 40
0.0
 40
1.0
 40
1.0
 40
1.0
 40
1.0
 10
38.52378080696466
 20
-25.86954342287342
 30
0.0
 10
38.40036962060611
 20
-25.14937124686031
 30
0.0
 10
37.77600114322352
 20
-24.62289561018209
 30
0.0
 10
37.04533139291092
 20
-24.62289561031328
 30
0.0
  0
LINE
  5
9D
330
79
100
AcDbEntity
  8
Layer 1
 62
    18
420
    65793
370
    70
100
AcDbLine
 10
37.04533139291092
 20
-24.62289561031328
 30
0.0
 11
23.03156109391089
 21
-24.62289561282995
 31
0.0
  0
SPLINE
  5
9E
330
79
100
AcDbEntity
  8
Layer 1
 62
    18
420
    65793
370
    70
100
AcDbSpline
210
0.0
220
0.0
230
1.0
 70
     8
 71
     3
 72
    11
 73
     7
 74
     0
 42
0.0000000001
 43
0.0000000001
 40
0.0
 40
0.0
 40
0.0
 40
0.0
 40
1.0
 40
1.0
 40
1.0
 40
2.0
 40
2.0
 40
2.0
 40
2.0
 10
21.5434920127976
 20
-22.93408244952722
 30
0.0
 10
21.43921338213822
 20
-23.75592030957206
 30
0.0
 10
22.02091007029398
 20
-24.50668606301444
 30
0.0
 10
22.84274793033876
 20
-24.61096469367388
 30
0.0
 10
22.90537190069736
 20
-24.61891071586744
 30
0.0
 10
22.96843502217999
 20
-24.62289561284127
 30
0.0
 10
23.03156109391089
 20
-24.62289561282995
 30
0.0
  0
SPLINE
  5
9F
330
79
100
AcDbEntity
  8
Layer 1
 62
    18
420
    65793
370
    70
100
AcDbSpline
210
0.0
220
0.0
230
1.0
 70
     8
 71
     3
 72
    38
 73
    34
 74
     0
 42
0.0000000001
 43
0.0000000001
 40
0.0
 40
0.0
 40
0.0
 40
0.0
 40
1.0
 40
1.0
 40
1.0
 40
2.0
 40
2.0
 40
2.0
 40
3.0
 40
3.0
 40
3.0
 40
4.0
 40
4.0
 40
4.0
 40
5.0
 40
5.0
 40
5.0
 40
6.0
 40
6.0
 40
6.0
 40
7.0
 40
7.0
 40
7.0
 40
8.0
 40
8.0
 40
8.0
 40
9.0
 40
9.0
 40
9.0
 40
10.0
 40
10.0
 40
10.0
 40
11.0
 40
11.0
 40
11.0
 40
11.0
 10
21.12754088541327
 20
-11.75080090526084
 30
0.0
 10
21.13057913784659
 20
-11.76362438788005
 30
0.0
 10
21.13360596674689
 20
-11.77644235687384
 30
0.0
 10
21.13662140778929
 20
-11.7892548009513
 30
0.0
 10
21.19545759821306
 20
-12.03924655636379
 30
0.0
 10
21.24995838590185
 20
-12.28713495419783
 30
0.0
 10
21.30039764209248
 20
-12.53288720054915
 30
0.0
 10
21.35083689828312
 20
-12.77863944690048
 30
0.0
 10
21.39721462297556
 20
-13.02225554176895
 30
0.0
 10
21.43979625569504
 20
-13.26370109546417
 30
0.0
 10
21.48237788841446
 20
-13.50514664915941
 30
0.0
 10
21.52116342916079
 20
-13.74442166168137
 30
0.0
 10
21.55641131767173
 20
-13.98149725393244
 30
0.0
 10
21.59165920618262
 20
-14.21857284618346
 30
0.0
 10
21.62336944245803
 20
-14.45344901816357
 30
0.0
 10
21.65179515443956
 20
-14.68609934217794
 30
0.0
 10
21.70864657840271
 20
-15.15139999020664
 30
0.0
 10
21.75235990519045
 20
-15.60779724637223
 30
0.0
 10
21.78486232288758
 20
-16.05512897876602
 30
0.0
 10
21.81736474058472
 20
-16.50246071115977
 30
0.0
 10
21.8386562491912
 20
-16.94072691978177
 30
0.0
 10
21.85053718592961
 20
-17.36982145451428
 30
0.0
 10
21.86241812266797
 20
-17.79891598924676
 30
0.0
 10
21.86488848753825
 20
-18.21883885008987
 30
0.0
 10
21.85962729647711
 20
-18.62952961390183
 30
0.0
 10
21.85436610541604
 20
-19.04022037771382
 30
0.0
 10
21.84137335842346
 20
-19.4416790444947
 30
0.0
 10
21.82219488549025
 20
-19.83388536003255
 30
0.0
 10
21.80301641255706
 20
-20.22609167557041
 30
0.0
 10
21.77765221368323
 20
-20.60904563986529
 30
0.0
 10
21.74755699670561
 20
-20.98275255228927
 30
0.0
 10
21.69270901792211
 20
-21.66382651893059
 30
0.0
 10
21.62214725046908
 20
-22.31418696562179
 30
0.0
 10
21.54349201279265
 20
-22.93408244952843
 30
0.0
  0
SPLINE
  5
A0
330
79
100
AcDbEntity
  8
Layer 1
 62
    18
420
    65793
370
    70
100
AcDbSpline
210
0.0
220
0.0
230
1.0
 70
     8
 71
     3
 72
     8
 73
     4
 74
     0
 42
0.0000000001
 43
0.0000000001
 40
0.0
 40
0.0
 40
0.0
 40
0.0
 40
1.0
 40
1.0
 40
1.0
 40
1.0
 10
21.12754088540402
 20
-11.75080090529873
 30
0.0
 10
21.02068893301269
 20
-11.29981331147174
 30
0.0
 10
20.61795244315649
 20
-10.98134717296344
 30
0.0
 10
20.15447952106109
 20
-10.98134717304668
 30
0.0
  0
LINE
  5
A1
330
79
100
AcDbEntity
  8
Layer 1
 62
    18
420
    65793
370
    70
100
AcDbLine
 10
19.64034640056104
 20
-10.98134717313901
 30
0.0
 11
20.15447952106109
 21
-10.98134717304668
 31
0.0
  0
SPLINE
  5
A2
330
79
100
AcDbEntity
  8
Layer 1
 62
    18
420
    65793
370
    70
100
AcDbSpline
210
0.0
220
0.0
230
1.0
 70
     8
 71
     3
 72
    11
 73
     7
 74
     0
 42
0.0000000001
 43
0.0000000001
 40
0.0
 40
0.0
 40
0.0
 40
0.0
 40
1.0
 40
1.0
 40
1.0
 40
2.0
 40
2.0
 40
2.0
 40
2.0
 10
19.64034640056104
 20
-10.98134717313901
 30
0.0
 10
19.08806165073028
 20
-10.98134717323819
 30
0.0
 10
18.64034640064145
 20
-11.42906242348776
 30
0.0
 10
18.64034640074064
 20
-11.98134717331857
 30
0.0
 10
18.64034640075489
 20
-12.06057288698461
 30
0.0
 10
18.64976135478871
 20
-12.1395179050785
 30
0.0
 10
18.66839321578518
 20
-12.21652158980655
 30
0.0
  0
SPLINE
  5
A3
330
79
100
AcDbEntity
  8
Layer 1
 62
    18
420
    65793
370
    70
100
AcDbSpline
210
0.0
220
0.0
230
1.0
 70
     8
 71
     3
 72
    50
 73
    46
 74
     0
 42
0.0000000001
 43
0.0000000001
 40
0.0
 40
0.0
 40
0.0
 40
0.0
 40
1.0
 40
1.0
 40
1.0
 40
2.0
 40
2.0
 40
2.0
 40
3.0
 40
3.0
 40
3.0
 40
4.0
 40
4.0
 40
4.0
 40
5.0
 40
5.0
 40
5.0
 40
6.0
 40
6.0
 40
6.0
 40
7.0
 40
7.0
 40
7.0
 40
8.0
 40
8.0
 40
8.0
 40
9.0
 40
9.0
 40
9.0
 40
10.0
 40
10.0
 40
10.0
 40
11.0
 40
11.0
 40
11.0
 40
12.0
 40
12.0
 40
12.0
 40
13.0
 40
13.0
 40
13.0
 40
14.0
 40
14.0
 40
14.0
 40
15.0
 40
15.0
 40
15.0
 40
15.0
 10
18.66839321579978
 20
-12.2165215897687
 30
0.0
 10
18.68014626991666
 20
-12.26509582902371
 30
0.0
 10
18.6917178394011
 20
-12.31358490477131
 30
0.0
 10
18.70310959095595
 20
-12.36198587412324
 30
0.0
 10
18.75639814866777
 20
-12.58839687301098
 30
0.0
 10
18.80575193127259
 20
-12.81287992815223
 30
0.0
 10
18.85144694645417
 20
-13.03552133187805
 30
0.0
 10
18.89714196163576
 20
-13.25816273560394
 30
0.0
 10
18.93917820939399
 20
-13.4789624879145
 30
0.0
 10
18.97779105278789
 20
-13.69790254331721
 30
0.0
 10
19.01640389618181
 20
-13.91684259871994
 30
0.0
 10
19.05159333521132
 20
-14.13392295721485
 30
0.0
 10
19.08359311114828
 20
-14.34915276214704
 30
0.0
 10
19.11559288708527
 20
-14.56438256707924
 30
0.0
 10
19.14440299992976
 20
-14.77776181844876
 30
0.0
 10
19.17024832757113
 20
-14.98929192449117
 30
0.0
 10
19.22193898285393
 20
-15.41235213657612
 30
0.0
 10
19.26177049732456
 20
-15.8280157673529
 30
0.0
 10
19.29143543006104
 20
-16.23629910005948
 30
0.0
 10
19.32110036279746
 20
-16.64458243276609
 30
0.0
 10
19.34059871379977
 20
-17.04548546740238
 30
0.0
 10
19.35149492607482
 20
-17.43901653980918
 30
0.0
 10
19.36239113834988
 20
-17.83254761221593
 30
0.0
 10
19.36468521189778
 20
-18.21870672239313
 30
0.0
 10
19.35983245487211
 20
-18.59750109237405
 30
0.0
 10
19.35497969784638
 20
-18.97629546235489
 30
0.0
 10
19.34298011024714
 20
-19.3477250921395
 30
0.0
 10
19.32517748895852
 20
-19.71180299692172
 30
0.0
 10
19.30737486766994
 20
-20.07588090170397
 30
0.0
 10
19.28376921269201
 20
-20.43260708148374
 30
0.0
 10
19.25563037464504
 20
-20.78199996068327
 30
0.0
 10
19.1993526985511
 20
-21.48078571908246
 30
0.0
 10
19.12494229018108
 20
-22.15023827516061
 30
0.0
 10
19.04132008730374
 20
-22.79072978283274
 30
0.0
 10
18.95769788442634
 20
-23.43122129050495
 30
0.0
 10
18.86486388704165
 20
-24.04275174977112
 30
0.0
 10
18.7702864272846
 20
-24.62608858764702
 30
0.0
 10
18.67570896752761
 20
-25.20942542552285
 30
0.0
 10
18.57938804539833
 20
-25.7645686420083
 30
0.0
 10
18.48751040085887
 20
-26.29279692091902
 30
0.0
 10
18.46166876590305
 20
-26.44136714630286
 30
0.0
 10
18.43617862964087
 20
-26.58780818547047
 30
0.0
 10
18.41115452285835
 20
-26.73216091639079
 30
0.0
 10
18.38891177397842
 20
-26.86046925410293
 30
0.0
 10
18.36703721607254
 20
-26.98712770424044
 30
0.0
 10
18.34561015113671
 20
-27.11216624701337
 30
0.0
  0
LINE
  5
A4
330
79
100
AcDbEntity
  8
Layer 1
 62
    18
420
    65793
370
    70
100
AcDbLine
 10
18.34561015115793
 20
-27.11216624697148
 30
0.0
 11
16.11746385239299
 21
-40.11460811717165
 31
0.0
  0
SPLINE
  5
A5
330
79
100
AcDbEntity
  8
Layer 1
 62
    18
420
    65793
370
    70
100
AcDbSpline
210
0.0
220
0.0
230
1.0
 70
     8
 71
     3
 72
    11
 73
     7
 74
     0
 42
0.0000000001
 43
0.0000000001
 40
0.0
 40
0.0
 40
0.0
 40
0.0
 40
1.0
 40
1.0
 40
1.0
 40
2.0
 40
2.0
 40
2.0
 40
2.0
 10
14.36367650554833
 20
-41.33576873053276
 30
0.0
 10
15.17802762448093
 20
-41.48783370384497
 30
0.0
 10
15.9614626598309
 20
-40.95094470326894
 30
0.0
 10
16.1135276331431
 20
-40.13659358433629
 30
0.0
 10
16.11489424954143
 20
-40.1292749654009
 30
0.0
 10
16.1162063589997
 20
-40.12194627326008
 30
0.0
 10
16.11746385242593
 20
-40.11460811723925
 30
0.0
  0
SPLINE
  5
A6
330
79
100
AcDbEntity
  8
Layer 1
 62
    18
420
    65793
370
    70
100
AcDbSpline
210
0.0
220
0.0
230
1.0
 70
     8
 71
     3
 72
     8
 73
     4
 74
     0
 42
0.0000000001
 43
0.0000000001
 40
0.0
 40
0.0
 40
0.0
 40
0.0
 40
1.0
 40
1.0
 40
1.0
 40
1.0
 10
13.9134532922171
 20
-41.25043546089048
 30
0.0
 10
14.06353462676069
 20
-41.27930198872033
 30
0.0
 10
14.21360903120296
 20
-41.30774641191911
 30
0.0
 10
14.3636765055438
 20
-41.33576873048673
 30
0.0
  0
SPLINE
  5
A7
330
79
100
AcDbEntity
  8
Layer 1
 62
    18
420
    65793
370
    70
100
AcDbSpline
210
0.0
220
0.0
230
1.0
 70
     8
 71
     3
 72
    14
 73
    10
 74
     0
 42
0.0000000001
 43
0.0000000001
 40
0.0
 40
0.0
 40
0.0
 40
0.0
 40
1.0
 40
1.0
 40
1.0
 40
2.0
 40
2.0
 40
2.0
 40
3.0
 40
3.0
 40
3.0
 40
3.0
 10
5.268395760944523
 20
-39.12158995187517
 30
0.0
 10
6.035582936870468
 20
-39.35181730340913
 30
0.0
 10
6.8024574010389
 20
-39.57096527657098
 30
0.0
 10
7.569019153449794
 20
-39.77903387136058
 30
0.0
 10
9.644927663810523
 20
-40.34249971778982
 30
0.0
 10
11.71888577700082
 20
-40.82507805152512
 30
0.0
 10
13.79089349302075
 20
-41.2267688725665
 30
0.0
 10
13.83174727290586
 20
-41.23468901121166
 30
0.0
 10
13.87260053930463
 20
-41.24257787398631
 30
0.0
 10
13.9134532922171
 20
-41.25043546089048
 30
0.0
  0
SPLINE
  5
A8
330
79
100
AcDbEntity
  8
Layer 1
 62
    18
420
    65793
370
    70
100
AcDbSpline
210
0.0
220
0.0
230
1.0
 70
     8
 71
     3
 72
     8
 73
     4
 74
     0
 42
0.0000000001
 43
0.0000000001
 40
0.0
 40
0.0
 40
0.0
 40
0.0
 40
1.0
 40
1.0
 40
1.0
 40
1.0
 10
5.268395760904101
 20
-39.1215899518492
 30
0.0
 10
3.973074103031118
 20
-38.73287324224448
 30
0.0
 10
2.603471148284723
 20
-39.44469966147318
 30
0.0
 10
2.177235723393512
 20
-40.72816459681363
 30
0.0
  0
LINE
  5
A9
330
79
100
AcDbEntity
  8
Layer 1
 62
    18
420
    65793
370
    70
100
AcDbLine
 10
2.177235723403163
 20
-40.72816459687512
 30
0.0
 11
2.121103412133543
 21
-40.89718821408519
 31
0.0
  0
SPLINE
  5
AA
330
79
100
AcDbEntity
  8
Layer 1
 62
    18
420
    65793
370
    70
100
AcDbSpline
210
0.0
220
0.0
230
1.0
 70
     8
 71
     3
 72
    11
 73
     7
 74
     0
 42
0.0000000001
 43
0.0000000001
 40
0.0
 40
0.0
 40
0.0
 40
0.0
 40
1.0
 40
1.0
 40
1.0
 40
2.0
 40
2.0
 40
2.0
 40
2.0
 10
2.121103412071597
 20
-40.89718821411293
 30
0.0
 10
2.034071078813743
 20
-41.15925687723693
 30
0.0
 10
2.17596606005073
 20
-41.44225915093236
 30
0.0
 10
2.438034723174773
 20
-41.52929148419022
 30
0.0
 10
2.439300940657795
 20
-41.52971199178028
 30
0.0
 10
2.440568836213615
 20
-41.5301274294618
 30
0.0
 10
2.441838379372623
 20
-41.53053778725104
 30
0.0
  0
SPLINE
  5
AB
330
79
100
AcDbEntity
  8
Layer 1
 62
    18
420
    65793
370
    70
100
AcDbSpline
210
0.0
220
0.0
230
1.0
 70
     8
 71
     3
 72
     8
 73
     4
 74
     0
 42
0.0000000001
 43
0.0000000001
 40
0.0
 40
0.0
 40
0.0
 40
0.0
 40
1.0
 40
1.0
 40
1.0
 40
1.0
 10
2.44183837941259
 20
-41.53053778724427
 30
0.0
 10
2.802142042578414
 20
-41.64699969217076
 30
0.0
 10
3.162445705743796
 20
-41.76111896853336
 30
0.0
 10
3.522749368908812
 20
-41.87289561633196
 30
0.0
  0
SPLINE
  5
AC
330
79
100
AcDbEntity
  8
Layer 1
 62
    18
420
    65793
370
    70
100
AcDbSpline
210
0.0
220
0.0
230
1.0
 70
     8
 71
     3
 72
     8
 73
     4
 74
     0
 42
0.0000000001
 43
0.0000000001
 40
0.0
 40
0.0
 40
0.0
 40
0.0
 40
1.0
 40
1.0
 40
1.0
 40
1.0
 10
3.522749368908762
 20
-41.87289561633352
 30
0.0
 10
6.788534567548392
 20
-42.88603691700127
 30
0.0
 10
10.05431976615348
 20
-43.70671784961139
 30
0.0
 10
13.32010496472399
 20
-44.33493841416402
 30
0.0
  0
LINE
  5
AD
330
79
100
AcDbEntity
  8
Layer 1
 62
    18
420
    65793
370
    70
100
AcDbLine
 10
34.93729881345983
 20
-27.12289561069184
 30
0.0
 11
22.14503207845985
 21
-27.12289561298922
 31
0.0
  0
SPLINE
  5
AE
330
79
100
AcDbEntity
  8
Layer 1
 62
    18
420
    65793
370
    70
100
AcDbSpline
210
0.0
220
0.0
230
1.0
 70
     8
 71
     3
 72
     8
 73
     4
 74
     0
 42
0.0000000001
 43
0.0000000001
 40
0.0
 40
0.0
 40
0.0
 40
0.0
 40
1.0
 40
1.0
 40
1.0
 40
1.0
 10
36.41574822751364
 20
-28.36954342325203
 30
0.0
 10
36.29233704115509
 20
-27.64937124723886
 30
0.0
 10
35.66796856377243
 20
-27.12289561056067
 30
0.0
 10
34.93729881345983
 20
-27.12289561069184
 30
0.0
  0
LINE
  5
AF
330
79
100
AcDbEntity
  8
Layer 1
 62
    18
420
    65793
370
    70
100
AcDbLine
 10
36.41574822748378
 20
-28.36954342322641
 30
0.0
 11
36.86570061255526
 21
-30.99526316424552
 31
0.0
  0
SPLINE
  5
B0
330
79
100
AcDbEntity
  8
Layer 1
 62
    18
420
    65793
370
    70
100
AcDbSpline
210
0.0
220
0.0
230
1.0
 70
     8
 71
     3
 72
    11
 73
     7
 74
     0
 42
0.0000000001
 43
0.0000000001
 40
0.0
 40
0.0
 40
0.0
 40
0.0
 40
1.0
 40
1.0
 40
1.0
 40
2.0
 40
2.0
 40
2.0
 40
2.0
 10
35.38725119907012
 20
-32.74861535161105
 30
0.0
 10
36.21567832381633
 20
-32.7486153514623
 30
0.0
 10
36.88725119894951
 20
-32.07704247608786
 30
0.0
 10
36.88725119880075
 20
-31.24861535134169
 30
0.0
 10
36.8872511987855
 20
-31.16370689067483
 30
0.0
 10
36.88004177541325
 20
-31.07895174010337
 30
0.0
 10
36.86570061258517
 20
-30.99526316417119
 30
0.0
  0
LINE
  5
B1
330
79
100
AcDbEntity
  8
Layer 1
 62
    18
420
    65793
370
    70
100
AcDbLine
 10
32.80603639017016
 20
-32.74861535207465
 30
0.0
 11
35.38725119907012
 21
-32.74861535161105
 31
0.0
  0
LINE
  5
B2
330
79
100
AcDbEntity
  8
Layer 1
 62
    18
420
    65793
370
    70
100
AcDbLine
 10
32.80603639017016
 20
-32.74861535207465
 30
0.0
 11
32.80603639003856
 21
-32.01601535207462
 31
0.0
  0
LINE
  5
B3
330
79
100
AcDbEntity
  8
Layer 1
 62
    18
420
    65793
370
    70
100
AcDbLine
 10
32.80603639003856
 20
-32.01601535207462
 30
0.0
 11
31.34083639003856
 21
-32.01601535233777
 31
0.0
  0
LINE
  5
B4
330
79
100
AcDbEntity
  8
Layer 1
 62
    18
420
    65793
370
    70
100
AcDbLine
 10
31.34083639003856
 20
-32.01601535233777
 30
0.0
 11
31.34083639017016
 21
-32.74861535233779
 31
0.0
  0
LINE
  5
B5
330
79
100
AcDbEntity
  8
Layer 1
 62
    18
420
    65793
370
    70
100
AcDbLine
 10
29.30603639017016
 20
-32.7486153527032
 30
0.0
 11
31.34083639017016
 21
-32.74861535233779
 31
0.0
  0
LINE
  5
B6
330
79
100
AcDbEntity
  8
Layer 1
 62
    18
420
    65793
370
    70
100
AcDbLine
 10
29.30603639017016
 20
-32.7486153527032
 30
0.0
 11
29.30603639003856
 21
-32.01601535270318
 31
0.0
  0
LINE
  5
B7
330
79
100
AcDbEntity
  8
Layer 1
 62
    18
420
    65793
370
    70
100
AcDbLine
 10
29.30603639003856
 20
-32.01601535270318
 30
0.0
 11
27.84083639003862
 21
-32.01601535296633
 31
0.0
  0
LINE
  5
B8
330
79
100
AcDbEntity
  8
Layer 1
 62
    18
420
    65793
370
    70
100
AcDbLine
 10
27.84083639003862
 20
-32.01601535296633
 30
0.0
 11
27.84083639017016
 21
-32.7486153529663
 31
0.0
  0
LINE
  5
B9
330
79
100
AcDbEntity
  8
Layer 1
 62
    18
420
    65793
370
    70
100
AcDbLine
 10
25.80603639017016
 20
-32.74861535333176
 30
0.0
 11
27.84083639017016
 21
-32.7486153529663
 31
0.0
  0
LINE
  5
BA
330
79
100
AcDbEntity
  8
Layer 1
 62
    18
420
    65793
370
    70
100
AcDbLine
 10
25.80603639017016
 20
-32.74861535333176
 30
0.0
 11
25.80603639003861
 21
-32.01601535333175
 31
0.0
  0
LINE
  5
BB
330
79
100
AcDbEntity
  8
Layer 1
 62
    18
420
    65793
370
    70
100
AcDbLine
 10
25.80603639003861
 20
-32.01601535333175
 30
0.0
 11
24.34083639003862
 21
-32.01601535359489
 31
0.0
  0
LINE
  5
BC
330
79
100
AcDbEntity
  8
Layer 1
 62
    18
420
    65793
370
    70
100
AcDbLine
 10
24.34083639003862
 20
-32.01601535359489
 30
0.0
 11
24.34083639017016
 21
-32.74861535359486
 31
0.0
  0
LINE
  5
BD
330
79
100
AcDbEntity
  8
Layer 1
 62
    18
420
    65793
370
    70
100
AcDbLine
 10
21.69507907927013
 20
-32.74861535406997
 30
0.0
 11
24.34083639017016
 21
-32.74861535359486
 31
0.0
  0
SPLINE
  5
BE
330
79
100
AcDbEntity
  8
Layer 1
 62
    18
420
    65793
370
    70
100
AcDbSpline
210
0.0
220
0.0
230
1.0
 70
     8
 71
     3
 72
    11
 73
     7
 74
     0
 42
0.0000000001
 43
0.0000000001
 40
0.0
 40
0.0
 40
0.0
 40
0.0
 40
1.0
 40
1.0
 40
1.0
 40
2.0
 40
2.0
 40
2.0
 40
2.0
 10
20.21662972282235
 20
-30.99526283046789
 30
0.0
 10
20.07670698770578
 20
-31.81178786328234
 30
0.0
 10
20.62520152258416
 20
-32.58714197513182
 30
0.0
 10
21.44172655539868
 20
-32.72706471024844
 30
0.0
 10
21.52541524050342
 20
-32.74140591137218
 30
0.0
 10
21.61017050453106
 20
-32.74861535408523
 30
0.0
 10
21.69507907927013
 20
-32.74861535406997
 30
0.0
  0
LINE
  5
BF
330
79
100
AcDbEntity
  8
Layer 1
 62
    18
420
    65793
370
    70
100
AcDbLine
 10
20.66658272248377
 20
-28.36954308935469
 30
0.0
 11
20.21662972285529
 21
-30.99526283053549
 31
0.0
  0
SPLINE
  5
C0
330
79
100
AcDbEntity
  8
Layer 1
 62
    18
420
    65793
370
    70
100
AcDbSpline
210
0.0
220
0.0
230
1.0
 70
     8
 71
     3
 72
     8
 73
     4
 74
     0
 42
0.0000000001
 43
0.0000000001
 40
0.0
 40
0.0
 40
0.0
 40
0.0
 40
1.0
 40
1.0
 40
1.0
 40
1.0
 10
22.14503207845985
 20
-27.12289561298922
 30
0.0
 10
21.41436245721203
 20
-27.12289561312039
 30
0.0
 10
20.78999405085916
 20
-27.64937106864512
 30
0.0
 10
20.66658272255082
 20
-28.36954308938708
 30
0.0
  0
LINE
  5
C1
330
79
100
AcDbEntity
  8
Layer 1
 62
    18
420
    65793
370
    70
100
AcDbLine
 10
27.69843639214485
 20
-43.74453148609187
 30
0.0
 11
29.44843639214485
 21
-43.74453148577759
 31
0.0
  0
LINE
  5
C2
330
79
100
AcDbEntity
  8
Layer 1
 62
    18
420
    65793
370
    70
100
AcDbLine
 10
27.69843639214485
 20
-43.74453148609187
 30
0.0
 11
27.69843639201019
 21
-42.99453148609187
 31
0.0
  0
LINE
  5
C3
330
79
100
AcDbEntity
  8
Layer 1
 62
    18
420
    65793
370
    70
100
AcDbLine
 10
27.69843639201019
 20
-42.99453148609187
 30
0.0
 11
29.4484363920102
 21
-42.99453148577759
 31
0.0
  0
LINE
  5
C4
330
79
100
AcDbEntity
  8
Layer 1
 62
    18
420
    65793
370
    70
100
AcDbLine
 10
29.44843639214485
 20
-43.74453148577759
 30
0.0
 11
29.4484363920102
 21
-42.99453148577759
 31
0.0
  0
LINE
  5
C5
330
79
100
AcDbEntity
  8
Layer 1
 62
    18
420
    65793
370
    70
100
AcDbLine
 10
36.87326211002574
 20
-43.63814334744421
 30
0.0
 11
36.58269172900162
 21
-42.94671811379635
 31
0.0
  0
LINE
  5
C6
330
79
100
AcDbEntity
  8
Layer 1
 62
    18
420
    65793
370
    70
100
AcDbLine
 10
36.58269172900162
 20
-42.94671811379635
 30
0.0
 11
38.19601727407984
 21
-42.26872055800663
 31
0.0
  0
LINE
  5
C7
330
79
100
AcDbEntity
  8
Layer 1
 62
    18
420
    65793
370
    70
100
AcDbLine
 10
38.48658765510399
 20
-42.96014579165449
 30
0.0
 11
38.19601727407984
 21
-42.26872055800663
 31
0.0
  0
LINE
  5
C8
330
79
100
AcDbEntity
  8
Layer 1
 62
    18
420
    65793
370
    70
100
AcDbLine
 10
36.87326211002574
 20
-43.63814334744421
 30
0.0
 11
38.48658765510399
 21
-42.96014579165449
 31
0.0
  0
LINE
  5
C9
330
79
100
AcDbEntity
  8
Layer 1
 62
    18
420
    65793
370
    70
100
AcDbLine
 10
20.27361067422575
 20
-43.63814335042527
 30
0.0
 11
20.56418105500164
 21
-42.94671811667308
 31
0.0
  0
LINE
  5
CA
330
79
100
AcDbEntity
  8
Layer 1
 62
    18
420
    65793
370
    70
100
AcDbLine
 10
20.27361067422575
 20
-43.63814335042527
 30
0.0
 11
18.66028512890401
 21
-42.960145795215
 31
0.0
  0
LINE
  5
CB
330
79
100
AcDbEntity
  8
Layer 1
 62
    18
420
    65793
370
    70
100
AcDbLine
 10
18.66028512890401
 20
-42.960145795215
 30
0.0
 11
18.95085550967983
 21
-42.26872056146276
 31
0.0
  0
LINE
  5
CC
330
79
100
AcDbEntity
  8
Layer 1
 62
    18
420
    65793
370
    70
100
AcDbLine
 10
20.56418105500164
 20
-42.94671811667308
 30
0.0
 11
18.95085550967983
 21
-42.26872056146276
 31
0.0
  0
SPLINE
  5
CD
330
79
100
AcDbEntity
  8
Layer 1
 62
    18
420
    65793
370
    70
100
AcDbSpline
210
0.0
220
0.0
230
1.0
 70
     8
 71
     3
 72
     8
 73
     4
 74
     0
 42
0.0000000001
 43
0.0000000001
 40
0.0
 40
0.0
 40
0.0
 40
0.0
 40
1.0
 40
1.0
 40
1.0
 40
1.0
 10
31.28884046901593
 20
-41.46807064419355
 30
0.0
 10
33.17913769107283
 20
-41.42478935271358
 30
0.0
 10
35.07069379893444
 20
-41.31516405622538
 30
0.0
 10
36.96455223434796
 20
-41.13986234352308
 30
0.0
  0
SPLINE
  5
CE
330
79
100
AcDbEntity
  8
Layer 1
 62
    18
420
    65793
370
    70
100
AcDbSpline
210
0.0
220
0.0
230
1.0
 70
     8
 71
     3
 72
    11
 73
     7
 74
     0
 42
0.0000000001
 43
0.0000000001
 40
0.0
 40
0.0
 40
0.0
 40
0.0
 40
1.0
 40
1.0
 40
1.0
 40
2.0
 40
2.0
 40
2.0
 40
2.0
 10
29.75450463796668
 20
-39.96846367902261
 30
0.0
 10
29.75450463811554
 20
-40.79689080376882
 30
0.0
 10
30.42607751348993
 20
-41.468463678902
 30
0.0
 10
31.25450463823615
 20
-41.46846367875324
 30
0.0
 10
31.26595103990506
 20
-41.46846367875117
 30
0.0
 10
31.27739706663448
 20
-41.46833265863811
 30
0.0
 10
31.28884046908217
 20
-41.46807064416167
 30
0.0
  0
LINE
  5
CF
330
79
100
AcDbEntity
  8
Layer 1
 62
    18
420
    65793
370
    70
100
AcDbLine
 10
29.75450463796668
 20
-39.96846367902261
 30
0.0
 11
29.75450463749607
 21
-37.34756565262263
 31
0.0
  0
SPLINE
  5
D0
330
79
100
AcDbEntity
  8
Layer 1
 62
    18
420
    65793
370
    70
100
AcDbSpline
210
0.0
220
0.0
230
1.0
 70
     8
 71
     3
 72
     8
 73
     4
 74
     0
 42
0.0000000001
 43
0.0000000001
 40
0.0
 40
0.0
 40
0.0
 40
0.0
 40
1.0
 40
1.0
 40
1.0
 40
1.0
 10
31.21543713922239
 20
-35.84807449513404
 30
0.0
 10
30.40250357831035
 20
-35.86925453366553
 30
0.0
 10
29.75450463735004
 20
-36.53435622788045
 30
0.0
 10
29.75450463749607
 20
-37.34756565262263
 30
0.0
  0
SPLINE
  5
D1
330
79
100
AcDbEntity
  8
Layer 1
 62
    18
420
    65793
370
    70
100
AcDbSpline
210
0.0
220
0.0
230
1.0
 70
     8
 71
     3
 72
     8
 73
     4
 74
     0
 42
0.0000000001
 43
0.0000000001
 40
0.0
 40
0.0
 40
0.0
 40
0.0
 40
1.0
 40
1.0
 40
1.0
 40
1.0
 10
31.21543703952682
 20
-35.84807067029323
 30
0.0
 10
32.88915967800157
 20
-35.8044536758378
 30
0.0
 10
34.56333837871409
 20
-35.70336962485249
 30
0.0
 10
36.23797314166426
 20
-35.54481851733719
 30
0.0
  0
SPLINE
  5
D2
330
79
100
AcDbEntity
  8
Layer 1
 62
    18
420
    65793
370
    70
100
AcDbSpline
210
0.0
220
0.0
230
1.0
 70
     8
 71
     3
 72
     8
 73
     4
 74
     0
 42
0.0000000001
 43
0.0000000001
 40
0.0
 40
0.0
 40
0.0
 40
0.0
 40
1.0
 40
1.0
 40
1.0
 40
1.0
 10
37.85781395202489
 20
-36.78479038269302
 30
0.0
 10
37.72528619537218
 20
-36.0114180028713
 30
0.0
 10
37.01912522640245
 20
-35.47085998360386
 30
0.0
 10
36.23797340102264
 20
-35.54482125631054
 30
0.0
  0
LINE
  5
D3
330
79
100
AcDbEntity
  8
Layer 1
 62
    18
420
    65793
370
    70
100
AcDbLine
 10
37.85781395199502
 20
-36.78479038266735
 30
0.0
 11
38.30474776996346
 21
-39.39289512358707
 31
0.0
  0
SPLINE
  5
D4
330
79
100
AcDbEntity
  8
Layer 1
 62
    18
420
    65793
370
    70
100
AcDbSpline
210
0.0
220
0.0
230
1.0
 70
     8
 71
     3
 72
    11
 73
     7
 74
     0
 42
0.0000000001
 43
0.0000000001
 40
0.0
 40
0.0
 40
0.0
 40
0.0
 40
1.0
 40
1.0
 40
1.0
 40
2.0
 40
2.0
 40
2.0
 40
2.0
 10
36.96455223432891
 20
-41.13986234351076
 30
0.0
 10
37.7894530388735
 20
-41.0635068350201
 30
0.0
 10
38.39626889715763
 20
-40.33289423747724
 30
0.0
 10
38.31991338866698
 20
-39.50799343293261
 30
0.0
 10
38.31634531310881
 20
-39.46944600581378
 30
0.0
 10
38.31128631892889
 20
-39.43105115430896
 30
0.0
 10
38.30474776999336
 20
-39.39289512361274
 30
0.0
  0
LINE
  5
D5
330
79
100
AcDbEntity
  8
Layer 1
 62
    18
420
    65793
370
    70
100
AcDbLine
 10
19.25164520266658
 20
-36.62647077070881
 30
0.0
 11
18.81028573432909
 21
-39.20204259668811
 31
0.0
  0
SPLINE
  5
D6
330
79
100
AcDbEntity
  8
Layer 1
 62
    18
420
    65793
370
    70
100
AcDbSpline
210
0.0
220
0.0
230
1.0
 70
     8
 71
     3
 72
     8
 73
     4
 74
     0
 42
0.0000000001
 43
0.0000000001
 40
0.0
 40
0.0
 40
0.0
 40
0.0
 40
1.0
 40
1.0
 40
1.0
 40
1.0
 10
20.90130386705064
 20
-35.38962620242144
 30
0.0
 10
20.11030700226647
 20
-35.29874827307051
 30
0.0
 10
19.38612476439141
 20
-35.84170960604775
 30
0.0
 10
19.25164520263364
 20
-36.62647077074121
 30
0.0
  0
SPLINE
  5
D7
330
79
100
AcDbEntity
  8
Layer 1
 62
    18
420
    65793
370
    70
100
AcDbSpline
210
0.0
220
0.0
230
1.0
 70
     8
 71
     3
 72
     8
 73
     4
 74
     0
 42
0.0000000001
 43
0.0000000001
 40
0.0
 40
0.0
 40
0.0
 40
0.0
 40
1.0
 40
1.0
 40
1.0
 40
1.0
 10
20.90130413583914
 20
-35.38962386299204
 30
0.0
 10
22.54341245693898
 20
-35.57828059113088
 30
0.0
 10
24.18493891117695
 20
-35.71170162152539
 30
0.0
 10
25.8258834985531
 20
-35.78988695417559
 30
0.0
  0
SPLINE
  5
D8
330
79
100
AcDbEntity
  8
Layer 1
 62
    18
420
    65793
370
    70
100
AcDbSpline
210
0.0
220
0.0
230
1.0
 70
     8
 71
     3
 72
     8
 73
     4
 74
     0
 42
0.0000000001
 43
0.0000000001
 40
0.0
 40
0.0
 40
0.0
 40
0.0
 40
1.0
 40
1.0
 40
1.0
 40
1.0
 10
27.25450463748541
 20
-37.28819238067159
 30
0.0
 10
27.25450463734156
 20
-36.48751539373272
 30
0.0
 10
26.62565321991852
 20
-35.8279924683474
 30
0.0
 10
25.82588327499294
 20
-35.78989164673988
 30
0.0
  0
LINE
  5
D9
330
79
100
AcDbEntity
  8
Layer 1
 62
    18
420
    65793
370
    70
100
AcDbLine
 10
27.25450463795497
 20
-39.90286718677162
 30
0.0
 11
27.25450463748541
 21
-37.28819238067159
 31
0.0
  0
SPLINE
  5
DA
330
79
100
AcDbEntity
  8
Layer 1
 62
    18
420
    65793
370
    70
100
AcDbSpline
210
0.0
220
0.0
230
1.0
 70
     8
 71
     3
 72
    11
 73
     7
 74
     0
 42
0.0000000001
 43
0.0000000001
 40
0.0
 40
0.0
 40
0.0
 40
0.0
 40
1.0
 40
1.0
 40
1.0
 40
2.0
 40
2.0
 40
2.0
 40
2.0
 10
25.68424374989583
 20
-41.4012207526619
 30
0.0
 10
26.51176157404286
 20
-41.44002476964661
 30
0.0
 10
27.21405418659129
 20
-40.80064589924725
 30
0.0
 10
27.25285820357598
 20
-39.97312807510012
 30
0.0
 10
27.25395567586117
 20
-39.9497238518243
 30
0.0
 10
27.2545046379591
 20
-39.92629712728717
 30
0.0
 10
27.25450463795497
 20
-39.90286718677162
 30
0.0
  0
SPLINE
  5
DB
330
79
100
AcDbEntity
  8
Layer 1
 62
    18
420
    65793
370
    70
100
AcDbSpline
210
0.0
220
0.0
230
1.0
 70
     8
 71
     3
 72
     8
 73
     4
 74
     0
 42
0.0000000001
 43
0.0000000001
 40
0.0
 40
0.0
 40
0.0
 40
0.0
 40
1.0
 40
1.0
 40
1.0
 40
1.0
 10
20.11452577699347
 20
-40.94524448014118
 30
0.0
 10
21.97153948134399
 20
-41.16238662297582
 30
0.0
 10
23.82778190033247
 20
-41.3141674287727
 30
0.0
 10
25.68424374991522
 20
-41.40122075262911
 30
0.0
  0
SPLINE
  5
DC
330
79
100
AcDbEntity
  8
Layer 1
 62
    18
420
    65793
370
    70
100
AcDbSpline
210
0.0
220
0.0
230
1.0
 70
     8
 71
     3
 72
    11
 73
     7
 74
     0
 42
0.0000000001
 43
0.0000000001
 40
0.0
 40
0.0
 40
0.0
 40
0.0
 40
1.0
 40
1.0
 40
1.0
 40
2.0
 40
2.0
 40
2.0
 40
2.0
 10
18.81028573429614
 20
-39.2020425967205
 30
0.0
 10
18.6703629991796
 20
-40.01856762953495
 30
0.0
 10
19.21885753405797
 20
-40.79392174138443
 30
0.0
 10
20.03538256687253
 20
-40.93384447650101
 30
0.0
 10
20.06165764923191
 20
-40.9383470713283
 30
0.0
 10
20.08804809318019
 20
-40.94214842280085
 30
0.0
 10
20.11452577702515
 20
-40.94524448019331
 30
0.0
  0
ENDBLK
  5
7C
330
79
100
AcDbEntity
  8
0
100
AcDbBlockEnd
  0
BLOCK
  5
DF
330
DD
100
AcDbEntity
  8
0
100
AcDbBlockBegin
  2
Block_1
 70
     0
 10
0.0
 20
0.0
 30
0.0
  3
Block_1
  1

  0
LINE
  5
E1
330
DD
100
AcDbEntity
  8
Layer 1
 62
    18
420
    65793
370
    70
100
AcDbLine
 10
12.0642307779998
 20
-14.41221046049945
 30
0.0
 11
11.06423077799979
 21
-14.41221046027493
 31
0.0
  0
LINE
  5
E2
330
DD
100
AcDbEntity
  8
Layer 1
 62
    18
420
    65793
370
    70
100
AcDbLine
 10
11.06423077816426
 20
-13.67961046027496
 30
0.0
 11
11.06423077799979
 21
-14.41221046027493
 31
0.0
  0
LINE
  5
E3
330
DD
100
AcDbEntity
  8
Layer 1
 62
    18
420
    65793
370
    70
100
AcDbLine
 10
12.06423077816426
 20
-13.67961046049942
 30
0.0
 11
11.06423077816426
 21
-13.67961046027496
 31
0.0
  0
LINE
  5
E4
330
DD
100
AcDbEntity
  8
Layer 1
 62
    18
420
    65793
370
    70
100
AcDbLine
 10
12.06423077816426
 20
-13.67961046049942
 30
0.0
 11
12.0642307779998
 21
-14.41221046049945
 31
0.0
  0
LINE
  5
E5
330
DD
100
AcDbEntity
  8
Layer 1
 62
    18
420
    65793
370
    70
100
AcDbLine
 10
11.06423077334571
 20
-35.14481046027494
 30
0.0
 11
11.06423077351017
 21
-34.41221046027492
 31
0.0
  0
LINE
  5
E6
330
DD
100
AcDbEntity
  8
Layer 1
 62
    18
420
    65793
370
    70
100
AcDbLine
 10
12.06423077351018
 20
-34.41221046049941
 30
0.0
 11
11.06423077351017
 21
-34.41221046027492
 31
0.0
  0
LINE
  5
E7
330
DD
100
AcDbEntity
  8
Layer 1
 62
    18
420
    65793
370
    70
100
AcDbLine
 10
12.06423077334571
 20
-35.14481046049943
 30
0.0
 11
12.06423077351018
 21
-34.41221046049941
 31
0.0
  0
LINE
  5
E8
330
DD
100
AcDbEntity
  8
Layer 1
 62
    18
420
    65793
370
    70
100
AcDbLine
 10
12.06423077334571
 20
-35.14481046049943
 30
0.0
 11
11.06423077334571
 21
-35.14481046027494
 31
0.0
  0
LINE
  5
E9
330
DD
100
AcDbEntity
  8
Layer 1
 62
    18
420
    65793
370
    70
100
AcDbLine
 10
12.1892307782804
 20
-13.16221046052749
 30
0.0
 11
10.9392307782804
 21
-13.16221046024688
 31
0.0
  0
SPLINE
  5
EA
330
DD
100
AcDbEntity
  8
Layer 1
 62
    18
420
    65793
370
    70
100
AcDbSpline
210
0.0
220
0.0
230
1.0
 70
     8
 71
     3
 72
     8
 73
     4
 74
     0
 42
0.0000000001
 43
0.0000000001
 40
0.0
 40
0.0
 40
0.0
 40
0.0
 40
1.0
 40
1.0
 40
1.0
 40
1.0
 10
10.9392307782804
 20
-13.16221046024688
 30
0.0
 10
10.80115959082272
 20
-13.16221046021591
 30
0.0
 10
10.68923077825531
 20
-13.27413927273307
 30
0.0
 10
10.68923077822431
 20
-13.41221046019075
 30
0.0
  0
LINE
  5
EB
330
DD
100
AcDbEntity
  8
Layer 1
 62
    18
420
    65793
370
    70
100
AcDbLine
 10
10.68923077822431
 20
-13.41221046019075
 30
0.0
 11
10.68923077783533
 21
-15.14481046019077
 31
0.0
  0
LINE
  5
EC
330
DD
100
AcDbEntity
  8
Layer 1
 62
    18
420
    65793
370
    70
100
AcDbLine
 10
10.68923077783533
 20
-15.14481046019077
 30
0.0
 11
10.06423077783533
 21
-15.14481046005045
 31
0.0
  0
LINE
  5
ED
330
DD
100
AcDbEntity
  8
Layer 1
 62
    18
420
    65793
370
    70
100
AcDbLine
 10
10.06423077783533
 20
-15.14481046005045
 30
0.0
 11
10.06423077367462
 21
-33.6796104600505
 31
0.0
  0
LINE
  5
EE
330
DD
100
AcDbEntity
  8
Layer 1
 62
    18
420
    65793
370
    70
100
AcDbLine
 10
10.68923077367462
 20
-33.67961046019077
 30
0.0
 11
10.06423077367462
 21
-33.6796104600505
 31
0.0
  0
LINE
  5
EF
330
DD
100
AcDbEntity
  8
Layer 1
 62
    18
420
    65793
370
    70
100
AcDbLine
 10
10.68923077328568
 20
-35.41221046019074
 30
0.0
 11
10.68923077367462
 21
-33.67961046019077
 31
0.0
  0
SPLINE
  5
F0
330
DD
100
AcDbEntity
  8
Layer 1
 62
    18
420
    65793
370
    70
100
AcDbSpline
210
0.0
220
0.0
230
1.0
 70
     8
 71
     3
 72
     8
 73
     4
 74
     0
 42
0.0000000001
 43
0.0000000001
 40
0.0
 40
0.0
 40
0.0
 40
0.0
 40
1.0
 40
1.0
 40
1.0
 40
1.0
 10
10.68923077328568
 20
-35.41221046019074
 30
0.0
 10
10.68923077325468
 20
-35.55028164764846
 30
0.0
 10
10.80115958577187
 20
-35.66221046021585
 30
0.0
 10
10.9392307732296
 20
-35.66221046024687
 30
0.0
  0
LINE
  5
F1
330
DD
100
AcDbEntity
  8
Layer 1
 62
    18
420
    65793
370
    70
100
AcDbLine
 10
10.9392307732296
 20
-35.66221046024687
 30
0.0
 11
12.1892307732296
 21
-35.6622104605275
 31
0.0
  0
SPLINE
  5
F2
330
DD
100
AcDbEntity
  8
Layer 1
 62
    18
420
    65793
370
    70
100
AcDbSpline
210
0.0
220
0.0
230
1.0
 70
     8
 71
     3
 72
     8
 73
     4
 74
     0
 42
0.0000000001
 43
0.0000000001
 40
0.0
 40
0.0
 40
0.0
 40
0.0
 40
1.0
 40
1.0
 40
1.0
 40
1.0
 10
12.1892307732296
 20
-35.6622104605275
 30
0.0
 10
12.32730196068727
 20
-35.66221046055848
 30
0.0
 10
12.43923077325468
 20
-35.55028164804131
 30
0.0
 10
12.43923077328568
 20
-35.41221046058359
 30
0.0
  0
LINE
  5
F3
330
DD
100
AcDbEntity
  8
Layer 1
 62
    18
420
    65793
370
    70
100
AcDbLine
 10
12.43923077328568
 20
-35.41221046058359
 30
0.0
 11
12.43923077367462
 21
-33.67961046058362
 31
0.0
  0
LINE
  5
F4
330
DD
100
AcDbEntity
  8
Layer 1
 62
    18
420
    65793
370
    70
100
AcDbLine
 10
12.43923077367462
 20
-33.67961046058362
 30
0.0
 11
13.06423077367462
 21
-33.67961046072388
 31
0.0
  0
LINE
  5
F5
330
DD
100
AcDbEntity
  8
Layer 1
 62
    18
420
    65793
370
    70
100
AcDbLine
 10
13.06423077367462
 20
-33.67961046072388
 30
0.0
 11
13.06423077783533
 21
-15.14481046072388
 31
0.0
  0
LINE
  5
F6
330
DD
100
AcDbEntity
  8
Layer 1
 62
    18
420
    65793
370
    70
100
AcDbLine
 10
12.43923077783533
 20
-15.14481046058362
 30
0.0
 11
13.06423077783533
 21
-15.14481046072388
 31
0.0
  0
LINE
  5
F7
330
DD
100
AcDbEntity
  8
Layer 1
 62
    18
420
    65793
370
    70
100
AcDbLine
 10
12.43923077822431
 20
-13.4122104605836
 30
0.0
 11
12.43923077783533
 21
-15.14481046058362
 31
0.0
  0
SPLINE
  5
F8
330
DD
100
AcDbEntity
  8
Layer 1
 62
    18
420
    65793
370
    70
100
AcDbSpline
210
0.0
220
0.0
230
1.0
 70
     8
 71
     3
 72
     8
 73
     4
 74
     0
 42
0.0000000001
 43
0.0000000001
 40
0.0
 40
0.0
 40
0.0
 40
0.0
 40
1.0
 40
1.0
 40
1.0
 40
1.0
 10
12.43923077822431
 20
-13.4122104605836
 30
0.0
 10
12.43923077825531
 20
-13.27413927312592
 30
0.0
 10
12.32730196573813
 20
-13.16221046055851
 30
0.0
 10
12.1892307782804
 20
-13.16221046052749
 30
0.0
  0
ENDBLK
  5
E0
330
DD
100
AcDbEntity
  8
0
100
AcDbBlockEnd
  0
BLOCK
  5
FB
330
F9
100
AcDbEntity
  8
0
100
AcDbBlockBegin
  2
Block_2
 70
     0
 10
0.0
 20
0.0
 30
0.0
  3
Block_2
  1

  0
LINE
  5
FD
330
F9
100
AcDbEntity
  8
Layer 1
 62
    18
420
    65793
370
    70
100
AcDbLine
 10
90.70687572245288
 20
-28.43328518494223
 30
0.0
 11
91.70687572245288
 21
-28.43328518525651
 31
0.0
  0
LINE
  5
FE
330
F9
100
AcDbEntity
  8
Layer 1
 62
    18
420
    65793
370
    70
100
AcDbLine
 10
91.70687572222261
 20
-29.16588518525653
 30
0.0
 11
91.70687572245288
 21
-28.43328518525651
 31
0.0
  0
LINE
  5
FF
330
F9
100
AcDbEntity
  8
Layer 1
 62
    18
420
    65793
370
    70
100
AcDbLine
 10
90.70687572222261
 20
-29.16588518494225
 30
0.0
 11
91.70687572222261
 21
-29.16588518525653
 31
0.0
  0
LINE
  5
100
330
F9
100
AcDbEntity
  8
Layer 1
 62
    18
420
    65793
370
    70
100
AcDbLine
 10
90.70687572222261
 20
-29.16588518494225
 30
0.0
 11
90.70687572245288
 21
-28.43328518494223
 31
0.0
  0
LINE
  5
101
330
F9
100
AcDbEntity
  8
Layer 1
 62
    18
420
    65793
370
    70
100
AcDbLine
 10
91.70687572896859
 20
-7.700685185256512
 30
0.0
 11
91.70687572873839
 21
-8.433285185256535
 31
0.0
  0
LINE
  5
102
330
F9
100
AcDbEntity
  8
Layer 1
 62
    18
420
    65793
370
    70
100
AcDbLine
 10
90.7068757287384
 20
-8.433285184942228
 30
0.0
 11
91.70687572873839
 21
-8.433285185256535
 31
0.0
  0
LINE
  5
103
330
F9
100
AcDbEntity
  8
Layer 1
 62
    18
420
    65793
370
    70
100
AcDbLine
 10
90.7068757289686
 20
-7.700685184942257
 30
0.0
 11
90.7068757287384
 21
-8.433285184942228
 31
0.0
  0
LINE
  5
104
330
F9
100
AcDbEntity
  8
Layer 1
 62
    18
420
    65793
370
    70
100
AcDbLine
 10
90.7068757289686
 20
-7.700685184942257
 30
0.0
 11
91.70687572896859
 21
-7.700685185256512
 31
0.0
  0
LINE
  5
105
330
F9
100
AcDbEntity
  8
Layer 1
 62
    18
420
    65793
370
    70
100
AcDbLine
 10
90.58187572206
 20
-29.68328518490297
 30
0.0
 11
91.83187572206
 21
-29.68328518529582
 31
0.0
  0
SPLINE
  5
106
330
F9
100
AcDbEntity
  8
Layer 1
 62
    18
420
    65793
370
    70
100
AcDbSpline
210
0.0
220
0.0
230
1.0
 70
     8
 71
     3
 72
     8
 73
     4
 74
     0
 42
0.0000000001
 43
0.0000000001
 40
0.0
 40
0.0
 40
0.0
 40
0.0
 40
1.0
 40
1.0
 40
1.0
 40
1.0
 10
91.83187572206
 20
-29.68328518529582
 30
0.0
 10
91.96994690951774
 20
-29.68328518533927
 30
0.0
 10
92.08187572209515
 20
-29.57135637283201
 30
0.0
 10
92.08187572213859
 20
-29.43328518537434
 30
0.0
  0
LINE
  5
107
330
F9
100
AcDbEntity
  8
Layer 1
 62
    18
420
    65793
370
    70
100
AcDbLine
 10
92.08187572213859
 20
-29.43328518537434
 30
0.0
 11
92.08187572268313
 21
-27.70068518537437
 31
0.0
  0
LINE
  5
108
330
F9
100
AcDbEntity
  8
Layer 1
 62
    18
420
    65793
370
    70
100
AcDbLine
 10
92.08187572268313
 20
-27.70068518537437
 30
0.0
 11
92.70687572268313
 21
-27.70068518557077
 31
0.0
  0
LINE
  5
109
330
F9
100
AcDbEntity
  8
Layer 1
 62
    18
420
    65793
370
    70
100
AcDbLine
 10
92.70687572268313
 20
-27.70068518557077
 30
0.0
 11
92.70687572850816
 21
-9.165885185570761
 31
0.0
  0
LINE
  5
10A
330
F9
100
AcDbEntity
  8
Layer 1
 62
    18
420
    65793
370
    70
100
AcDbLine
 10
92.08187572850816
 20
-9.165885185374362
 30
0.0
 11
92.70687572850816
 21
-9.165885185570761
 31
0.0
  0
LINE
  5
10B
330
F9
100
AcDbEntity
  8
Layer 1
 62
    18
420
    65793
370
    70
100
AcDbLine
 10
92.08187572905265
 20
-7.43328518537439
 30
0.0
 11
92.08187572850816
 21
-9.165885185374362
 31
0.0
  0
SPLINE
  5
10C
330
F9
100
AcDbEntity
  8
Layer 1
 62
    18
420
    65793
370
    70
100
AcDbSpline
210
0.0
220
0.0
230
1.0
 70
     8
 71
     3
 72
     8
 73
     4
 74
     0
 42
0.0000000001
 43
0.0000000001
 40
0.0
 40
0.0
 40
0.0
 40
0.0
 40
1.0
 40
1.0
 40
1.0
 40
1.0
 10
92.08187572905265
 20
-7.43328518537439
 30
0.0
 10
92.08187572909606
 20
-7.295213997916662
 30
0.0
 10
91.9699469165889
 20
-7.183285185339173
 30
0.0
 10
91.83187572913121
 20
-7.183285185295794
 30
0.0
  0
LINE
  5
10D
330
F9
100
AcDbEntity
  8
Layer 1
 62
    18
420
    65793
370
    70
100
AcDbLine
 10
91.83187572913121
 20
-7.183285185295794
 30
0.0
 11
90.58187572913121
 21
-7.183285184902969
 31
0.0
  0
SPLINE
  5
10E
330
F9
100
AcDbEntity
  8
Layer 1
 62
    18
420
    65793
370
    70
100
AcDbSpline
210
0.0
220
0.0
230
1.0
 70
     8
 71
     3
 72
     8
 73
     4
 74
     0
 42
0.0000000001
 43
0.0000000001
 40
0.0
 40
0.0
 40
0.0
 40
0.0
 40
1.0
 40
1.0
 40
1.0
 40
1.0
 10
90.58187572913121
 20
-7.183285184902969
 30
0.0
 10
90.44380454167349
 20
-7.183285184859464
 30
0.0
 10
90.33187572909605
 20
-7.295213997366722
 30
0.0
 10
90.33187572905264
 20
-7.433285184824448
 30
0.0
  0
LINE
  5
10F
330
F9
100
AcDbEntity
  8
Layer 1
 62
    18
420
    65793
370
    70
100
AcDbLine
 10
90.33187572905264
 20
-7.433285184824448
 30
0.0
 11
90.33187572850817
 21
-9.16588518482437
 31
0.0
  0
LINE
  5
110
330
F9
100
AcDbEntity
  8
Layer 1
 62
    18
420
    65793
370
    70
100
AcDbLine
 10
90.33187572850817
 20
-9.16588518482437
 30
0.0
 11
89.70687572850817
 21
-9.165885184627944
 31
0.0
  0
LINE
  5
111
330
F9
100
AcDbEntity
  8
Layer 1
 62
    18
420
    65793
370
    70
100
AcDbLine
 10
89.70687572850817
 20
-9.165885184627944
 30
0.0
 11
89.70687572268312
 21
-27.70068518462803
 31
0.0
  0
LINE
  5
112
330
F9
100
AcDbEntity
  8
Layer 1
 62
    18
420
    65793
370
    70
100
AcDbLine
 10
90.33187572268312
 20
-27.70068518482443
 30
0.0
 11
89.70687572268312
 21
-27.70068518462803
 31
0.0
  0
LINE
  5
113
330
F9
100
AcDbEntity
  8
Layer 1
 62
    18
420
    65793
370
    70
100
AcDbLine
 10
90.3318757221386
 20
-29.4332851848244
 30
0.0
 11
90.33187572268312
 21
-27.70068518482443
 31
0.0
  0
SPLINE
  5
114
330
F9
100
AcDbEntity
  8
Layer 1
 62
    18
420
    65793
370
    70
100
AcDbSpline
210
0.0
220
0.0
230
1.0
 70
     8
 71
     3
 72
     8
 73
     4
 74
     0
 42
0.0000000001
 43
0.0000000001
 40
0.0
 40
0.0
 40
0.0
 40
0.0
 40
1.0
 40
1.0
 40
1.0
 40
1.0
 10
90.3318757221386
 20
-29.4332851848244
 30
0.0
 10
90.33187572209516
 20
-29.57135637228208
 30
0.0
 10
90.44380453460233
 20
-29.68328518485952
 30
0.0
 10
90.58187572206
 20
-29.68328518490297
 30
0.0
  0
ENDBLK
  5
FC
330
F9
100
AcDbEntity
  8
0
100
AcDbBlockEnd
  0
BLOCK
  5
117
330
115
100
AcDbEntity
  8
0
100
AcDbBlockBegin
  2
Block_3
 70
     0
 10
0.0
 20
0.0
 30
0.0
  3
Block_3
  1

  0
LINE
  5
119
330
115
100
AcDbEntity
  8
Layer 1
 62
    18
420
    65793
370
    70
100
AcDbLine
 10
40.8287876480607
 20
-21.80955993751598
 30
0.0
 11
42.82878764806071
 21
-21.80955993751598
 31
0.0
  0
SPLINE
  5
11A
330
115
100
AcDbEntity
  8
Layer 1
 62
    18
420
    65793
370
    70
100
AcDbSpline
210
0.0
220
0.0
230
1.0
 70
     8
 71
     3
 72
     8
 73
     4
 74
     0
 42
0.0000000001
 43
0.0000000001
 40
0.0
 40
0.0
 40
0.0
 40
0.0
 40
1.0
 40
1.0
 40
1.0
 40
1.0
 10
40.8287876480607
 20
-21.80955993751598
 30
0.0
 10
40.69071646060304
 20
-21.80955993751598
 30
0.0
 10
40.57878764806071
 20
-21.92148875005828
 30
0.0
 10
40.57878764806071
 20
-22.05955993751598
 30
0.0
  0
LINE
  5
11B
330
115
100
AcDbEntity
  8
Layer 1
 62
    18
420
    65793
370
    70
100
AcDbLine
 10
40.57878764806071
 20
-22.05955993751598
 30
0.0
 11
40.57878764806071
 21
-22.29215993751598
 31
0.0
  0
SPLINE
  5
11C
330
115
100
AcDbEntity
  8
Layer 1
 62
    18
420
    65793
370
    70
100
AcDbSpline
210
0.0
220
0.0
230
1.0
 70
     8
 71
     3
 72
     8
 73
     4
 74
     0
 42
0.0000000001
 43
0.0000000001
 40
0.0
 40
0.0
 40
0.0
 40
0.0
 40
1.0
 40
1.0
 40
1.0
 40
1.0
 10
40.57878764806071
 20
-22.29215993751598
 30
0.0
 10
40.57878764806071
 20
-22.43023112497368
 30
0.0
 10
40.69071646060304
 20
-22.54215993751598
 30
0.0
 10
40.8287876480607
 20
-22.54215993751598
 30
0.0
  0
LINE
  5
11D
330
115
100
AcDbEntity
  8
Layer 1
 62
    18
420
    65793
370
    70
100
AcDbLine
 10
40.8287876480607
 20
-22.54215993751598
 30
0.0
 11
41.32878764806071
 21
-22.54215993751598
 31
0.0
  0
LINE
  5
11E
330
115
100
AcDbEntity
  8
Layer 1
 62
    18
420
    65793
370
    70
100
AcDbLine
 10
41.32878764806071
 20
-22.54215993751598
 30
0.0
 11
41.32878764806071
 21
-23.75735993751599
 31
0.0
  0
SPLINE
  5
11F
330
115
100
AcDbEntity
  8
Layer 1
 62
    18
420
    65793
370
    70
100
AcDbSpline
210
0.0
220
0.0
230
1.0
 70
     8
 71
     3
 72
     8
 73
     4
 74
     0
 42
0.0000000001
 43
0.0000000001
 40
0.0
 40
0.0
 40
0.0
 40
0.0
 40
1.0
 40
1.0
 40
1.0
 40
1.0
 10
41.32878764806071
 20
-23.75735993751599
 30
0.0
 10
41.32878764806071
 20
-23.89543112497367
 30
0.0
 10
41.44071646060303
 20
-24.00735993751599
 30
0.0
 10
41.57878764806071
 20
-24.00735993751599
 30
0.0
  0
LINE
  5
120
330
115
100
AcDbEntity
  8
Layer 1
 62
    18
420
    65793
370
    70
100
AcDbLine
 10
41.57878764806071
 20
-24.00735993751599
 30
0.0
 11
42.0787876480607
 21
-24.00735993751599
 31
0.0
  0
SPLINE
  5
121
330
115
100
AcDbEntity
  8
Layer 1
 62
    18
420
    65793
370
    70
100
AcDbSpline
210
0.0
220
0.0
230
1.0
 70
     8
 71
     3
 72
     8
 73
     4
 74
     0
 42
0.0000000001
 43
0.0000000001
 40
0.0
 40
0.0
 40
0.0
 40
0.0
 40
1.0
 40
1.0
 40
1.0
 40
1.0
 10
42.0787876480607
 20
-24.00735993751599
 30
0.0
 10
42.21685883551838
 20
-24.00735993751599
 30
0.0
 10
42.32878764806071
 20
-23.89543112497367
 30
0.0
 10
42.32878764806071
 20
-23.75735993751599
 30
0.0
  0
LINE
  5
122
330
115
100
AcDbEntity
  8
Layer 1
 62
    18
420
    65793
370
    70
100
AcDbLine
 10
42.32878764806071
 20
-22.54215993751598
 30
0.0
 11
42.32878764806071
 21
-23.75735993751599
 31
0.0
  0
LINE
  5
123
330
115
100
AcDbEntity
  8
Layer 1
 62
    18
420
    65793
370
    70
100
AcDbLine
 10
42.32878764806071
 20
-22.54215993751598
 30
0.0
 11
42.82878764806071
 21
-22.54215993751598
 31
0.0
  0
SPLINE
  5
124
330
115
100
AcDbEntity
  8
Layer 1
 62
    18
420
    65793
370
    70
100
AcDbSpline
210
0.0
220
0.0
230
1.0
 70
     8
 71
     3
 72
     8
 73
     4
 74
     0
 42
0.0000000001
 43
0.0000000001
 40
0.0
 40
0.0
 40
0.0
 40
0.0
 40
1.0
 40
1.0
 40
1.0
 40
1.0
 10
42.82878764806071
 20
-22.54215993751598
 30
0.0
 10
42.96685883551844
 20
-22.54215993751598
 30
0.0
 10
43.07878764806071
 20
-22.43023112497368
 30
0.0
 10
43.07878764806071
 20
-22.29215993751598
 30
0.0
  0
LINE
  5
125
330
115
100
AcDbEntity
  8
Layer 1
 62
    18
420
    65793
370
    70
100
AcDbLine
 10
43.07878764806071
 20
-22.05955993751598
 30
0.0
 11
43.07878764806071
 21
-22.29215993751598
 31
0.0
  0
SPLINE
  5
126
330
115
100
AcDbEntity
  8
Layer 1
 62
    18
420
    65793
370
    70
100
AcDbSpline
210
0.0
220
0.0
230
1.0
 70
     8
 71
     3
 72
     8
 73
     4
 74
     0
 42
0.0000000001
 43
0.0000000001
 40
0.0
 40
0.0
 40
0.0
 40
0.0
 40
1.0
 40
1.0
 40
1.0
 40
1.0
 10
43.07878764806071
 20
-22.05955993751598
 30
0.0
 10
43.07878764806071
 20
-21.92148875005828
 30
0.0
 10
42.96685883551844
 20
-21.80955993751598
 30
0.0
 10
42.82878764806071
 20
-21.80955993751598
 30
0.0
  0
ENDBLK
  5
118
330
115
100
AcDbEntity
  8
0
100
AcDbBlockEnd
  0
BLOCK
  5
129
330
127
100
AcDbEntity
  8
0
100
AcDbBlockBegin
  2
Block_4
 70
     0
 10
0.0
 20
0.0
 30
0.0
  3
Block_4
  1

  0
LINE
  5
12B
330
127
100
AcDbEntity
  8
Layer 1
 62
    18
420
    65793
370
    70
100
AcDbLine
 10
54.39894802375508
 20
-27.76882716204065
 30
0.0
 11
54.39894802384486
 21
-25.76882716204065
 31
0.0
  0
SPLINE
  5
12C
330
127
100
AcDbEntity
  8
Layer 1
 62
    18
420
    65793
370
    70
100
AcDbSpline
210
0.0
220
0.0
230
1.0
 70
     8
 71
     3
 72
     8
 73
     4
 74
     0
 42
0.0000000001
 43
0.0000000001
 40
0.0
 40
0.0
 40
0.0
 40
0.0
 40
1.0
 40
1.0
 40
1.0
 40
1.0
 10
54.39894802375508
 20
-27.76882716204065
 30
0.0
 10
54.39894802374889
 20
-27.90689834949838
 30
0.0
 10
54.51087683628617
 20
-28.01882716204571
 30
0.0
 10
54.64894802374386
 20
-28.0188271620519
 30
0.0
  0
LINE
  5
12D
330
127
100
AcDbEntity
  8
Layer 1
 62
    18
420
    65793
370
    70
100
AcDbLine
 10
54.64894802374386
 20
-28.0188271620519
 30
0.0
 11
54.88154802374386
 21
-28.01882716206233
 31
0.0
  0
SPLINE
  5
12E
330
127
100
AcDbEntity
  8
Layer 1
 62
    18
420
    65793
370
    70
100
AcDbSpline
210
0.0
220
0.0
230
1.0
 70
     8
 71
     3
 72
     8
 73
     4
 74
     0
 42
0.0000000001
 43
0.0000000001
 40
0.0
 40
0.0
 40
0.0
 40
0.0
 40
1.0
 40
1.0
 40
1.0
 40
1.0
 10
54.88154802374386
 20
-28.01882716206233
 30
0.0
 10
55.01961921120156
 20
-28.01882716206855
 30
0.0
 10
55.13154802374889
 20
-27.90689834953127
 30
0.0
 10
55.1315480237551
 20
-27.76882716207355
 30
0.0
  0
LINE
  5
12F
330
127
100
AcDbEntity
  8
Layer 1
 62
    18
420
    65793
370
    70
100
AcDbLine
 10
55.1315480237551
 20
-27.76882716207355
 30
0.0
 11
55.13154802377754
 21
-27.26882716207355
 31
0.0
  0
LINE
  5
130
330
127
100
AcDbEntity
  8
Layer 1
 62
    18
420
    65793
370
    70
100
AcDbLine
 10
55.13154802377754
 20
-27.26882716207355
 30
0.0
 11
56.34674802377755
 21
-27.26882716212811
 31
0.0
  0
SPLINE
  5
131
330
127
100
AcDbEntity
  8
Layer 1
 62
    18
420
    65793
370
    70
100
AcDbSpline
210
0.0
220
0.0
230
1.0
 70
     8
 71
     3
 72
     8
 73
     4
 74
     0
 42
0.0000000001
 43
0.0000000001
 40
0.0
 40
0.0
 40
0.0
 40
0.0
 40
1.0
 40
1.0
 40
1.0
 40
1.0
 10
56.34674802377755
 20
-27.26882716212811
 30
0.0
 10
56.48481921123523
 20
-27.26882716213433
 30
0.0
 10
56.59674802378258
 20
-27.15689834959706
 30
0.0
 10
56.59674802378877
 20
-27.01882716213933
 30
0.0
  0
LINE
  5
132
330
127
100
AcDbEntity
  8
Layer 1
 62
    18
420
    65793
370
    70
100
AcDbLine
 10
56.59674802378877
 20
-27.01882716213933
 30
0.0
 11
56.59674802381124
 21
-26.51882716213933
 31
0.0
  0
SPLINE
  5
133
330
127
100
AcDbEntity
  8
Layer 1
 62
    18
420
    65793
370
    70
100
AcDbSpline
210
0.0
220
0.0
230
1.0
 70
     8
 71
     3
 72
     8
 73
     4
 74
     0
 42
0.0000000001
 43
0.0000000001
 40
0.0
 40
0.0
 40
0.0
 40
0.0
 40
1.0
 40
1.0
 40
1.0
 40
1.0
 10
56.59674802381124
 20
-26.51882716213933
 30
0.0
 10
56.59674802381743
 20
-26.38075597468166
 30
0.0
 10
56.48481921128013
 20
-26.26882716213433
 30
0.0
 10
56.34674802382245
 20
-26.26882716212812
 30
0.0
  0
LINE
  5
134
330
127
100
AcDbEntity
  8
Layer 1
 62
    18
420
    65793
370
    70
100
AcDbLine
 10
55.13154802382243
 20
-26.26882716207355
 30
0.0
 11
56.34674802382245
 21
-26.26882716212812
 31
0.0
  0
LINE
  5
135
330
127
100
AcDbEntity
  8
Layer 1
 62
    18
420
    65793
370
    70
100
AcDbLine
 10
55.13154802382243
 20
-26.26882716207355
 30
0.0
 11
55.13154802384489
 21
-25.76882716207355
 31
0.0
  0
SPLINE
  5
136
330
127
100
AcDbEntity
  8
Layer 1
 62
    18
420
    65793
370
    70
100
AcDbSpline
210
0.0
220
0.0
230
1.0
 70
     8
 71
     3
 72
     8
 73
     4
 74
     0
 42
0.0000000001
 43
0.0000000001
 40
0.0
 40
0.0
 40
0.0
 40
0.0
 40
1.0
 40
1.0
 40
1.0
 40
1.0
 10
55.13154802384489
 20
-25.76882716207355
 30
0.0
 10
55.13154802385108
 20
-25.63075597461587
 30
0.0
 10
55.01961921131381
 20
-25.51882716206855
 30
0.0
 10
54.88154802385611
 20
-25.51882716206233
 30
0.0
  0
LINE
  5
137
330
127
100
AcDbEntity
  8
Layer 1
 62
    18
420
    65793
370
    70
100
AcDbLine
 10
54.64894802385611
 20
-25.5188271620519
 30
0.0
 11
54.88154802385611
 21
-25.51882716206233
 31
0.0
  0
SPLINE
  5
138
330
127
100
AcDbEntity
  8
Layer 1
 62
    18
420
    65793
370
    70
100
AcDbSpline
210
0.0
220
0.0
230
1.0
 70
     8
 71
     3
 72
     8
 73
     4
 74
     0
 42
0.0000000001
 43
0.0000000001
 40
0.0
 40
0.0
 40
0.0
 40
0.0
 40
1.0
 40
1.0
 40
1.0
 40
1.0
 10
54.64894802385611
 20
-25.5188271620519
 30
0.0
 10
54.5108768363984
 20
-25.51882716204571
 30
0.0
 10
54.39894802385108
 20
-25.63075597458297
 30
0.0
 10
54.39894802384486
 20
-25.76882716204065
 30
0.0
  0
ENDBLK
  5
12A
330
127
100
AcDbEntity
  8
0
100
AcDbBlockEnd
  0
BLOCK
  5
13B
330
139
100
AcDbEntity
  8
0
100
AcDbBlockBegin
  2
Block_5
 70
     0
 10
0.0
 20
0.0
 30
0.0
  3
Block_5
  1

  0
LINE
  5
13D
330
139
100
AcDbEntity
  8
Layer 1
 62
    18
420
    65793
370
    70
100
AcDbLine
 10
48.71279472737763
 20
-28.01882716213933
 30
0.0
 11
48.71279472746742
 21
-26.01882716213933
 31
0.0
  0
SPLINE
  5
13E
330
139
100
AcDbEntity
  8
Layer 1
 62
    18
420
    65793
370
    70
100
AcDbSpline
210
0.0
220
0.0
230
1.0
 70
     8
 71
     3
 72
     8
 73
     4
 74
     0
 42
0.0000000001
 43
0.0000000001
 40
0.0
 40
0.0
 40
0.0
 40
0.0
 40
1.0
 40
1.0
 40
1.0
 40
1.0
 10
48.71279472737763
 20
-28.01882716213933
 30
0.0
 10
48.71279472737144
 20
-28.15689834959706
 30
0.0
 10
48.8247235399087
 20
-28.26882716214436
 30
0.0
 10
48.96279472736642
 20
-28.26882716215058
 30
0.0
  0
LINE
  5
13F
330
139
100
AcDbEntity
  8
Layer 1
 62
    18
420
    65793
370
    70
100
AcDbLine
 10
48.96279472736642
 20
-28.26882716215058
 30
0.0
 11
49.19539472736639
 21
-28.26882716216099
 31
0.0
  0
SPLINE
  5
140
330
139
100
AcDbEntity
  8
Layer 1
 62
    18
420
    65793
370
    70
100
AcDbSpline
210
0.0
220
0.0
230
1.0
 70
     8
 71
     3
 72
     8
 73
     4
 74
     0
 42
0.0000000001
 43
0.0000000001
 40
0.0
 40
0.0
 40
0.0
 40
0.0
 40
1.0
 40
1.0
 40
1.0
 40
1.0
 10
49.19539472736639
 20
-28.26882716216099
 30
0.0
 10
49.33346591482411
 20
-28.2688271621672
 30
0.0
 10
49.44539472737142
 20
-28.15689834962995
 30
0.0
 10
49.44539472737761
 20
-28.01882716217223
 30
0.0
  0
LINE
  5
141
330
139
100
AcDbEntity
  8
Layer 1
 62
    18
420
    65793
370
    70
100
AcDbLine
 10
49.44539472737761
 20
-28.01882716217223
 30
0.0
 11
49.44539472740007
 21
-27.51882716217223
 31
0.0
  0
LINE
  5
142
330
139
100
AcDbEntity
  8
Layer 1
 62
    18
420
    65793
370
    70
100
AcDbLine
 10
49.44539472740007
 20
-27.51882716217223
 30
0.0
 11
50.66059472740009
 21
-27.51882716222677
 31
0.0
  0
SPLINE
  5
143
330
139
100
AcDbEntity
  8
Layer 1
 62
    18
420
    65793
370
    70
100
AcDbSpline
210
0.0
220
0.0
230
1.0
 70
     8
 71
     3
 72
     8
 73
     4
 74
     0
 42
0.0000000001
 43
0.0000000001
 40
0.0
 40
0.0
 40
0.0
 40
0.0
 40
1.0
 40
1.0
 40
1.0
 40
1.0
 10
50.66059472740009
 20
-27.51882716222677
 30
0.0
 10
50.79866591485779
 20
-27.51882716223299
 30
0.0
 10
50.91059472740511
 20
-27.40689834969574
 30
0.0
 10
50.91059472741131
 20
-27.26882716223801
 30
0.0
  0
LINE
  5
144
330
139
100
AcDbEntity
  8
Layer 1
 62
    18
420
    65793
370
    70
100
AcDbLine
 10
50.91059472741131
 20
-27.26882716223801
 30
0.0
 11
50.91059472743376
 21
-26.76882716223801
 31
0.0
  0
SPLINE
  5
145
330
139
100
AcDbEntity
  8
Layer 1
 62
    18
420
    65793
370
    70
100
AcDbSpline
210
0.0
220
0.0
230
1.0
 70
     8
 71
     3
 72
     8
 73
     4
 74
     0
 42
0.0000000001
 43
0.0000000001
 40
0.0
 40
0.0
 40
0.0
 40
0.0
 40
1.0
 40
1.0
 40
1.0
 40
1.0
 10
50.91059472743376
 20
-26.76882716223801
 30
0.0
 10
50.91059472743996
 20
-26.63075597478034
 30
0.0
 10
50.79866591490269
 20
-26.51882716223298
 30
0.0
 10
50.66059472744498
 20
-26.51882716222677
 30
0.0
  0
LINE
  5
146
330
139
100
AcDbEntity
  8
Layer 1
 62
    18
420
    65793
370
    70
100
AcDbLine
 10
49.44539472744496
 20
-26.51882716217223
 30
0.0
 11
50.66059472744498
 21
-26.51882716222677
 31
0.0
  0
LINE
  5
147
330
139
100
AcDbEntity
  8
Layer 1
 62
    18
420
    65793
370
    70
100
AcDbLine
 10
49.44539472744496
 20
-26.51882716217223
 30
0.0
 11
49.4453947274674
 21
-26.01882716217223
 31
0.0
  0
SPLINE
  5
148
330
139
100
AcDbEntity
  8
Layer 1
 62
    18
420
    65793
370
    70
100
AcDbSpline
210
0.0
220
0.0
230
1.0
 70
     8
 71
     3
 72
     8
 73
     4
 74
     0
 42
0.0000000001
 43
0.0000000001
 40
0.0
 40
0.0
 40
0.0
 40
0.0
 40
1.0
 40
1.0
 40
1.0
 40
1.0
 10
49.4453947274674
 20
-26.01882716217223
 30
0.0
 10
49.44539472747361
 20
-25.88075597471455
 30
0.0
 10
49.33346591493637
 20
-25.7688271621672
 30
0.0
 10
49.19539472747864
 20
-25.76882716216099
 30
0.0
  0
LINE
  5
149
330
139
100
AcDbEntity
  8
Layer 1
 62
    18
420
    65793
370
    70
100
AcDbLine
 10
48.96279472747867
 20
-25.76882716215058
 30
0.0
 11
49.19539472747864
 21
-25.76882716216099
 31
0.0
  0
SPLINE
  5
14A
330
139
100
AcDbEntity
  8
Layer 1
 62
    18
420
    65793
370
    70
100
AcDbSpline
210
0.0
220
0.0
230
1.0
 70
     8
 71
     3
 72
     8
 73
     4
 74
     0
 42
0.0000000001
 43
0.0000000001
 40
0.0
 40
0.0
 40
0.0
 40
0.0
 40
1.0
 40
1.0
 40
1.0
 40
1.0
 10
48.96279472747867
 20
-25.76882716215058
 30
0.0
 10
48.82472354002094
 20
-25.76882716214436
 30
0.0
 10
48.71279472747364
 20
-25.88075597468165
 30
0.0
 10
48.71279472746742
 20
-26.01882716213933
 30
0.0
  0
ENDBLK
  5
13C
330
139
100
AcDbEntity
  8
0
100
AcDbBlockEnd
  0
BLOCK
  5
14D
330
14B
100
AcDbEntity
  8
0
100
AcDbBlockBegin
  2
Block_6
 70
     0
 10
0.0
 20
0.0
 30
0.0
  3
Block_6
  1

  0
LINE
  5
14F
330
14B
100
AcDbEntity
  8
Layer 1
 62
    18
420
    65793
370
    70
100
AcDbLine
 10
43.14768717974139
 20
-27.7688271620571
 30
0.0
 11
43.14768717983118
 21
-25.7688271620571
 31
0.0
  0
SPLINE
  5
150
330
14B
100
AcDbEntity
  8
Layer 1
 62
    18
420
    65793
370
    70
100
AcDbSpline
210
0.0
220
0.0
230
1.0
 70
     8
 71
     3
 72
     8
 73
     4
 74
     0
 42
0.0000000001
 43
0.0000000001
 40
0.0
 40
0.0
 40
0.0
 40
0.0
 40
1.0
 40
1.0
 40
1.0
 40
1.0
 10
43.14768717974139
 20
-27.7688271620571
 30
0.0
 10
43.14768717973517
 20
-27.90689834951483
 30
0.0
 10
43.25961599227245
 20
-28.01882716206213
 30
0.0
 10
43.39768717973018
 20
-28.01882716206831
 30
0.0
  0
LINE
  5
151
330
14B
100
AcDbEntity
  8
Layer 1
 62
    18
420
    65793
370
    70
100
AcDbLine
 10
43.39768717973018
 20
-28.01882716206831
 30
0.0
 11
43.63028717973015
 21
-28.01882716207878
 31
0.0
  0
SPLINE
  5
152
330
14B
100
AcDbEntity
  8
Layer 1
 62
    18
420
    65793
370
    70
100
AcDbSpline
210
0.0
220
0.0
230
1.0
 70
     8
 71
     3
 72
     8
 73
     4
 74
     0
 42
0.0000000001
 43
0.0000000001
 40
0.0
 40
0.0
 40
0.0
 40
0.0
 40
1.0
 40
1.0
 40
1.0
 40
1.0
 10
43.63028717973015
 20
-28.01882716207878
 30
0.0
 10
43.76835836718788
 20
-28.01882716208496
 30
0.0
 10
43.88028717973515
 20
-27.90689834954772
 30
0.0
 10
43.88028717974136
 20
-27.76882716208999
 30
0.0
  0
LINE
  5
153
330
14B
100
AcDbEntity
  8
Layer 1
 62
    18
420
    65793
370
    70
100
AcDbLine
 10
43.88028717974136
 20
-27.76882716208999
 30
0.0
 11
43.8802871797638
 21
-27.26882716208999
 31
0.0
  0
LINE
  5
154
330
14B
100
AcDbEntity
  8
Layer 1
 62
    18
420
    65793
370
    70
100
AcDbLine
 10
43.8802871797638
 20
-27.26882716208999
 30
0.0
 11
45.09548717976384
 21
-27.26882716214456
 31
0.0
  0
SPLINE
  5
155
330
14B
100
AcDbEntity
  8
Layer 1
 62
    18
420
    65793
370
    70
100
AcDbSpline
210
0.0
220
0.0
230
1.0
 70
     8
 71
     3
 72
     8
 73
     4
 74
     0
 42
0.0000000001
 43
0.0000000001
 40
0.0
 40
0.0
 40
0.0
 40
0.0
 40
1.0
 40
1.0
 40
1.0
 40
1.0
 10
45.09548717976384
 20
-27.26882716214456
 30
0.0
 10
45.23355836722152
 20
-27.26882716215075
 30
0.0
 10
45.34548717976885
 20
-27.15689834961351
 30
0.0
 10
45.34548717977506
 20
-27.01882716215578
 30
0.0
  0
LINE
  5
156
330
14B
100
AcDbEntity
  8
Layer 1
 62
    18
420
    65793
370
    70
100
AcDbLine
 10
45.34548717977506
 20
-27.01882716215578
 30
0.0
 11
45.34548717979749
 21
-26.51882716215578
 31
0.0
  0
SPLINE
  5
157
330
14B
100
AcDbEntity
  8
Layer 1
 62
    18
420
    65793
370
    70
100
AcDbSpline
210
0.0
220
0.0
230
1.0
 70
     8
 71
     3
 72
     8
 73
     4
 74
     0
 42
0.0000000001
 43
0.0000000001
 40
0.0
 40
0.0
 40
0.0
 40
0.0
 40
1.0
 40
1.0
 40
1.0
 40
1.0
 10
45.34548717979749
 20
-26.51882716215578
 30
0.0
 10
45.34548717980371
 20
-26.38075597469811
 30
0.0
 10
45.23355836726643
 20
-26.26882716215075
 30
0.0
 10
45.09548717980871
 20
-26.26882716214456
 30
0.0
  0
LINE
  5
158
330
14B
100
AcDbEntity
  8
Layer 1
 62
    18
420
    65793
370
    70
100
AcDbLine
 10
43.88028717980872
 20
-26.26882716208999
 30
0.0
 11
45.09548717980871
 21
-26.26882716214456
 31
0.0
  0
LINE
  5
159
330
14B
100
AcDbEntity
  8
Layer 1
 62
    18
420
    65793
370
    70
100
AcDbLine
 10
43.88028717980872
 20
-26.26882716208999
 30
0.0
 11
43.88028717983115
 21
-25.76882716208999
 31
0.0
  0
SPLINE
  5
15A
330
14B
100
AcDbEntity
  8
Layer 1
 62
    18
420
    65793
370
    70
100
AcDbSpline
210
0.0
220
0.0
230
1.0
 70
     8
 71
     3
 72
     8
 73
     4
 74
     0
 42
0.0000000001
 43
0.0000000001
 40
0.0
 40
0.0
 40
0.0
 40
0.0
 40
1.0
 40
1.0
 40
1.0
 40
1.0
 10
43.88028717983115
 20
-25.76882716208999
 30
0.0
 10
43.88028717983736
 20
-25.63075597463232
 30
0.0
 10
43.7683583673001
 20
-25.51882716208496
 30
0.0
 10
43.63028717984237
 20
-25.51882716207878
 30
0.0
  0
LINE
  5
15B
330
14B
100
AcDbEntity
  8
Layer 1
 62
    18
420
    65793
370
    70
100
AcDbLine
 10
43.3976871798424
 20
-25.51882716206832
 30
0.0
 11
43.63028717984237
 21
-25.51882716207878
 31
0.0
  0
SPLINE
  5
15C
330
14B
100
AcDbEntity
  8
Layer 1
 62
    18
420
    65793
370
    70
100
AcDbSpline
210
0.0
220
0.0
230
1.0
 70
     8
 71
     3
 72
     8
 73
     4
 74
     0
 42
0.0000000001
 43
0.0000000001
 40
0.0
 40
0.0
 40
0.0
 40
0.0
 40
1.0
 40
1.0
 40
1.0
 40
1.0
 10
43.3976871798424
 20
-25.51882716206832
 30
0.0
 10
43.25961599238467
 20
-25.51882716206213
 30
0.0
 10
43.14768717983739
 20
-25.63075597459942
 30
0.0
 10
43.14768717983118
 20
-25.7688271620571
 30
0.0
  0
ENDBLK
  5
14E
330
14B
100
AcDbEntity
  8
0
100
AcDbBlockEnd
  0
BLOCK
  5
15F
330
15D
100
AcDbEntity
  8
0
100
AcDbBlockBegin
  2
Block_7
 70
     0
 10
0.0
 20
0.0
 30
0.0
  3
Block_7
  1

  0
LINE
  5
161
330
15D
100
AcDbEntity
  8
Layer 1
 62
    18
420
    65793
370
    70
100
AcDbLine
 10
45.82399193646412
 20
-21.56825993751598
 30
0.0
 11
47.82399193646412
 21
-21.56825993751598
 31
0.0
  0
SPLINE
  5
162
330
15D
100
AcDbEntity
  8
Layer 1
 62
    18
420
    65793
370
    70
100
AcDbSpline
210
0.0
220
0.0
230
1.0
 70
     8
 71
     3
 72
     8
 73
     4
 74
     0
 42
0.0000000001
 43
0.0000000001
 40
0.0
 40
0.0
 40
0.0
 40
0.0
 40
1.0
 40
1.0
 40
1.0
 40
1.0
 10
45.82399193646412
 20
-21.56825993751598
 30
0.0
 10
45.6859207490064
 20
-21.56825993751598
 30
0.0
 10
45.57399193646412
 20
-21.68018875005828
 30
0.0
 10
45.57399193646412
 20
-21.81825993751598
 30
0.0
  0
LINE
  5
163
330
15D
100
AcDbEntity
  8
Layer 1
 62
    18
420
    65793
370
    70
100
AcDbLine
 10
45.57399193646412
 20
-21.81825993751598
 30
0.0
 11
45.57399193646412
 21
-22.05085993751598
 31
0.0
  0
SPLINE
  5
164
330
15D
100
AcDbEntity
  8
Layer 1
 62
    18
420
    65793
370
    70
100
AcDbSpline
210
0.0
220
0.0
230
1.0
 70
     8
 71
     3
 72
     8
 73
     4
 74
     0
 42
0.0000000001
 43
0.0000000001
 40
0.0
 40
0.0
 40
0.0
 40
0.0
 40
1.0
 40
1.0
 40
1.0
 40
1.0
 10
45.57399193646412
 20
-22.05085993751598
 30
0.0
 10
45.57399193646412
 20
-22.18893112497368
 30
0.0
 10
45.6859207490064
 20
-22.30085993751598
 30
0.0
 10
45.82399193646412
 20
-22.30085993751598
 30
0.0
  0
LINE
  5
165
330
15D
100
AcDbEntity
  8
Layer 1
 62
    18
420
    65793
370
    70
100
AcDbLine
 10
45.82399193646412
 20
-22.30085993751598
 30
0.0
 11
46.32399193646413
 21
-22.30085993751598
 31
0.0
  0
LINE
  5
166
330
15D
100
AcDbEntity
  8
Layer 1
 62
    18
420
    65793
370
    70
100
AcDbLine
 10
46.32399193646413
 20
-22.30085993751598
 30
0.0
 11
46.32399193646413
 21
-23.51605993751599
 31
0.0
  0
SPLINE
  5
167
330
15D
100
AcDbEntity
  8
Layer 1
 62
    18
420
    65793
370
    70
100
AcDbSpline
210
0.0
220
0.0
230
1.0
 70
     8
 71
     3
 72
     8
 73
     4
 74
     0
 42
0.0000000001
 43
0.0000000001
 40
0.0
 40
0.0
 40
0.0
 40
0.0
 40
1.0
 40
1.0
 40
1.0
 40
1.0
 10
46.32399193646413
 20
-23.51605993751599
 30
0.0
 10
46.32399193646413
 20
-23.65413112497368
 30
0.0
 10
46.4359207490064
 20
-23.76605993751599
 30
0.0
 10
46.57399193646412
 20
-23.76605993751599
 30
0.0
  0
LINE
  5
168
330
15D
100
AcDbEntity
  8
Layer 1
 62
    18
420
    65793
370
    70
100
AcDbLine
 10
46.57399193646412
 20
-23.76605993751599
 30
0.0
 11
47.07399193646412
 21
-23.76605993751599
 31
0.0
  0
SPLINE
  5
169
330
15D
100
AcDbEntity
  8
Layer 1
 62
    18
420
    65793
370
    70
100
AcDbSpline
210
0.0
220
0.0
230
1.0
 70
     8
 71
     3
 72
     8
 73
     4
 74
     0
 42
0.0000000001
 43
0.0000000001
 40
0.0
 40
0.0
 40
0.0
 40
0.0
 40
1.0
 40
1.0
 40
1.0
 40
1.0
 10
47.07399193646412
 20
-23.76605993751599
 30
0.0
 10
47.2120631239218
 20
-23.76605993751599
 30
0.0
 10
47.32399193646412
 20
-23.65413112497368
 30
0.0
 10
47.32399193646412
 20
-23.51605993751599
 30
0.0
  0
LINE
  5
16A
330
15D
100
AcDbEntity
  8
Layer 1
 62
    18
420
    65793
370
    70
100
AcDbLine
 10
47.32399193646412
 20
-22.30085993751598
 30
0.0
 11
47.32399193646412
 21
-23.51605993751599
 31
0.0
  0
LINE
  5
16B
330
15D
100
AcDbEntity
  8
Layer 1
 62
    18
420
    65793
370
    70
100
AcDbLine
 10
47.32399193646412
 20
-22.30085993751598
 30
0.0
 11
47.82399193646412
 21
-22.30085993751598
 31
0.0
  0
SPLINE
  5
16C
330
15D
100
AcDbEntity
  8
Layer 1
 62
    18
420
    65793
370
    70
100
AcDbSpline
210
0.0
220
0.0
230
1.0
 70
     8
 71
     3
 72
     8
 73
     4
 74
     0
 42
0.0000000001
 43
0.0000000001
 40
0.0
 40
0.0
 40
0.0
 40
0.0
 40
1.0
 40
1.0
 40
1.0
 40
1.0
 10
47.82399193646412
 20
-22.30085993751598
 30
0.0
 10
47.9620631239218
 20
-22.30085993751598
 30
0.0
 10
48.07399193646412
 20
-22.18893112497368
 30
0.0
 10
48.07399193646412
 20
-22.05085993751598
 30
0.0
  0
LINE
  5
16D
330
15D
100
AcDbEntity
  8
Layer 1
 62
    18
420
    65793
370
    70
100
AcDbLine
 10
48.07399193646412
 20
-21.81825993751598
 30
0.0
 11
48.07399193646412
 21
-22.05085993751598
 31
0.0
  0
SPLINE
  5
16E
330
15D
100
AcDbEntity
  8
Layer 1
 62
    18
420
    65793
370
    70
100
AcDbSpline
210
0.0
220
0.0
230
1.0
 70
     8
 71
     3
 72
     8
 73
     4
 74
     0
 42
0.0000000001
 43
0.0000000001
 40
0.0
 40
0.0
 40
0.0
 40
0.0
 40
1.0
 40
1.0
 40
1.0
 40
1.0
 10
48.07399193646412
 20
-21.81825993751598
 30
0.0
 10
48.07399193646412
 20
-21.68018875005828
 30
0.0
 10
47.9620631239218
 20
-21.56825993751598
 30
0.0
 10
47.82399193646412
 20
-21.56825993751598
 30
0.0
  0
ENDBLK
  5
160
330
15D
100
AcDbEntity
  8
0
100
AcDbBlockEnd
  0
BLOCK
  5
171
330
16F
100
AcDbEntity
  8
0
100
AcDbBlockBegin
  2
Block_8
 70
     0
 10
0.0
 20
0.0
 30
0.0
  3
Block_8
  1

  0
LINE
  5
173
330
16F
100
AcDbEntity
  8
Layer 1
 62
    18
420
    65793
370
    70
100
AcDbLine
 10
51.99791701442316
 20
-23.51189437654668
 30
0.0
 11
51.99791701451295
 21
-21.51189437654668
 31
0.0
  0
SPLINE
  5
174
330
16F
100
AcDbEntity
  8
Layer 1
 62
    18
420
    65793
370
    70
100
AcDbSpline
210
0.0
220
0.0
230
1.0
 70
     8
 71
     3
 72
     8
 73
     4
 74
     0
 42
0.0000000001
 43
0.0000000001
 40
0.0
 40
0.0
 40
0.0
 40
0.0
 40
1.0
 40
1.0
 40
1.0
 40
1.0
 10
51.99791701442316
 20
-23.51189437654668
 30
0.0
 10
51.99791701441697
 20
-23.64996556400436
 30
0.0
 10
52.10984582695424
 20
-23.76189437655171
 30
0.0
 10
52.24791701441194
 20
-23.7618943765579
 30
0.0
  0
LINE
  5
175
330
16F
100
AcDbEntity
  8
Layer 1
 62
    18
420
    65793
370
    70
100
AcDbLine
 10
52.24791701441194
 20
-23.7618943765579
 30
0.0
 11
52.48051701441194
 21
-23.76189437656836
 31
0.0
  0
SPLINE
  5
176
330
16F
100
AcDbEntity
  8
Layer 1
 62
    18
420
    65793
370
    70
100
AcDbSpline
210
0.0
220
0.0
230
1.0
 70
     8
 71
     3
 72
     8
 73
     4
 74
     0
 42
0.0000000001
 43
0.0000000001
 40
0.0
 40
0.0
 40
0.0
 40
0.0
 40
1.0
 40
1.0
 40
1.0
 40
1.0
 10
52.48051701441194
 20
-23.76189437656836
 30
0.0
 10
52.61858820186964
 20
-23.76189437657455
 30
0.0
 10
52.73051701441697
 20
-23.64996556403725
 30
0.0
 10
52.73051701442316
 20
-23.51189437657957
 30
0.0
  0
LINE
  5
177
330
16F
100
AcDbEntity
  8
Layer 1
 62
    18
420
    65793
370
    70
100
AcDbLine
 10
52.73051701442316
 20
-23.51189437657957
 30
0.0
 11
52.73051701444561
 21
-23.01189437657957
 31
0.0
  0
LINE
  5
178
330
16F
100
AcDbEntity
  8
Layer 1
 62
    18
420
    65793
370
    70
100
AcDbLine
 10
52.73051701444561
 20
-23.01189437657957
 30
0.0
 11
53.94571701444561
 21
-23.01189437663414
 31
0.0
  0
SPLINE
  5
179
330
16F
100
AcDbEntity
  8
Layer 1
 62
    18
420
    65793
370
    70
100
AcDbSpline
210
0.0
220
0.0
230
1.0
 70
     8
 71
     3
 72
     8
 73
     4
 74
     0
 42
0.0000000001
 43
0.0000000001
 40
0.0
 40
0.0
 40
0.0
 40
0.0
 40
1.0
 40
1.0
 40
1.0
 40
1.0
 10
53.94571701444561
 20
-23.01189437663414
 30
0.0
 10
54.08378820190334
 20
-23.01189437664033
 30
0.0
 10
54.19571701445061
 20
-22.89996556410304
 30
0.0
 10
54.19571701445683
 20
-22.76189437664536
 30
0.0
  0
LINE
  5
17A
330
16F
100
AcDbEntity
  8
Layer 1
 62
    18
420
    65793
370
    70
100
AcDbLine
 10
54.19571701445683
 20
-22.76189437664536
 30
0.0
 11
54.19571701447926
 21
-22.26189437664536
 31
0.0
  0
SPLINE
  5
17B
330
16F
100
AcDbEntity
  8
Layer 1
 62
    18
420
    65793
370
    70
100
AcDbSpline
210
0.0
220
0.0
230
1.0
 70
     8
 71
     3
 72
     8
 73
     4
 74
     0
 42
0.0000000001
 43
0.0000000001
 40
0.0
 40
0.0
 40
0.0
 40
0.0
 40
1.0
 40
1.0
 40
1.0
 40
1.0
 10
54.19571701447926
 20
-22.26189437664536
 30
0.0
 10
54.19571701448547
 20
-22.12382318918763
 30
0.0
 10
54.08378820194823
 20
-22.01189437664033
 30
0.0
 10
53.9457170144905
 20
-22.01189437663414
 30
0.0
  0
LINE
  5
17C
330
16F
100
AcDbEntity
  8
Layer 1
 62
    18
420
    65793
370
    70
100
AcDbLine
 10
52.73051701449051
 20
-22.01189437657957
 30
0.0
 11
53.9457170144905
 21
-22.01189437663414
 31
0.0
  0
LINE
  5
17D
330
16F
100
AcDbEntity
  8
Layer 1
 62
    18
420
    65793
370
    70
100
AcDbLine
 10
52.73051701449051
 20
-22.01189437657957
 30
0.0
 11
52.73051701451297
 21
-21.51189437657957
 31
0.0
  0
SPLINE
  5
17E
330
16F
100
AcDbEntity
  8
Layer 1
 62
    18
420
    65793
370
    70
100
AcDbSpline
210
0.0
220
0.0
230
1.0
 70
     8
 71
     3
 72
     8
 73
     4
 74
     0
 42
0.0000000001
 43
0.0000000001
 40
0.0
 40
0.0
 40
0.0
 40
0.0
 40
1.0
 40
1.0
 40
1.0
 40
1.0
 10
52.73051701451297
 20
-21.51189437657957
 30
0.0
 10
52.73051701451915
 20
-21.37382318912185
 30
0.0
 10
52.61858820198186
 20
-21.26189437657455
 30
0.0
 10
52.48051701452419
 20
-21.26189437656836
 30
0.0
  0
LINE
  5
17F
330
16F
100
AcDbEntity
  8
Layer 1
 62
    18
420
    65793
370
    70
100
AcDbLine
 10
52.24791701452416
 20
-21.2618943765579
 30
0.0
 11
52.48051701452419
 21
-21.26189437656836
 31
0.0
  0
SPLINE
  5
180
330
16F
100
AcDbEntity
  8
Layer 1
 62
    18
420
    65793
370
    70
100
AcDbSpline
210
0.0
220
0.0
230
1.0
 70
     8
 71
     3
 72
     8
 73
     4
 74
     0
 42
0.0000000001
 43
0.0000000001
 40
0.0
 40
0.0
 40
0.0
 40
0.0
 40
1.0
 40
1.0
 40
1.0
 40
1.0
 10
52.24791701452416
 20
-21.2618943765579
 30
0.0
 10
52.10984582706648
 20
-21.26189437655171
 30
0.0
 10
51.99791701451916
 20
-21.37382318908895
 30
0.0
 10
51.99791701451295
 20
-21.51189437654668
 30
0.0
  0
ENDBLK
  5
172
330
16F
100
AcDbEntity
  8
0
100
AcDbBlockEnd
  0
BLOCK
  5
183
330
181
100
AcDbEntity
  8
0
100
AcDbBlockBegin
  2
Block_9
 70
     0
 10
0.0
 20
0.0
 30
0.0
  3
Block_9
  1

  0
LINE
  5
185
330
181
100
AcDbEntity
  8
Layer 1
 62
    18
420
    65793
370
    70
100
AcDbLine
 10
4.099619912269822
 20
-34.41221046052189
 30
0.0
 11
5.099619912269822
 21
-34.41221046065655
 31
0.0
  0
LINE
  5
186
330
181
100
AcDbEntity
  8
Layer 1
 62
    18
420
    65793
370
    70
100
AcDbLine
 10
5.099619912171141
 20
-35.14481046065657
 30
0.0
 11
5.099619912269822
 21
-34.41221046065655
 31
0.0
  0
LINE
  5
187
330
181
100
AcDbEntity
  8
Layer 1
 62
    18
420
    65793
370
    70
100
AcDbLine
 10
4.099619912171141
 20
-35.14481046052187
 30
0.0
 11
5.099619912171141
 21
-35.14481046065657
 31
0.0
  0
LINE
  5
188
330
181
100
AcDbEntity
  8
Layer 1
 62
    18
420
    65793
370
    70
100
AcDbLine
 10
4.099619912171141
 20
-35.14481046052187
 30
0.0
 11
4.099619912269822
 21
-34.41221046052189
 31
0.0
  0
LINE
  5
189
330
181
100
AcDbEntity
  8
Layer 1
 62
    18
420
    65793
370
    70
100
AcDbLine
 10
5.099619915062273
 20
-13.67961046065654
 30
0.0
 11
5.099619914963619
 21
-14.41221046065656
 31
0.0
  0
LINE
  5
18A
330
181
100
AcDbEntity
  8
Layer 1
 62
    18
420
    65793
370
    70
100
AcDbLine
 10
4.099619914963619
 20
-14.41221046052188
 30
0.0
 11
5.099619914963619
 21
-14.41221046065656
 31
0.0
  0
LINE
  5
18B
330
181
100
AcDbEntity
  8
Layer 1
 62
    18
420
    65793
370
    70
100
AcDbLine
 10
4.099619915062273
 20
-13.67961046052191
 30
0.0
 11
4.099619914963619
 21
-14.41221046052188
 31
0.0
  0
LINE
  5
18C
330
181
100
AcDbEntity
  8
Layer 1
 62
    18
420
    65793
370
    70
100
AcDbLine
 10
4.099619915062273
 20
-13.67961046052191
 30
0.0
 11
5.099619915062273
 21
-13.67961046065654
 31
0.0
  0
LINE
  5
18D
330
181
100
AcDbEntity
  8
Layer 1
 62
    18
420
    65793
370
    70
100
AcDbLine
 10
3.974619912101451
 20
-35.66221046050507
 30
0.0
 11
5.224619912101451
 21
-35.6622104606734
 31
0.0
  0
SPLINE
  5
18E
330
181
100
AcDbEntity
  8
Layer 1
 62
    18
420
    65793
370
    70
100
AcDbSpline
210
0.0
220
0.0
230
1.0
 70
     8
 71
     3
 72
     8
 73
     4
 74
     0
 42
0.0000000001
 43
0.0000000001
 40
0.0
 40
0.0
 40
0.0
 40
0.0
 40
1.0
 40
1.0
 40
1.0
 40
1.0
 10
5.224619912101451
 20
-35.6622104606734
 30
0.0
 10
5.362691099559153
 20
-35.66221046069197
 30
0.0
 10
5.474619912116533
 20
-35.55028164816478
 30
0.0
 10
5.474619912135127
 20
-35.41221046070707
 30
0.0
  0
LINE
  5
18F
330
181
100
AcDbEntity
  8
Layer 1
 62
    18
420
    65793
370
    70
100
AcDbLine
 10
5.474619912135127
 20
-35.41221046070707
 30
0.0
 11
5.474619912368502
 21
-33.67961046070708
 31
0.0
  0
LINE
  5
190
330
181
100
AcDbEntity
  8
Layer 1
 62
    18
420
    65793
370
    70
100
AcDbLine
 10
5.474619912368502
 20
-33.67961046070708
 30
0.0
 11
6.099619912368502
 21
-33.67961046079126
 31
0.0
  0
LINE
  5
191
330
181
100
AcDbEntity
  8
Layer 1
 62
    18
420
    65793
370
    70
100
AcDbLine
 10
6.099619912368502
 20
-33.67961046079126
 30
0.0
 11
6.099619914864939
 21
-15.14481046079128
 31
0.0
  0
LINE
  5
192
330
181
100
AcDbEntity
  8
Layer 1
 62
    18
420
    65793
370
    70
100
AcDbLine
 10
5.474619914864939
 20
-15.14481046070705
 30
0.0
 11
6.099619914864939
 21
-15.14481046079128
 31
0.0
  0
LINE
  5
193
330
181
100
AcDbEntity
  8
Layer 1
 62
    18
420
    65793
370
    70
100
AcDbLine
 10
5.474619915098312
 20
-13.4122104607071
 30
0.0
 11
5.474619914864939
 21
-15.14481046070705
 31
0.0
  0
SPLINE
  5
194
330
181
100
AcDbEntity
  8
Layer 1
 62
    18
420
    65793
370
    70
100
AcDbSpline
210
0.0
220
0.0
230
1.0
 70
     8
 71
     3
 72
     8
 73
     4
 74
     0
 42
0.0000000001
 43
0.0000000001
 40
0.0
 40
0.0
 40
0.0
 40
0.0
 40
1.0
 40
1.0
 40
1.0
 40
1.0
 10
5.474619915098312
 20
-13.4122104607071
 30
0.0
 10
5.474619915116881
 20
-13.27413927324937
 30
0.0
 10
5.362691102589665
 20
-13.16221046069197
 30
0.0
 10
5.224619915131963
 20
-13.16221046067345
 30
0.0
  0
LINE
  5
195
330
181
100
AcDbEntity
  8
Layer 1
 62
    18
420
    65793
370
    70
100
AcDbLine
 10
5.224619915131963
 20
-13.16221046067345
 30
0.0
 11
3.974619915131963
 21
-13.16221046050505
 31
0.0
  0
SPLINE
  5
196
330
181
100
AcDbEntity
  8
Layer 1
 62
    18
420
    65793
370
    70
100
AcDbSpline
210
0.0
220
0.0
230
1.0
 70
     8
 71
     3
 72
     8
 73
     4
 74
     0
 42
0.0000000001
 43
0.0000000001
 40
0.0
 40
0.0
 40
0.0
 40
0.0
 40
1.0
 40
1.0
 40
1.0
 40
1.0
 10
3.974619915131963
 20
-13.16221046050505
 30
0.0
 10
3.836548727674261
 20
-13.16221046048642
 30
0.0
 10
3.724619915116881
 20
-13.27413927301366
 30
0.0
 10
3.724619915098312
 20
-13.41221046047139
 30
0.0
  0
LINE
  5
197
330
181
100
AcDbEntity
  8
Layer 1
 62
    18
420
    65793
370
    70
100
AcDbLine
 10
3.724619915098312
 20
-13.41221046047139
 30
0.0
 11
3.724619914864938
 21
-15.14481046047134
 31
0.0
  0
LINE
  5
198
330
181
100
AcDbEntity
  8
Layer 1
 62
    18
420
    65793
370
    70
100
AcDbLine
 10
3.724619914864938
 20
-15.14481046047134
 30
0.0
 11
3.099619914864938
 21
-15.14481046038717
 31
0.0
  0
LINE
  5
199
330
181
100
AcDbEntity
  8
Layer 1
 62
    18
420
    65793
370
    70
100
AcDbLine
 10
3.099619914864938
 20
-15.14481046038717
 30
0.0
 11
3.099619912368502
 21
-33.67961046038722
 31
0.0
  0
LINE
  5
19A
330
181
100
AcDbEntity
  8
Layer 1
 62
    18
420
    65793
370
    70
100
AcDbLine
 10
3.724619912368502
 20
-33.67961046047137
 30
0.0
 11
3.099619912368502
 21
-33.67961046038722
 31
0.0
  0
LINE
  5
19B
330
181
100
AcDbEntity
  8
Layer 1
 62
    18
420
    65793
370
    70
100
AcDbLine
 10
3.724619912135128
 20
-35.41221046047136
 30
0.0
 11
3.724619912368502
 21
-33.67961046047137
 31
0.0
  0
SPLINE
  5
19C
330
181
100
AcDbEntity
  8
Layer 1
 62
    18
420
    65793
370
    70
100
AcDbSpline
210
0.0
220
0.0
230
1.0
 70
     8
 71
     3
 72
     8
 73
     4
 74
     0
 42
0.0000000001
 43
0.0000000001
 40
0.0
 40
0.0
 40
0.0
 40
0.0
 40
1.0
 40
1.0
 40
1.0
 40
1.0
 10
3.724619912135128
 20
-35.41221046047136
 30
0.0
 10
3.724619912116533
 20
-35.55028164792907
 30
0.0
 10
3.836548724643749
 20
-35.66221046048642
 30
0.0
 10
3.974619912101451
 20
-35.66221046050507
 30
0.0
  0
ENDBLK
  5
184
330
181
100
AcDbEntity
  8
0
100
AcDbBlockEnd
  0
BLOCK
  5
19F
330
19D
100
AcDbEntity
  8
0
100
AcDbBlockBegin
  2
Block_10
 70
     0
 10
0.0
 20
0.0
 30
0.0
  3
Block_10
  1

  0
LINE
  5
1A1
330
19D
100
AcDbEntity
  8
Layer 1
 62
    18
420
    65793
370
    70
100
AcDbLine
 10
57.82151064007477
 20
-7.356247165174042
 30
0.0
 11
57.82151064020634
 21
-5.891047165174048
 31
0.0
  0
LINE
  5
1A2
330
19D
100
AcDbEntity
  8
Layer 1
 62
    18
420
    65793
370
    70
100
AcDbLine
 10
57.08891064007474
 20
-7.356247165108255
 30
0.0
 11
57.82151064007477
 21
-7.356247165174042
 31
0.0
  0
LINE
  5
1A3
330
19D
100
AcDbEntity
  8
Layer 1
 62
    18
420
    65793
370
    70
100
AcDbLine
 10
57.08891064020632
 20
-5.891047165108261
 30
0.0
 11
57.08891064007474
 21
-7.356247165108255
 31
0.0
  0
LINE
  5
1A4
330
19D
100
AcDbEntity
  8
Layer 1
 62
    18
420
    65793
370
    70
100
AcDbLine
 10
57.82151064020634
 20
-5.891047165174048
 30
0.0
 11
57.08891064020632
 21
-5.891047165108261
 31
0.0
  0
LINE
  5
1A5
330
19D
100
AcDbEntity
  8
Layer 1
 62
    18
420
    65793
370
    70
100
AcDbLine
 10
36.82151064025872
 20
-5.307603338788377
 30
0.0
 11
36.82151063936079
 21
-15.30760333878838
 31
0.0
  0
SPLINE
  5
1A6
330
19D
100
AcDbEntity
  8
Layer 1
 62
    18
420
    65793
370
    70
100
AcDbSpline
210
0.0
220
0.0
230
1.0
 70
     8
 71
     3
 72
     8
 73
     4
 74
     0
 42
0.0000000001
 43
0.0000000001
 40
0.0
 40
0.0
 40
0.0
 40
0.0
 40
1.0
 40
1.0
 40
1.0
 40
1.0
 10
36.82151063936079
 20
-15.30760333878838
 30
0.0
 10
36.8215106393112
 20
-15.85988808861916
 30
0.0
 10
37.26922588944019
 20
-16.30760333882857
 30
0.0
 10
37.82151063927101
 20
-16.30760333887816
 30
0.0
  0
SPLINE
  5
1A7
330
19D
100
AcDbEntity
  8
Layer 1
 62
    18
420
    65793
370
    70
100
AcDbSpline
210
0.0
220
0.0
230
1.0
 70
     8
 71
     3
 72
     8
 73
     4
 74
     0
 42
0.0000000001
 43
0.0000000001
 40
0.0
 40
0.0
 40
0.0
 40
0.0
 40
1.0
 40
1.0
 40
1.0
 40
1.0
 10
38.82151063918119
 20
-17.30760333896795
 30
0.0
 10
38.82151063923081
 20
-16.75531858913714
 30
0.0
 10
38.37379538910182
 20
-16.30760333892775
 30
0.0
 10
37.82151063927101
 20
-16.30760333887816
 30
0.0
  0
SPLINE
  5
1A8
330
19D
100
AcDbEntity
  8
Layer 1
 62
    18
420
    65793
370
    70
100
AcDbSpline
210
0.0
220
0.0
230
1.0
 70
     8
 71
     3
 72
     8
 73
     4
 74
     0
 42
0.0000000001
 43
0.0000000001
 40
0.0
 40
0.0
 40
0.0
 40
0.0
 40
1.0
 40
1.0
 40
1.0
 40
1.0
 10
38.82151063918119
 20
-17.30760333896795
 30
0.0
 10
38.82151063913163
 20
-17.85988808879876
 30
0.0
 10
39.2692258892606
 20
-18.30760333900817
 30
0.0
 10
39.82151063909141
 20
-18.30760333905774
 30
0.0
  0
LINE
  5
1A9
330
19D
100
AcDbEntity
  8
Layer 1
 62
    18
420
    65793
370
    70
100
AcDbLine
 10
39.82151063909141
 20
-18.30760333905774
 30
0.0
 11
55.8215106390914
 21
-18.30760334049444
 31
0.0
  0
SPLINE
  5
1AA
330
19D
100
AcDbEntity
  8
Layer 1
 62
    18
420
    65793
370
    70
100
AcDbSpline
210
0.0
220
0.0
230
1.0
 70
     8
 71
     3
 72
     8
 73
     4
 74
     0
 42
0.0000000001
 43
0.0000000001
 40
0.0
 40
0.0
 40
0.0
 40
0.0
 40
1.0
 40
1.0
 40
1.0
 40
1.0
 10
55.8215106390914
 20
-18.30760334049444
 30
0.0
 10
56.37379538892218
 20
-18.30760334054403
 30
0.0
 10
56.82151063913162
 20
-17.85988809041503
 30
0.0
 10
56.82151063918119
 20
-17.30760334058422
 30
0.0
  0
SPLINE
  5
1AB
330
19D
100
AcDbEntity
  8
Layer 1
 62
    18
420
    65793
370
    70
100
AcDbSpline
210
0.0
220
0.0
230
1.0
 70
     8
 71
     3
 72
     8
 73
     4
 74
     0
 42
0.0000000001
 43
0.0000000001
 40
0.0
 40
0.0
 40
0.0
 40
0.0
 40
1.0
 40
1.0
 40
1.0
 40
1.0
 10
57.82151063927098
 20
-16.30760334067401
 30
0.0
 10
57.26922588944017
 20
-16.30760334062444
 30
0.0
 10
56.82151063923081
 20
-16.75531859075344
 30
0.0
 10
56.82151063918119
 20
-17.30760334058422
 30
0.0
  0
SPLINE
  5
1AC
330
19D
100
AcDbEntity
  8
Layer 1
 62
    18
420
    65793
370
    70
100
AcDbSpline
210
0.0
220
0.0
230
1.0
 70
     8
 71
     3
 72
     8
 73
     4
 74
     0
 42
0.0000000001
 43
0.0000000001
 40
0.0
 40
0.0
 40
0.0
 40
0.0
 40
1.0
 40
1.0
 40
1.0
 40
1.0
 10
57.82151063927098
 20
-16.30760334067401
 30
0.0
 10
58.37379538910179
 20
-16.30760334072363
 30
0.0
 10
58.8215106393112
 20
-15.85988809059461
 30
0.0
 10
58.82151063936079
 20
-15.3076033407638
 30
0.0
  0
LINE
  5
1AD
330
19D
100
AcDbEntity
  8
Layer 1
 62
    18
420
    65793
370
    70
100
AcDbLine
 10
58.82151063936079
 20
-15.3076033407638
 30
0.0
 11
58.82151064025872
 21
-5.307603340763799
 31
0.0
  0
SPLINE
  5
1AE
330
19D
100
AcDbEntity
  8
Layer 1
 62
    18
420
    65793
370
    70
100
AcDbSpline
210
0.0
220
0.0
230
1.0
 70
     8
 71
     3
 72
     8
 73
     4
 74
     0
 42
0.0000000001
 43
0.0000000001
 40
0.0
 40
0.0
 40
0.0
 40
0.0
 40
1.0
 40
1.0
 40
1.0
 40
1.0
 10
58.82151064025872
 20
-5.307603340763799
 30
0.0
 10
58.8215106403083
 20
-4.755318590933041
 30
0.0
 10
58.37379539017928
 20
-4.30760334072363
 30
0.0
 10
57.82151064034852
 20
-4.307603340674012
 30
0.0
  0
SPLINE
  5
1AF
330
19D
100
AcDbEntity
  8
Layer 1
 62
    18
420
    65793
370
    70
100
AcDbSpline
210
0.0
220
0.0
230
1.0
 70
     8
 71
     3
 72
     8
 73
     4
 74
     0
 42
0.0000000001
 43
0.0000000001
 40
0.0
 40
0.0
 40
0.0
 40
0.0
 40
1.0
 40
1.0
 40
1.0
 40
1.0
 10
56.82151064043831
 20
-3.307603340584225
 30
0.0
 10
56.82151064038869
 20
-3.859888090415033
 30
0.0
 10
57.26922589051771
 20
-4.307603340624445
 30
0.0
 10
57.82151064034852
 20
-4.307603340674012
 30
0.0
  0
SPLINE
  5
1B0
330
19D
100
AcDbEntity
  8
Layer 1
 62
    18
420
    65793
370
    70
100
AcDbSpline
210
0.0
220
0.0
230
1.0
 70
     8
 71
     3
 72
     8
 73
     4
 74
     0
 42
0.0000000001
 43
0.0000000001
 40
0.0
 40
0.0
 40
0.0
 40
0.0
 40
1.0
 40
1.0
 40
1.0
 40
1.0
 10
56.82151064043831
 20
-3.307603340584225
 30
0.0
 10
56.82151064048788
 20
-2.755318590753467
 30
0.0
 10
56.37379539035886
 20
-2.307603340544031
 30
0.0
 10
55.8215106405281
 20
-2.307603340494412
 30
0.0
  0
LINE
  5
1B1
330
19D
100
AcDbEntity
  8
Layer 1
 62
    18
420
    65793
370
    70
100
AcDbLine
 10
55.8215106405281
 20
-2.307603340494412
 30
0.0
 11
39.82151064052811
 21
-2.307603339057764
 31
0.0
  0
SPLINE
  5
1B2
330
19D
100
AcDbEntity
  8
Layer 1
 62
    18
420
    65793
370
    70
100
AcDbSpline
210
0.0
220
0.0
230
1.0
 70
     8
 71
     3
 72
     8
 73
     4
 74
     0
 42
0.0000000001
 43
0.0000000001
 40
0.0
 40
0.0
 40
0.0
 40
0.0
 40
1.0
 40
1.0
 40
1.0
 40
1.0
 10
39.82151064052811
 20
-2.307603339057764
 30
0.0
 10
39.26922589069729
 20
-2.307603339008172
 30
0.0
 10
38.82151064048791
 20
-2.755318589137168
 30
0.0
 10
38.82151064043831
 20
-3.307603338967952
 30
0.0
  0
SPLINE
  5
1B3
330
19D
100
AcDbEntity
  8
Layer 1
 62
    18
420
    65793
370
    70
100
AcDbSpline
210
0.0
220
0.0
230
1.0
 70
     8
 71
     3
 72
     8
 73
     4
 74
     0
 42
0.0000000001
 43
0.0000000001
 40
0.0
 40
0.0
 40
0.0
 40
0.0
 40
1.0
 40
1.0
 40
1.0
 40
1.0
 10
37.82151064034853
 20
-4.307603338878164
 30
0.0
 10
38.37379539017934
 20
-4.307603338927757
 30
0.0
 10
38.82151064038872
 20
-3.859888088798735
 30
0.0
 10
38.82151064043831
 20
-3.307603338967952
 30
0.0
  0
SPLINE
  5
1B4
330
19D
100
AcDbEntity
  8
Layer 1
 62
    18
420
    65793
370
    70
100
AcDbSpline
210
0.0
220
0.0
230
1.0
 70
     8
 71
     3
 72
     8
 73
     4
 74
     0
 42
0.0000000001
 43
0.0000000001
 40
0.0
 40
0.0
 40
0.0
 40
0.0
 40
1.0
 40
1.0
 40
1.0
 40
1.0
 10
37.82151064034853
 20
-4.307603338878164
 30
0.0
 10
37.26922589051772
 20
-4.307603338828572
 30
0.0
 10
36.82151064030831
 20
-4.755318588957568
 30
0.0
 10
36.82151064025872
 20
-5.307603338788377
 30
0.0
  0
LINE
  5
1B5
330
19D
100
AcDbEntity
  8
Layer 1
 62
    18
420
    65793
370
    70
100
AcDbLine
 10
38.55411063976046
 20
-10.85624716344393
 30
0.0
 11
37.82151063976049
 21
-10.85624716337817
 31
0.0
  0
LINE
  5
1B6
330
19D
100
AcDbEntity
  8
Layer 1
 62
    18
420
    65793
370
    70
100
AcDbLine
 10
37.82151063976049
 20
-10.85624716337817
 30
0.0
 11
37.82151063989206
 21
-9.391047163378175
 31
0.0
  0
LINE
  5
1B7
330
19D
100
AcDbEntity
  8
Layer 1
 62
    18
420
    65793
370
    70
100
AcDbLine
 10
37.82151063989206
 20
-9.391047163378175
 30
0.0
 11
38.55411063989204
 21
-9.391047163443936
 31
0.0
  0
LINE
  5
1B8
330
19D
100
AcDbEntity
  8
Layer 1
 62
    18
420
    65793
370
    70
100
AcDbLine
 10
38.55411063989204
 20
-9.391047163443936
 30
0.0
 11
38.55411063976046
 21
-10.85624716344393
 31
0.0
  0
LINE
  5
1B9
330
19D
100
AcDbEntity
  8
Layer 1
 62
    18
420
    65793
370
    70
100
AcDbLine
 10
38.55411064007474
 20
-7.356247163443931
 30
0.0
 11
37.82151064007477
 21
-7.356247163378169
 31
0.0
  0
LINE
  5
1BA
330
19D
100
AcDbEntity
  8
Layer 1
 62
    18
420
    65793
370
    70
100
AcDbLine
 10
37.82151064007477
 20
-7.356247163378169
 30
0.0
 11
37.82151064020634
 21
-5.891047163378175
 31
0.0
  0
LINE
  5
1BB
330
19D
100
AcDbEntity
  8
Layer 1
 62
    18
420
    65793
370
    70
100
AcDbLine
 10
37.82151064020634
 20
-5.891047163378175
 30
0.0
 11
38.55411064020632
 21
-5.891047163443936
 31
0.0
  0
LINE
  5
1BC
330
19D
100
AcDbEntity
  8
Layer 1
 62
    18
420
    65793
370
    70
100
AcDbLine
 10
38.55411064020632
 20
-5.891047163443936
 30
0.0
 11
38.55411064007474
 21
-7.356247163443931
 31
0.0
  0
LINE
  5
1BD
330
19D
100
AcDbEntity
  8
Layer 1
 62
    18
420
    65793
370
    70
100
AcDbLine
 10
38.55411063944618
 20
-14.35624716344393
 30
0.0
 11
37.82151063944621
 21
-14.35624716337817
 31
0.0
  0
LINE
  5
1BE
330
19D
100
AcDbEntity
  8
Layer 1
 62
    18
420
    65793
370
    70
100
AcDbLine
 10
37.82151063944621
 20
-14.35624716337817
 30
0.0
 11
37.82151063957778
 21
-12.89104716337815
 31
0.0
  0
LINE
  5
1BF
330
19D
100
AcDbEntity
  8
Layer 1
 62
    18
420
    65793
370
    70
100
AcDbLine
 10
37.82151063957778
 20
-12.89104716337815
 30
0.0
 11
38.55411063957775
 21
-12.89104716344393
 31
0.0
  0
LINE
  5
1C0
330
19D
100
AcDbEntity
  8
Layer 1
 62
    18
420
    65793
370
    70
100
AcDbLine
 10
38.55411063957775
 20
-12.89104716344393
 30
0.0
 11
38.55411063944618
 21
-14.35624716344393
 31
0.0
  0
LINE
  5
1C1
330
19D
100
AcDbEntity
  8
Layer 1
 62
    18
420
    65793
370
    70
100
AcDbLine
 10
57.82151063976049
 20
-10.85624716517404
 30
0.0
 11
57.82151063989206
 21
-9.391047165174047
 31
0.0
  0
LINE
  5
1C2
330
19D
100
AcDbEntity
  8
Layer 1
 62
    18
420
    65793
370
    70
100
AcDbLine
 10
57.08891063976047
 20
-10.85624716510825
 30
0.0
 11
57.82151063976049
 21
-10.85624716517404
 31
0.0
  0
LINE
  5
1C3
330
19D
100
AcDbEntity
  8
Layer 1
 62
    18
420
    65793
370
    70
100
AcDbLine
 10
57.08891063989204
 20
-9.391047165108261
 30
0.0
 11
57.08891063976047
 21
-10.85624716510825
 31
0.0
  0
LINE
  5
1C4
330
19D
100
AcDbEntity
  8
Layer 1
 62
    18
420
    65793
370
    70
100
AcDbLine
 10
57.82151063989206
 20
-9.391047165174047
 30
0.0
 11
57.08891063989204
 21
-9.391047165108261
 31
0.0
  0
LINE
  5
1C5
330
19D
100
AcDbEntity
  8
Layer 1
 62
    18
420
    65793
370
    70
100
AcDbLine
 10
57.8215106394462
 20
-14.35624716517404
 30
0.0
 11
57.82151063957778
 21
-12.89104716517402
 31
0.0
  0
LINE
  5
1C6
330
19D
100
AcDbEntity
  8
Layer 1
 62
    18
420
    65793
370
    70
100
AcDbLine
 10
57.08891063944618
 20
-14.35624716510825
 30
0.0
 11
57.8215106394462
 21
-14.35624716517404
 31
0.0
  0
LINE
  5
1C7
330
19D
100
AcDbEntity
  8
Layer 1
 62
    18
420
    65793
370
    70
100
AcDbLine
 10
57.08891063957776
 20
-12.89104716510823
 30
0.0
 11
57.08891063944618
 21
-14.35624716510825
 31
0.0
  0
LINE
  5
1C8
330
19D
100
AcDbEntity
  8
Layer 1
 62
    18
420
    65793
370
    70
100
AcDbLine
 10
57.82151063957778
 20
-12.89104716517402
 30
0.0
 11
57.08891063957776
 21
-12.89104716510823
 31
0.0
  0
ENDBLK
  5
1A0
330
19D
100
AcDbEntity
  8
0
100
AcDbBlockEnd
  0
BLOCK
  5
1CB
330
1C9
100
AcDbEntity
  8
0
100
AcDbBlockBegin
  2
Block_11
 70
     0
 10
0.0
 20
0.0
 30
0.0
  3
Block_11
  1

  0
LINE
  5
1CD
330
1C9
100
AcDbEntity
  8
Layer 1
 62
    18
420
    65793
370
    70
100
AcDbLine
 10
21.33163077050599
 20
-7.161531251169119
 30
0.0
 11
22.06423077050601
 21
-7.161531251300693
 31
0.0
  0
LINE
  5
1CE
330
1C9
100
AcDbEntity
  8
Layer 1
 62
    18
420
    65793
370
    70
100
AcDbLine
 10
21.33163077059583
 20
-6.661531251169119
 30
0.0
 11
21.33163077050599
 21
-7.161531251169119
 31
0.0
  0
LINE
  5
1CF
330
1C9
100
AcDbEntity
  8
Layer 1
 62
    18
420
    65793
370
    70
100
AcDbLine
 10
21.33163077059583
 20
-6.661531251169119
 30
0.0
 11
2.796830770595811
 21
-6.661531247840494
 31
0.0
  0
LINE
  5
1D0
330
1C9
100
AcDbEntity
  8
Layer 1
 62
    18
420
    65793
370
    70
100
AcDbLine
 10
2.796830770595811
 20
-6.661531247840494
 30
0.0
 11
2.796830770506024
 21
-7.161531247840494
 31
0.0
  0
LINE
  5
1D1
330
1C9
100
AcDbEntity
  8
Layer 1
 62
    18
420
    65793
370
    70
100
AcDbLine
 10
2.796830770506024
 20
-7.161531247840494
 30
0.0
 11
2.064230770506027
 21
-7.161531247708934
 31
0.0
  0
LINE
  5
1D2
330
1C9
100
AcDbEntity
  8
Layer 1
 62
    18
420
    65793
370
    70
100
AcDbLine
 10
2.064230770506027
 20
-7.161531247708934
 30
0.0
 11
2.06423077043712
 21
-7.545231247708947
 31
0.0
  0
LINE
  5
1D3
330
1C9
100
AcDbEntity
  8
Layer 1
 62
    18
420
    65793
370
    70
100
AcDbLine
 10
2.06423077043712
 20
-7.545231247708947
 30
0.0
 11
3.197930770437134
 21
-7.54523124791256
 31
0.0
  0
SPLINE
  5
1D4
330
1C9
100
AcDbEntity
  8
Layer 1
 62
    18
420
    65793
370
    70
100
AcDbSpline
210
0.0
220
0.0
230
1.0
 70
     8
 71
     3
 72
    11
 73
     7
 74
     0
 42
0.0000000001
 43
0.0000000001
 40
0.0
 40
0.0
 40
0.0
 40
0.0
 40
1.0
 40
1.0
 40
1.0
 40
2.0
 40
2.0
 40
2.0
 40
2.0
 10
3.197930770305561
 20
-8.277831247912558
 30
0.0
 10
3.400232674168579
 20
-8.277831247948887
 30
0.0
 10
3.564230770335004
 20
-8.113833151841351
 30
0.0
 10
3.564230770371333
 20
-7.911531247978333
 30
0.0
 10
3.564230770407637
 20
-7.709229344115315
 30
0.0
 10
3.400232674300152
 20
-7.545231247948865
 30
0.0
 10
3.197930770437134
 20
-7.54523124791256
 30
0.0
  0
LINE
  5
1D5
330
1C9
100
AcDbEntity
  8
Layer 1
 62
    18
420
    65793
370
    70
100
AcDbLine
 10
3.197930770305561
 20
-8.277831247912558
 30
0.0
 11
2.064230770305546
 21
-8.27783124770897
 31
0.0
  0
LINE
  5
1D6
330
1C9
100
AcDbEntity
  8
Layer 1
 62
    18
420
    65793
370
    70
100
AcDbLine
 10
2.064230770305546
 20
-8.27783124770897
 30
0.0
 11
2.064230770236627
 21
-8.661531247708934
 31
0.0
  0
LINE
  5
1D7
330
1C9
100
AcDbEntity
  8
Layer 1
 62
    18
420
    65793
370
    70
100
AcDbLine
 10
2.796830770236624
 20
-8.661531247840494
 30
0.0
 11
2.064230770236627
 21
-8.661531247708934
 31
0.0
  0
LINE
  5
1D8
330
1C9
100
AcDbEntity
  8
Layer 1
 62
    18
420
    65793
370
    70
100
AcDbLine
 10
2.796830770236624
 20
-8.661531247840494
 30
0.0
 11
2.796830770146812
 21
-9.161531247840494
 31
0.0
  0
LINE
  5
1D9
330
1C9
100
AcDbEntity
  8
Layer 1
 62
    18
420
    65793
370
    70
100
AcDbLine
 10
2.796830770146812
 20
-9.161531247840494
 30
0.0
 11
21.33163077014684
 21
-9.161531251169119
 31
0.0
  0
LINE
  5
1DA
330
1C9
100
AcDbEntity
  8
Layer 1
 62
    18
420
    65793
370
    70
100
AcDbLine
 10
21.33163077023663
 20
-8.661531251169119
 30
0.0
 11
21.33163077014684
 21
-9.161531251169119
 31
0.0
  0
LINE
  5
1DB
330
1C9
100
AcDbEntity
  8
Layer 1
 62
    18
420
    65793
370
    70
100
AcDbLine
 10
21.33163077023663
 20
-8.661531251169119
 30
0.0
 11
22.0642307702366
 21
-8.661531251300692
 31
0.0
  0
LINE
  5
1DC
330
1C9
100
AcDbEntity
  8
Layer 1
 62
    18
420
    65793
370
    70
100
AcDbLine
 10
22.0642307702366
 20
-8.661531251300692
 30
0.0
 11
22.06423077030552
 21
-8.277831251300703
 31
0.0
  0
LINE
  5
1DD
330
1C9
100
AcDbEntity
  8
Layer 1
 62
    18
420
    65793
370
    70
100
AcDbLine
 10
20.93053077030551
 20
-8.27783125109709
 30
0.0
 11
22.06423077030552
 21
-8.277831251300703
 31
0.0
  0
SPLINE
  5
1DE
330
1C9
100
AcDbEntity
  8
Layer 1
 62
    18
420
    65793
370
    70
100
AcDbSpline
210
0.0
220
0.0
230
1.0
 70
     8
 71
     3
 72
    11
 73
     7
 74
     0
 42
0.0000000001
 43
0.0000000001
 40
0.0
 40
0.0
 40
0.0
 40
0.0
 40
1.0
 40
1.0
 40
1.0
 40
2.0
 40
2.0
 40
2.0
 40
2.0
 10
20.93053077043708
 20
-7.545231251097093
 30
0.0
 10
20.72822886657406
 20
-7.545231251060739
 30
0.0
 10
20.56423077040766
 20
-7.709229347168275
 30
0.0
 10
20.56423077037133
 20
-7.911531251031292
 30
0.0
 10
20.56423077033501
 20
-8.113833154894312
 30
0.0
 10
20.72822886644249
 20
-8.277831251060762
 30
0.0
 10
20.93053077030551
 20
-8.27783125109709
 30
0.0
  0
LINE
  5
1DF
330
1C9
100
AcDbEntity
  8
Layer 1
 62
    18
420
    65793
370
    70
100
AcDbLine
 10
22.0642307704371
 20
-7.545231251300681
 30
0.0
 11
20.93053077043708
 21
-7.545231251097093
 31
0.0
  0
LINE
  5
1E0
330
1C9
100
AcDbEntity
  8
Layer 1
 62
    18
420
    65793
370
    70
100
AcDbLine
 10
22.0642307704371
 20
-7.545231251300681
 30
0.0
 11
22.06423077050601
 21
-7.161531251300693
 31
0.0
  0
ENDBLK
  5
1CC
330
1C9
100
AcDbEntity
  8
0
100
AcDbBlockEnd
  0
BLOCK
  5
1E3
330
1E1
100
AcDbEntity
  8
0
100
AcDbBlockBegin
  2
Block_12
 70
     0
 10
0.0
 20
0.0
 30
0.0
  3
Block_12
  1

  0
LINE
  5
1E5
330
1E1
100
AcDbEntity
  8
Layer 1
 62
    18
420
    65793
370
    70
100
AcDbLine
 10
27.52862320850425
 20
-20.93765323201598
 30
0.0
 11
27.52861828596496
 21
-21.67025323199948
 31
0.0
  0
LINE
  5
1E6
330
1E1
100
AcDbEntity
  8
Layer 1
 62
    18
420
    65793
370
    70
100
AcDbLine
 10
28.02862320849296
 20
-20.93765659165248
 30
0.0
 11
27.52862320850425
 21
-20.93765323201598
 31
0.0
  0
LINE
  5
1E7
330
1E1
100
AcDbEntity
  8
Layer 1
 62
    18
420
    65793
370
    70
100
AcDbLine
 10
28.02862320849296
 20
-20.93765659165248
 30
0.0
 11
28.02874774887181
 21
-2.402856592070861
 31
0.0
  0
LINE
  5
1E8
330
1E1
100
AcDbEntity
  8
Layer 1
 62
    18
420
    65793
370
    70
100
AcDbLine
 10
28.02874774887181
 20
-2.402856592070861
 30
0.0
 11
27.52874774888311
 21
-2.402853232434393
 31
0.0
  0
LINE
  5
1E9
330
1E1
100
AcDbEntity
  8
Layer 1
 62
    18
420
    65793
370
    70
100
AcDbLine
 10
27.52874774888311
 20
-2.402853232434393
 30
0.0
 11
27.5287526714224
 21
-1.670253232450944
 31
0.0
  0
LINE
  5
1EA
330
1E1
100
AcDbEntity
  8
Layer 1
 62
    18
420
    65793
370
    70
100
AcDbLine
 10
27.5287526714224
 20
-1.670253232450944
 30
0.0
 11
27.14505267143105
 21
-1.670250654265942
 31
0.0
  0
LINE
  5
1EB
330
1E1
100
AcDbEntity
  8
Layer 1
 62
    18
420
    65793
370
    70
100
AcDbLine
 10
27.14505267143105
 20
-1.670250654265942
 30
0.0
 11
27.1450450537914
 21
-2.803950654240363
 31
0.0
  0
SPLINE
  5
1EC
330
1E1
100
AcDbEntity
  8
Layer 1
 62
    18
420
    65793
370
    70
100
AcDbSpline
210
0.0
220
0.0
230
1.0
 70
     8
 71
     3
 72
    11
 73
     7
 74
     0
 42
0.0000000001
 43
0.0000000001
 40
0.0
 40
0.0
 40
0.0
 40
0.0
 40
1.0
 40
1.0
 40
1.0
 40
2.0
 40
2.0
 40
2.0
 40
2.0
 10
26.41244505380793
 20
-2.803945731701042
 30
0.0
 10
26.41244369448625
 20
-3.006247635559487
 30
0.0
 10
26.57644068867157
 20
-3.170246833640716
 30
0.0
 10
26.77874259253002
 20
-3.170248192962427
 30
0.0
 10
26.98104449638846
 20
-3.170249552284114
 30
0.0
 10
27.14504369446973
 20
-3.006252558098809
 30
0.0
 10
27.1450450537914
 20
-2.803950654240363
 30
0.0
  0
LINE
  5
1ED
330
1E1
100
AcDbEntity
  8
Layer 1
 62
    18
420
    65793
370
    70
100
AcDbLine
 10
26.41244505380793
 20
-2.803945731701042
 30
0.0
 11
26.41245267144761
 21
-1.67024573172667
 31
0.0
  0
LINE
  5
1EE
330
1E1
100
AcDbEntity
  8
Layer 1
 62
    18
420
    65793
370
    70
100
AcDbLine
 10
26.41245267144761
 20
-1.67024573172667
 30
0.0
 11
26.02875267145627
 21
-1.670243153541643
 31
0.0
  0
LINE
  5
1EF
330
1E1
100
AcDbEntity
  8
Layer 1
 62
    18
420
    65793
370
    70
100
AcDbLine
 10
26.02874774891696
 20
-2.402843153525117
 30
0.0
 11
26.02875267145627
 21
-1.670243153541643
 31
0.0
  0
LINE
  5
1F0
330
1E1
100
AcDbEntity
  8
Layer 1
 62
    18
420
    65793
370
    70
100
AcDbLine
 10
26.02874774891696
 20
-2.402843153525117
 30
0.0
 11
25.52874774892825
 21
-2.40283979388865
 31
0.0
  0
LINE
  5
1F1
330
1E1
100
AcDbEntity
  8
Layer 1
 62
    18
420
    65793
370
    70
100
AcDbLine
 10
25.52874774892825
 20
-2.40283979388865
 30
0.0
 11
25.5286232085494
 21
-20.93763979347026
 31
0.0
  0
LINE
  5
1F2
330
1E1
100
AcDbEntity
  8
Layer 1
 62
    18
420
    65793
370
    70
100
AcDbLine
 10
26.02862320853811
 20
-20.93764315310673
 30
0.0
 11
25.5286232085494
 21
-20.93763979347026
 31
0.0
  0
LINE
  5
1F3
330
1E1
100
AcDbEntity
  8
Layer 1
 62
    18
420
    65793
370
    70
100
AcDbLine
 10
26.02862320853811
 20
-20.93764315310673
 30
0.0
 11
26.02861828599879
 21
-21.67024315309013
 31
0.0
  0
LINE
  5
1F4
330
1E1
100
AcDbEntity
  8
Layer 1
 62
    18
420
    65793
370
    70
100
AcDbLine
 10
26.02861828599879
 20
-21.67024315309013
 30
0.0
 11
26.41231828599011
 21
-21.67024573127518
 31
0.0
  0
LINE
  5
1F5
330
1E1
100
AcDbEntity
  8
Layer 1
 62
    18
420
    65793
370
    70
100
AcDbLine
 10
26.41232590362982
 20
-20.53654573130069
 30
0.0
 11
26.41231828599011
 21
-21.67024573127518
 31
0.0
  0
SPLINE
  5
1F6
330
1E1
100
AcDbEntity
  8
Layer 1
 62
    18
420
    65793
370
    70
100
AcDbSpline
210
0.0
220
0.0
230
1.0
 70
     8
 71
     3
 72
    11
 73
     7
 74
     0
 42
0.0000000001
 43
0.0000000001
 40
0.0
 40
0.0
 40
0.0
 40
0.0
 40
1.0
 40
1.0
 40
1.0
 40
2.0
 40
2.0
 40
2.0
 40
2.0
 10
27.14492590361327
 20
-20.53655065384006
 30
0.0
 10
27.14492726293495
 20
-20.33424874998159
 30
0.0
 10
26.98093026874965
 20
-20.17024955190036
 30
0.0
 10
26.77862836489121
 20
-20.17024819257864
 30
0.0
 10
26.57632646103273
 20
-20.17024683325696
 30
0.0
 10
26.41232726295149
 20
-20.33424382744227
 30
0.0
 10
26.41232590362982
 20
-20.53654573130069
 30
0.0
  0
LINE
  5
1F7
330
1E1
100
AcDbEntity
  8
Layer 1
 62
    18
420
    65793
370
    70
100
AcDbLine
 10
27.14491828597358
 20
-21.67025065381445
 30
0.0
 11
27.14492590361327
 21
-20.53655065384006
 31
0.0
  0
LINE
  5
1F8
330
1E1
100
AcDbEntity
  8
Layer 1
 62
    18
420
    65793
370
    70
100
AcDbLine
 10
27.14491828597358
 20
-21.67025065381445
 30
0.0
 11
27.52861828596496
 21
-21.67025323199948
 31
0.0
  0
ENDBLK
  5
1E4
330
1E1
100
AcDbEntity
  8
0
100
AcDbBlockEnd
  0
BLOCK
  5
1FB
330
1F9
100
AcDbEntity
  8
0
100
AcDbBlockBegin
  2
Block_13
 70
     0
 10
0.0
 20
0.0
 30
0.0
  3
Block_13
  1

  0
LINE
  5
1FD
330
1F9
100
AcDbEntity
  8
Layer 1
 62
    18
420
    65793
370
    70
100
AcDbLine
 10
33.10023456841232
 20
-20.9166192761045
 30
0.0
 11
33.10023456831364
 21
-21.64921927610452
 31
0.0
  0
LINE
  5
1FE
330
1F9
100
AcDbEntity
  8
Layer 1
 62
    18
420
    65793
370
    70
100
AcDbLine
 10
33.60023456841232
 20
-20.91661927617186
 30
0.0
 11
33.10023456841232
 21
-20.9166192761045
 31
0.0
  0
LINE
  5
1FF
330
1F9
100
AcDbEntity
  8
Layer 1
 62
    18
420
    65793
370
    70
100
AcDbLine
 10
33.60023456841232
 20
-20.91661927617186
 30
0.0
 11
33.6002345709088
 21
-2.381819276171856
 31
0.0
  0
LINE
  5
200
330
1F9
100
AcDbEntity
  8
Layer 1
 62
    18
420
    65793
370
    70
100
AcDbLine
 10
33.6002345709088
 20
-2.381819276171856
 30
0.0
 11
33.1002345709088
 21
-2.38181927610449
 31
0.0
  0
LINE
  5
201
330
1F9
100
AcDbEntity
  8
Layer 1
 62
    18
420
    65793
370
    70
100
AcDbLine
 10
33.1002345709088
 20
-2.38181927610449
 30
0.0
 11
33.10023457100748
 21
-1.649219276104519
 31
0.0
  0
LINE
  5
202
330
1F9
100
AcDbEntity
  8
Layer 1
 62
    18
420
    65793
370
    70
100
AcDbLine
 10
33.10023457100748
 20
-1.649219276104519
 30
0.0
 11
32.71653457100749
 21
-1.649219276052829
 31
0.0
  0
LINE
  5
203
330
1F9
100
AcDbEntity
  8
Layer 1
 62
    18
420
    65793
370
    70
100
AcDbLine
 10
32.71653457100749
 20
-1.649219276052829
 30
0.0
 11
32.71653457085477
 21
-2.782919276052843
 31
0.0
  0
SPLINE
  5
204
330
1F9
100
AcDbEntity
  8
Layer 1
 62
    18
420
    65793
370
    70
100
AcDbSpline
210
0.0
220
0.0
230
1.0
 70
     8
 71
     3
 72
    11
 73
     7
 74
     0
 42
0.0000000001
 43
0.0000000001
 40
0.0
 40
0.0
 40
0.0
 40
0.0
 40
1.0
 40
1.0
 40
1.0
 40
2.0
 40
2.0
 40
2.0
 40
2.0
 10
31.98393457085477
 20
-2.782919275954163
 30
0.0
 10
31.98393457082753
 20
-2.985221179817181
 30
0.0
 10
32.14793266694242
 20
-3.149219275976242
 30
0.0
 10
32.35023457080544
 20
-3.149219276003488
 30
0.0
 10
32.55253647466846
 20
-3.14921927603071
 30
0.0
 10
32.71653457082752
 20
-2.985221179915861
 30
0.0
 10
32.71653457085477
 20
-2.782919276052843
 30
0.0
  0
LINE
  5
205
330
1F9
100
AcDbEntity
  8
Layer 1
 62
    18
420
    65793
370
    70
100
AcDbLine
 10
31.98393457085477
 20
-2.782919275954163
 30
0.0
 11
31.98393457100747
 21
-1.649219275954149
 31
0.0
  0
LINE
  5
206
330
1F9
100
AcDbEntity
  8
Layer 1
 62
    18
420
    65793
370
    70
100
AcDbLine
 10
31.98393457100747
 20
-1.649219275954149
 30
0.0
 11
31.60023457100748
 21
-1.649219275902472
 31
0.0
  0
LINE
  5
207
330
1F9
100
AcDbEntity
  8
Layer 1
 62
    18
420
    65793
370
    70
100
AcDbLine
 10
31.6002345709088
 20
-2.381819275902494
 30
0.0
 11
31.60023457100748
 21
-1.649219275902472
 31
0.0
  0
LINE
  5
208
330
1F9
100
AcDbEntity
  8
Layer 1
 62
    18
420
    65793
370
    70
100
AcDbLine
 10
31.6002345709088
 20
-2.381819275902494
 30
0.0
 11
31.1002345709088
 21
-2.381819275835103
 31
0.0
  0
LINE
  5
209
330
1F9
100
AcDbEntity
  8
Layer 1
 62
    18
420
    65793
370
    70
100
AcDbLine
 10
31.1002345709088
 20
-2.381819275835103
 30
0.0
 11
31.10023456841232
 21
-20.91661927583514
 31
0.0
  0
LINE
  5
20A
330
1F9
100
AcDbEntity
  8
Layer 1
 62
    18
420
    65793
370
    70
100
AcDbLine
 10
31.60023456841232
 20
-20.91661927590247
 30
0.0
 11
31.10023456841232
 21
-20.91661927583514
 31
0.0
  0
LINE
  5
20B
330
1F9
100
AcDbEntity
  8
Layer 1
 62
    18
420
    65793
370
    70
100
AcDbLine
 10
31.60023456841232
 20
-20.91661927590247
 30
0.0
 11
31.60023456831364
 21
-21.64921927590247
 31
0.0
  0
LINE
  5
20C
330
1F9
100
AcDbEntity
  8
Layer 1
 62
    18
420
    65793
370
    70
100
AcDbLine
 10
31.60023456831364
 20
-21.64921927590247
 30
0.0
 11
31.98393456831366
 21
-21.64921927595415
 31
0.0
  0
LINE
  5
20D
330
1F9
100
AcDbEntity
  8
Layer 1
 62
    18
420
    65793
370
    70
100
AcDbLine
 10
31.98393456846635
 20
-20.51551927595413
 30
0.0
 11
31.98393456831366
 21
-21.64921927595415
 31
0.0
  0
SPLINE
  5
20E
330
1F9
100
AcDbEntity
  8
Layer 1
 62
    18
420
    65793
370
    70
100
AcDbSpline
210
0.0
220
0.0
230
1.0
 70
     8
 71
     3
 72
    11
 73
     7
 74
     0
 42
0.0000000001
 43
0.0000000001
 40
0.0
 40
0.0
 40
0.0
 40
0.0
 40
1.0
 40
1.0
 40
1.0
 40
2.0
 40
2.0
 40
2.0
 40
2.0
 10
32.71653456846637
 20
-20.51551927605281
 30
0.0
 10
32.71653456849364
 20
-20.3132173721898
 30
0.0
 10
32.55253647237871
 20
-20.14921927603071
 30
0.0
 10
32.35023456851569
 20
-20.14921927600349
 30
0.0
 10
32.14793266465267
 20
-20.14921927597622
 30
0.0
 10
31.98393456849363
 20
-20.31321737209112
 30
0.0
 10
31.98393456846635
 20
-20.51551927595413
 30
0.0
  0
LINE
  5
20F
330
1F9
100
AcDbEntity
  8
Layer 1
 62
    18
420
    65793
370
    70
100
AcDbLine
 10
32.71653456831366
 20
-21.64921927605283
 30
0.0
 11
32.71653456846637
 21
-20.51551927605281
 31
0.0
  0
LINE
  5
210
330
1F9
100
AcDbEntity
  8
Layer 1
 62
    18
420
    65793
370
    70
100
AcDbLine
 10
32.71653456831366
 20
-21.64921927605283
 30
0.0
 11
33.10023456831364
 21
-21.64921927610452
 31
0.0
  0
ENDBLK
  5
1FC
330
1F9
100
AcDbEntity
  8
0
100
AcDbBlockEnd
  0
BLOCK
  5
213
330
211
100
AcDbEntity
  8
0
100
AcDbBlockBegin
  2
Block_14
 70
     0
 10
0.0
 20
0.0
 30
0.0
  3
Block_14
  1

  0
LINE
  5
215
330
211
100
AcDbEntity
  8
Layer 1
 62
    18
420
    65793
370
    70
100
AcDbLine
 10
89.95262280722149
 20
-2.55766561120663
 30
0.0
 11
90.68522280720495
 21
-2.557670533778845
 31
0.0
  0
LINE
  5
216
330
211
100
AcDbEntity
  8
Layer 1
 62
    18
420
    65793
370
    70
100
AcDbLine
 10
89.95262616688036
 20
-2.057665611217973
 30
0.0
 11
89.95262280722149
 21
-2.55766561120663
 31
0.0
  0
LINE
  5
217
330
211
100
AcDbEntity
  8
Layer 1
 62
    18
420
    65793
370
    70
100
AcDbLine
 10
89.95262616688036
 20
-2.057665611217973
 30
0.0
 11
71.41782616729877
 21
-2.057541070006942
 31
0.0
  0
LINE
  5
218
330
211
100
AcDbEntity
  8
Layer 1
 62
    18
420
    65793
370
    70
100
AcDbLine
 10
71.41782616729877
 20
-2.057541070006942
 30
0.0
 11
71.41782280763989
 21
-2.557541069995674
 31
0.0
  0
LINE
  5
219
330
211
100
AcDbEntity
  8
Layer 1
 62
    18
420
    65793
370
    70
100
AcDbLine
 10
71.41782280763989
 20
-2.557541069995674
 30
0.0
 11
70.68522280765647
 21
-2.557536147423459
 31
0.0
  0
LINE
  5
21A
330
211
100
AcDbEntity
  8
Layer 1
 62
    18
420
    65793
370
    70
100
AcDbLine
 10
70.68522280765647
 20
-2.557536147423459
 30
0.0
 11
70.68522022945424
 21
-2.941236147414782
 31
0.0
  0
LINE
  5
21B
330
211
100
AcDbEntity
  8
Layer 1
 62
    18
420
    65793
370
    70
100
AcDbLine
 10
70.68522022945424
 20
-2.941236147414782
 30
0.0
 11
71.81892022942863
 21
-2.94124376510538
 31
0.0
  0
SPLINE
  5
21C
330
211
100
AcDbEntity
  8
Layer 1
 62
    18
420
    65793
370
    70
100
AcDbSpline
210
0.0
220
0.0
230
1.0
 70
     8
 71
     3
 72
    11
 73
     7
 74
     0
 42
0.0000000001
 43
0.0000000001
 40
0.0
 40
0.0
 40
0.0
 40
0.0
 40
1.0
 40
1.0
 40
1.0
 40
2.0
 40
2.0
 40
2.0
 40
2.0
 10
71.81891530685643
 20
-3.673843765088779
 30
0.0
 10
72.02121721071486
 20
-3.67384512441961
 30
0.0
 10
72.18521640880346
 20
-3.509848130241607
 30
0.0
 10
72.18521776813425
 20
-3.307546226383161
 30
0.0
 10
72.185219127465
 20
-3.105244322524716
 30
0.0
 10
72.02122213328708
 20
-2.941245124436161
 30
0.0
 10
71.81892022942863
 20
-2.94124376510538
 30
0.0
  0
LINE
  5
21D
330
211
100
AcDbEntity
  8
Layer 1
 62
    18
420
    65793
370
    70
100
AcDbLine
 10
71.81891530685643
 20
-3.673843765088779
 30
0.0
 11
70.68521530688203
 21
-3.673836147398307
 31
0.0
  0
LINE
  5
21E
330
211
100
AcDbEntity
  8
Layer 1
 62
    18
420
    65793
370
    70
100
AcDbLine
 10
70.68521530688203
 20
-3.673836147398307
 30
0.0
 11
70.68521272867982
 21
-4.057536147389606
 31
0.0
  0
LINE
  5
21F
330
211
100
AcDbEntity
  8
Layer 1
 62
    18
420
    65793
370
    70
100
AcDbLine
 10
71.41781272866326
 20
-4.057541069961795
 30
0.0
 11
70.68521272867982
 21
-4.057536147389606
 31
0.0
  0
LINE
  5
220
330
211
100
AcDbEntity
  8
Layer 1
 62
    18
420
    65793
370
    70
100
AcDbLine
 10
71.41781272866326
 20
-4.057541069961795
 30
0.0
 11
71.41780936900433
 21
-4.557541069950502
 31
0.0
  0
LINE
  5
221
330
211
100
AcDbEntity
  8
Layer 1
 62
    18
420
    65793
370
    70
100
AcDbLine
 10
71.41780936900433
 20
-4.557541069950502
 30
0.0
 11
89.95260936858596
 21
-4.557665611161509
 31
0.0
  0
LINE
  5
222
330
211
100
AcDbEntity
  8
Layer 1
 62
    18
420
    65793
370
    70
100
AcDbLine
 10
89.95261272824484
 20
-4.057665611172802
 30
0.0
 11
89.95260936858596
 21
-4.557665611161509
 31
0.0
  0
LINE
  5
223
330
211
100
AcDbEntity
  8
Layer 1
 62
    18
420
    65793
370
    70
100
AcDbLine
 10
89.95261272824484
 20
-4.057665611172802
 30
0.0
 11
90.68521272822827
 21
-4.057670533744991
 31
0.0
  0
LINE
  5
224
330
211
100
AcDbEntity
  8
Layer 1
 62
    18
420
    65793
370
    70
100
AcDbLine
 10
90.68521272822827
 20
-4.057670533744991
 30
0.0
 11
90.68521530643053
 21
-3.673970533753693
 31
0.0
  0
LINE
  5
225
330
211
100
AcDbEntity
  8
Layer 1
 62
    18
420
    65793
370
    70
100
AcDbLine
 10
89.55151530645608
 20
-3.673962916063121
 30
0.0
 11
90.68521530643053
 21
-3.673970533753693
 31
0.0
  0
SPLINE
  5
226
330
211
100
AcDbEntity
  8
Layer 1
 62
    18
420
    65793
370
    70
100
AcDbSpline
210
0.0
220
0.0
230
1.0
 70
     8
 71
     3
 72
    11
 73
     7
 74
     0
 42
0.0000000001
 43
0.0000000001
 40
0.0
 40
0.0
 40
0.0
 40
0.0
 40
1.0
 40
1.0
 40
1.0
 40
2.0
 40
2.0
 40
2.0
 40
2.0
 10
89.55152022902829
 20
-2.941362916079621
 30
0.0
 10
89.34921832516986
 20
-2.941361556748865
 30
0.0
 10
89.18521912708127
 20
-3.105358550926843
 30
0.0
 10
89.18521776775049
 20
-3.307660454785288
 30
0.0
 10
89.18521640841971
 20
-3.509962358643709
 30
0.0
 10
89.34921340259764
 20
-3.673961556732365
 30
0.0
 10
89.55151530645608
 20
-3.673962916063121
 30
0.0
  0
LINE
  5
227
330
211
100
AcDbEntity
  8
Layer 1
 62
    18
420
    65793
370
    70
100
AcDbLine
 10
90.68522022900273
 20
-2.941370533770193
 30
0.0
 11
89.55152022902829
 21
-2.941362916079621
 31
0.0
  0
LINE
  5
228
330
211
100
AcDbEntity
  8
Layer 1
 62
    18
420
    65793
370
    70
100
AcDbLine
 10
90.68522022900273
 20
-2.941370533770193
 30
0.0
 11
90.68522280720495
 21
-2.557670533778845
 31
0.0
  0
ENDBLK
  5
214
330
211
100
AcDbEntity
  8
0
100
AcDbBlockEnd
  0
BLOCK
  5
22B
330
229
100
AcDbEntity
  8
0
100
AcDbBlockBegin
  2
Block_15
 70
     0
 10
0.0
 20
0.0
 30
0.0
  3
Block_15
  1

  0
LINE
  5
22D
330
229
100
AcDbEntity
  8
Layer 1
 62
    18
420
    65793
370
    70
100
AcDbLine
 10
90.07317572916422
 20
-44.15304480885153
 30
0.0
 11
90.0731757291979
 21
-43.40304480885154
 31
0.0
  0
SPLINE
  5
22E
330
229
100
AcDbEntity
  8
Layer 1
 62
    18
420
    65793
370
    70
100
AcDbSpline
210
0.0
220
0.0
230
1.0
 70
     8
 71
     3
 72
     8
 73
     4
 74
     0
 42
0.0000000001
 43
0.0000000001
 40
0.0
 40
0.0
 40
0.0
 40
0.0
 40
1.0
 40
1.0
 40
1.0
 40
1.0
 10
90.0731757291979
 20
-43.40304480885154
 30
0.0
 10
89.66857192147184
 20
-43.40304480883335
 30
0.0
 10
89.34057572918318
 20
-43.73104100109263
 30
0.0
 10
89.34057572916501
 20
-44.13564480881865
 30
0.0
  0
LINE
  5
22F
330
229
100
AcDbEntity
  8
Layer 1
 62
    18
420
    65793
370
    70
100
AcDbLine
 10
89.34057572913054
 20
-44.90304480881865
 30
0.0
 11
89.34057572916501
 21
-44.13564480881865
 31
0.0
  0
SPLINE
  5
230
330
229
100
AcDbEntity
  8
Layer 1
 62
    18
420
    65793
370
    70
100
AcDbSpline
210
0.0
220
0.0
230
1.0
 70
     8
 71
     3
 72
     8
 73
     4
 74
     0
 42
0.0000000001
 43
0.0000000001
 40
0.0
 40
0.0
 40
0.0
 40
0.0
 40
1.0
 40
1.0
 40
1.0
 40
1.0
 10
89.34057572913054
 20
-44.90304480881865
 30
0.0
 10
89.34057572911239
 20
-45.30764861654468
 30
0.0
 10
89.6685719213716
 20
-45.63564480883337
 30
0.0
 10
90.07317572909766
 20
-45.63564480885154
 30
0.0
  0
LINE
  5
231
330
229
100
AcDbEntity
  8
Layer 1
 62
    18
420
    65793
370
    70
100
AcDbLine
 10
90.07317572909766
 20
-45.63564480885154
 30
0.0
 11
90.07317572913134
 21
-44.88564480885154
 31
0.0
  0
LINE
  5
232
330
229
100
AcDbEntity
  8
Layer 1
 62
    18
420
    65793
370
    70
100
AcDbLine
 10
90.07317572913134
 20
-44.88564480885154
 30
0.0
 11
91.20687572913132
 21
-44.88564480890245
 31
0.0
  0
SPLINE
  5
233
330
229
100
AcDbEntity
  8
Layer 1
 62
    18
420
    65793
370
    70
100
AcDbSpline
210
0.0
220
0.0
230
1.0
 70
     8
 71
     3
 72
    11
 73
     7
 74
     0
 42
0.0000000001
 43
0.0000000001
 40
0.0
 40
0.0
 40
0.0
 40
0.0
 40
1.0
 40
1.0
 40
1.0
 40
2.0
 40
2.0
 40
2.0
 40
2.0
 10
91.20687572913132
 20
-44.88564480890245
 30
0.0
 10
91.40917763299434
 20
-44.88564480891152
 30
0.0
 10
91.57317572913868
 20
-44.72164671278189
 30
0.0
 10
91.57317572914777
 20
-44.51934480891888
 30
0.0
 10
91.57317572915685
 20
-44.31704290505586
 30
0.0
 10
91.40917763302722
 20
-44.15304480891151
 30
0.0
 10
91.20687572916422
 20
-44.15304480890242
 30
0.0
  0
LINE
  5
234
330
229
100
AcDbEntity
  8
Layer 1
 62
    18
420
    65793
370
    70
100
AcDbLine
 10
90.07317572916422
 20
-44.15304480885153
 30
0.0
 11
91.20687572916422
 21
-44.15304480890242
 31
0.0
  0
ENDBLK
  5
22C
330
229
100
AcDbEntity
  8
0
100
AcDbBlockEnd
  0
BLOCK
  5
237
330
235
100
AcDbEntity
  8
0
100
AcDbBlockBegin
  2
Block_16
 70
     0
 10
0.0
 20
0.0
 30
0.0
  3
Block_16
  1

  0
LINE
  5
239
330
235
100
AcDbEntity
  8
Layer 1
 62
    18
420
    65793
370
    70
100
AcDbLine
 10
81.7635066446803
 20
-8.20087503073628
 30
0.0
 11
81.76350664471398
 21
-7.45087503073628
 31
0.0
  0
SPLINE
  5
23A
330
235
100
AcDbEntity
  8
Layer 1
 62
    18
420
    65793
370
    70
100
AcDbSpline
210
0.0
220
0.0
230
1.0
 70
     8
 71
     3
 72
     8
 73
     4
 74
     0
 42
0.0000000001
 43
0.0000000001
 40
0.0
 40
0.0
 40
0.0
 40
0.0
 40
1.0
 40
1.0
 40
1.0
 40
1.0
 10
81.76350664471398
 20
-7.45087503073628
 30
0.0
 10
81.3589028369879
 20
-7.450875030718115
 30
0.0
 10
81.03090664469924
 20
-7.778871222977348
 30
0.0
 10
81.03090664468108
 20
-8.183475030703384
 30
0.0
  0
LINE
  5
23B
330
235
100
AcDbEntity
  8
Layer 1
 62
    18
420
    65793
370
    70
100
AcDbLine
 10
81.03090664464662
 20
-8.950875030703388
 30
0.0
 11
81.03090664468108
 21
-8.183475030703384
 31
0.0
  0
SPLINE
  5
23C
330
235
100
AcDbEntity
  8
Layer 1
 62
    18
420
    65793
370
    70
100
AcDbSpline
210
0.0
220
0.0
230
1.0
 70
     8
 71
     3
 72
     8
 73
     4
 74
     0
 42
0.0000000001
 43
0.0000000001
 40
0.0
 40
0.0
 40
0.0
 40
0.0
 40
1.0
 40
1.0
 40
1.0
 40
1.0
 10
81.03090664464662
 20
-8.950875030703388
 30
0.0
 10
81.03090664462845
 20
-9.355478838429423
 30
0.0
 10
81.35890283688768
 20
-9.683475030718113
 30
0.0
 10
81.76350664461374
 20
-9.683475030736277
 30
0.0
  0
LINE
  5
23D
330
235
100
AcDbEntity
  8
Layer 1
 62
    18
420
    65793
370
    70
100
AcDbLine
 10
81.76350664461374
 20
-9.683475030736277
 30
0.0
 11
81.7635066446474
 21
-8.933475030736277
 31
0.0
  0
LINE
  5
23E
330
235
100
AcDbEntity
  8
Layer 1
 62
    18
420
    65793
370
    70
100
AcDbLine
 10
81.7635066446474
 20
-8.933475030736277
 30
0.0
 11
82.89720664464738
 21
-8.933475030787183
 31
0.0
  0
SPLINE
  5
23F
330
235
100
AcDbEntity
  8
Layer 1
 62
    18
420
    65793
370
    70
100
AcDbSpline
210
0.0
220
0.0
230
1.0
 70
     8
 71
     3
 72
    11
 73
     7
 74
     0
 42
0.0000000001
 43
0.0000000001
 40
0.0
 40
0.0
 40
0.0
 40
0.0
 40
1.0
 40
1.0
 40
1.0
 40
2.0
 40
2.0
 40
2.0
 40
2.0
 10
82.89720664464738
 20
-8.933475030787183
 30
0.0
 10
83.0995085485104
 20
-8.933475030796254
 30
0.0
 10
83.26350664465477
 20
-8.769476934666638
 30
0.0
 10
83.26350664466385
 20
-8.567175030803619
 30
0.0
 10
83.26350664467295
 20
-8.364873126940601
 30
0.0
 10
83.0995085485433
 20
-8.200875030796257
 30
0.0
 10
82.89720664468028
 20
-8.200875030787162
 30
0.0
  0
LINE
  5
240
330
235
100
AcDbEntity
  8
Layer 1
 62
    18
420
    65793
370
    70
100
AcDbLine
 10
81.7635066446803
 20
-8.20087503073628
 30
0.0
 11
82.89720664468028
 21
-8.200875030787162
 31
0.0
  0
ENDBLK
  5
238
330
235
100
AcDbEntity
  8
0
100
AcDbBlockEnd
  0
BLOCK
  5
243
330
241
100
AcDbEntity
  8
0
100
AcDbBlockBegin
  2
Block_17
 70
     0
 10
0.0
 20
0.0
 30
0.0
  3
Block_17
  1

  0
LINE
  5
245
330
241
100
AcDbEntity
  8
Layer 1
 62
    18
420
    65793
370
    70
100
AcDbLine
 10
79.55151776794238
 20
-40.64198180319064
 30
0.0
 11
79.55151776797606
 21
-39.89198180319064
 31
0.0
  0
SPLINE
  5
246
330
241
100
AcDbEntity
  8
Layer 1
 62
    18
420
    65793
370
    70
100
AcDbSpline
210
0.0
220
0.0
230
1.0
 70
     8
 71
     3
 72
     8
 73
     4
 74
     0
 42
0.0000000001
 43
0.0000000001
 40
0.0
 40
0.0
 40
0.0
 40
0.0
 40
1.0
 40
1.0
 40
1.0
 40
1.0
 10
79.55151776797606
 20
-39.89198180319064
 30
0.0
 10
79.14691396025
 20
-39.89198180317251
 30
0.0
 10
78.81891776796134
 20
-40.21997799543174
 30
0.0
 10
78.81891776794318
 20
-40.62458180315777
 30
0.0
  0
LINE
  5
247
330
241
100
AcDbEntity
  8
Layer 1
 62
    18
420
    65793
370
    70
100
AcDbLine
 10
78.81891776790872
 20
-41.39198180315776
 30
0.0
 11
78.81891776794318
 21
-40.62458180315777
 31
0.0
  0
SPLINE
  5
248
330
241
100
AcDbEntity
  8
Layer 1
 62
    18
420
    65793
370
    70
100
AcDbSpline
210
0.0
220
0.0
230
1.0
 70
     8
 71
     3
 72
     8
 73
     4
 74
     0
 42
0.0000000001
 43
0.0000000001
 40
0.0
 40
0.0
 40
0.0
 40
0.0
 40
1.0
 40
1.0
 40
1.0
 40
1.0
 10
78.81891776790872
 20
-41.39198180315776
 30
0.0
 10
78.81891776789053
 20
-41.79658561088379
 30
0.0
 10
79.14691396014974
 20
-42.12458180317248
 30
0.0
 10
79.5515177678758
 20
-42.12458180319067
 30
0.0
  0
LINE
  5
249
330
241
100
AcDbEntity
  8
Layer 1
 62
    18
420
    65793
370
    70
100
AcDbLine
 10
79.5515177678758
 20
-42.12458180319067
 30
0.0
 11
79.55151776790948
 21
-41.37458180319067
 31
0.0
  0
LINE
  5
24A
330
241
100
AcDbEntity
  8
Layer 1
 62
    18
420
    65793
370
    70
100
AcDbLine
 10
79.55151776790948
 20
-41.37458180319067
 30
0.0
 11
80.68521776790948
 21
-41.37458180324155
 31
0.0
  0
SPLINE
  5
24B
330
241
100
AcDbEntity
  8
Layer 1
 62
    18
420
    65793
370
    70
100
AcDbSpline
210
0.0
220
0.0
230
1.0
 70
     8
 71
     3
 72
    11
 73
     7
 74
     0
 42
0.0000000001
 43
0.0000000001
 40
0.0
 40
0.0
 40
0.0
 40
0.0
 40
1.0
 40
1.0
 40
1.0
 40
2.0
 40
2.0
 40
2.0
 40
2.0
 10
80.68521776790948
 20
-41.37458180324155
 30
0.0
 10
80.8875196717725
 20
-41.37458180325064
 30
0.0
 10
81.05151776791684
 20
-41.21058370712103
 30
0.0
 10
81.05151776792594
 20
-41.00828180325801
 30
0.0
 10
81.05151776793501
 20
-40.80597989939499
 30
0.0
 10
80.8875196718054
 20
-40.64198180325062
 30
0.0
 10
80.68521776794238
 20
-40.64198180324155
 30
0.0
  0
LINE
  5
24C
330
241
100
AcDbEntity
  8
Layer 1
 62
    18
420
    65793
370
    70
100
AcDbLine
 10
79.55151776794238
 20
-40.64198180319064
 30
0.0
 11
80.68521776794238
 21
-40.64198180324155
 31
0.0
  0
ENDBLK
  5
244
330
241
100
AcDbEntity
  8
0
100
AcDbBlockEnd
  0
BLOCK
  5
24F
330
24D
100
AcDbEntity
  8
0
100
AcDbBlockBegin
  2
Block_18
 70
     0
 10
0.0
 20
0.0
 30
0.0
  3
Block_18
  1

  0
LINE
  5
251
330
24D
100
AcDbEntity
  8
Layer 1
 62
    18
420
    65793
370
    70
100
AcDbLine
 10
71.72670622888872
 20
-12.86052407359206
 30
0.0
 11
70.97670622888871
 21
-12.86052407352473
 31
0.0
  0
SPLINE
  5
252
330
24D
100
AcDbEntity
  8
Layer 1
 62
    18
420
    65793
370
    70
100
AcDbSpline
210
0.0
220
0.0
230
1.0
 70
     8
 71
     3
 72
     8
 73
     4
 74
     0
 42
0.0000000001
 43
0.0000000001
 40
0.0
 40
0.0
 40
0.0
 40
0.0
 40
1.0
 40
1.0
 40
1.0
 40
1.0
 10
70.97670622888871
 20
-12.86052407352473
 30
0.0
 10
70.97670622885238
 20
-13.26512788125079
 30
0.0
 10
71.30470242109686
 20
-13.59312407355416
 30
0.0
 10
71.70930622882289
 20
-13.59312407359049
 30
0.0
  0
LINE
  5
253
330
24D
100
AcDbEntity
  8
Layer 1
 62
    18
420
    65793
370
    70
100
AcDbLine
 10
72.47670622882292
 20
-13.59312407365941
 30
0.0
 11
71.70930622882289
 21
-13.59312407359049
 31
0.0
  0
SPLINE
  5
254
330
24D
100
AcDbEntity
  8
Layer 1
 62
    18
420
    65793
370
    70
100
AcDbSpline
210
0.0
220
0.0
230
1.0
 70
     8
 71
     3
 72
     8
 73
     4
 74
     0
 42
0.0000000001
 43
0.0000000001
 40
0.0
 40
0.0
 40
0.0
 40
0.0
 40
1.0
 40
1.0
 40
1.0
 40
1.0
 10
72.47670622882292
 20
-13.59312407365941
 30
0.0
 10
72.88131003654895
 20
-13.59312407369573
 30
0.0
 10
73.20930622885235
 20
-13.26512788145126
 30
0.0
 10
73.20930622888868
 20
-12.8605240737252
 30
0.0
  0
LINE
  5
255
330
24D
100
AcDbEntity
  8
Layer 1
 62
    18
420
    65793
370
    70
100
AcDbLine
 10
73.20930622888868
 20
-12.8605240737252
 30
0.0
 11
72.45930622888868
 21
-12.86052407365784
 31
0.0
  0
LINE
  5
256
330
24D
100
AcDbEntity
  8
Layer 1
 62
    18
420
    65793
370
    70
100
AcDbLine
 10
72.45930622888868
 20
-12.86052407365784
 30
0.0
 11
72.4593062289905
 21
-11.72682407365785
 31
0.0
  0
SPLINE
  5
257
330
24D
100
AcDbEntity
  8
Layer 1
 62
    18
420
    65793
370
    70
100
AcDbSpline
210
0.0
220
0.0
230
1.0
 70
     8
 71
     3
 72
    11
 73
     7
 74
     0
 42
0.0000000001
 43
0.0000000001
 40
0.0
 40
0.0
 40
0.0
 40
0.0
 40
1.0
 40
1.0
 40
1.0
 40
2.0
 40
2.0
 40
2.0
 40
2.0
 10
72.4593062289905
 20
-11.72682407365785
 30
0.0
 10
72.45930622900866
 20
-11.52452216979483
 30
0.0
 10
72.29530813288639
 20
-11.36052407364314
 30
0.0
 10
72.09300622902337
 20
-11.36052407362495
 30
0.0
 10
71.89070432516036
 20
-11.36052407360681
 30
0.0
 10
71.72670622900866
 20
-11.52452216972905
 30
0.0
 10
71.72670622899047
 20
-11.72682407359207
 30
0.0
  0
LINE
  5
258
330
24D
100
AcDbEntity
  8
Layer 1
 62
    18
420
    65793
370
    70
100
AcDbLine
 10
71.72670622888872
 20
-12.86052407359206
 30
0.0
 11
71.72670622899047
 21
-11.72682407359207
 31
0.0
  0
ENDBLK
  5
250
330
24D
100
AcDbEntity
  8
0
100
AcDbBlockEnd
  0
BLOCK
  5
25B
330
259
100
AcDbEntity
  8
0
100
AcDbBlockBegin
  2
Block_19
 70
     0
 10
0.0
 20
0.0
 30
0.0
  3
Block_19
  1

  0
LINE
  5
25D
330
259
100
AcDbEntity
  8
Layer 1
 62
    18
420
    65793
370
    70
100
AcDbLine
 10
79.15990948337904
 20
-44.73019971350941
 30
0.0
 11
79.15990948341274
 21
-43.98019971350941
 31
0.0
  0
SPLINE
  5
25E
330
259
100
AcDbEntity
  8
Layer 1
 62
    18
420
    65793
370
    70
100
AcDbSpline
210
0.0
220
0.0
230
1.0
 70
     8
 71
     3
 72
     8
 73
     4
 74
     0
 42
0.0000000001
 43
0.0000000001
 40
0.0
 40
0.0
 40
0.0
 40
0.0
 40
1.0
 40
1.0
 40
1.0
 40
1.0
 10
79.15990948341274
 20
-43.98019971350941
 30
0.0
 10
78.75530567568666
 20
-43.98019971349122
 30
0.0
 10
78.42730948339802
 20
-44.3081959057505
 30
0.0
 10
78.42730948337983
 20
-44.71279971347654
 30
0.0
  0
LINE
  5
25F
330
259
100
AcDbEntity
  8
Layer 1
 62
    18
420
    65793
370
    70
100
AcDbLine
 10
78.4273094833454
 20
-45.48019971347652
 30
0.0
 11
78.42730948337983
 21
-44.71279971347654
 31
0.0
  0
SPLINE
  5
260
330
259
100
AcDbEntity
  8
Layer 1
 62
    18
420
    65793
370
    70
100
AcDbSpline
210
0.0
220
0.0
230
1.0
 70
     8
 71
     3
 72
     8
 73
     4
 74
     0
 42
0.0000000001
 43
0.0000000001
 40
0.0
 40
0.0
 40
0.0
 40
0.0
 40
1.0
 40
1.0
 40
1.0
 40
1.0
 10
78.4273094833454
 20
-45.48019971347652
 30
0.0
 10
78.42730948332723
 20
-45.88480352120256
 30
0.0
 10
78.75530567558644
 20
-46.21279971349124
 30
0.0
 10
79.1599094833125
 20
-46.21279971350941
 30
0.0
  0
LINE
  5
261
330
259
100
AcDbEntity
  8
Layer 1
 62
    18
420
    65793
370
    70
100
AcDbLine
 10
79.1599094833125
 20
-46.21279971350941
 30
0.0
 11
79.15990948334616
 21
-45.46279971350941
 31
0.0
  0
LINE
  5
262
330
259
100
AcDbEntity
  8
Layer 1
 62
    18
420
    65793
370
    70
100
AcDbLine
 10
79.15990948334616
 20
-45.46279971350941
 30
0.0
 11
80.29360948334616
 21
-45.46279971356031
 31
0.0
  0
SPLINE
  5
263
330
259
100
AcDbEntity
  8
Layer 1
 62
    18
420
    65793
370
    70
100
AcDbSpline
210
0.0
220
0.0
230
1.0
 70
     8
 71
     3
 72
    11
 73
     7
 74
     0
 42
0.0000000001
 43
0.0000000001
 40
0.0
 40
0.0
 40
0.0
 40
0.0
 40
1.0
 40
1.0
 40
1.0
 40
2.0
 40
2.0
 40
2.0
 40
2.0
 10
80.29360948334616
 20
-45.46279971356031
 30
0.0
 10
80.49591138720918
 20
-45.4627997135694
 30
0.0
 10
80.65990948335352
 20
-45.29880161743979
 30
0.0
 10
80.65990948336262
 20
-45.09649971357677
 30
0.0
 10
80.65990948337171
 20
-44.89419780971376
 30
0.0
 10
80.49591138724208
 20
-44.73019971356939
 30
0.0
 10
80.29360948337906
 20
-44.73019971356031
 30
0.0
  0
LINE
  5
264
330
259
100
AcDbEntity
  8
Layer 1
 62
    18
420
    65793
370
    70
100
AcDbLine
 10
79.15990948337904
 20
-44.73019971350941
 30
0.0
 11
80.29360948337906
 21
-44.73019971356031
 31
0.0
  0
ENDBLK
  5
25C
330
259
100
AcDbEntity
  8
0
100
AcDbBlockEnd
  0
BLOCK
  5
267
330
265
100
AcDbEntity
  8
0
100
AcDbBlockBegin
  2
Block_20
 70
     0
 10
0.0
 20
0.0
 30
0.0
  3
Block_20
  1

  0
LINE
  5
269
330
265
100
AcDbEntity
  8
Layer 1
 62
    18
420
    65793
370
    70
100
AcDbLine
 10
74.9998986471786
 20
-8.286531249504808
 30
0.0
 11
74.99989864721228
 21
-7.536531249504807
 31
0.0
  0
SPLINE
  5
26A
330
265
100
AcDbEntity
  8
Layer 1
 62
    18
420
    65793
370
    70
100
AcDbSpline
210
0.0
220
0.0
230
1.0
 70
     8
 71
     3
 72
     8
 73
     4
 74
     0
 42
0.0000000001
 43
0.0000000001
 40
0.0
 40
0.0
 40
0.0
 40
0.0
 40
1.0
 40
1.0
 40
1.0
 40
1.0
 10
74.99989864721228
 20
-7.536531249504807
 30
0.0
 10
74.59529483948621
 20
-7.536531249486642
 30
0.0
 10
74.26729864719755
 20
-7.864527441745899
 30
0.0
 10
74.26729864717938
 20
-8.269131249471936
 30
0.0
  0
LINE
  5
26B
330
265
100
AcDbEntity
  8
Layer 1
 62
    18
420
    65793
370
    70
100
AcDbLine
 10
74.26729864714492
 20
-9.036531249471913
 30
0.0
 11
74.26729864717938
 21
-8.269131249471936
 31
0.0
  0
SPLINE
  5
26C
330
265
100
AcDbEntity
  8
Layer 1
 62
    18
420
    65793
370
    70
100
AcDbSpline
210
0.0
220
0.0
230
1.0
 70
     8
 71
     3
 72
     8
 73
     4
 74
     0
 42
0.0000000001
 43
0.0000000001
 40
0.0
 40
0.0
 40
0.0
 40
0.0
 40
1.0
 40
1.0
 40
1.0
 40
1.0
 10
74.26729864714492
 20
-9.036531249471913
 30
0.0
 10
74.26729864712678
 20
-9.44113505719795
 30
0.0
 10
74.59529483938595
 20
-9.769131249486639
 30
0.0
 10
74.99989864711205
 20
-9.769131249504804
 30
0.0
  0
LINE
  5
26D
330
265
100
AcDbEntity
  8
Layer 1
 62
    18
420
    65793
370
    70
100
AcDbLine
 10
74.99989864711205
 20
-9.769131249504804
 30
0.0
 11
74.9998986471457
 21
-9.019131249504804
 31
0.0
  0
LINE
  5
26E
330
265
100
AcDbEntity
  8
Layer 1
 62
    18
420
    65793
370
    70
100
AcDbLine
 10
74.9998986471457
 20
-9.019131249504804
 30
0.0
 11
76.13359864714571
 21
-9.01913124955571
 31
0.0
  0
SPLINE
  5
26F
330
265
100
AcDbEntity
  8
Layer 1
 62
    18
420
    65793
370
    70
100
AcDbSpline
210
0.0
220
0.0
230
1.0
 70
     8
 71
     3
 72
    11
 73
     7
 74
     0
 42
0.0000000001
 43
0.0000000001
 40
0.0
 40
0.0
 40
0.0
 40
0.0
 40
1.0
 40
1.0
 40
1.0
 40
2.0
 40
2.0
 40
2.0
 40
2.0
 10
76.13359864714571
 20
-9.01913124955571
 30
0.0
 10
76.33590055100873
 20
-9.019131249564805
 30
0.0
 10
76.49989864715307
 20
-8.85513315343519
 30
0.0
 10
76.49989864716217
 20
-8.652831249572171
 30
0.0
 10
76.49989864717124
 20
-8.450529345709153
 30
0.0
 10
76.33590055104161
 20
-8.286531249564783
 30
0.0
 10
76.13359864717859
 20
-8.286531249555713
 30
0.0
  0
LINE
  5
270
330
265
100
AcDbEntity
  8
Layer 1
 62
    18
420
    65793
370
    70
100
AcDbLine
 10
74.9998986471786
 20
-8.286531249504808
 30
0.0
 11
76.13359864717859
 21
-8.286531249555713
 31
0.0
  0
ENDBLK
  5
268
330
265
100
AcDbEntity
  8
0
100
AcDbBlockEnd
  0
BLOCK
  5
273
330
271
100
AcDbEntity
  8
0
100
AcDbBlockBegin
  2
Block_21
 70
     0
 10
0.0
 20
0.0
 30
0.0
  3
Block_21
  1

  0
LINE
  5
275
330
271
100
AcDbEntity
  8
Layer 1
 62
    18
420
    65793
370
    70
100
AcDbLine
 10
84.89903570523024
 20
-39.89198180315776
 30
0.0
 11
84.89903570526394
 21
-39.14198180315775
 31
0.0
  0
SPLINE
  5
276
330
271
100
AcDbEntity
  8
Layer 1
 62
    18
420
    65793
370
    70
100
AcDbSpline
210
0.0
220
0.0
230
1.0
 70
     8
 71
     3
 72
     8
 73
     4
 74
     0
 42
0.0000000001
 43
0.0000000001
 40
0.0
 40
0.0
 40
0.0
 40
0.0
 40
1.0
 40
1.0
 40
1.0
 40
1.0
 10
84.89903570526394
 20
-39.14198180315775
 30
0.0
 10
84.49443189753784
 20
-39.14198180313962
 30
0.0
 10
84.16643570524922
 20
-39.46997799539884
 30
0.0
 10
84.16643570523103
 20
-39.87458180312489
 30
0.0
  0
LINE
  5
277
330
271
100
AcDbEntity
  8
Layer 1
 62
    18
420
    65793
370
    70
100
AcDbLine
 10
84.16643570519658
 20
-40.64198180312486
 30
0.0
 11
84.16643570523103
 21
-39.87458180312489
 31
0.0
  0
SPLINE
  5
278
330
271
100
AcDbEntity
  8
Layer 1
 62
    18
420
    65793
370
    70
100
AcDbSpline
210
0.0
220
0.0
230
1.0
 70
     8
 71
     3
 72
     8
 73
     4
 74
     0
 42
0.0000000001
 43
0.0000000001
 40
0.0
 40
0.0
 40
0.0
 40
0.0
 40
1.0
 40
1.0
 40
1.0
 40
1.0
 10
84.16643570519658
 20
-40.64198180312486
 30
0.0
 10
84.16643570517841
 20
-41.0465856108509
 30
0.0
 10
84.49443189743762
 20
-41.37458180313958
 30
0.0
 10
84.89903570516368
 20
-41.37458180315777
 30
0.0
  0
LINE
  5
279
330
271
100
AcDbEntity
  8
Layer 1
 62
    18
420
    65793
370
    70
100
AcDbLine
 10
84.89903570516368
 20
-41.37458180315777
 30
0.0
 11
84.89903570519736
 21
-40.62458180315777
 31
0.0
  0
LINE
  5
27A
330
271
100
AcDbEntity
  8
Layer 1
 62
    18
420
    65793
370
    70
100
AcDbLine
 10
84.89903570519736
 20
-40.62458180315777
 30
0.0
 11
86.03273570519736
 21
-40.62458180320866
 31
0.0
  0
SPLINE
  5
27B
330
271
100
AcDbEntity
  8
Layer 1
 62
    18
420
    65793
370
    70
100
AcDbSpline
210
0.0
220
0.0
230
1.0
 70
     8
 71
     3
 72
    11
 73
     7
 74
     0
 42
0.0000000001
 43
0.0000000001
 40
0.0
 40
0.0
 40
0.0
 40
0.0
 40
1.0
 40
1.0
 40
1.0
 40
2.0
 40
2.0
 40
2.0
 40
2.0
 10
86.03273570519736
 20
-40.62458180320866
 30
0.0
 10
86.23503760906038
 20
-40.62458180321775
 30
0.0
 10
86.39903570520472
 20
-40.46058370708816
 30
0.0
 10
86.39903570521381
 20
-40.25828180322514
 30
0.0
 10
86.39903570522289
 20
-40.05597989936211
 30
0.0
 10
86.23503760909327
 20
-39.89198180321775
 30
0.0
 10
86.03273570523025
 20
-39.89198180320869
 30
0.0
  0
LINE
  5
27C
330
271
100
AcDbEntity
  8
Layer 1
 62
    18
420
    65793
370
    70
100
AcDbLine
 10
84.89903570523024
 20
-39.89198180315776
 30
0.0
 11
86.03273570523025
 21
-39.89198180320869
 31
0.0
  0
ENDBLK
  5
274
330
271
100
AcDbEntity
  8
0
100
AcDbBlockEnd
  0
BLOCK
  5
27F
330
27D
100
AcDbEntity
  8
0
100
AcDbBlockBegin
  2
Block_22
 70
     0
 10
0.0
 20
0.0
 30
0.0
  3
Block_22
  1

  0
LINE
  5
281
330
27D
100
AcDbEntity
  8
Layer 1
 62
    18
420
    65793
370
    70
100
AcDbLine
 10
89.92763219427239
 20
-39.92686499633207
 30
0.0
 11
89.92763219430605
 21
-39.17686499633207
 31
0.0
  0
SPLINE
  5
282
330
27D
100
AcDbEntity
  8
Layer 1
 62
    18
420
    65793
370
    70
100
AcDbSpline
210
0.0
220
0.0
230
1.0
 70
     8
 71
     3
 72
     8
 73
     4
 74
     0
 42
0.0000000001
 43
0.0000000001
 40
0.0
 40
0.0
 40
0.0
 40
0.0
 40
1.0
 40
1.0
 40
1.0
 40
1.0
 10
89.92763219430605
 20
-39.17686499633207
 30
0.0
 10
89.52302838658001
 20
-39.1768649963139
 30
0.0
 10
89.19503219429135
 20
-39.50486118857316
 30
0.0
 10
89.19503219427317
 20
-39.90946499629919
 30
0.0
  0
LINE
  5
283
330
27D
100
AcDbEntity
  8
Layer 1
 62
    18
420
    65793
370
    70
100
AcDbLine
 10
89.19503219423871
 20
-40.67686499629917
 30
0.0
 11
89.19503219427317
 21
-39.90946499629919
 31
0.0
  0
SPLINE
  5
284
330
27D
100
AcDbEntity
  8
Layer 1
 62
    18
420
    65793
370
    70
100
AcDbSpline
210
0.0
220
0.0
230
1.0
 70
     8
 71
     3
 72
     8
 73
     4
 74
     0
 42
0.0000000001
 43
0.0000000001
 40
0.0
 40
0.0
 40
0.0
 40
0.0
 40
1.0
 40
1.0
 40
1.0
 40
1.0
 10
89.19503219423871
 20
-40.67686499629917
 30
0.0
 10
89.19503219422054
 20
-41.08146880402521
 30
0.0
 10
89.52302838647975
 20
-41.40946499631389
 30
0.0
 10
89.92763219420581
 20
-41.40946499633206
 30
0.0
  0
LINE
  5
285
330
27D
100
AcDbEntity
  8
Layer 1
 62
    18
420
    65793
370
    70
100
AcDbLine
 10
89.92763219420581
 20
-41.40946499633206
 30
0.0
 11
89.92763219423949
 21
-40.65946499633206
 31
0.0
  0
LINE
  5
286
330
27D
100
AcDbEntity
  8
Layer 1
 62
    18
420
    65793
370
    70
100
AcDbLine
 10
89.92763219423949
 20
-40.65946499633206
 30
0.0
 11
91.06133219423949
 21
-40.65946499638296
 31
0.0
  0
SPLINE
  5
287
330
27D
100
AcDbEntity
  8
Layer 1
 62
    18
420
    65793
370
    70
100
AcDbSpline
210
0.0
220
0.0
230
1.0
 70
     8
 71
     3
 72
    11
 73
     7
 74
     0
 42
0.0000000001
 43
0.0000000001
 40
0.0
 40
0.0
 40
0.0
 40
0.0
 40
1.0
 40
1.0
 40
1.0
 40
2.0
 40
2.0
 40
2.0
 40
2.0
 10
91.06133219423949
 20
-40.65946499638296
 30
0.0
 10
91.26363409810251
 20
-40.65946499639205
 30
0.0
 10
91.42763219424685
 20
-40.49546690026245
 30
0.0
 10
91.42763219425594
 20
-40.29316499639942
 30
0.0
 10
91.42763219426502
 20
-40.09086309253641
 30
0.0
 10
91.2636340981354
 20
-39.92686499639204
 30
0.0
 10
91.06133219427238
 20
-39.92686499638297
 30
0.0
  0
LINE
  5
288
330
27D
100
AcDbEntity
  8
Layer 1
 62
    18
420
    65793
370
    70
100
AcDbLine
 10
89.92763219427239
 20
-39.92686499633207
 30
0.0
 11
91.06133219427238
 21
-39.92686499638297
 31
0.0
  0
ENDBLK
  5
280
330
27D
100
AcDbEntity
  8
0
100
AcDbBlockEnd
  0
BLOCK
  5
28B
330
289
100
AcDbEntity
  8
0
100
AcDbBlockBegin
  2
Block_23
 70
     0
 10
0.0
 20
0.0
 30
0.0
  3
Block_23
  1

  0
LINE
  5
28D
330
289
100
AcDbEntity
  8
Layer 1
 62
    18
420
    65793
370
    70
100
AcDbLine
 10
84.8043388078876
 20
-12.13013469205167
 30
0.0
 11
85.55432064299118
 21
-12.13535455935569
 31
0.0
  0
SPLINE
  5
28E
330
289
100
AcDbEntity
  8
Layer 1
 62
    18
420
    65793
370
    70
100
AcDbSpline
210
0.0
220
0.0
230
1.0
 70
     8
 71
     3
 72
     8
 73
     4
 74
     0
 42
0.0000000001
 43
0.0000000001
 40
0.0
 40
0.0
 40
0.0
 40
0.0
 40
1.0
 40
1.0
 40
1.0
 40
1.0
 10
85.55432064299118
 20
-12.13535455935569
 30
0.0
 10
85.55713661390724
 20
-11.73076055107796
 30
0.0
 10
85.23143116112228
 20
-11.40048950735998
 30
0.0
 10
84.82683715284457
 20
-11.39767353644394
 30
0.0
  0
LINE
  5
28F
330
289
100
AcDbEntity
  8
Layer 1
 62
    18
420
    65793
370
    70
100
AcDbLine
 10
84.05945573916659
 20
-11.39233256821848
 30
0.0
 11
84.82683715284457
 21
-11.39767353644394
 31
0.0
  0
SPLINE
  5
290
330
289
100
AcDbEntity
  8
Layer 1
 62
    18
420
    65793
370
    70
100
AcDbSpline
210
0.0
220
0.0
230
1.0
 70
     8
 71
     3
 72
     8
 73
     4
 74
     0
 42
0.0000000001
 43
0.0000000001
 40
0.0
 40
0.0
 40
0.0
 40
0.0
 40
1.0
 40
1.0
 40
1.0
 40
1.0
 10
84.05945573916659
 20
-11.39233256821848
 30
0.0
 10
83.65486173088889
 20
-11.38951659730244
 30
0.0
 10
83.32459068717088
 20
-11.71522205008738
 30
0.0
 10
83.32177471625483
 20
-12.11981605836508
 30
0.0
  0
LINE
  5
291
330
289
100
AcDbEntity
  8
Layer 1
 62
    18
420
    65793
370
    70
100
AcDbLine
 10
83.32177471625483
 20
-12.11981605836508
 30
0.0
 11
84.07175655135842
 21
-12.1250359256691
 31
0.0
  0
LINE
  5
292
330
289
100
AcDbEntity
  8
Layer 1
 62
    18
420
    65793
370
    70
100
AcDbLine
 10
84.07175655135842
 20
-12.1250359256691
 30
0.0
 11
84.06386619994169
 21
-13.25870846761167
 31
0.0
  0
SPLINE
  5
293
330
289
100
AcDbEntity
  8
Layer 1
 62
    18
420
    65793
370
    70
100
AcDbSpline
210
0.0
220
0.0
230
1.0
 70
     8
 71
     3
 72
    11
 73
     7
 74
     0
 42
0.0000000001
 43
0.0000000001
 40
0.0
 40
0.0
 40
0.0
 40
0.0
 40
1.0
 40
1.0
 40
1.0
 40
2.0
 40
2.0
 40
2.0
 40
2.0
 10
84.06386619994169
 20
-13.25870846761167
 30
0.0
 10
84.06245821448365
 20
-13.46100547175049
 30
0.0
 10
84.22531094087615
 20
-13.62614099360952
 30
0.0
 10
84.42760794501497
 20
-13.62754897906754
 30
0.0
 10
84.62990494915379
 20
-13.62895696452556
 30
0.0
 10
84.79504047101283
 20
-13.46610423813306
 30
0.0
 10
84.79644845647085
 20
-13.26380723399423
 30
0.0
  0
LINE
  5
294
330
289
100
AcDbEntity
  8
Layer 1
 62
    18
420
    65793
370
    70
100
AcDbLine
 10
84.8043388078876
 20
-12.13013469205167
 30
0.0
 11
84.79644845647085
 21
-13.26380723399423
 31
0.0
  0
ENDBLK
  5
28C
330
289
100
AcDbEntity
  8
0
100
AcDbBlockEnd
  0
BLOCK
  5
297
330
295
100
AcDbEntity
  8
0
100
AcDbBlockBegin
  2
Block_24
 70
     0
 10
0.0
 20
0.0
 30
0.0
  3
Block_24
  1

  0
LINE
  5
299
330
295
100
AcDbEntity
  8
Layer 1
 62
    18
420
    65793
370
    70
100
AcDbLine
 10
79.54869807520196
 20
-11.85703164959775
 30
0.0
 11
80.29867991030553
 21
-11.86225151690178
 31
0.0
  0
SPLINE
  5
29A
330
295
100
AcDbEntity
  8
Layer 1
 62
    18
420
    65793
370
    70
100
AcDbSpline
210
0.0
220
0.0
230
1.0
 70
     8
 71
     3
 72
     8
 73
     4
 74
     0
 42
0.0000000001
 43
0.0000000001
 40
0.0
 40
0.0
 40
0.0
 40
0.0
 40
1.0
 40
1.0
 40
1.0
 40
1.0
 10
80.29867991030553
 20
-11.86225151690178
 30
0.0
 10
80.30149588122156
 20
-11.45765750862405
 30
0.0
 10
79.97579042843664
 20
-11.12738646490607
 30
0.0
 10
79.57119642015896
 20
-11.12457049399002
 30
0.0
  0
LINE
  5
29B
330
295
100
AcDbEntity
  8
Layer 1
 62
    18
420
    65793
370
    70
100
AcDbLine
 10
78.80381500648095
 20
-11.11922952576457
 30
0.0
 11
79.57119642015896
 21
-11.12457049399002
 31
0.0
  0
SPLINE
  5
29C
330
295
100
AcDbEntity
  8
Layer 1
 62
    18
420
    65793
370
    70
100
AcDbSpline
210
0.0
220
0.0
230
1.0
 70
     8
 71
     3
 72
     8
 73
     4
 74
     0
 42
0.0000000001
 43
0.0000000001
 40
0.0
 40
0.0
 40
0.0
 40
0.0
 40
1.0
 40
1.0
 40
1.0
 40
1.0
 10
78.80381500648095
 20
-11.11922952576457
 30
0.0
 10
78.39922099820329
 20
-11.11641355484852
 30
0.0
 10
78.06894995448527
 20
-11.44211900763346
 30
0.0
 10
78.06613398356923
 20
-11.84671301591116
 30
0.0
  0
LINE
  5
29D
330
295
100
AcDbEntity
  8
Layer 1
 62
    18
420
    65793
370
    70
100
AcDbLine
 10
78.06613398356923
 20
-11.84671301591116
 30
0.0
 11
78.81611581867281
 21
-11.85193288321519
 31
0.0
  0
LINE
  5
29E
330
295
100
AcDbEntity
  8
Layer 1
 62
    18
420
    65793
370
    70
100
AcDbLine
 10
78.81611581867281
 20
-11.85193288321519
 30
0.0
 11
78.80822546725605
 21
-12.98560542515775
 31
0.0
  0
SPLINE
  5
29F
330
295
100
AcDbEntity
  8
Layer 1
 62
    18
420
    65793
370
    70
100
AcDbSpline
210
0.0
220
0.0
230
1.0
 70
     8
 71
     3
 72
    11
 73
     7
 74
     0
 42
0.0000000001
 43
0.0000000001
 40
0.0
 40
0.0
 40
0.0
 40
0.0
 40
1.0
 40
1.0
 40
1.0
 40
2.0
 40
2.0
 40
2.0
 40
2.0
 10
78.80822546725605
 20
-12.98560542515775
 30
0.0
 10
78.80681748179803
 20
-13.18790242929657
 30
0.0
 10
78.96967020819047
 20
-13.3530379511556
 30
0.0
 10
79.17196721232933
 20
-13.35444593661363
 30
0.0
 10
79.37426421646819
 20
-13.35585392207164
 30
0.0
 10
79.53939973832719
 20
-13.19300119567914
 30
0.0
 10
79.54080772378521
 20
-12.99070419154032
 30
0.0
  0
LINE
  5
2A0
330
295
100
AcDbEntity
  8
Layer 1
 62
    18
420
    65793
370
    70
100
AcDbLine
 10
79.54869807520196
 20
-11.85703164959775
 30
0.0
 11
79.54080772378521
 21
-12.99070419154032
 31
0.0
  0
ENDBLK
  5
298
330
295
100
AcDbEntity
  8
0
100
AcDbBlockEnd
  0
BLOCK
  5
2A3
330
2A1
100
AcDbEntity
  8
0
100
AcDbBlockBegin
  2
Block_25
 70
     0
 10
0.0
 20
0.0
 30
0.0
  3
Block_25
  1

  0
LINE
  5
2A5
330
2A1
100
AcDbEntity
  8
Layer 1
 62
    18
420
    65793
370
    70
100
AcDbLine
 10
85.26531777210875
 20
-44.52966344253812
 30
0.0
 11
86.01529960721233
 21
-44.53488330984214
 31
0.0
  0
SPLINE
  5
2A6
330
2A1
100
AcDbEntity
  8
Layer 1
 62
    18
420
    65793
370
    70
100
AcDbSpline
210
0.0
220
0.0
230
1.0
 70
     8
 71
     3
 72
     8
 73
     4
 74
     0
 42
0.0000000001
 43
0.0000000001
 40
0.0
 40
0.0
 40
0.0
 40
0.0
 40
1.0
 40
1.0
 40
1.0
 40
1.0
 10
86.01529960721233
 20
-44.53488330984214
 30
0.0
 10
86.01811557812835
 20
-44.13028930156444
 30
0.0
 10
85.69241012534339
 20
-43.80001825784643
 30
0.0
 10
85.28781611706573
 20
-43.79720228693038
 30
0.0
  0
LINE
  5
2A7
330
2A1
100
AcDbEntity
  8
Layer 1
 62
    18
420
    65793
370
    70
100
AcDbLine
 10
84.52043470338773
 20
-43.79186131870492
 30
0.0
 11
85.28781611706573
 21
-43.79720228693038
 31
0.0
  0
SPLINE
  5
2A8
330
2A1
100
AcDbEntity
  8
Layer 1
 62
    18
420
    65793
370
    70
100
AcDbSpline
210
0.0
220
0.0
230
1.0
 70
     8
 71
     3
 72
     8
 73
     4
 74
     0
 42
0.0000000001
 43
0.0000000001
 40
0.0
 40
0.0
 40
0.0
 40
0.0
 40
1.0
 40
1.0
 40
1.0
 40
1.0
 10
84.52043470338773
 20
-43.79186131870492
 30
0.0
 10
84.11584069511006
 20
-43.78904534778889
 30
0.0
 10
83.78556965139205
 20
-44.11475080057382
 30
0.0
 10
83.78275368047601
 20
-44.51934480885152
 30
0.0
  0
LINE
  5
2A9
330
2A1
100
AcDbEntity
  8
Layer 1
 62
    18
420
    65793
370
    70
100
AcDbLine
 10
83.78275368047601
 20
-44.51934480885152
 30
0.0
 11
84.53273551557959
 21
-44.52456467615554
 31
0.0
  0
LINE
  5
2AA
330
2A1
100
AcDbEntity
  8
Layer 1
 62
    18
420
    65793
370
    70
100
AcDbLine
 10
84.53273551557959
 20
-44.52456467615554
 30
0.0
 11
84.52484516416282
 21
-45.65823721809811
 31
0.0
  0
SPLINE
  5
2AB
330
2A1
100
AcDbEntity
  8
Layer 1
 62
    18
420
    65793
370
    70
100
AcDbSpline
210
0.0
220
0.0
230
1.0
 70
     8
 71
     3
 72
    11
 73
     7
 74
     0
 42
0.0000000001
 43
0.0000000001
 40
0.0
 40
0.0
 40
0.0
 40
0.0
 40
1.0
 40
1.0
 40
1.0
 40
2.0
 40
2.0
 40
2.0
 40
2.0
 10
84.52484516416282
 20
-45.65823721809811
 30
0.0
 10
84.5234371787048
 20
-45.86053422223694
 30
0.0
 10
84.68628990509728
 20
-46.02566974409596
 30
0.0
 10
84.88858690923612
 20
-46.02707772955398
 30
0.0
 10
85.09088391337495
 20
-46.028485715012
 30
0.0
 10
85.25601943523398
 20
-45.8656329886195
 30
0.0
 10
85.25742742069201
 20
-45.66333598448068
 30
0.0
  0
LINE
  5
2AC
330
2A1
100
AcDbEntity
  8
Layer 1
 62
    18
420
    65793
370
    70
100
AcDbLine
 10
85.26531777210875
 20
-44.52966344253812
 30
0.0
 11
85.25742742069201
 21
-45.66333598448068
 31
0.0
  0
ENDBLK
  5
2A4
330
2A1
100
AcDbEntity
  8
0
100
AcDbBlockEnd
  0
BLOCK
  5
2AF
330
2AD
100
AcDbEntity
  8
0
100
AcDbBlockBegin
  2
Block_26
 70
     0
 10
0.0
 20
0.0
 30
0.0
  3
Block_26
  1

  0
LINE
  5
2B1
330
2AD
100
AcDbEntity
  8
Layer 1
 62
    18
420
    65793
370
    70
100
AcDbLine
 10
68.72162899378261
 20
-8.087179834067683
 30
0.0
 11
68.72684886112032
 21
-7.337197998964332
 31
0.0
  0
SPLINE
  5
2B2
330
2AD
100
AcDbEntity
  8
Layer 1
 62
    18
420
    65793
370
    70
100
AcDbSpline
210
0.0
220
0.0
230
1.0
 70
     8
 71
     3
 72
     8
 73
     4
 74
     0
 42
0.0000000001
 43
0.0000000001
 40
0.0
 40
0.0
 40
0.0
 40
0.0
 40
1.0
 40
1.0
 40
1.0
 40
1.0
 10
68.72684886112032
 20
-7.337197998964332
 30
0.0
 10
68.32225485284273
 20
-7.334382028030126
 30
0.0
 10
67.99198380911012
 20
-7.660087480800257
 30
0.0
 10
67.98916783817592
 20
-8.064681489077832
 30
0.0
  0
LINE
  5
2B3
330
2AD
100
AcDbEntity
  8
Layer 1
 62
    18
420
    65793
370
    70
100
AcDbLine
 10
67.983826869916
 20
-8.832062902755573
 30
0.0
 11
67.98916783817592
 21
-8.064681489077832
 31
0.0
  0
SPLINE
  5
2B4
330
2AD
100
AcDbEntity
  8
Layer 1
 62
    18
420
    65793
370
    70
100
AcDbSpline
210
0.0
220
0.0
230
1.0
 70
     8
 71
     3
 72
     8
 73
     4
 74
     0
 42
0.0000000001
 43
0.0000000001
 40
0.0
 40
0.0
 40
0.0
 40
0.0
 40
1.0
 40
1.0
 40
1.0
 40
1.0
 10
67.983826869916
 20
-8.832062902755573
 30
0.0
 10
67.98101089898179
 20
-9.236656911033151
 30
0.0
 10
68.30671635175187
 20
-9.566927954765761
 30
0.0
 10
68.71131036002947
 20
-9.569743925699969
 30
0.0
  0
LINE
  5
2B5
330
2AD
100
AcDbEntity
  8
Layer 1
 62
    18
420
    65793
370
    70
100
AcDbLine
 10
68.71131036002947
 20
-9.569743925699969
 30
0.0
 11
68.71653022736714
 21
-8.819762090596643
 31
0.0
  0
LINE
  5
2B6
330
2AD
100
AcDbEntity
  8
Layer 1
 62
    18
420
    65793
370
    70
100
AcDbLine
 10
68.71653022736714
 20
-8.819762090596643
 30
0.0
 11
69.85020276930936
 21
-8.827652442064264
 31
0.0
  0
SPLINE
  5
2B7
330
2AD
100
AcDbEntity
  8
Layer 1
 62
    18
420
    65793
370
    70
100
AcDbSpline
210
0.0
220
0.0
230
1.0
 70
     8
 71
     3
 72
    11
 73
     7
 74
     0
 42
0.0000000001
 43
0.0000000001
 40
0.0
 40
0.0
 40
0.0
 40
0.0
 40
1.0
 40
1.0
 40
1.0
 40
2.0
 40
2.0
 40
2.0
 40
2.0
 10
69.85020276930936
 20
-8.827652442064264
 30
0.0
 10
70.05249977344814
 20
-8.829060427531379
 30
0.0
 10
70.21763529531447
 20
-8.666207701146326
 30
0.0
 10
70.21904328078157
 20
-8.463910697007552
 30
0.0
 10
70.22045126624867
 20
-8.261613692868776
 30
0.0
 10
70.05759853986359
 20
-8.096478171002445
 30
0.0
 10
69.85530153572482
 20
-8.095070185535329
 30
0.0
  0
LINE
  5
2B8
330
2AD
100
AcDbEntity
  8
Layer 1
 62
    18
420
    65793
370
    70
100
AcDbLine
 10
68.72162899378261
 20
-8.087179834067683
 30
0.0
 11
69.85530153572482
 21
-8.095070185535329
 31
0.0
  0
ENDBLK
  5
2B0
330
2AD
100
AcDbEntity
  8
0
100
AcDbBlockEnd
  0
BLOCK
  5
2BB
330
2B9
100
AcDbEntity
  8
0
100
AcDbBlockBegin
  2
Block_27
 70
     0
 10
0.0
 20
0.0
 30
0.0
  3
Block_27
  1

  0
LINE
  5
2BD
330
2B9
100
AcDbEntity
  8
Layer 1
 62
    18
420
    65793
370
    70
100
AcDbLine
 10
2.876104799849409
 20
-3.811190474874542
 30
0.0
 11
2.143504799849413
 21
-3.811190474677181
 31
0.0
  0
LINE
  5
2BE
330
2B9
100
AcDbEntity
  8
Layer 1
 62
    18
420
    65793
370
    70
100
AcDbLine
 10
2.876104799714754
 20
-4.311190474874542
 30
0.0
 11
2.876104799849409
 21
-3.811190474874542
 31
0.0
  0
LINE
  5
2BF
330
2B9
100
AcDbEntity
  8
Layer 1
 62
    18
420
    65793
370
    70
100
AcDbLine
 10
2.876104799714754
 20
-4.311190474874542
 30
0.0
 11
21.41090479971476
 21
-4.31119047986744
 31
0.0
  0
LINE
  5
2C0
330
2B9
100
AcDbEntity
  8
Layer 1
 62
    18
420
    65793
370
    70
100
AcDbLine
 10
21.41090479971476
 20
-4.31119047986744
 30
0.0
 11
21.41090479984942
 21
-3.81119047986744
 31
0.0
  0
LINE
  5
2C1
330
2B9
100
AcDbEntity
  8
Layer 1
 62
    18
420
    65793
370
    70
100
AcDbLine
 10
21.41090479984942
 20
-3.81119047986744
 30
0.0
 11
22.14350479984944
 21
-3.811190480064801
 31
0.0
  0
LINE
  5
2C2
330
2B9
100
AcDbEntity
  8
Layer 1
 62
    18
420
    65793
370
    70
100
AcDbLine
 10
22.14350479984944
 20
-3.811190480064801
 30
0.0
 11
22.14350479995276
 21
-3.427490480064786
 31
0.0
  0
LINE
  5
2C3
330
2B9
100
AcDbEntity
  8
Layer 1
 62
    18
420
    65793
370
    70
100
AcDbLine
 10
22.14350479995276
 20
-3.427490480064786
 30
0.0
 11
21.00980479995275
 21
-3.427490479759373
 31
0.0
  0
SPLINE
  5
2C4
330
2B9
100
AcDbEntity
  8
Layer 1
 62
    18
420
    65793
370
    70
100
AcDbSpline
210
0.0
220
0.0
230
1.0
 70
     8
 71
     3
 72
    11
 73
     7
 74
     0
 42
0.0000000001
 43
0.0000000001
 40
0.0
 40
0.0
 40
0.0
 40
0.0
 40
1.0
 40
1.0
 40
1.0
 40
2.0
 40
2.0
 40
2.0
 40
2.0
 10
21.00980480015011
 20
-2.694890479759401
 30
0.0
 10
20.8075028962871
 20
-2.694890479704907
 30
0.0
 10
20.64350480010597
 20
-2.858888575797714
 30
0.0
 10
20.64350480005145
 20
-3.061190479660732
 30
0.0
 10
20.64350479999698
 20
-3.26349238352375
 30
0.0
 10
20.80750289608973
 20
-3.427490479704904
 30
0.0
 10
21.00980479995275
 20
-3.427490479759373
 30
0.0
  0
LINE
  5
2C5
330
2B9
100
AcDbEntity
  8
Layer 1
 62
    18
420
    65793
370
    70
100
AcDbLine
 10
21.00980480015011
 20
-2.694890479759401
 30
0.0
 11
22.14350480015013
 21
-2.694890480064764
 31
0.0
  0
LINE
  5
2C6
330
2B9
100
AcDbEntity
  8
Layer 1
 62
    18
420
    65793
370
    70
100
AcDbLine
 10
22.14350480015013
 20
-2.694890480064764
 30
0.0
 11
22.14350480025351
 21
-2.311190480064801
 31
0.0
  0
LINE
  5
2C7
330
2B9
100
AcDbEntity
  8
Layer 1
 62
    18
420
    65793
370
    70
100
AcDbLine
 10
21.41090480025348
 20
-2.31119047986744
 30
0.0
 11
22.14350480025351
 21
-2.311190480064801
 31
0.0
  0
LINE
  5
2C8
330
2B9
100
AcDbEntity
  8
Layer 1
 62
    18
420
    65793
370
    70
100
AcDbLine
 10
21.41090480025348
 20
-2.31119047986744
 30
0.0
 11
21.41090480038819
 21
-1.81119047986744
 31
0.0
  0
LINE
  5
2C9
330
2B9
100
AcDbEntity
  8
Layer 1
 62
    18
420
    65793
370
    70
100
AcDbLine
 10
21.41090480038819
 20
-1.81119047986744
 30
0.0
 11
2.876104800388184
 21
-1.811190474874542
 31
0.0
  0
LINE
  5
2CA
330
2B9
100
AcDbEntity
  8
Layer 1
 62
    18
420
    65793
370
    70
100
AcDbLine
 10
2.876104800253503
 20
-2.311190474874542
 30
0.0
 11
2.876104800388184
 21
-1.811190474874542
 31
0.0
  0
LINE
  5
2CB
330
2B9
100
AcDbEntity
  8
Layer 1
 62
    18
420
    65793
370
    70
100
AcDbLine
 10
2.876104800253503
 20
-2.311190474874542
 30
0.0
 11
2.143504800253481
 21
-2.311190474677181
 31
0.0
  0
LINE
  5
2CC
330
2B9
100
AcDbEntity
  8
Layer 1
 62
    18
420
    65793
370
    70
100
AcDbLine
 10
2.143504800253481
 20
-2.311190474677181
 30
0.0
 11
2.143504800150152
 21
-2.694890474677195
 31
0.0
  0
LINE
  5
2CD
330
2B9
100
AcDbEntity
  8
Layer 1
 62
    18
420
    65793
370
    70
100
AcDbLine
 10
3.277204800150166
 20
-2.694890474982558
 30
0.0
 11
2.143504800150152
 21
-2.694890474677195
 31
0.0
  0
SPLINE
  5
2CE
330
2B9
100
AcDbEntity
  8
Layer 1
 62
    18
420
    65793
370
    70
100
AcDbSpline
210
0.0
220
0.0
230
1.0
 70
     8
 71
     3
 72
    11
 73
     7
 74
     0
 42
0.0000000001
 43
0.0000000001
 40
0.0
 40
0.0
 40
0.0
 40
0.0
 40
1.0
 40
1.0
 40
1.0
 40
2.0
 40
2.0
 40
2.0
 40
2.0
 10
3.277204799952806
 20
-3.42749047498258
 30
0.0
 10
3.479506703815824
 20
-3.4274904750371
 30
0.0
 10
3.643504799996978
 20
-3.263492378944268
 30
0.0
 10
3.643504800051472
 20
-3.06119047508125
 30
0.0
 10
3.643504800105966
 20
-2.858888571218231
 30
0.0
 10
3.479506704013184
 20
-2.694890475037077
 30
0.0
 10
3.277204800150166
 20
-2.694890474982558
 30
0.0
  0
LINE
  5
2CF
330
2B9
100
AcDbEntity
  8
Layer 1
 62
    18
420
    65793
370
    70
100
AcDbLine
 10
2.143504799952792
 20
-3.427490474677192
 30
0.0
 11
3.277204799952806
 21
-3.42749047498258
 31
0.0
  0
LINE
  5
2D0
330
2B9
100
AcDbEntity
  8
Layer 1
 62
    18
420
    65793
370
    70
100
AcDbLine
 10
2.143504799952792
 20
-3.427490474677192
 30
0.0
 11
2.143504799849413
 21
-3.811190474677181
 31
0.0
  0
ENDBLK
  5
2BC
330
2B9
100
AcDbEntity
  8
0
100
AcDbBlockEnd
  0
BLOCK
  5
2D3
330
2D1
100
AcDbEntity
  8
0
100
AcDbBlockBegin
  2
Block_28
 70
     0
 10
0.0
 20
0.0
 30
0.0
  3
Block_28
  1

  0
LINE
  5
2D5
330
2D1
100
AcDbEntity
  8
Layer 1
 62
    18
420
    65793
370
    70
100
AcDbLine
 10
63.3138176956827
 20
-4.804400959819063
 30
0.0
 11
63.65324745359101
 21
-6.521167525058128
 31
0.0
  0
LINE
  5
2D6
330
2D1
100
AcDbEntity
  8
Layer 1
 62
    18
420
    65793
370
    70
100
AcDbLine
 10
64.03250523045719
 20
-4.662305965190006
 30
0.0
 11
63.3138176956827
 21
-4.804400959819063
 31
0.0
  0
LINE
  5
2D7
330
2D1
100
AcDbEntity
  8
Layer 1
 62
    18
420
    65793
370
    70
100
AcDbLine
 10
64.37193498826546
 20
-6.379072530429084
 30
0.0
 11
64.03250523045719
 21
-4.662305965190006
 31
0.0
  0
LINE
  5
2D8
330
2D1
100
AcDbEntity
  8
Layer 1
 62
    18
420
    65793
370
    70
100
AcDbLine
 10
63.65324745359101
 20
-6.521167525058128
 30
0.0
 11
64.37193498826546
 21
-6.379072530429084
 31
0.0
  0
LINE
  5
2D9
330
2D1
100
AcDbEntity
  8
Layer 1
 62
    18
420
    65793
370
    70
100
AcDbLine
 10
64.47758482055959
 20
-8.016736745010108
 30
0.0
 11
63.74498482055962
 21
-8.016736745141631
 31
0.0
  0
LINE
  5
2DA
330
2D1
100
AcDbEntity
  8
Layer 1
 62
    18
420
    65793
370
    70
100
AcDbLine
 10
64.47758482087388
 20
-9.766736745010108
 30
0.0
 11
64.47758482055959
 21
-8.016736745010108
 31
0.0
  0
LINE
  5
2DB
330
2D1
100
AcDbEntity
  8
Layer 1
 62
    18
420
    65793
370
    70
100
AcDbLine
 10
63.74498482087386
 20
-9.76673674514163
 30
0.0
 11
64.47758482087388
 21
-9.766736745010108
 31
0.0
  0
LINE
  5
2DC
330
2D1
100
AcDbEntity
  8
Layer 1
 62
    18
420
    65793
370
    70
100
AcDbLine
 10
63.74498482055962
 20
-8.016736745141631
 30
0.0
 11
63.74498482087386
 21
-9.76673674514163
 31
0.0
  0
LINE
  5
2DD
330
2D1
100
AcDbEntity
  8
Layer 1
 62
    18
420
    65793
370
    70
100
AcDbLine
 10
63.75177990824532
 20
-11.27829676164045
 30
0.0
 11
63.5363313769572
 21
-13.0149838175791
 31
0.0
  0
LINE
  5
2DE
330
2D1
100
AcDbEntity
  8
Layer 1
 62
    18
420
    65793
370
    70
100
AcDbLine
 10
64.47880672956151
 20
-11.36848967250987
 30
0.0
 11
63.75177990824532
 21
-11.27829676164045
 31
0.0
  0
LINE
  5
2DF
330
2D1
100
AcDbEntity
  8
Layer 1
 62
    18
420
    65793
370
    70
100
AcDbLine
 10
64.26335819817339
 20
-13.10517672844851
 30
0.0
 11
64.47880672956151
 21
-11.36848967250987
 31
0.0
  0
LINE
  5
2E0
330
2D1
100
AcDbEntity
  8
Layer 1
 62
    18
420
    65793
370
    70
100
AcDbLine
 10
63.5363313769572
 20
-13.0149838175791
 30
0.0
 11
64.26335819817339
 21
-13.10517672844851
 31
0.0
  0
LINE
  5
2E1
330
2D1
100
AcDbEntity
  8
Layer 1
 62
    18
420
    65793
370
    70
100
AcDbLine
 10
62.83768190148844
 20
-18.2004523680046
 30
0.0
 11
62.44364516729466
 21
-19.90551396577536
 31
0.0
  0
LINE
  5
2E2
330
2D1
100
AcDbEntity
  8
Layer 1
 62
    18
420
    65793
370
    70
100
AcDbLine
 10
63.55146940231805
 20
-18.36540740307637
 30
0.0
 11
62.83768190148844
 21
-18.2004523680046
 31
0.0
  0
LINE
  5
2E3
330
2D1
100
AcDbEntity
  8
Layer 1
 62
    18
420
    65793
370
    70
100
AcDbLine
 10
63.15743266822426
 20
-20.07046900084716
 30
0.0
 11
63.55146940231805
 21
-18.36540740307637
 31
0.0
  0
LINE
  5
2E4
330
2D1
100
AcDbEntity
  8
Layer 1
 62
    18
420
    65793
370
    70
100
AcDbLine
 10
62.44364516729466
 20
-19.90551396577536
 30
0.0
 11
63.15743266822426
 21
-20.07046900084716
 31
0.0
  0
LINE
  5
2E5
330
2D1
100
AcDbEntity
  8
Layer 1
 62
    18
420
    65793
370
    70
100
AcDbLine
 10
63.3736494146966
 20
-14.90502821790831
 30
0.0
 11
63.02503541730462
 21
-16.61995337107093
 31
0.0
  0
LINE
  5
2E6
330
2D1
100
AcDbEntity
  8
Layer 1
 62
    18
420
    65793
370
    70
100
AcDbLine
 10
64.09156608162286
 20
-15.05096799767942
 30
0.0
 11
63.3736494146966
 21
-14.90502821790831
 31
0.0
  0
LINE
  5
2E7
330
2D1
100
AcDbEntity
  8
Layer 1
 62
    18
420
    65793
370
    70
100
AcDbLine
 10
63.74295208423084
 20
-16.76589315074198
 30
0.0
 11
64.09156608162286
 21
-15.05096799767942
 31
0.0
  0
LINE
  5
2E8
330
2D1
100
AcDbEntity
  8
Layer 1
 62
    18
420
    65793
370
    70
100
AcDbLine
 10
63.02503541730462
 20
-16.61995337107093
 30
0.0
 11
63.74295208423084
 21
-16.76589315074198
 31
0.0
  0
LINE
  5
2E9
330
2D1
100
AcDbEntity
  8
Layer 1
 62
    18
420
    65793
370
    70
100
AcDbLine
 10
62.25640153618162
 20
-21.50328806130893
 30
0.0
 11
61.89123920738898
 21
-23.21476592377451
 31
0.0
  0
LINE
  5
2EA
330
2D1
100
AcDbEntity
  8
Layer 1
 62
    18
420
    65793
370
    70
100
AcDbLine
 10
62.97287506870907
 20
-21.65615544538035
 30
0.0
 11
62.25640153618162
 21
-21.50328806130893
 31
0.0
  0
LINE
  5
2EB
330
2D1
100
AcDbEntity
  8
Layer 1
 62
    18
420
    65793
370
    70
100
AcDbLine
 10
62.60771274001641
 20
-23.36763330774588
 30
0.0
 11
62.97287506870907
 21
-21.65615544538035
 31
0.0
  0
LINE
  5
2EC
330
2D1
100
AcDbEntity
  8
Layer 1
 62
    18
420
    65793
370
    70
100
AcDbLine
 10
61.89123920738898
 20
-23.21476592377451
 30
0.0
 11
62.60771274001641
 21
-23.36763330774588
 31
0.0
  0
SPLINE
  5
2ED
330
2D1
100
AcDbEntity
  8
Layer 1
 62
    18
420
    65793
370
    70
100
AcDbSpline
210
0.0
220
0.0
230
1.0
 70
     8
 71
     3
 72
     8
 73
     4
 74
     0
 42
0.0000000001
 43
0.0000000001
 40
0.0
 40
0.0
 40
0.0
 40
0.0
 40
1.0
 40
1.0
 40
1.0
 40
1.0
 10
56.82599745259438
 20
-35.6453279862742
 30
0.0
 10
68.24231314168187
 20
-37.84141984511666
 30
0.0
 10
79.65862883034704
 20
-37.68561621873689
 30
0.0
 10
91.07494451858981
 20
-35.17791710713484
 30
0.0
  0
SPLINE
  5
2EE
330
2D1
100
AcDbEntity
  8
Layer 1
 62
    18
420
    65793
370
    70
100
AcDbSpline
210
0.0
220
0.0
230
1.0
 70
     8
 71
     3
 72
    11
 73
     7
 74
     0
 42
0.0000000001
 43
0.0000000001
 40
0.0
 40
0.0
 40
0.0
 40
0.0
 40
1.0
 40
1.0
 40
1.0
 40
2.0
 40
2.0
 40
2.0
 40
2.0
 10
91.07494451863367
 20
-35.17791710715712
 30
0.0
 10
91.34465671356439
 20
-35.11867233414238
 30
0.0
 10
91.51527426996876
 20
-34.85200002199955
 30
0.0
 10
91.45602949695396
 20
-34.58228782706881
 30
0.0
 10
91.4558283379012
 20
-34.58137204923891
 30
0.0
 10
91.45562460331676
 20
-34.58045683904718
 30
0.0
 10
91.45541829561862
 20
-34.57954220735516
 30
0.0
  0
LINE
  5
2EF
330
2D1
100
AcDbEntity
  8
Layer 1
 62
    18
420
    65793
370
    70
100
AcDbLine
 10
91.41690495059926
 20
-34.40879954387212
 30
0.0
 11
91.45541829552989
 21
-34.57954220736517
 31
0.0
  0
SPLINE
  5
2F0
330
2D1
100
AcDbEntity
  8
Layer 1
 62
    18
420
    65793
370
    70
100
AcDbSpline
210
0.0
220
0.0
230
1.0
 70
     8
 71
     3
 72
     8
 73
     4
 74
     0
 42
0.0000000001
 43
0.0000000001
 40
0.0
 40
0.0
 40
0.0
 40
0.0
 40
1.0
 40
1.0
 40
1.0
 40
1.0
 10
91.41690495064272
 20
-34.40879954382199
 30
0.0
 10
91.11918078744244
 20
-33.08888779283575
 30
0.0
 10
89.82537145568803
 20
-32.24539150153358
 30
0.0
 10
88.49753976194712
 20
-32.50552550708095
 30
0.0
  0
SPLINE
  5
2F1
330
2D1
100
AcDbEntity
  8
Layer 1
 62
    18
420
    65793
370
    70
100
AcDbSpline
210
0.0
220
0.0
230
1.0
 70
     8
 71
     3
 72
    11
 73
     7
 74
     0
 42
0.0000000001
 43
0.0000000001
 40
0.0
 40
0.0
 40
0.0
 40
0.0
 40
1.0
 40
1.0
 40
1.0
 40
2.0
 40
2.0
 40
2.0
 40
2.0
 10
86.24276492666529
 20
-32.9155521912286
 30
0.0
 10
86.65539931942921
 20
-32.84631536200502
 30
0.0
 10
87.06808592982254
 20
-32.77388510478939
 30
0.0
 10
87.48082475784515
 20
-32.69826141958166
 30
0.0
 10
87.81968551013425
 20
-32.6361739756086
 30
0.0
 10
88.15859051148427
 20
-32.57192867144772
 30
0.0
 10
88.49753976189514
 20
-32.50552550709883
 30
0.0
  0
SPLINE
  5
2F2
330
2D1
100
AcDbEntity
  8
Layer 1
 62
    18
420
    65793
370
    70
100
AcDbSpline
210
0.0
220
0.0
230
1.0
 70
     8
 71
     3
 72
     8
 73
     4
 74
     0
 42
0.0000000001
 43
0.0000000001
 40
0.0
 40
0.0
 40
0.0
 40
0.0
 40
1.0
 40
1.0
 40
1.0
 40
1.0
 10
84.516097168081
 20
-31.68958438178573
 30
0.0
 10
84.65567637744308
 20
-32.50410586803453
 30
0.0
 10
85.42776381046698
 20
-33.05230301497631
 30
0.0
 10
86.24276492670032
 20
-32.91555219126594
 30
0.0
  0
LINE
  5
2F3
330
2D1
100
AcDbEntity
  8
Layer 1
 62
    18
420
    65793
370
    70
100
AcDbLine
 10
82.02967329480514
 20
-17.17993299495794
 30
0.0
 11
84.51609716801087
 21
-31.68958438171141
 31
0.0
  0
SPLINE
  5
2F4
330
2D1
100
AcDbEntity
  8
Layer 1
 62
    18
420
    65793
370
    70
100
AcDbSpline
210
0.0
220
0.0
230
1.0
 70
     8
 71
     3
 72
     8
 73
     4
 74
     0
 42
0.0000000001
 43
0.0000000001
 40
0.0
 40
0.0
 40
0.0
 40
0.0
 40
1.0
 40
1.0
 40
1.0
 40
1.0
 10
82.02967329483506
 20
-17.17993299498361
 30
0.0
 10
81.90626210847652
 20
-16.45976081897049
 30
0.0
 10
81.28189363109392
 20
-15.93328518229226
 30
0.0
 10
80.55122388078133
 20
-15.93328518242347
 30
0.0
  0
LINE
  5
2F5
330
2D1
100
AcDbEntity
  8
Layer 1
 62
    18
420
    65793
370
    70
100
AcDbLine
 10
80.55122388078133
 20
-15.93328518242347
 30
0.0
 11
66.53745358178129
 21
-15.93328518494013
 31
0.0
  0
SPLINE
  5
2F6
330
2D1
100
AcDbEntity
  8
Layer 1
 62
    18
420
    65793
370
    70
100
AcDbSpline
210
0.0
220
0.0
230
1.0
 70
     8
 71
     3
 72
    11
 73
     7
 74
     0
 42
0.0000000001
 43
0.0000000001
 40
0.0
 40
0.0
 40
0.0
 40
0.0
 40
1.0
 40
1.0
 40
1.0
 40
2.0
 40
2.0
 40
2.0
 40
2.0
 10
65.04938450066801
 20
-14.24447202163739
 30
0.0
 10
64.94510587000862
 20
-15.06630988168223
 30
0.0
 10
65.52680255816439
 20
-15.81707563512461
 30
0.0
 10
66.34864041820915
 20
-15.92135426578404
 30
0.0
 10
66.41126438856776
 20
-15.92930028797761
 30
0.0
 10
66.47432751005038
 20
-15.93328518495145
 30
0.0
 10
66.53745358178129
 20
-15.93328518494013
 30
0.0
  0
SPLINE
  5
2F7
330
2D1
100
AcDbEntity
  8
Layer 1
 62
    18
420
    65793
370
    70
100
AcDbSpline
210
0.0
220
0.0
230
1.0
 70
     8
 71
     3
 72
    38
 73
    34
 74
     0
 42
0.0000000001
 43
0.0000000001
 40
0.0
 40
0.0
 40
0.0
 40
0.0
 40
1.0
 40
1.0
 40
1.0
 40
2.0
 40
2.0
 40
2.0
 40
3.0
 40
3.0
 40
3.0
 40
4.0
 40
4.0
 40
4.0
 40
5.0
 40
5.0
 40
5.0
 40
6.0
 40
6.0
 40
6.0
 40
7.0
 40
7.0
 40
7.0
 40
8.0
 40
8.0
 40
8.0
 40
9.0
 40
9.0
 40
9.0
 40
10.0
 40
10.0
 40
10.0
 40
11.0
 40
11.0
 40
11.0
 40
11.0
 10
64.63343337328367
 20
-3.061190477371016
 30
0.0
 10
64.636471625717
 20
-3.074013959990224
 30
0.0
 10
64.6394984546173
 20
-3.086831928984022
 30
0.0
 10
64.6425138956597
 20
-3.099644373061475
 30
0.0
 10
64.70135008608346
 20
-3.349636128473965
 30
0.0
 10
64.75585087377226
 20
-3.597524526308006
 30
0.0
 10
64.80629012996288
 20
-3.843276772659325
 30
0.0
 10
64.85672938615351
 20
-4.089029019010657
 30
0.0
 10
64.90310711084596
 20
-4.332645113879126
 30
0.0
 10
64.94568874356544
 20
-4.574090667574346
 30
0.0
 10
64.98827037628487
 20
-4.81553622126959
 30
0.0
 10
65.02705591703119
 20
-5.054811233791547
 30
0.0
 10
65.06230380554214
 20
-5.291886826042614
 30
0.0
 10
65.09755169405302
 20
-5.528962418293644
 30
0.0
 10
65.12926193032844
 20
-5.763838590273747
 30
0.0
 10
65.15768764230997
 20
-5.996488914288116
 30
0.0
 10
65.21453906627312
 20
-6.461789562316816
 30
0.0
 10
65.25825239306086
 20
-6.918186818482404
 30
0.0
 10
65.29075481075799
 20
-7.365518550876193
 30
0.0
 10
65.32325722845512
 20
-7.812850283269944
 30
0.0
 10
65.34454873706161
 20
-8.251116491891947
 30
0.0
 10
65.35642967380002
 20
-8.680211026624457
 30
0.0
 10
65.36831061053837
 20
-9.109305561356942
 30
0.0
 10
65.37078097540865
 20
-9.529228422200048
 30
0.0
 10
65.36551978434752
 20
-9.939919186012009
 30
0.0
 10
65.36025859328643
 20
-10.35060994982399
 30
0.0
 10
65.34726584629386
 20
-10.75206861660487
 30
0.0
 10
65.32808737336066
 20
-11.14427493214273
 30
0.0
 10
65.30890890042747
 20
-11.53648124768059
 30
0.0
 10
65.28354470155363
 20
-11.91943521197547
 30
0.0
 10
65.253449484576
 20
-12.29314212439945
 30
0.0
 10
65.19860150579251
 20
-12.97421609104076
 30
0.0
 10
65.12803973833948
 20
-13.62457653773197
 30
0.0
 10
65.04938450066305
 20
-14.24447202163861
 30
0.0
  0
SPLINE
  5
2F8
330
2D1
100
AcDbEntity
  8
Layer 1
 62
    18
420
    65793
370
    70
100
AcDbSpline
210
0.0
220
0.0
230
1.0
 70
     8
 71
     3
 72
     8
 73
     4
 74
     0
 42
0.0000000001
 43
0.0000000001
 40
0.0
 40
0.0
 40
0.0
 40
0.0
 40
1.0
 40
1.0
 40
1.0
 40
1.0
 10
64.63343337327443
 20
-3.061190477408912
 30
0.0
 10
64.5265814208831
 20
-2.610202883581917
 30
0.0
 10
64.12384493102689
 20
-2.291736745073623
 30
0.0
 10
63.66037200893149
 20
-2.291736745156855
 30
0.0
  0
LINE
  5
2F9
330
2D1
100
AcDbEntity
  8
Layer 1
 62
    18
420
    65793
370
    70
100
AcDbLine
 10
63.14623888843144
 20
-2.291736745249194
 30
0.0
 11
63.66037200893149
 21
-2.291736745156855
 31
0.0
  0
SPLINE
  5
2FA
330
2D1
100
AcDbEntity
  8
Layer 1
 62
    18
420
    65793
370
    70
100
AcDbSpline
210
0.0
220
0.0
230
1.0
 70
     8
 71
     3
 72
    11
 73
     7
 74
     0
 42
0.0000000001
 43
0.0000000001
 40
0.0
 40
0.0
 40
0.0
 40
0.0
 40
1.0
 40
1.0
 40
1.0
 40
2.0
 40
2.0
 40
2.0
 40
2.0
 10
63.14623888843144
 20
-2.291736745249194
 30
0.0
 10
62.59395413860069
 20
-2.291736745348366
 30
0.0
 10
62.14623888851185
 20
-2.739451995597935
 30
0.0
 10
62.14623888861105
 20
-3.291736745428743
 30
0.0
 10
62.14623888862529
 20
-3.370962459094787
 30
0.0
 10
62.15565384265912
 20
-3.44990747718868
 30
0.0
 10
62.17428570365559
 20
-3.526911161916725
 30
0.0
  0
SPLINE
  5
2FB
330
2D1
100
AcDbEntity
  8
Layer 1
 62
    18
420
    65793
370
    70
100
AcDbSpline
210
0.0
220
0.0
230
1.0
 70
     8
 71
     3
 72
    50
 73
    46
 74
     0
 42
0.0000000001
 43
0.0000000001
 40
0.0
 40
0.0
 40
0.0
 40
0.0
 40
1.0
 40
1.0
 40
1.0
 40
2.0
 40
2.0
 40
2.0
 40
3.0
 40
3.0
 40
3.0
 40
4.0
 40
4.0
 40
4.0
 40
5.0
 40
5.0
 40
5.0
 40
6.0
 40
6.0
 40
6.0
 40
7.0
 40
7.0
 40
7.0
 40
8.0
 40
8.0
 40
8.0
 40
9.0
 40
9.0
 40
9.0
 40
10.0
 40
10.0
 40
10.0
 40
11.0
 40
11.0
 40
11.0
 40
12.0
 40
12.0
 40
12.0
 40
13.0
 40
13.0
 40
13.0
 40
14.0
 40
14.0
 40
14.0
 40
15.0
 40
15.0
 40
15.0
 40
15.0
 10
62.17428570367019
 20
-3.52691116187888
 30
0.0
 10
62.18603875778707
 20
-3.575485401133884
 30
0.0
 10
62.19761032727149
 20
-3.623974476881484
 30
0.0
 10
62.20900207882635
 20
-3.67237544623342
 30
0.0
 10
62.26229063653818
 20
-3.898786445121155
 30
0.0
 10
62.31164441914299
 20
-4.123269500262406
 30
0.0
 10
62.35733943432458
 20
-4.345910903988232
 30
0.0
 10
62.40303444950616
 20
-4.568552307714122
 30
0.0
 10
62.4450706972644
 20
-4.789352060024675
 30
0.0
 10
62.4836835406583
 20
-5.008292115427391
 30
0.0
 10
62.52229638405221
 20
-5.22723217083012
 30
0.0
 10
62.55748582308172
 20
-5.444312529325025
 30
0.0
 10
62.58948559901869
 20
-5.659542334257214
 30
0.0
 10
62.62148537495568
 20
-5.874772139189417
 30
0.0
 10
62.65029548780017
 20
-6.088151390558942
 30
0.0
 10
62.67614081544153
 20
-6.299681496601351
 30
0.0
 10
62.72783147072434
 20
-6.722741708686296
 30
0.0
 10
62.76766298519497
 20
-7.138405339463083
 30
0.0
 10
62.79732791793144
 20
-7.546688672169655
 30
0.0
 10
62.82699285066787
 20
-7.954972004876266
 30
0.0
 10
62.84649120167017
 20
-8.355875039512561
 30
0.0
 10
62.85738741394523
 20
-8.749406111919357
 30
0.0
 10
62.86828362622029
 20
-9.142937184326115
 30
0.0
 10
62.87057769976819
 20
-9.529096294503307
 30
0.0
 10
62.86572494274252
 20
-9.907890664484233
 30
0.0
 10
62.8608721857168
 20
-10.28668503446507
 30
0.0
 10
62.84887259811754
 20
-10.65811466424967
 30
0.0
 10
62.83106997682892
 20
-11.02219256903189
 30
0.0
 10
62.81326735554035
 20
-11.38627047381414
 30
0.0
 10
62.78966170056242
 20
-11.74299665359391
 30
0.0
 10
62.76152286251544
 20
-12.09238953279345
 30
0.0
 10
62.70524518642151
 20
-12.79117529119263
 30
0.0
 10
62.6308347780515
 20
-13.46062784727078
 30
0.0
 10
62.54721257517414
 20
-14.10111935494291
 30
0.0
 10
62.46359037229674
 20
-14.74161086261512
 30
0.0
 10
62.37075637491205
 20
-15.35314132188128
 30
0.0
 10
62.27617891515501
 20
-15.93647815975718
 30
0.0
 10
62.18160145539801
 20
-16.51981499763303
 30
0.0
 10
62.08528053326873
 20
-17.07495821411847
 30
0.0
 10
61.99340288872928
 20
-17.60318649302918
 30
0.0
 10
61.96756125377345
 20
-17.75175671841302
 30
0.0
 10
61.94207111751127
 20
-17.89819775758066
 30
0.0
 10
61.91704701072876
 20
-18.04255048850095
 30
0.0
 10
61.89480426184882
 20
-18.17085882621309
 30
0.0
 10
61.87292970394294
 20
-18.2975172763506
 30
0.0
 10
61.85150263900712
 20
-18.42255581912355
 30
0.0
  0
LINE
  5
2FC
330
2D1
100
AcDbEntity
  8
Layer 1
 62
    18
420
    65793
370
    70
100
AcDbLine
 10
61.85150263902833
 20
-18.42255581908167
 30
0.0
 11
59.6233563402634
 21
-31.42499768928183
 31
0.0
  0
SPLINE
  5
2FD
330
2D1
100
AcDbEntity
  8
Layer 1
 62
    18
420
    65793
370
    70
100
AcDbSpline
210
0.0
220
0.0
230
1.0
 70
     8
 71
     3
 72
    11
 73
     7
 74
     0
 42
0.0000000001
 43
0.0000000001
 40
0.0
 40
0.0
 40
0.0
 40
0.0
 40
1.0
 40
1.0
 40
1.0
 40
2.0
 40
2.0
 40
2.0
 40
2.0
 10
57.86956899341874
 20
-32.64615830264294
 30
0.0
 10
58.68392011235133
 20
-32.79822327595515
 30
0.0
 10
59.4673551477013
 20
-32.26133427537912
 30
0.0
 10
59.61942012101351
 20
-31.44698315644647
 30
0.0
 10
59.62078673741183
 20
-31.43966453751108
 30
0.0
 10
59.6220988468701
 20
-31.43233584537026
 30
0.0
 10
59.62335634029634
 20
-31.42499768934944
 30
0.0
  0
SPLINE
  5
2FE
330
2D1
100
AcDbEntity
  8
Layer 1
 62
    18
420
    65793
370
    70
100
AcDbSpline
210
0.0
220
0.0
230
1.0
 70
     8
 71
     3
 72
     8
 73
     4
 74
     0
 42
0.0000000001
 43
0.0000000001
 40
0.0
 40
0.0
 40
0.0
 40
0.0
 40
1.0
 40
1.0
 40
1.0
 40
1.0
 10
57.41934578008749
 20
-32.56082503300066
 30
0.0
 10
57.5694271146311
 20
-32.58969156083051
 30
0.0
 10
57.71950151907336
 20
-32.61813598402929
 30
0.0
 10
57.86956899341419
 20
-32.64615830259691
 30
0.0
  0
SPLINE
  5
2FF
330
2D1
100
AcDbEntity
  8
Layer 1
 62
    18
420
    65793
370
    70
100
AcDbSpline
210
0.0
220
0.0
230
1.0
 70
     8
 71
     3
 72
    14
 73
    10
 74
     0
 42
0.0000000001
 43
0.0000000001
 40
0.0
 40
0.0
 40
0.0
 40
0.0
 40
1.0
 40
1.0
 40
1.0
 40
2.0
 40
2.0
 40
2.0
 40
3.0
 40
3.0
 40
3.0
 40
3.0
 10
48.77428824881492
 20
-30.43197952398534
 30
0.0
 10
49.54147542474085
 20
-30.66220687551931
 30
0.0
 10
50.3083498889093
 20
-30.88135484868116
 30
0.0
 10
51.07491164132018
 20
-31.08942344347075
 30
0.0
 10
53.15082015168091
 20
-31.6528892899
 30
0.0
 10
55.22477826487122
 20
-32.1354676236353
 30
0.0
 10
57.29678598089114
 20
-32.53715844467668
 30
0.0
 10
57.33763976077625
 20
-32.54507858332183
 30
0.0
 10
57.37849302717505
 20
-32.5529674460965
 30
0.0
 10
57.41934578008749
 20
-32.56082503300066
 30
0.0
  0
SPLINE
  5
300
330
2D1
100
AcDbEntity
  8
Layer 1
 62
    18
420
    65793
370
    70
100
AcDbSpline
210
0.0
220
0.0
230
1.0
 70
     8
 71
     3
 72
     8
 73
     4
 74
     0
 42
0.0000000001
 43
0.0000000001
 40
0.0
 40
0.0
 40
0.0
 40
0.0
 40
1.0
 40
1.0
 40
1.0
 40
1.0
 10
48.7742882487745
 20
-30.43197952395937
 30
0.0
 10
47.47896659090152
 20
-30.04326281435465
 30
0.0
 10
46.10936363615513
 20
-30.75508923358335
 30
0.0
 10
45.68312821126392
 20
-32.03855416892381
 30
0.0
  0
LINE
  5
301
330
2D1
100
AcDbEntity
  8
Layer 1
 62
    18
420
    65793
370
    70
100
AcDbLine
 10
45.68312821127356
 20
-32.0385541689853
 30
0.0
 11
45.62699590000394
 21
-32.20757778619537
 31
0.0
  0
SPLINE
  5
302
330
2D1
100
AcDbEntity
  8
Layer 1
 62
    18
420
    65793
370
    70
100
AcDbSpline
210
0.0
220
0.0
230
1.0
 70
     8
 71
     3
 72
    11
 73
     7
 74
     0
 42
0.0000000001
 43
0.0000000001
 40
0.0
 40
0.0
 40
0.0
 40
0.0
 40
1.0
 40
1.0
 40
1.0
 40
2.0
 40
2.0
 40
2.0
 40
2.0
 10
45.626995899942
 20
-32.2075777862231
 30
0.0
 10
45.53996356668415
 20
-32.46964644934711
 30
0.0
 10
45.68185854792114
 20
-32.75264872304254
 30
0.0
 10
45.94392721104518
 20
-32.8396810563004
 30
0.0
 10
45.94519342852819
 20
-32.84010156389046
 30
0.0
 10
45.94646132408402
 20
-32.84051700157198
 30
0.0
 10
45.94773086724303
 20
-32.84092735936123
 30
0.0
  0
SPLINE
  5
303
330
2D1
100
AcDbEntity
  8
Layer 1
 62
    18
420
    65793
370
    70
100
AcDbSpline
210
0.0
220
0.0
230
1.0
 70
     8
 71
     3
 72
     8
 73
     4
 74
     0
 42
0.0000000001
 43
0.0000000001
 40
0.0
 40
0.0
 40
0.0
 40
0.0
 40
1.0
 40
1.0
 40
1.0
 40
1.0
 10
45.94773086728299
 20
-32.84092735935446
 30
0.0
 10
46.30803453044882
 20
-32.95738926428094
 30
0.0
 10
46.6683381936142
 20
-33.07150854064353
 30
0.0
 10
47.02864185677921
 20
-33.18328518844214
 30
0.0
  0
SPLINE
  5
304
330
2D1
100
AcDbEntity
  8
Layer 1
 62
    18
420
    65793
370
    70
100
AcDbSpline
210
0.0
220
0.0
230
1.0
 70
     8
 71
     3
 72
     8
 73
     4
 74
     0
 42
0.0000000001
 43
0.0000000001
 40
0.0
 40
0.0
 40
0.0
 40
0.0
 40
1.0
 40
1.0
 40
1.0
 40
1.0
 10
47.02864185677916
 20
-33.18328518844371
 30
0.0
 10
50.29442705541878
 20
-34.19642648911145
 30
0.0
 10
53.5602122540239
 20
-35.01710742172158
 30
0.0
 10
56.82599745259438
 20
-35.6453279862742
 30
0.0
  0
LINE
  5
305
330
2D1
100
AcDbEntity
  8
Layer 1
 62
    18
420
    65793
370
    70
100
AcDbLine
 10
78.44319130133023
 20
-18.433285182802
 30
0.0
 11
65.65092456633024
 21
-18.43328518509938
 31
0.0
  0
SPLINE
  5
306
330
2D1
100
AcDbEntity
  8
Layer 1
 62
    18
420
    65793
370
    70
100
AcDbSpline
210
0.0
220
0.0
230
1.0
 70
     8
 71
     3
 72
     8
 73
     4
 74
     0
 42
0.0000000001
 43
0.0000000001
 40
0.0
 40
0.0
 40
0.0
 40
0.0
 40
1.0
 40
1.0
 40
1.0
 40
1.0
 10
79.92164071538404
 20
-19.67993299536218
 30
0.0
 10
79.79822952902549
 20
-18.95976081934902
 30
0.0
 10
79.17386105164283
 20
-18.43328518267083
 30
0.0
 10
78.44319130133023
 20
-18.433285182802
 30
0.0
  0
LINE
  5
307
330
2D1
100
AcDbEntity
  8
Layer 1
 62
    18
420
    65793
370
    70
100
AcDbLine
 10
79.92164071535419
 20
-19.67993299533657
 30
0.0
 11
80.37159310042566
 21
-22.30565273635568
 31
0.0
  0
SPLINE
  5
308
330
2D1
100
AcDbEntity
  8
Layer 1
 62
    18
420
    65793
370
    70
100
AcDbSpline
210
0.0
220
0.0
230
1.0
 70
     8
 71
     3
 72
    11
 73
     7
 74
     0
 42
0.0000000001
 43
0.0000000001
 40
0.0
 40
0.0
 40
0.0
 40
0.0
 40
1.0
 40
1.0
 40
1.0
 40
2.0
 40
2.0
 40
2.0
 40
2.0
 10
78.89314368694051
 20
-24.05900492372123
 30
0.0
 10
79.72157081168673
 20
-24.05900492357248
 30
0.0
 10
80.3931436868199
 20
-23.38743204819802
 30
0.0
 10
80.39314368667115
 20
-22.55900492345185
 30
0.0
 10
80.39314368665591
 20
-22.47409646278499
 30
0.0
 10
80.38593426328366
 20
-22.38934131221354
 30
0.0
 10
80.37159310045558
 20
-22.30565273628136
 30
0.0
  0
LINE
  5
309
330
2D1
100
AcDbEntity
  8
Layer 1
 62
    18
420
    65793
370
    70
100
AcDbLine
 10
76.31192887804056
 20
-24.05900492418482
 30
0.0
 11
78.89314368694051
 21
-24.05900492372123
 31
0.0
  0
LINE
  5
30A
330
2D1
100
AcDbEntity
  8
Layer 1
 62
    18
420
    65793
370
    70
100
AcDbLine
 10
76.31192887804056
 20
-24.05900492418482
 30
0.0
 11
76.31192887790895
 21
-23.32640492418478
 31
0.0
  0
LINE
  5
30B
330
2D1
100
AcDbEntity
  8
Layer 1
 62
    18
420
    65793
370
    70
100
AcDbLine
 10
76.31192887790895
 20
-23.32640492418478
 30
0.0
 11
74.84672887790897
 21
-23.32640492444793
 31
0.0
  0
LINE
  5
30C
330
2D1
100
AcDbEntity
  8
Layer 1
 62
    18
420
    65793
370
    70
100
AcDbLine
 10
74.84672887790897
 20
-23.32640492444793
 30
0.0
 11
74.84672887804056
 21
-24.05900492444797
 31
0.0
  0
LINE
  5
30D
330
2D1
100
AcDbEntity
  8
Layer 1
 62
    18
420
    65793
370
    70
100
AcDbLine
 10
72.81192887804056
 20
-24.05900492481338
 30
0.0
 11
74.84672887804056
 21
-24.05900492444797
 31
0.0
  0
LINE
  5
30E
330
2D1
100
AcDbEntity
  8
Layer 1
 62
    18
420
    65793
370
    70
100
AcDbLine
 10
72.81192887804056
 20
-24.05900492481338
 30
0.0
 11
72.81192887790895
 21
-23.32640492481335
 31
0.0
  0
LINE
  5
30F
330
2D1
100
AcDbEntity
  8
Layer 1
 62
    18
420
    65793
370
    70
100
AcDbLine
 10
72.81192887790895
 20
-23.32640492481335
 30
0.0
 11
71.34672887790902
 21
-23.32640492507649
 31
0.0
  0
LINE
  5
310
330
2D1
100
AcDbEntity
  8
Layer 1
 62
    18
420
    65793
370
    70
100
AcDbLine
 10
71.34672887790902
 20
-23.32640492507649
 30
0.0
 11
71.34672887804057
 21
-24.05900492507648
 31
0.0
  0
LINE
  5
311
330
2D1
100
AcDbEntity
  8
Layer 1
 62
    18
420
    65793
370
    70
100
AcDbLine
 10
69.31192887804056
 20
-24.05900492544195
 30
0.0
 11
71.34672887804057
 21
-24.05900492507648
 31
0.0
  0
LINE
  5
312
330
2D1
100
AcDbEntity
  8
Layer 1
 62
    18
420
    65793
370
    70
100
AcDbLine
 10
69.31192887804056
 20
-24.05900492544195
 30
0.0
 11
69.31192887790901
 21
-23.32640492544191
 31
0.0
  0
LINE
  5
313
330
2D1
100
AcDbEntity
  8
Layer 1
 62
    18
420
    65793
370
    70
100
AcDbLine
 10
69.31192887790901
 20
-23.32640492544191
 30
0.0
 11
67.84672887790901
 21
-23.32640492570505
 31
0.0
  0
LINE
  5
314
330
2D1
100
AcDbEntity
  8
Layer 1
 62
    18
420
    65793
370
    70
100
AcDbLine
 10
67.84672887790901
 20
-23.32640492570505
 30
0.0
 11
67.84672887804056
 21
-24.05900492570504
 31
0.0
  0
LINE
  5
315
330
2D1
100
AcDbEntity
  8
Layer 1
 62
    18
420
    65793
370
    70
100
AcDbLine
 10
65.20097156714054
 20
-24.05900492618015
 30
0.0
 11
67.84672887804056
 21
-24.05900492570504
 31
0.0
  0
SPLINE
  5
316
330
2D1
100
AcDbEntity
  8
Layer 1
 62
    18
420
    65793
370
    70
100
AcDbSpline
210
0.0
220
0.0
230
1.0
 70
     8
 71
     3
 72
    11
 73
     7
 74
     0
 42
0.0000000001
 43
0.0000000001
 40
0.0
 40
0.0
 40
0.0
 40
0.0
 40
1.0
 40
1.0
 40
1.0
 40
2.0
 40
2.0
 40
2.0
 40
2.0
 10
63.72252221069276
 20
-22.30565240257805
 30
0.0
 10
63.58259947557619
 20
-23.1221774353925
 30
0.0
 10
64.13109401045456
 20
-23.89753154724199
 30
0.0
 10
64.94761904326908
 20
-24.03745428235862
 30
0.0
 10
65.03130772837383
 20
-24.05179548348236
 30
0.0
 10
65.11606299240146
 20
-24.05900492619541
 30
0.0
 10
65.20097156714054
 20
-24.05900492618015
 30
0.0
  0
LINE
  5
317
330
2D1
100
AcDbEntity
  8
Layer 1
 62
    18
420
    65793
370
    70
100
AcDbLine
 10
64.17247521035418
 20
-19.67993266146485
 30
0.0
 11
63.7225222107257
 21
-22.30565240264565
 31
0.0
  0
SPLINE
  5
318
330
2D1
100
AcDbEntity
  8
Layer 1
 62
    18
420
    65793
370
    70
100
AcDbSpline
210
0.0
220
0.0
230
1.0
 70
     8
 71
     3
 72
     8
 73
     4
 74
     0
 42
0.0000000001
 43
0.0000000001
 40
0.0
 40
0.0
 40
0.0
 40
0.0
 40
1.0
 40
1.0
 40
1.0
 40
1.0
 10
65.65092456633024
 20
-18.43328518509938
 30
0.0
 10
64.92025494508244
 20
-18.43328518523058
 30
0.0
 10
64.29588653872956
 20
-18.95976064075528
 30
0.0
 10
64.17247521042122
 20
-19.67993266149724
 30
0.0
  0
LINE
  5
319
330
2D1
100
AcDbEntity
  8
Layer 1
 62
    18
420
    65793
370
    70
100
AcDbLine
 10
71.20432888001525
 20
-35.05492105820205
 30
0.0
 11
72.95432888001525
 21
-35.05492105788777
 31
0.0
  0
LINE
  5
31A
330
2D1
100
AcDbEntity
  8
Layer 1
 62
    18
420
    65793
370
    70
100
AcDbLine
 10
71.20432888001525
 20
-35.05492105820205
 30
0.0
 11
71.20432887988059
 21
-34.30492105820205
 31
0.0
  0
LINE
  5
31B
330
2D1
100
AcDbEntity
  8
Layer 1
 62
    18
420
    65793
370
    70
100
AcDbLine
 10
71.20432887988059
 20
-34.30492105820205
 30
0.0
 11
72.95432887988059
 21
-34.30492105788777
 31
0.0
  0
LINE
  5
31C
330
2D1
100
AcDbEntity
  8
Layer 1
 62
    18
420
    65793
370
    70
100
AcDbLine
 10
72.95432888001525
 20
-35.05492105788777
 30
0.0
 11
72.95432887988059
 21
-34.30492105788777
 31
0.0
  0
LINE
  5
31D
330
2D1
100
AcDbEntity
  8
Layer 1
 62
    18
420
    65793
370
    70
100
AcDbLine
 10
80.37915459789614
 20
-34.94853291955438
 30
0.0
 11
80.08858421687202
 21
-34.25710768590653
 31
0.0
  0
LINE
  5
31E
330
2D1
100
AcDbEntity
  8
Layer 1
 62
    18
420
    65793
370
    70
100
AcDbLine
 10
80.08858421687202
 20
-34.25710768590653
 30
0.0
 11
81.70190976195023
 21
-33.57911013011681
 31
0.0
  0
LINE
  5
31F
330
2D1
100
AcDbEntity
  8
Layer 1
 62
    18
420
    65793
370
    70
100
AcDbLine
 10
81.9924801429744
 20
-34.27053536376467
 30
0.0
 11
81.70190976195023
 21
-33.57911013011681
 31
0.0
  0
LINE
  5
320
330
2D1
100
AcDbEntity
  8
Layer 1
 62
    18
420
    65793
370
    70
100
AcDbLine
 10
80.37915459789614
 20
-34.94853291955438
 30
0.0
 11
81.9924801429744
 21
-34.27053536376467
 31
0.0
  0
LINE
  5
321
330
2D1
100
AcDbEntity
  8
Layer 1
 62
    18
420
    65793
370
    70
100
AcDbLine
 10
63.77950316209616
 20
-34.94853292253545
 30
0.0
 11
64.07007354287205
 21
-34.25710768878326
 31
0.0
  0
LINE
  5
322
330
2D1
100
AcDbEntity
  8
Layer 1
 62
    18
420
    65793
370
    70
100
AcDbLine
 10
63.77950316209616
 20
-34.94853292253545
 30
0.0
 11
62.16617761677442
 21
-34.27053536732519
 31
0.0
  0
LINE
  5
323
330
2D1
100
AcDbEntity
  8
Layer 1
 62
    18
420
    65793
370
    70
100
AcDbLine
 10
62.16617761677442
 20
-34.27053536732519
 30
0.0
 11
62.45674799755023
 21
-33.57911013357294
 31
0.0
  0
LINE
  5
324
330
2D1
100
AcDbEntity
  8
Layer 1
 62
    18
420
    65793
370
    70
100
AcDbLine
 10
64.07007354287205
 20
-34.25710768878326
 30
0.0
 11
62.45674799755023
 21
-33.57911013357294
 31
0.0
  0
SPLINE
  5
325
330
2D1
100
AcDbEntity
  8
Layer 1
 62
    18
420
    65793
370
    70
100
AcDbSpline
210
0.0
220
0.0
230
1.0
 70
     8
 71
     3
 72
     8
 73
     4
 74
     0
 42
0.0000000001
 43
0.0000000001
 40
0.0
 40
0.0
 40
0.0
 40
0.0
 40
1.0
 40
1.0
 40
1.0
 40
1.0
 10
74.79473295688634
 20
-32.77846021630373
 30
0.0
 10
76.68503017894322
 20
-32.73517892482376
 30
0.0
 10
78.57658628680484
 20
-32.62555362833556
 30
0.0
 10
80.47044472221836
 20
-32.45025191563327
 30
0.0
  0
SPLINE
  5
326
330
2D1
100
AcDbEntity
  8
Layer 1
 62
    18
420
    65793
370
    70
100
AcDbSpline
210
0.0
220
0.0
230
1.0
 70
     8
 71
     3
 72
    11
 73
     7
 74
     0
 42
0.0000000001
 43
0.0000000001
 40
0.0
 40
0.0
 40
0.0
 40
0.0
 40
1.0
 40
1.0
 40
1.0
 40
2.0
 40
2.0
 40
2.0
 40
2.0
 10
73.26039712583709
 20
-31.27885325113278
 30
0.0
 10
73.26039712598594
 20
-32.107280375879
 30
0.0
 10
73.93197000136034
 20
-32.77885325101217
 30
0.0
 10
74.76039712610655
 20
-32.77885325086342
 30
0.0
 10
74.77184352777546
 20
-32.77885325086135
 30
0.0
 10
74.78328955450489
 20
-32.7787222307483
 30
0.0
 10
74.79473295695257
 20
-32.77846021627185
 30
0.0
  0
LINE
  5
327
330
2D1
100
AcDbEntity
  8
Layer 1
 62
    18
420
    65793
370
    70
100
AcDbLine
 10
73.26039712583709
 20
-31.27885325113278
 30
0.0
 11
73.26039712536648
 21
-28.65795522473281
 31
0.0
  0
SPLINE
  5
328
330
2D1
100
AcDbEntity
  8
Layer 1
 62
    18
420
    65793
370
    70
100
AcDbSpline
210
0.0
220
0.0
230
1.0
 70
     8
 71
     3
 72
     8
 73
     4
 74
     0
 42
0.0000000001
 43
0.0000000001
 40
0.0
 40
0.0
 40
0.0
 40
0.0
 40
1.0
 40
1.0
 40
1.0
 40
1.0
 10
74.7213296270928
 20
-27.15846406724422
 30
0.0
 10
73.90839606618076
 20
-27.1796441057757
 30
0.0
 10
73.26039712522045
 20
-27.84474579999063
 30
0.0
 10
73.26039712536648
 20
-28.65795522473281
 30
0.0
  0
SPLINE
  5
329
330
2D1
100
AcDbEntity
  8
Layer 1
 62
    18
420
    65793
370
    70
100
AcDbSpline
210
0.0
220
0.0
230
1.0
 70
     8
 71
     3
 72
     8
 73
     4
 74
     0
 42
0.0000000001
 43
0.0000000001
 40
0.0
 40
0.0
 40
0.0
 40
0.0
 40
1.0
 40
1.0
 40
1.0
 40
1.0
 10
74.72132952739722
 20
-27.15846024240341
 30
0.0
 10
76.39505216587197
 20
-27.11484324794798
 30
0.0
 10
78.06923086658449
 20
-27.01375919696266
 30
0.0
 10
79.74386562953466
 20
-26.85520808944736
 30
0.0
  0
SPLINE
  5
32A
330
2D1
100
AcDbEntity
  8
Layer 1
 62
    18
420
    65793
370
    70
100
AcDbSpline
210
0.0
220
0.0
230
1.0
 70
     8
 71
     3
 72
     8
 73
     4
 74
     0
 42
0.0000000001
 43
0.0000000001
 40
0.0
 40
0.0
 40
0.0
 40
0.0
 40
1.0
 40
1.0
 40
1.0
 40
1.0
 10
81.36370643989529
 20
-28.09517995480319
 30
0.0
 10
81.23117868324257
 20
-27.32180757498147
 30
0.0
 10
80.52501771427285
 20
-26.78124955571404
 30
0.0
 10
79.74386588889304
 20
-26.85521082842072
 30
0.0
  0
LINE
  5
32B
330
2D1
100
AcDbEntity
  8
Layer 1
 62
    18
420
    65793
370
    70
100
AcDbLine
 10
81.36370643986543
 20
-28.09517995477753
 30
0.0
 11
81.81064025783385
 21
-30.70328469569725
 31
0.0
  0
SPLINE
  5
32C
330
2D1
100
AcDbEntity
  8
Layer 1
 62
    18
420
    65793
370
    70
100
AcDbSpline
210
0.0
220
0.0
230
1.0
 70
     8
 71
     3
 72
    11
 73
     7
 74
     0
 42
0.0000000001
 43
0.0000000001
 40
0.0
 40
0.0
 40
0.0
 40
0.0
 40
1.0
 40
1.0
 40
1.0
 40
2.0
 40
2.0
 40
2.0
 40
2.0
 10
80.47044472219932
 20
-32.45025191562094
 30
0.0
 10
81.29534552674391
 20
-32.37389640713028
 30
0.0
 10
81.90216138502803
 20
-31.64328380958743
 30
0.0
 10
81.82580587653738
 20
-30.81838300504279
 30
0.0
 10
81.8222378009792
 20
-30.77983557792395
 30
0.0
 10
81.81717880679929
 20
-30.74144072641914
 30
0.0
 10
81.81064025786376
 20
-30.70328469572292
 30
0.0
  0
LINE
  5
32D
330
2D1
100
AcDbEntity
  8
Layer 1
 62
    18
420
    65793
370
    70
100
AcDbLine
 10
62.75753769053699
 20
-27.93686034281899
 30
0.0
 11
62.31617822219948
 21
-30.51243216879829
 31
0.0
  0
SPLINE
  5
32E
330
2D1
100
AcDbEntity
  8
Layer 1
 62
    18
420
    65793
370
    70
100
AcDbSpline
210
0.0
220
0.0
230
1.0
 70
     8
 71
     3
 72
     8
 73
     4
 74
     0
 42
0.0000000001
 43
0.0000000001
 40
0.0
 40
0.0
 40
0.0
 40
0.0
 40
1.0
 40
1.0
 40
1.0
 40
1.0
 10
64.40719635492104
 20
-26.70001577453162
 30
0.0
 10
63.61619949013687
 20
-26.60913784518069
 30
0.0
 10
62.89201725226181
 20
-27.15209917815792
 30
0.0
 10
62.75753769050404
 20
-27.93686034285138
 30
0.0
  0
SPLINE
  5
32F
330
2D1
100
AcDbEntity
  8
Layer 1
 62
    18
420
    65793
370
    70
100
AcDbSpline
210
0.0
220
0.0
230
1.0
 70
     8
 71
     3
 72
     8
 73
     4
 74
     0
 42
0.0000000001
 43
0.0000000001
 40
0.0
 40
0.0
 40
0.0
 40
0.0
 40
1.0
 40
1.0
 40
1.0
 40
1.0
 10
64.40719662370955
 20
-26.70001343510222
 30
0.0
 10
66.04930494480939
 20
-26.88867016324106
 30
0.0
 10
67.69083139904735
 20
-27.02209119363556
 30
0.0
 10
69.33177598642351
 20
-27.10027652628577
 30
0.0
  0
SPLINE
  5
330
330
2D1
100
AcDbEntity
  8
Layer 1
 62
    18
420
    65793
370
    70
100
AcDbSpline
210
0.0
220
0.0
230
1.0
 70
     8
 71
     3
 72
     8
 73
     4
 74
     0
 42
0.0000000001
 43
0.0000000001
 40
0.0
 40
0.0
 40
0.0
 40
0.0
 40
1.0
 40
1.0
 40
1.0
 40
1.0
 10
70.76039712535581
 20
-28.59858195278177
 30
0.0
 10
70.76039712521197
 20
-27.79790496584289
 30
0.0
 10
70.13154570778891
 20
-27.13838204045757
 30
0.0
 10
69.33177576286334
 20
-27.10028121885006
 30
0.0
  0
LINE
  5
331
330
2D1
100
AcDbEntity
  8
Layer 1
 62
    18
420
    65793
370
    70
100
AcDbLine
 10
70.76039712582536
 20
-31.2132567588818
 30
0.0
 11
70.76039712535581
 21
-28.59858195278177
 31
0.0
  0
SPLINE
  5
332
330
2D1
100
AcDbEntity
  8
Layer 1
 62
    18
420
    65793
370
    70
100
AcDbSpline
210
0.0
220
0.0
230
1.0
 70
     8
 71
     3
 72
    11
 73
     7
 74
     0
 42
0.0000000001
 43
0.0000000001
 40
0.0
 40
0.0
 40
0.0
 40
0.0
 40
1.0
 40
1.0
 40
1.0
 40
2.0
 40
2.0
 40
2.0
 40
2.0
 10
69.19013623776622
 20
-32.71161032477208
 30
0.0
 10
70.01765406191326
 20
-32.7504143417568
 30
0.0
 10
70.71994667446169
 20
-32.11103547135742
 30
0.0
 10
70.7587506914464
 20
-31.2835176472103
 30
0.0
 10
70.75984816373157
 20
-31.26011342393447
 30
0.0
 10
70.76039712582951
 20
-31.23668669939735
 30
0.0
 10
70.76039712582536
 20
-31.2132567588818
 30
0.0
  0
SPLINE
  5
333
330
2D1
100
AcDbEntity
  8
Layer 1
 62
    18
420
    65793
370
    70
100
AcDbSpline
210
0.0
220
0.0
230
1.0
 70
     8
 71
     3
 72
     8
 73
     4
 74
     0
 42
0.0000000001
 43
0.0000000001
 40
0.0
 40
0.0
 40
0.0
 40
0.0
 40
1.0
 40
1.0
 40
1.0
 40
1.0
 10
63.62041826486387
 20
-32.25563405225135
 30
0.0
 10
65.47743196921439
 20
-32.472776195086
 30
0.0
 10
67.33367438820287
 20
-32.62455700088289
 30
0.0
 10
69.19013623778564
 20
-32.71161032473929
 30
0.0
  0
SPLINE
  5
334
330
2D1
100
AcDbEntity
  8
Layer 1
 62
    18
420
    65793
370
    70
100
AcDbSpline
210
0.0
220
0.0
230
1.0
 70
     8
 71
     3
 72
    11
 73
     7
 74
     0
 42
0.0000000001
 43
0.0000000001
 40
0.0
 40
0.0
 40
0.0
 40
0.0
 40
1.0
 40
1.0
 40
1.0
 40
2.0
 40
2.0
 40
2.0
 40
2.0
 10
62.31617822216655
 20
-30.51243216883068
 30
0.0
 10
62.17625548705001
 20
-31.32895720164512
 30
0.0
 10
62.72475002192837
 20
-32.10431131349461
 30
0.0
 10
63.54127505474292
 20
-32.24423404861119
 30
0.0
 10
63.56755013710231
 20
-32.24873664343848
 30
0.0
 10
63.5939405810506
 20
-32.25253799491103
 30
0.0
 10
63.62041826489555
 20
-32.2556340523035
 30
0.0
  0
ENDBLK
  5
2D4
330
2D1
100
AcDbEntity
  8
0
100
AcDbBlockEnd
  0
BLOCK
  5
337
330
335
100
AcDbEntity
  8
0
100
AcDbBlockBegin
  2
Block_29
 70
     0
 10
0.0
 20
0.0
 30
0.0
  3
Block_29
  1

  0
LINE
  5
339
330
335
100
AcDbEntity
  8
Layer 1
 62
    18
420
    65793
370
    70
100
AcDbLine
 10
53.69000178810718
 20
-42.37458180277459
 30
0.0
 11
52.95740178810718
 21
-42.37458180270881
 31
0.0
  0
LINE
  5
33A
330
335
100
AcDbEntity
  8
Layer 1
 62
    18
420
    65793
370
    70
100
AcDbLine
 10
53.69000178806229
 20
-42.8745818027746
 30
0.0
 11
53.69000178810718
 21
-42.37458180277459
 31
0.0
  0
LINE
  5
33B
330
335
100
AcDbEntity
  8
Layer 1
 62
    18
420
    65793
370
    70
100
AcDbLine
 10
53.69000178806229
 20
-42.8745818027746
 30
0.0
 11
54.86768834736229
 21
-42.87458180288033
 31
0.0
  0
SPLINE
  5
33C
330
335
100
AcDbEntity
  8
Layer 1
 62
    18
420
    65793
370
    70
100
AcDbSpline
210
0.0
220
0.0
230
1.0
 70
     8
 71
     3
 72
     8
 73
     4
 74
     0
 42
0.0000000001
 43
0.0000000001
 40
0.0
 40
0.0
 40
0.0
 40
0.0
 40
1.0
 40
1.0
 40
1.0
 40
1.0
 10
55.04356706426865
 20
-42.89600711483507
 30
0.0
 10
54.98602352363748
 20
-42.8817761751428
 30
0.0
 10
54.92696548218588
 20
-42.87458180288566
 30
0.0
 10
54.86768834736229
 20
-42.87458180288033
 30
0.0
  0
SPLINE
  5
33D
330
335
100
AcDbEntity
  8
Layer 1
 62
    18
420
    65793
370
    70
100
AcDbSpline
210
0.0
220
0.0
230
1.0
 70
     8
 71
     3
 72
     8
 73
     4
 74
     0
 42
0.0000000001
 43
0.0000000001
 40
0.0
 40
0.0
 40
0.0
 40
0.0
 40
1.0
 40
1.0
 40
1.0
 40
1.0
 10
55.04356706424285
 20
-42.89600711483518
 30
0.0
 10
60.31945688000402
 20
-44.20077336605686
 30
0.0
 10
65.59534669588237
 20
-44.20077336653055
 30
0.0
 10
70.87123651187787
 20
-42.89600711625641
 30
0.0
  0
SPLINE
  5
33E
330
335
100
AcDbEntity
  8
Layer 1
 62
    18
420
    65793
370
    70
100
AcDbSpline
210
0.0
220
0.0
230
1.0
 70
     8
 71
     3
 72
     8
 73
     4
 74
     0
 42
0.0000000001
 43
0.0000000001
 40
0.0
 40
0.0
 40
0.0
 40
0.0
 40
1.0
 40
1.0
 40
1.0
 40
1.0
 10
71.04711522876229
 20
-42.87458180433311
 30
0.0
 10
70.98783809393871
 20
-42.87458180432781
 30
0.0
 10
70.92878005248579
 20
-42.88177617657439
 30
0.0
 10
70.87123651185208
 20
-42.89600711625631
 30
0.0
  0
LINE
  5
33F
330
335
100
AcDbEntity
  8
Layer 1
 62
    18
420
    65793
370
    70
100
AcDbLine
 10
71.04711522876229
 20
-42.87458180433311
 30
0.0
 11
72.22480178806226
 21
-42.87458180443887
 31
0.0
  0
LINE
  5
340
330
335
100
AcDbEntity
  8
Layer 1
 62
    18
420
    65793
370
    70
100
AcDbLine
 10
72.22480178806226
 20
-42.87458180443887
 30
0.0
 11
72.22480178810719
 21
-42.37458180443887
 31
0.0
  0
LINE
  5
341
330
335
100
AcDbEntity
  8
Layer 1
 62
    18
420
    65793
370
    70
100
AcDbLine
 10
72.22480178810719
 20
-42.37458180443887
 30
0.0
 11
72.95740178810719
 21
-42.37458180450466
 31
0.0
  0
LINE
  5
342
330
335
100
AcDbEntity
  8
Layer 1
 62
    18
420
    65793
370
    70
100
AcDbLine
 10
72.95740178810719
 20
-42.37458180450466
 30
0.0
 11
72.95740178814162
 21
-41.99088180450464
 31
0.0
  0
LINE
  5
343
330
335
100
AcDbEntity
  8
Layer 1
 62
    18
420
    65793
370
    70
100
AcDbLine
 10
72.95740178814162
 20
-41.99088180450464
 30
0.0
 11
71.82370178814164
 21
-41.99088180440286
 31
0.0
  0
SPLINE
  5
344
330
335
100
AcDbEntity
  8
Layer 1
 62
    18
420
    65793
370
    70
100
AcDbSpline
210
0.0
220
0.0
230
1.0
 70
     8
 71
     3
 72
    11
 73
     7
 74
     0
 42
0.0000000001
 43
0.0000000001
 40
0.0
 40
0.0
 40
0.0
 40
0.0
 40
1.0
 40
1.0
 40
1.0
 40
2.0
 40
2.0
 40
2.0
 40
2.0
 10
71.82370178820741
 20
-41.25828180440286
 30
0.0
 10
71.62139988434439
 20
-41.25828180438472
 30
0.0
 10
71.4574017881927
 20
-41.42227990050696
 30
0.0
 10
71.45740178817451
 20
-41.62458180436998
 30
0.0
 10
71.45740178815637
 20
-41.82688370823299
 30
0.0
 10
71.62139988427862
 20
-41.99088180438469
 30
0.0
 10
71.82370178814164
 20
-41.99088180440286
 30
0.0
  0
LINE
  5
345
330
335
100
AcDbEntity
  8
Layer 1
 62
    18
420
    65793
370
    70
100
AcDbLine
 10
71.82370178820741
 20
-41.25828180440286
 30
0.0
 11
72.9574017882074
 21
-41.25828180450468
 31
0.0
  0
LINE
  5
346
330
335
100
AcDbEntity
  8
Layer 1
 62
    18
420
    65793
370
    70
100
AcDbLine
 10
72.9574017882074
 20
-41.25828180450468
 30
0.0
 11
72.95740178824186
 21
-40.87458180450466
 31
0.0
  0
LINE
  5
347
330
335
100
AcDbEntity
  8
Layer 1
 62
    18
420
    65793
370
    70
100
AcDbLine
 10
72.22480178824186
 20
-40.87458180443888
 30
0.0
 11
72.95740178824186
 21
-40.87458180450466
 31
0.0
  0
LINE
  5
348
330
335
100
AcDbEntity
  8
Layer 1
 62
    18
420
    65793
370
    70
100
AcDbLine
 10
72.22480178824186
 20
-40.87458180443888
 30
0.0
 11
72.22480178828677
 21
-40.37458180443887
 31
0.0
  0
LINE
  5
349
330
335
100
AcDbEntity
  8
Layer 1
 62
    18
420
    65793
370
    70
100
AcDbLine
 10
72.22480178828677
 20
-40.37458180443887
 30
0.0
 11
53.69000178828676
 21
-40.3745818027746
 31
0.0
  0
LINE
  5
34A
330
335
100
AcDbEntity
  8
Layer 1
 62
    18
420
    65793
370
    70
100
AcDbLine
 10
53.69000178824187
 20
-40.8745818027746
 30
0.0
 11
53.69000178828676
 21
-40.3745818027746
 31
0.0
  0
LINE
  5
34B
330
335
100
AcDbEntity
  8
Layer 1
 62
    18
420
    65793
370
    70
100
AcDbLine
 10
53.69000178824187
 20
-40.8745818027746
 30
0.0
 11
52.95740178824186
 21
-40.87458180270881
 31
0.0
  0
LINE
  5
34C
330
335
100
AcDbEntity
  8
Layer 1
 62
    18
420
    65793
370
    70
100
AcDbLine
 10
52.95740178824186
 20
-40.87458180270881
 30
0.0
 11
52.9574017882074
 21
-41.25828180270882
 31
0.0
  0
LINE
  5
34D
330
335
100
AcDbEntity
  8
Layer 1
 62
    18
420
    65793
370
    70
100
AcDbLine
 10
54.09110178820743
 20
-41.25828180281061
 30
0.0
 11
52.9574017882074
 21
-41.25828180270882
 31
0.0
  0
SPLINE
  5
34E
330
335
100
AcDbEntity
  8
Layer 1
 62
    18
420
    65793
370
    70
100
AcDbSpline
210
0.0
220
0.0
230
1.0
 70
     8
 71
     3
 72
    11
 73
     7
 74
     0
 42
0.0000000001
 43
0.0000000001
 40
0.0
 40
0.0
 40
0.0
 40
0.0
 40
1.0
 40
1.0
 40
1.0
 40
2.0
 40
2.0
 40
2.0
 40
2.0
 10
54.09110178814166
 20
-41.99088180281061
 30
0.0
 10
54.29340369200468
 20
-41.99088180282875
 30
0.0
 10
54.45740178815634
 20
-41.82688370670651
 30
0.0
 10
54.45740178817453
 20
-41.62458180284349
 30
0.0
 10
54.45740178819271
 20
-41.42227989898048
 30
0.0
 10
54.29340369207044
 20
-41.25828180282878
 30
0.0
 10
54.09110178820743
 20
-41.25828180281061
 30
0.0
  0
LINE
  5
34F
330
335
100
AcDbEntity
  8
Layer 1
 62
    18
420
    65793
370
    70
100
AcDbLine
 10
52.95740178814164
 20
-41.99088180270879
 30
0.0
 11
54.09110178814166
 21
-41.99088180281061
 31
0.0
  0
LINE
  5
350
330
335
100
AcDbEntity
  8
Layer 1
 62
    18
420
    65793
370
    70
100
AcDbLine
 10
52.95740178814164
 20
-41.99088180270879
 30
0.0
 11
52.95740178810718
 21
-42.37458180270881
 31
0.0
  0
ENDBLK
  5
338
330
335
100
AcDbEntity
  8
0
100
AcDbBlockEnd
  0
ENDSEC
  0
SECTION
  2
ENTITIES
  0
INSERT
  5
7A
330
70
100
AcDbEntity
  8
Layer 1
100
AcDbBlockReference
  2
Block_0
 10
0.0
 20
0.0
 30
0.0
  0
INSERT
  5
DE
330
70
100
AcDbEntity
  8
Layer 1
100
AcDbBlockReference
  2
Block_1
 10
0.0
 20
0.0
 30
0.0
  0
INSERT
  5
FA
330
70
100
AcDbEntity
  8
Layer 1
100
AcDbBlockReference
  2
Block_2
 10
0.0
 20
0.0
 30
0.0
  0
INSERT
  5
116
330
70
100
AcDbEntity
  8
Layer 1
100
AcDbBlockReference
  2
Block_3
 10
0.0
 20
0.0
 30
0.0
  0
INSERT
  5
128
330
70
100
AcDbEntity
  8
Layer 1
100
AcDbBlockReference
  2
Block_4
 10
0.0
 20
0.0
 30
0.0
  0
INSERT
  5
13A
330
70
100
AcDbEntity
  8
Layer 1
100
AcDbBlockReference
  2
Block_5
 10
0.0
 20
0.0
 30
0.0
  0
INSERT
  5
14C
330
70
100
AcDbEntity
  8
Layer 1
100
AcDbBlockReference
  2
Block_6
 10
0.0
 20
0.0
 30
0.0
  0
INSERT
  5
15E
330
70
100
AcDbEntity
  8
Layer 1
100
AcDbBlockReference
  2
Block_7
 10
0.0
 20
0.0
 30
0.0
  0
INSERT
  5
170
330
70
100
AcDbEntity
  8
Layer 1
100
AcDbBlockReference
  2
Block_8
 10
0.0
 20
0.0
 30
0.0
  0
INSERT
  5
182
330
70
100
AcDbEntity
  8
Layer 1
100
AcDbBlockReference
  2
Block_9
 10
0.0
 20
0.0
 30
0.0
  0
INSERT
  5
19E
330
70
100
AcDbEntity
  8
Layer 1
100
AcDbBlockReference
  2
Block_10
 10
0.0
 20
0.0
 30
0.0
  0
INSERT
  5
1CA
330
70
100
AcDbEntity
  8
Layer 1
100
AcDbBlockReference
  2
Block_11
 10
0.0
 20
0.0
 30
0.0
  0
INSERT
  5
1E2
330
70
100
AcDbEntity
  8
Layer 1
100
AcDbBlockReference
  2
Block_12
 10
0.0
 20
0.0
 30
0.0
  0
INSERT
  5
1FA
330
70
100
AcDbEntity
  8
Layer 1
100
AcDbBlockReference
  2
Block_13
 10
0.0
 20
0.0
 30
0.0
  0
INSERT
  5
212
330
70
100
AcDbEntity
  8
Layer 1
100
AcDbBlockReference
  2
Block_14
 10
0.0
 20
0.0
 30
0.0
  0
INSERT
  5
22A
330
70
100
AcDbEntity
  8
Layer 1
100
AcDbBlockReference
  2
Block_15
 10
0.0
 20
0.0
 30
0.0
  0
INSERT
  5
236
330
70
100
AcDbEntity
  8
Layer 1
100
AcDbBlockReference
  2
Block_16
 10
0.0
 20
0.0
 30
0.0
  0
INSERT
  5
242
330
70
100
AcDbEntity
  8
Layer 1
100
AcDbBlockReference
  2
Block_17
 10
0.0
 20
0.0
 30
0.0
  0
INSERT
  5
24E
330
70
100
AcDbEntity
  8
Layer 1
100
AcDbBlockReference
  2
Block_18
 10
0.0
 20
0.0
 30
0.0
  0
INSERT
  5
25A
330
70
100
AcDbEntity
  8
Layer 1
100
AcDbBlockReference
  2
Block_19
 10
0.0
 20
0.0
 30
0.0
  0
INSERT
  5
266
330
70
100
AcDbEntity
  8
Layer 1
100
AcDbBlockReference
  2
Block_20
 10
0.0
 20
0.0
 30
0.0
  0
INSERT
  5
272
330
70
100
AcDbEntity
  8
Layer 1
100
AcDbBlockReference
  2
Block_21
 10
0.0
 20
0.0
 30
0.0
  0
INSERT
  5
27E
330
70
100
AcDbEntity
  8
Layer 1
100
AcDbBlockReference
  2
Block_22
 10
0.0
 20
0.0
 30
0.0
  0
INSERT
  5
28A
330
70
100
AcDbEntity
  8
Layer 1
100
AcDbBlockReference
  2
Block_23
 10
0.0
 20
0.0
 30
0.0
  0
INSERT
  5
296
330
70
100
AcDbEntity
  8
Layer 1
100
AcDbBlockReference
  2
Block_24
 10
0.0
 20
0.0
 30
0.0
  0
INSERT
  5
2A2
330
70
100
AcDbEntity
  8
Layer 1
100
AcDbBlockReference
  2
Block_25
 10
0.0
 20
0.0
 30
0.0
  0
INSERT
  5
2AE
330
70
100
AcDbEntity
  8
Layer 1
100
AcDbBlockReference
  2
Block_26
 10
0.0
 20
0.0
 30
0.0
  0
INSERT
  5
2BA
330
70
100
AcDbEntity
  8
Layer 1
100
AcDbBlockReference
  2
Block_27
 10
0.0
 20
0.0
 30
0.0
  0
INSERT
  5
2D2
330
70
100
AcDbEntity
  8
Layer 1
100
AcDbBlockReference
  2
Block_28
 10
0.0
 20
0.0
 30
0.0
  0
INSERT
  5
336
330
70
100
AcDbEntity
  8
Layer 1
100
AcDbBlockReference
  2
Block_29
 10
0.0
 20
0.0
 30
0.0
  0
ENDSEC
  0
SECTION
  2
OBJECTS
  0
DICTIONARY
  5
C
330
0
100
AcDbDictionary
281
     1
  3
ACAD_COLOR
350
63
  3
ACAD_DETAILVIEWSTYLE
350
6A
  3
ACAD_GROUP
350
D
  3
ACAD_LAYOUT
350
62
  3
ACAD_MATERIAL
350
10
  3
ACAD_MLEADERSTYLE
350
66
  3
ACAD_MLINESTYLE
350
5F
  3
ACAD_PLOTSETTINGS
350
61
  3
ACAD_PLOTSTYLENAME
350
E
  3
ACAD_SCALELIST
350
42
  3
ACAD_SECTIONVIEWSTYLE
350
68
  3
ACAD_TABLESTYLE
350
64
  3
ACAD_VISUALSTYLE
350
29
  3
ACDB_RECOMPOSE_DATA
350
359
  3
AcDbVariableDictionary
350
351
  0
DICTIONARY
  5
63
102
{ACAD_REACTORS
330
C
102
}
330
C
100
AcDbDictionary
281
     1
  0
DICTIONARY
  5
6A
102
{ACAD_REACTORS
330
C
102
}
330
C
100
AcDbDictionary
281
     1
  3
Imperial24
350
6B
  0
DICTIONARY
  5
D
102
{ACAD_REACTORS
330
C
102
}
330
C
100
AcDbDictionary
281
     1
  0
DICTIONARY
  5
62
102
{ACAD_REACTORS
330
C
102
}
330
C
100
AcDbDictionary
281
     1
  3
Layout1
350
6F
  3
Layout2
350
77
  3
Model
350
73
  0
DICTIONARY
  5
10
102
{ACAD_REACTORS
330
C
102
}
330
C
100
AcDbDictionary
281
     1
  3
ByBlock
350
19
  3
ByLayer
350
11
  3
Global
350
21
  0
DICTIONARY
  5
66
102
{ACAD_REACTORS
330
C
102
}
330
C
100
AcDbDictionary
281
     1
  3
Standard
350
67
  0
DICTIONARY
  5
5F
102
{ACAD_REACTORS
330
C
102
}
330
C
100
AcDbDictionary
281
     1
  3
Standard
350
60
  0
DICTIONARY
  5
61
102
{ACAD_REACTORS
330
C
102
}
330
C
100
AcDbDictionary
281
     1
  0
ACDBDICTIONARYWDFLT
  5
E
102
{ACAD_REACTORS
330
C
102
}
330
C
100
AcDbDictionary
281
     1
  3
Normal
350
F
100
AcDbDictionaryWithDefault
340
F
  0
DICTIONARY
  5
42
102
{ACAD_REACTORS
330
C
102
}
330
C
100
AcDbDictionary
281
     1
  3
A0
350
43
  3
A1
350
44
  3
A2
350
45
  3
A3
350
46
  3
A4
350
47
  3
A5
350
48
  3
A6
350
49
  3
A7
350
4A
  3
A8
350
4B
  3
A9
350
4C
  3
B0
350
4D
  3
B1
350
4E
  3
B2
350
4F
  3
B3
350
50
  3
B4
350
51
  3
B5
350
52
  3
B6
350
53
  0
DICTIONARY
  5
68
102
{ACAD_REACTORS
330
C
102
}
330
C
100
AcDbDictionary
281
     1
  3
Imperial24
350
69
  0
DICTIONARY
  5
64
102
{ACAD_REACTORS
330
C
102
}
330
C
100
AcDbDictionary
281
     1
  3
Standard
350
65
  0
DICTIONARY
  5
29
102
{ACAD_REACTORS
330
C
102
}
330
C
100
AcDbDictionary
281
     1
  3
2dWireframe
350
2F
  3
Basic
350
2E
  3
Brighten
350
35
  3
ColorChange
350
39
  3
Conceptual
350
32
  3
Dim
350
34
  3
EdgeColorOff
350
41
  3
Facepattern
350
38
  3
Flat
350
2A
  3
FlatWithEdges
350
2B
  3
Gouraud
350
2C
  3
GouraudWithEdges
350
2D
  3
Hidden
350
31
  3
JitterOff
350
3F
  3
Linepattern
350
37
  3
OverhangOff
350
40
  3
Realistic
350
33
  3
Shaded
350
3E
  3
Shaded with edges
350
3D
  3
Shades of Gray
350
3A
  3
Sketchy
350
3B
  3
Thicken
350
36
  3
Wireframe
350
30
  3
X-Ray
350
3C
  0
XRECORD
  5
359
102
{ACAD_REACTORS
330
C
102
}
330
C
100
AcDbXrecord
280
     1
 90
        1
330
65
  0
DICTIONARY
  5
351
102
{ACAD_REACTORS
330
C
102
}
330
C
100
AcDbDictionary
281
     1
  3
CANNOSCALE
350
356
  3
CMLEADERSTYLE
350
353
  3
CTABLESTYLE
350
352
  3
CVIEWDETAILSTYLE
350
354
  3
CVIEWSECTIONSTYLE
350
355
  0
ACDBDETAILVIEWSTYLE
  5
6B
102
{ACAD_REACTORS
330
6A
102
}
330
6A
100
AcDbModelDocViewStyle
 70
     0
  3
Imperial24
290
     1
300
Imperial24
 90
        0
100
AcDbDetailViewStyle
 70
     0
 71
     0
 90
        3
 71
     1
340
55
 62
   256
 40
0.24
340
0
 62
   256
 40
0.24
300

 40
0.36
280
     3
 71
     2
340
5D
 90
       25
 62
   256
 71
     3
340
55
 62
   256
 40
0.24
 90
        1
 40
0.75
 90
        1
300
%<\AcVar ViewType \f "%tc1">% %<\AcVar ViewDetailId>%\PSCALE %<\AcVar ViewScale \f "%sn">%
 71
     4
340
5D
 90
       25
 62
   256
340
5D
 90
       25
 62
   256
280
     0
  0
LAYOUT
  5
6F
102
{ACAD_REACTORS
330
62
102
}
330
62
100
AcDbPlotSettings
  1

  2

  4

  6

 40
0.0
 41
0.0
 42
0.0
 43
0.0
 44
0.0
 45
0.0
 46
0.0
 47
0.0
 48
0.0
 49
0.0
140
0.0
141
0.0
142
1.0
143
1.0
 70
   688
 72
     0
 73
     0
 74
     5
  7

 75
    16
147
1.0
 76
     0
 77
     2
 78
   300
148
0.0
149
0.0
100
AcDbLayout
  1
Layout1
 70
     1
 71
     1
 10
0.0
 20
0.0
 11
12.0
 21
9.0
 12
0.0
 22
0.0
 32
0.0
 14
0.0
 24
0.0
 34
0.0
 15
0.0
 25
0.0
 35
0.0
146
0.0
 13
0.0
 23
0.0
 33
0.0
 16
1.0
 26
0.0
 36
0.0
 17
0.0
 27
1.0
 37
0.0
 76
     0
330
6C
  0
LAYOUT
  5
77
102
{ACAD_REACTORS
330
62
102
}
330
62
100
AcDbPlotSettings
  1

  2

  4

  6

 40
0.0
 41
0.0
 42
0.0
 43
0.0
 44
0.0
 45
0.0
 46
0.0
 47
0.0
 48
0.0
 49
0.0
140
0.0
141
0.0
142
1.0
143
1.0
 70
   688
 72
     0
 73
     0
 74
     5
  7

 75
    16
147
1.0
 76
     0
 77
     2
 78
   300
148
0.0
149
0.0
100
AcDbLayout
  1
Layout2
 70
     1
 71
     2
 10
0.0
 20
0.0
 11
12.0
 21
9.0
 12
0.0
 22
0.0
 32
0.0
 14
0.0
 24
0.0
 34
0.0
 15
0.0
 25
0.0
 35
0.0
146
0.0
 13
0.0
 23
0.0
 33
0.0
 16
1.0
 26
0.0
 36
0.0
 17
0.0
 27
1.0
 37
0.0
 76
     0
330
74
  0
LAYOUT
  5
73
102
{ACAD_REACTORS
330
62
102
}
330
62
100
AcDbPlotSettings
  1

  2

  4

  6

 40
0.0
 41
0.0
 42
0.0
 43
0.0
 44
0.0
 45
0.0
 46
0.0
 47
0.0
 48
0.0
 49
0.0
140
0.0
141
0.0
142
1.0
143
1.0
 70
  1712
 72
     0
 73
     0
 74
     0
  7

 75
     0
147
1.0
 76
     0
 77
     2
 78
   300
148
0.0
149
0.0
100
AcDbLayout
  1
Model
 70
     1
 71
     0
 10
0.0
 20
0.0
 11
12.0
 21
9.0
 12
0.0
 22
0.0
 32
0.0
 14
0.0
 24
0.0
 34
0.0
 15
0.0
 25
0.0
 35
0.0
146
0.0
 13
0.0
 23
0.0
 33
0.0
 16
1.0
 26
0.0
 36
0.0
 17
0.0
 27
1.0
 37
0.0
 76
     0
330
70
  0
MATERIAL
  5
19
102
{ACAD_XDICTIONARY
360
1A
102
}
102
{ACAD_REACTORS
330
10
102
}
330
10
100
AcDbMaterial
  1
ByBlock
 72
     0
 43
0.0208333333333333
 43
0.0
 43
0.0
 43
0.0
 43
0.0
 43
0.0208333333333333
 43
0.0
 43
0.0
 43
0.0
 43
0.0
 43
1.0
 43
0.0
 43
0.0
 43
0.0
 43
0.0
 43
1.0
 77
     0
 47
0.0208333333333333
 47
0.0
 47
0.0
 47
0.0
 47
0.0
 47
0.0208333333333333
 47
0.0
 47
0.0
 47
0.0
 47
0.0
 47
1.0
 47
0.0
 47
0.0
 47
0.0
 47
0.0
 47
1.0
171
     0
 49
0.0208333333333333
 49
0.0
 49
0.0
 49
0.0
 49
0.0
 49
0.0208333333333333
 49
0.0
 49
0.0
 49
0.0
 49
0.0
 49
1.0
 49
0.0
 49
0.0
 49
0.0
 49
0.0
 49
1.0
175
     0
142
0.0208333333333333
142
0.0
142
0.0
142
0.0
142
0.0
142
0.0208333333333333
142
0.0
142
0.0
142
0.0
142
0.0
142
1.0
142
0.0
142
0.0
142
0.0
142
0.0
142
1.0
179
     0
144
0.0208333333333333
144
0.0
144
0.0
144
0.0
144
0.0
144
0.0208333333333333
144
0.0
144
0.0
144
0.0
144
0.0
144
1.0
144
0.0
144
0.0
144
0.0
144
0.0
144
1.0
147
0.0208333333333333
147
0.0
147
0.0
147
0.0
147
0.0
147
0.0208333333333333
147
0.0
147
0.0
147
0.0
147
0.0
147
1.0
147
0.0
147
0.0
147
0.0
147
0.0
147
1.0
  0
MATERIAL
  5
11
102
{ACAD_XDICTIONARY
360
12
102
}
102
{ACAD_REACTORS
330
10
102
}
330
10
100
AcDbMaterial
  1
ByLayer
 72
     0
 43
0.0208333333333333
 43
0.0
 43
0.0
 43
0.0
 43
0.0
 43
0.0208333333333333
 43
0.0
 43
0.0
 43
0.0
 43
0.0
 43
1.0
 43
0.0
 43
0.0
 43
0.0
 43
0.0
 43
1.0
 77
     0
 47
0.0208333333333333
 47
0.0
 47
0.0
 47
0.0
 47
0.0
 47
0.0208333333333333
 47
0.0
 47
0.0
 47
0.0
 47
0.0
 47
1.0
 47
0.0
 47
0.0
 47
0.0
 47
0.0
 47
1.0
171
     0
 49
0.0208333333333333
 49
0.0
 49
0.0
 49
0.0
 49
0.0
 49
0.0208333333333333
 49
0.0
 49
0.0
 49
0.0
 49
0.0
 49
1.0
 49
0.0
 49
0.0
 49
0.0
 49
0.0
 49
1.0
175
     0
142
0.0208333333333333
142
0.0
142
0.0
142
0.0
142
0.0
142
0.0208333333333333
142
0.0
142
0.0
142
0.0
142
0.0
142
1.0
142
0.0
142
0.0
142
0.0
142
0.0
142
1.0
179
     0
144
0.0208333333333333
144
0.0
144
0.0
144
0.0
144
0.0
144
0.0208333333333333
144
0.0
144
0.0
144
0.0
144
0.0
144
1.0
144
0.0
144
0.0
144
0.0
144
0.0
144
1.0
147
0.0208333333333333
147
0.0
147
0.0
147
0.0
147
0.0
147
0.0208333333333333
147
0.0
147
0.0
147
0.0
147
0.0
147
1.0
147
0.0
147
0.0
147
0.0
147
0.0
147
1.0
  0
MATERIAL
  5
21
102
{ACAD_XDICTIONARY
360
22
102
}
102
{ACAD_REACTORS
330
10
102
}
330
10
100
AcDbMaterial
  1
Global
 72
     0
 43
0.0208333333333333
 43
0.0
 43
0.0
 43
0.0
 43
0.0
 43
0.0208333333333333
 43
0.0
 43
0.0
 43
0.0
 43
0.0
 43
1.0
 43
0.0
 43
0.0
 43
0.0
 43
0.0
 43
1.0
 77
     0
 47
0.0208333333333333
 47
0.0
 47
0.0
 47
0.0
 47
0.0
 47
0.0208333333333333
 47
0.0
 47
0.0
 47
0.0
 47
0.0
 47
1.0
 47
0.0
 47
0.0
 47
0.0
 47
0.0
 47
1.0
171
     0
 49
0.0208333333333333
 49
0.0
 49
0.0
 49
0.0
 49
0.0
 49
0.0208333333333333
 49
0.0
 49
0.0
 49
0.0
 49
0.0
 49
1.0
 49
0.0
 49
0.0
 49
0.0
 49
0.0
 49
1.0
175
     0
142
0.0208333333333333
142
0.0
142
0.0
142
0.0
142
0.0
142
0.0208333333333333
142
0.0
142
0.0
142
0.0
142
0.0
142
1.0
142
0.0
142
0.0
142
0.0
142
0.0
142
1.0
179
     0
144
0.0208333333333333
144
0.0
144
0.0
144
0.0
144
0.0
144
0.0208333333333333
144
0.0
144
0.0
144
0.0
144
0.0
144
1.0
144
0.0
144
0.0
144
0.0
144
0.0
144
1.0
147
0.0208333333333333
147
0.0
147
0.0
147
0.0
147
0.0
147
0.0208333333333333
147
0.0
147
0.0
147
0.0
147
0.0
147
1.0
147
0.0
147
0.0
147
0.0
147
0.0
147
1.0
  0
MLEADERSTYLE
  5
67
102
{ACAD_REACTORS
330
66
102
}
330
66
100
AcDbMLeaderStyle
179
     2
170
     2
171
     1
172
     0
 90
        2
 40
0.0
 41
0.0
173
     1
 91
-1056964608
340
5B
 92
       -2
290
     1
 42
0.09
291
     1
 43
0.36
  3
Standard
 44
0.18
300

342
55
174
     1
178
     6
175
     1
176
     0
 93
-1056964608
 45
0.18
292
     0
297
     0
 46
0.18
 94
-1056964608
 47
1.0
 49
1.0
140
1.0
293
     1
141
0.0
294
     1
177
     0
142
1.0
295
     1
296
     0
143
0.125
271
     0
272
     9
273
     9
298
     1
  0
MLINESTYLE
  5
60
102
{ACAD_REACTORS
330
5F
102
}
330
5F
100
AcDbMlineStyle
  2
STANDARD
 70
     0
  3

 62
   256
 51
90.0
 52
90.0
 71
     2
 49
0.5
 62
   256
  6
BYLAYER
 49
-0.5
 62
   256
  6
BYLAYER
  0
ACDBPLACEHOLDER
  5
F
102
{ACAD_REACTORS
330
E
102
}
330
E
  0
SCALE
  5
43
102
{ACAD_REACTORS
330
42
102
}
330
42
100
AcDbScale
 70
     0
300
1:1
140
1.0
141
1.0
290
     1
  0
SCALE
  5
44
102
{ACAD_REACTORS
330
42
102
}
330
42
100
AcDbScale
 70
     0
300
1/128" = 1'-0"
140
0.0078125
141
12.0
290
     0
  0
SCALE
  5
45
102
{ACAD_REACTORS
330
42
102
}
330
42
100
AcDbScale
 70
     0
300
1/64" = 1'-0"
140
0.015625
141
12.0
290
     0
  0
SCALE
  5
46
102
{ACAD_REACTORS
330
42
102
}
330
42
100
AcDbScale
 70
     0
300
1/32" = 1'-0"
140
0.03125
141
12.0
290
     0
  0
SCALE
  5
47
102
{ACAD_REACTORS
330
42
102
}
330
42
100
AcDbScale
 70
     0
300
1/16" = 1'-0"
140
0.0625
141
12.0
290
     0
  0
SCALE
  5
48
102
{ACAD_REACTORS
330
42
102
}
330
42
100
AcDbScale
 70
     0
300
3/32" = 1'-0"
140
0.09375
141
12.0
290
     0
  0
SCALE
  5
49
102
{ACAD_REACTORS
330
42
102
}
330
42
100
AcDbScale
 70
     0
300
1/8" = 1'-0"
140
0.125
141
12.0
290
     0
  0
SCALE
  5
4A
102
{ACAD_REACTORS
330
42
102
}
330
42
100
AcDbScale
 70
     0
300
3/16" = 1'-0"
140
0.1875
141
12.0
290
     0
  0
SCALE
  5
4B
102
{ACAD_REACTORS
330
42
102
}
330
42
100
AcDbScale
 70
     0
300
1/4" = 1'-0"
140
0.25
141
12.0
290
     0
  0
SCALE
  5
4C
102
{ACAD_REACTORS
330
42
102
}
330
42
100
AcDbScale
 70
     0
300
3/8" = 1'-0"
140
0.375
141
12.0
290
     0
  0
SCALE
  5
4D
102
{ACAD_REACTORS
330
42
102
}
330
42
100
AcDbScale
 70
     0
300
1/2" = 1'-0"
140
0.5
141
12.0
290
     0
  0
SCALE
  5
4E
102
{ACAD_REACTORS
330
42
102
}
330
42
100
AcDbScale
 70
     0
300
3/4" = 1'-0"
140
0.75
141
12.0
290
     0
  0
SCALE
  5
4F
102
{ACAD_REACTORS
330
42
102
}
330
42
100
AcDbScale
 70
     0
300
1" = 1'-0"
140
1.0
141
12.0
290
     0
  0
SCALE
  5
50
102
{ACAD_REACTORS
330
42
102
}
330
42
100
AcDbScale
 70
     0
300
1-1/2" = 1'-0"
140
1.5
141
12.0
290
     0
  0
SCALE
  5
51
102
{ACAD_REACTORS
330
42
102
}
330
42
100
AcDbScale
 70
     0
300
3" = 1'-0"
140
3.0
141
12.0
290
     0
  0
SCALE
  5
52
102
{ACAD_REACTORS
330
42
102
}
330
42
100
AcDbScale
 70
     0
300
6" = 1'-0"
140
6.0
141
12.0
290
     0
  0
SCALE
  5
53
102
{ACAD_REACTORS
330
42
102
}
330
42
100
AcDbScale
 70
     0
300
1'-0" = 1'-0"
140
12.0
141
12.0
290
     0
  0
ACDBSECTIONVIEWSTYLE
  5
69
102
{ACAD_REACTORS
330
68
102
}
330
68
100
AcDbModelDocViewStyle
 70
     0
  3
Imperial24
290
     1
300
Imperial24
 90
        0
100
AcDbSectionViewStyle
 70
     0
 71
     0
 90
       78
 71
     1
340
55
 62
   256
 40
0.24
340
0
340
0
 62
   256
 40
0.24
300
I, O, Q, S, X, Z
 40
0.48
 90
        3
 40
0.18
 90
        1
 71
     2
340
5D
 90
       25
 62
   256
340
5D
 90
       50
 62
   256
 40
0.24
 40
0.0
 40
0.24
 71
     3
340
55
 62
   256
 40
0.24
 90
        1
 40
0.75
 90
        1
300
%<\AcVar ViewType \f "%tc1">% %<\AcVar ViewSectionStartId>%-%<\AcVar ViewSectionEndId>%\PSCALE %<\AcVar ViewScale \f "%sn">%
 71
     4
 62
   256
 62
   257
300
ANSI31
 40
1.0
 90
        0
290
     0
290
     0
 90
        6
 40
0.0
 40
1.570796326794896
 40
0.2617993877991494
 40
1.308996938995747
 40
-0.2617993877991494
 40
1.832595714594046
  0
TABLESTYLE
  5
65
102
{ACAD_XDICTIONARY
360
357
102
}
102
{ACAD_REACTORS
330
64
102
}
330
64
100
AcDbTableStyle
280
     0
  3
Standard
 70
     0
 71
     0
 40
0.06
 41
0.06
280
     0
281
     0
  7
Standard
140
0.18
170
     2
 62
     0
 63
     7
283
     0
 90
      512
 91
        0
  1

274
    -2
284
     1
 64
     0
275
    -2
285
     1
 65
     0
276
    -2
286
     1
 66
     0
277
    -2
287
     1
 67
     0
278
    -2
288
     1
 68
     0
279
    -2
289
     1
 69
     0
  7
Standard
140
0.25
170
     5
 62
     0
 63
     7
283
     0
 90
      512
 91
        0
  1

274
    -2
284
     1
 64
     0
275
    -2
285
     1
 65
     0
276
    -2
286
     1
 66
     0
277
    -2
287
     1
 67
     0
278
    -2
288
     1
 68
     0
279
    -2
289
     1
 69
     0
  7
Standard
140
0.18
170
     5
 62
     0
 63
     7
283
     0
 90
      512
 91
        0
  1

274
    -2
284
     1
 64
     0
275
    -2
285
     1
 65
     0
276
    -2
286
     1
 66
     0
277
    -2
287
     1
 67
     0
278
    -2
288
     1
 68
     0
279
    -2
289
     1
 69
     0
  0
VISUALSTYLE
  5
2F
102
{ACAD_REACTORS
330
29
102
}
330
29
100
AcDbVisualStyle
  2
2dWireframe
 70
     4
177
     3
291
     0
 70
    58
 90
        0
176
     1
 90
        2
176
     1
 90
        0
176
     1
 90
        0
176
     1
 40
0.6
176
     1
 40
30.0
176
     1
 62
     7
420
 16777215
176
     1
 90
        1
176
     1
 90
        4
176
     1
 62
     7
176
     1
 62
   257
176
     1
 90
        1
176
     1
 90
        1
176
     1
 40
1.0
176
     1
 90
        0
176
     1
 62
   257
176
     1
 40
1.0
176
     1
 90
        1
176
     1
 90
        6
176
     1
 90
        2
176
     1
 62
     7
176
     1
 90
        5
176
     1
 90
        0
176
     1
 90
        0
176
     1
290
     0
176
     1
 90
        1
176
     1
 40
0.0
176
     1
 90
        0
176
     1
290
     1
176
     1
290
     1
176
     1
290
     0
176
     1
290
     0
176
     1
290
     0
176
     1
290
     0
176
     1
290
     0
176
     1
290
     0
176
     1
290
     0
176
     1
 90
       50
176
     1
 40
0.0
176
     1
 40
1.0
176
     1
 90
        0
176
     1
 62
    18
420
        0
176
     1
 90
       50
176
     1
 90
        3
176
     1
 62
     5
420
      255
176
     1
290
     0
176
     1
 90
       50
176
     1
 90
       50
176
     1
 90
       50
176
     1
290
     0
176
     1
 90
       50
176
     1
 62
   256
176
     0
 40
1.0
176
     0
 90
        2
176
     1
  1
strokes_ogs.tif
176
     1
290
     0
176
     1
 40
1.0
176
     1
 40
1.0
176
     1
  0
VISUALSTYLE
  5
2E
102
{ACAD_REACTORS
330
29
102
}
330
29
100
AcDbVisualStyle
  2
Basic
 70
     7
177
     3
291
     1
 70
    58
 90
        1
176
     1
 90
        0
176
     1
 90
        1
176
     1
 90
        0
176
     1
 40
0.6
176
     1
 40
30.0
176
     1
 62
     7
420
 16777215
176
     1
 90
        0
176
     1
 90
        4
176
     1
 62
     7
176
     1
 62
   257
176
     1
 90
        1
176
     1
 90
        1
176
     1
 40
1.0
176
     1
 90
        8
176
     1
 62
     7
176
     1
 40
1.0
176
     1
 90
        1
176
     1
 90
        6
176
     1
 90
        2
176
     1
 62
     7
176
     1
 90
        5
176
     1
 90
        0
176
     1
 90
        0
176
     1
290
     0
176
     1
 90
        1
176
     1
 40
0.0
176
     1
 90
        0
176
     1
290
     0
176
     1
290
     1
176
     1
290
     1
176
     1
290
     0
176
     1
290
     0
176
     1
290
     0
176
     1
290
     0
176
     1
290
     0
176
     1
290
     0
176
     1
 90
       50
176
     1
 40
0.0
176
     1
 40
1.0
176
     1
 90
        0
176
     1
 62
    18
420
        0
176
     1
 90
       50
176
     1
 90
        3
176
     1
 62
     5
420
      255
176
     1
290
     0
176
     1
 90
       50
176
     1
 90
       50
176
     1
 90
       50
176
     1
290
     0
176
     1
 90
       50
176
     1
 62
   256
176
     0
 40
1.0
176
     0
 90
        2
176
     1
  1
strokes_ogs.tif
176
     1
290
     0
176
     1
 40
1.0
176
     1
 40
1.0
176
     1
  0
VISUALSTYLE
  5
35
102
{ACAD_REACTORS
330
29
102
}
330
29
100
AcDbVisualStyle
  2
Brighten
 70
    12
177
     3
291
     1
 70
    58
 90
        2
176
     1
 90
        2
176
     1
 90
        0
176
     1
 90
        0
176
     1
 40
0.6
176
     1
 40
30.0
176
     1
 62
     7
420
 16777215
176
     1
 90
        1
176
     1
 90
        4
176
     1
 62
     7
176
     1
 62
   257
176
     1
 90
        1
176
     1
 90
        1
176
     1
 40
1.0
176
     1
 90
        8
176
     1
 62
     7
176
     1
 40
1.0
176
     1
 90
        1
176
     1
 90
        6
176
     1
 90
        2
176
     1
 62
     7
176
     1
 90
        5
176
     1
 90
        0
176
     1
 90
        0
176
     1
290
     0
176
     1
 90
        1
176
     1
 40
50.0
176
     1
 90
        0
176
     1
290
     0
176
     1
290
     1
176
     1
290
     1
176
     1
290
     0
176
     1
290
     0
176
     1
290
     0
176
     1
290
     0
176
     1
290
     0
176
     1
290
     0
176
     1
 90
       50
176
     1
 40
0.0
176
     1
 40
1.0
176
     1
 90
        0
176
     1
 62
    18
420
        0
176
     1
 90
       50
176
     1
 90
        3
176
     1
 62
     5
420
      255
176
     1
290
     0
176
     1
 90
       50
176
     1
 90
       50
176
     1
 90
       50
176
     1
290
     0
176
     1
 90
       50
176
     1
 62
   256
176
     0
 40
1.0
176
     0
 90
        2
176
     1
  1
strokes_ogs.tif
176
     1
290
     0
176
     1
 40
1.0
176
     1
 40
1.0
176
     1
  0
VISUALSTYLE
  5
39
102
{ACAD_REACTORS
330
29
102
}
330
29
100
AcDbVisualStyle
  2
ColorChange
 70
    16
177
     3
291
     1
 70
    58
 90
        2
176
     1
 90
        2
176
     1
 90
        3
176
     1
 90
        0
176
     1
 40
0.6
176
     1
 40
30.0
176
     1
 62
     8
420
  8421504
176
     1
 90
        1
176
     1
 90
        4
176
     1
 62
     7
176
     1
 62
   257
176
     1
 90
        1
176
     1
 90
        1
176
     1
 40
1.0
176
     1
 90
        8
176
     1
 62
     8
420
  8421504
176
     1
 40
1.0
176
     1
 90
        1
176
     1
 90
        6
176
     1
 90
        2
176
     1
 62
     7
176
     1
 90
        5
176
     1
 90
        0
176
     1
 90
        0
176
     1
290
     0
176
     1
 90
        1
176
     1
 40
0.0
176
     1
 90
        0
176
     1
290
     0
176
     1
290
     1
176
     1
290
     1
176
     1
290
     0
176
     1
290
     0
176
     1
290
     0
176
     1
290
     0
176
     1
290
     0
176
     1
290
     0
176
     1
 90
       50
176
     1
 40
0.0
176
     1
 40
1.0
176
     1
 90
        0
176
     1
 62
    18
420
        0
176
     1
 90
       50
176
     1
 90
        3
176
     1
 62
     5
420
      255
176
     1
290
     0
176
     1
 90
       50
176
     1
 90
       50
176
     1
 90
       50
176
     1
290
     0
176
     1
 90
       50
176
     1
 62
   256
176
     0
 40
1.0
176
     0
 90
        2
176
     1
  1
strokes_ogs.tif
176
     1
290
     0
176
     1
 40
1.0
176
     1
 40
1.0
176
     1
  0
VISUALSTYLE
  5
32
102
{ACAD_REACTORS
330
29
102
}
330
29
100
AcDbVisualStyle
  2
Conceptual
 70
     9
177
     3
291
     0
 70
    58
 90
        3
176
     1
 90
        2
176
     1
 90
        0
176
     1
 90
        0
176
     1
 40
0.6
176
     1
 40
30.0
176
     1
 62
     7
420
 16777215
176
     1
 90
        2
176
     1
 90
        2
176
     1
 62
     7
176
     1
 62
   257
176
     1
 90
        1
176
     1
 90
        1
176
     1
 40
179.0
176
     1
 90
        8
176
     1
 62
     7
176
     1
 40
1.0
176
     1
 90
        1
176
     1
 90
        6
176
     1
 90
        2
176
     1
 62
     7
176
     1
 90
        3
176
     1
 90
        0
176
     1
 90
        0
176
     1
290
     0
176
     1
 90
        1
176
     1
 40
0.0
176
     1
 90
        0
176
     1
290
     0
176
     1
290
     1
176
     1
290
     1
176
     1
290
     0
176
     1
290
     0
176
     1
290
     0
176
     1
290
     0
176
     1
290
     0
176
     1
290
     0
176
     1
 90
       50
176
     1
 40
0.0
176
     1
 40
1.0
176
     1
 90
        0
176
     1
 62
    18
420
        0
176
     1
 90
       50
176
     1
 90
        3
176
     1
 62
     5
420
      255
176
     1
290
     0
176
     1
 90
       50
176
     1
 90
       50
176
     1
 90
       50
176
     1
290
     0
176
     1
 90
       50
176
     1
 62
   256
176
     0
 40
1.0
176
     0
 90
        2
176
     1
  1
strokes_ogs.tif
176
     1
290
     0
176
     1
 40
1.0
176
     1
 40
1.0
176
     1
  0
VISUALSTYLE
  5
34
102
{ACAD_REACTORS
330
29
102
}
330
29
100
AcDbVisualStyle
  2
Dim
 70
    11
177
     3
291
     1
 70
    58
 90
        2
176
     1
 90
        2
176
     1
 90
        0
176
     1
 90
        0
176
     1
 40
0.6
176
     1
 40
30.0
176
     1
 62
     7
420
 16777215
176
     1
 90
        1
176
     1
 90
        4
176
     1
 62
     7
176
     1
 62
   257
176
     1
 90
        1
176
     1
 90
        1
176
     1
 40
1.0
176
     1
 90
        8
176
     1
 62
     7
176
     1
 40
1.0
176
     1
 90
        1
176
     1
 90
        6
176
     1
 90
        2
176
     1
 62
     7
176
     1
 90
        5
176
     1
 90
        0
176
     1
 90
        0
176
     1
290
     0
176
     1
 90
        1
176
     1
 40
-50.0
176
     1
 90
        0
176
     1
290
     0
176
     1
290
     1
176
     1
290
     1
176
     1
290
     0
176
     1
290
     0
176
     1
290
     0
176
     1
290
     0
176
     1
290
     0
176
     1
290
     0
176
     1
 90
       50
176
     1
 40
0.0
176
     1
 40
1.0
176
     1
 90
        0
176
     1
 62
    18
420
        0
176
     1
 90
       50
176
     1
 90
        3
176
     1
 62
     5
420
      255
176
     1
290
     0
176
     1
 90
       50
176
     1
 90
       50
176
     1
 90
       50
176
     1
290
     0
176
     1
 90
       50
176
     1
 62
   256
176
     0
 40
1.0
176
     0
 90
        2
176
     1
  1
strokes_ogs.tif
176
     1
290
     0
176
     1
 40
1.0
176
     1
 40
1.0
176
     1
  0
VISUALSTYLE
  5
41
102
{ACAD_REACTORS
330
29
102
}
330
29
100
AcDbVisualStyle
  2
EdgeColorOff
 70
    22
177
     3
291
     1
 70
    58
 90
        2
176
     0
 90
        2
176
     0
 90
        0
176
     0
 90
        0
176
     0
 40
0.6
176
     0
 40
30.0
176
     0
 62
     7
420
 16777215
176
     0
 90
        1
176
     0
 90
        4
176
     0
 62
     7
176
     0
 62
   257
176
     0
 90
        1
176
     0
 90
        1
176
     0
 40
1.0
176
     0
 90
        8
176
     2
 62
     7
176
     0
 40
1.0
176
     0
 90
        1
176
     0
 90
        6
176
     0
 90
        2
176
     0
 62
     7
176
     0
 90
        5
176
     0
 90
        0
176
     0
 90
        0
176
     0
290
     0
176
     0
 90
        1
176
     0
 40
0.0
176
     0
 90
        0
176
     0
290
     0
176
     0
290
     1
176
     0
290
     1
176
     0
290
     0
176
     0
290
     0
176
     0
290
     0
176
     0
290
     0
176
     0
290
     0
176
     0
290
     0
176
     0
 90
       50
176
     0
 40
0.0
176
     0
 40
1.0
176
     0
 90
        0
176
     0
 62
    18
420
        0
176
     0
 90
       50
176
     0
 90
        3
176
     0
 62
     5
420
      255
176
     0
290
     0
176
     0
 90
       50
176
     0
 90
       50
176
     0
 90
       50
176
     0
290
     0
176
     0
 90
       50
176
     0
 62
   256
176
     0
 40
1.0
176
     0
 90
        2
176
     0
  1
strokes_ogs.tif
176
     0
290
     0
176
     0
 40
1.0
176
     0
 40
1.0
176
     0
  0
VISUALSTYLE
  5
38
102
{ACAD_REACTORS
330
29
102
}
330
29
100
AcDbVisualStyle
  2
Facepattern
 70
    15
177
     3
291
     1
 70
    58
 90
        2
176
     1
 90
        2
176
     1
 90
        0
176
     1
 90
        0
176
     1
 40
0.6
176
     1
 40
30.0
176
     1
 62
     7
420
 16777215
176
     1
 90
        1
176
     1
 90
        4
176
     1
 62
     7
176
     1
 62
   257
176
     1
 90
        1
176
     1
 90
        1
176
     1
 40
1.0
176
     1
 90
        8
176
     1
 62
     7
176
     1
 40
1.0
176
     1
 90
        1
176
     1
 90
        6
176
     1
 90
        2
176
     1
 62
     7
176
     1
 90
        5
176
     1
 90
        0
176
     1
 90
        0
176
     1
290
     0
176
     1
 90
        1
176
     1
 40
0.0
176
     1
 90
        0
176
     1
290
     0
176
     1
290
     1
176
     1
290
     1
176
     1
290
     0
176
     1
290
     0
176
     1
290
     0
176
     1
290
     0
176
     1
290
     0
176
     1
290
     0
176
     1
 90
       50
176
     1
 40
0.0
176
     1
 40
1.0
176
     1
 90
        0
176
     1
 62
    18
420
        0
176
     1
 90
       50
176
     1
 90
        3
176
     1
 62
     5
420
      255
176
     1
290
     0
176
     1
 90
       50
176
     1
 90
       50
176
     1
 90
       50
176
     1
290
     0
176
     1
 90
       50
176
     1
 62
   256
176
     0
 40
1.0
176
     0
 90
        2
176
     1
  1
strokes_ogs.tif
176
     1
290
     0
176
     1
 40
1.0
176
     1
 40
1.0
176
     1
  0
VISUALSTYLE
  5
2A
102
{ACAD_REACTORS
330
29
102
}
330
29
100
AcDbVisualStyle
  2
Flat
 70
     0
177
     3
291
     1
 70
    58
 90
        2
176
     1
 90
        1
176
     1
 90
        1
176
     1
 90
        2
176
     1
 40
0.6
176
     1
 40
30.0
176
     1
 62
     7
420
 16777215
176
     1
 90
        0
176
     1
 90
        0
176
     1
 62
     7
176
     1
 62
   257
176
     1
 90
        1
176
     1
 90
        1
176
     1
 40
1.0
176
     1
 90
        8
176
     1
 62
     7
176
     1
 40
1.0
176
     1
 90
        1
176
     1
 90
        6
176
     1
 90
        2
176
     1
 62
     7
176
     1
 90
        5
176
     1
 90
        0
176
     1
 90
        0
176
     1
290
     0
176
     1
 90
       13
176
     1
 40
0.0
176
     1
 90
        0
176
     1
290
     0
176
     1
290
     1
176
     1
290
     1
176
     1
290
     0
176
     1
290
     0
176
     1
290
     0
176
     1
290
     0
176
     1
290
     0
176
     1
290
     0
176
     1
 90
       50
176
     1
 40
0.0
176
     1
 40
1.0
176
     1
 90
        0
176
     1
 62
    18
420
        0
176
     1
 90
       50
176
     1
 90
        3
176
     1
 62
     5
420
      255
176
     1
290
     0
176
     1
 90
       50
176
     1
 90
       50
176
     1
 90
       50
176
     1
290
     0
176
     1
 90
       50
176
     1
 62
   256
176
     0
 40
1.0
176
     0
 90
        2
176
     1
  1
strokes_ogs.tif
176
     1
290
     0
176
     1
 40
1.0
176
     1
 40
1.0
176
     1
  0
VISUALSTYLE
  5
2B
102
{ACAD_REACTORS
330
29
102
}
330
29
100
AcDbVisualStyle
  2
FlatWithEdges
 70
     1
177
     3
291
     1
 70
    58
 90
        2
176
     1
 90
        1
176
     1
 90
        1
176
     1
 90
        2
176
     1
 40
0.6
176
     1
 40
30.0
176
     1
 62
     7
420
 16777215
176
     1
 90
        1
176
     1
 90
        0
176
     1
 62
     7
176
     1
 62
   257
176
     1
 90
        1
176
     1
 90
        1
176
     1
 40
1.0
176
     1
 90
        0
176
     1
 62
   257
176
     1
 40
1.0
176
     1
 90
        1
176
     1
 90
        6
176
     1
 90
        2
176
     1
 62
     7
176
     1
 90
        5
176
     1
 90
        0
176
     1
 90
        0
176
     1
290
     0
176
     1
 90
       13
176
     1
 40
0.0
176
     1
 90
        0
176
     1
290
     0
176
     1
290
     1
176
     1
290
     1
176
     1
290
     0
176
     1
290
     0
176
     1
290
     0
176
     1
290
     0
176
     1
290
     0
176
     1
290
     0
176
     1
 90
       50
176
     1
 40
0.0
176
     1
 40
1.0
176
     1
 90
        0
176
     1
 62
    18
420
        0
176
     1
 90
       50
176
     1
 90
        3
176
     1
 62
     5
420
      255
176
     1
290
     0
176
     1
 90
       50
176
     1
 90
       50
176
     1
 90
       50
176
     1
290
     0
176
     1
 90
       50
176
     1
 62
   256
176
     0
 40
1.0
176
     0
 90
        2
176
     1
  1
strokes_ogs.tif
176
     1
290
     0
176
     1
 40
1.0
176
     1
 40
1.0
176
     1
  0
VISUALSTYLE
  5
2C
102
{ACAD_REACTORS
330
29
102
}
330
29
100
AcDbVisualStyle
  2
Gouraud
 70
     2
177
     3
291
     1
 70
    58
 90
        2
176
     1
 90
        2
176
     1
 90
        1
176
     1
 90
        2
176
     1
 40
0.6
176
     1
 40
30.0
176
     1
 62
     7
420
 16777215
176
     1
 90
        0
176
     1
 90
        0
176
     1
 62
     7
176
     1
 62
   257
176
     1
 90
        1
176
     1
 90
        1
176
     1
 40
1.0
176
     1
 90
        0
176
     1
 62
     7
176
     1
 40
1.0
176
     1
 90
        1
176
     1
 90
        6
176
     1
 90
        2
176
     1
 62
     7
176
     1
 90
        5
176
     1
 90
        0
176
     1
 90
        0
176
     1
290
     0
176
     1
 90
       13
176
     1
 40
0.0
176
     1
 90
        0
176
     1
290
     0
176
     1
290
     1
176
     1
290
     1
176
     1
290
     0
176
     1
290
     0
176
     1
290
     0
176
     1
290
     0
176
     1
290
     0
176
     1
290
     0
176
     1
 90
       50
176
     1
 40
0.0
176
     1
 40
1.0
176
     1
 90
        0
176
     1
 62
    18
420
        0
176
     1
 90
       50
176
     1
 90
        3
176
     1
 62
     5
420
      255
176
     1
290
     0
176
     1
 90
       50
176
     1
 90
       50
176
     1
 90
       50
176
     1
290
     0
176
     1
 90
       50
176
     1
 62
   256
176
     0
 40
1.0
176
     0
 90
        2
176
     1
  1
strokes_ogs.tif
176
     1
290
     0
176
     1
 40
1.0
176
     1
 40
1.0
176
     1
  0
VISUALSTYLE
  5
2D
102
{ACAD_REACTORS
330
29
102
}
330
29
100
AcDbVisualStyle
  2
GouraudWithEdges
 70
     3
177
     3
291
     1
 70
    58
 90
        2
176
     1
 90
        2
176
     1
 90
        1
176
     1
 90
        2
176
     1
 40
0.6
176
     1
 40
30.0
176
     1
 62
     7
420
 16777215
176
     1
 90
        1
176
     1
 90
        0
176
     1
 62
     7
176
     1
 62
   257
176
     1
 90
        1
176
     1
 90
        1
176
     1
 40
1.0
176
     1
 90
        0
176
     1
 62
   257
176
     1
 40
1.0
176
     1
 90
        1
176
     1
 90
        6
176
     1
 90
        2
176
     1
 62
     7
176
     1
 90
        5
176
     1
 90
        0
176
     1
 90
        0
176
     1
290
     0
176
     1
 90
       13
176
     1
 40
0.0
176
     1
 90
        0
176
     1
290
     0
176
     1
290
     1
176
     1
290
     1
176
     1
290
     0
176
     1
290
     0
176
     1
290
     0
176
     1
290
     0
176
     1
290
     0
176
     1
290
     0
176
     1
 90
       50
176
     1
 40
0.0
176
     1
 40
1.0
176
     1
 90
        0
176
     1
 62
    18
420
        0
176
     1
 90
       50
176
     1
 90
        3
176
     1
 62
     5
420
      255
176
     1
290
     0
176
     1
 90
       50
176
     1
 90
       50
176
     1
 90
       50
176
     1
290
     0
176
     1
 90
       50
176
     1
 62
   256
176
     0
 40
1.0
176
     0
 90
        2
176
     1
  1
strokes_ogs.tif
176
     1
290
     0
176
     1
 40
1.0
176
     1
 40
1.0
176
     1
  0
VISUALSTYLE
  5
31
102
{ACAD_REACTORS
330
29
102
}
330
29
100
AcDbVisualStyle
  2
Hidden
 70
     6
177
     3
291
     0
 70
    58
 90
        1
176
     1
 90
        2
176
     1
 90
        2
176
     1
 90
        0
176
     1
 40
0.6
176
     1
 40
30.0
176
     1
 62
     7
420
 16777215
176
     1
 90
        2
176
     1
 90
        2
176
     1
 62
     7
176
     1
 62
   257
176
     1
 90
        2
176
     1
 90
        1
176
     1
 40
40.0
176
     1
 90
        0
176
     1
 62
   257
176
     1
 40
1.0
176
     1
 90
        1
176
     1
 90
        6
176
     1
 90
        2
176
     1
 62
     7
176
     1
 90
        3
176
     1
 90
        0
176
     1
 90
        0
176
     1
290
     0
176
     1
 90
        1
176
     1
 40
0.0
176
     1
 90
        0
176
     1
290
     0
176
     1
290
     1
176
     1
290
     1
176
     1
290
     0
176
     1
290
     0
176
     1
290
     0
176
     1
290
     0
176
     1
290
     0
176
     1
290
     0
176
     1
 90
       50
176
     1
 40
0.0
176
     1
 40
1.0
176
     1
 90
        0
176
     1
 62
    18
420
        0
176
     1
 90
       50
176
     1
 90
        3
176
     1
 62
     5
420
      255
176
     1
290
     0
176
     1
 90
       50
176
     1
 90
       50
176
     1
 90
       50
176
     1
290
     0
176
     1
 90
       50
176
     1
 62
   256
176
     0
 40
1.0
176
     0
 90
        2
176
     1
  1
strokes_ogs.tif
176
     1
290
     0
176
     1
 40
1.0
176
     1
 40
1.0
176
     1
  0
VISUALSTYLE
  5
3F
102
{ACAD_REACTORS
330
29
102
}
330
29
100
AcDbVisualStyle
  2
JitterOff
 70
    20
177
     3
291
     1
 70
    58
 90
        2
176
     0
 90
        2
176
     0
 90
        0
176
     0
 90
        0
176
     0
 40
0.6
176
     0
 40
30.0
176
     0
 62
     7
420
 16777215
176
     0
 90
        1
176
     0
 90
        4
176
     0
 62
     7
176
     0
 62
   257
176
     0
 90
        1
176
     0
 90
        1
176
     0
 40
1.0
176
     0
 90
       10
176
     2
 62
     7
176
     0
 40
1.0
176
     0
 90
        1
176
     0
 90
        6
176
     0
 90
        2
176
     0
 62
     7
176
     0
 90
        5
176
     0
 90
        0
176
     0
 90
        0
176
     0
290
     0
176
     0
 90
        1
176
     0
 40
0.0
176
     0
 90
        0
176
     0
290
     0
176
     0
290
     1
176
     0
290
     1
176
     0
290
     0
176
     0
290
     0
176
     0
290
     0
176
     0
290
     0
176
     0
290
     0
176
     0
290
     0
176
     0
 90
       50
176
     0
 40
0.0
176
     0
 40
1.0
176
     0
 90
        0
176
     0
 62
    18
420
        0
176
     0
 90
       50
176
     0
 90
        3
176
     0
 62
     5
420
      255
176
     0
290
     0
176
     0
 90
       50
176
     0
 90
       50
176
     0
 90
       50
176
     0
290
     0
176
     0
 90
       50
176
     0
 62
   256
176
     0
 40
1.0
176
     0
 90
        2
176
     0
  1
strokes_ogs.tif
176
     0
290
     0
176
     0
 40
1.0
176
     0
 40
1.0
176
     0
  0
VISUALSTYLE
  5
37
102
{ACAD_REACTORS
330
29
102
}
330
29
100
AcDbVisualStyle
  2
Linepattern
 70
    14
177
     3
291
     1
 70
    58
 90
        2
176
     1
 90
        2
176
     1
 90
        0
176
     1
 90
        0
176
     1
 40
0.6
176
     1
 40
30.0
176
     1
 62
     7
420
 16777215
176
     1
 90
        1
176
     1
 90
        4
176
     1
 62
     7
176
     1
 62
   257
176
     1
 90
        7
176
     1
 90
        7
176
     1
 40
1.0
176
     1
 90
        8
176
     1
 62
     7
176
     1
 40
1.0
176
     1
 90
        1
176
     1
 90
        6
176
     1
 90
        2
176
     1
 62
     7
176
     1
 90
        5
176
     1
 90
        0
176
     1
 90
        0
176
     1
290
     0
176
     1
 90
        1
176
     1
 40
0.0
176
     1
 90
        0
176
     1
290
     0
176
     1
290
     1
176
     1
290
     1
176
     1
290
     0
176
     1
290
     0
176
     1
290
     0
176
     1
290
     0
176
     1
290
     0
176
     1
290
     0
176
     1
 90
       50
176
     1
 40
0.0
176
     1
 40
1.0
176
     1
 90
        0
176
     1
 62
    18
420
        0
176
     1
 90
       50
176
     1
 90
        3
176
     1
 62
     5
420
      255
176
     1
290
     0
176
     1
 90
       50
176
     1
 90
       50
176
     1
 90
       50
176
     1
290
     0
176
     1
 90
       50
176
     1
 62
   256
176
     0
 40
1.0
176
     0
 90
        2
176
     1
  1
strokes_ogs.tif
176
     1
290
     0
176
     1
 40
1.0
176
     1
 40
1.0
176
     1
  0
VISUALSTYLE
  5
40
102
{ACAD_REACTORS
330
29
102
}
330
29
100
AcDbVisualStyle
  2
OverhangOff
 70
    21
177
     3
291
     1
 70
    58
 90
        2
176
     0
 90
        2
176
     0
 90
        0
176
     0
 90
        0
176
     0
 40
0.6
176
     0
 40
30.0
176
     0
 62
     7
420
 16777215
176
     0
 90
        1
176
     0
 90
        4
176
     0
 62
     7
176
     0
 62
   257
176
     0
 90
        1
176
     0
 90
        1
176
     0
 40
1.0
176
     0
 90
        9
176
     2
 62
     7
176
     0
 40
1.0
176
     0
 90
        1
176
     0
 90
        6
176
     0
 90
        2
176
     0
 62
     7
176
     0
 90
        5
176
     0
 90
        0
176
     0
 90
        0
176
     0
290
     0
176
     0
 90
        1
176
     0
 40
0.0
176
     0
 90
        0
176
     0
290
     0
176
     0
290
     1
176
     0
290
     1
176
     0
290
     0
176
     0
290
     0
176
     0
290
     0
176
     0
290
     0
176
     0
290
     0
176
     0
290
     0
176
     0
 90
       50
176
     0
 40
0.0
176
     0
 40
1.0
176
     0
 90
        0
176
     0
 62
    18
420
        0
176
     0
 90
       50
176
     0
 90
        3
176
     0
 62
     5
420
      255
176
     0
290
     0
176
     0
 90
       50
176
     0
 90
       50
176
     0
 90
       50
176
     0
290
     0
176
     0
 90
       50
176
     0
 62
   256
176
     0
 40
1.0
176
     0
 90
        2
176
     0
  1
strokes_ogs.tif
176
     0
290
     0
176
     0
 40
1.0
176
     0
 40
1.0
176
     0
  0
VISUALSTYLE
  5
33
102
{ACAD_REACTORS
330
29
102
}
330
29
100
AcDbVisualStyle
  2
Realistic
 70
     8
177
     3
291
     0
 70
    58
 90
        2
176
     1
 90
        3
176
     1
 90
        0
176
     1
 90
        2
176
     1
 40
0.6
176
     1
 40
30.0
176
     1
 62
     7
420
 16777215
176
     1
 90
        0
176
     1
 90
        0
176
     1
 62
     7
176
     1
 62
   257
176
     1
 90
        1
176
     1
 90
        1
176
     1
 40
1.0
176
     1
 90
        8
176
     1
 62
   257
176
     1
 40
1.0
176
     1
 90
        1
176
     1
 90
        6
176
     1
 90
        2
176
     1
 62
     7
176
     1
 90
        3
176
     1
 90
        0
176
     1
 90
        0
176
     1
290
     0
176
     1
 90
       13
176
     1
 40
0.0
176
     1
 90
        0
176
     1
290
     0
176
     1
290
     1
176
     1
290
     1
176
     1
290
     0
176
     1
290
     0
176
     1
290
     0
176
     1
290
     0
176
     1
290
     0
176
     1
290
     0
176
     1
 90
       50
176
     1
 40
0.0
176
     1
 40
1.0
176
     1
 90
        0
176
     1
 62
    18
420
        0
176
     1
 90
       50
176
     1
 90
        3
176
     1
 62
     5
420
      255
176
     1
290
     0
176
     1
 90
       50
176
     1
 90
       50
176
     1
 90
       50
176
     1
290
     0
176
     1
 90
       50
176
     1
 62
   256
176
     0
 40
1.0
176
     0
 90
        2
176
     1
  1
strokes_ogs.tif
176
     1
290
     0
176
     1
 40
1.0
176
     1
 40
1.0
176
     1
  0
VISUALSTYLE
  5
3E
102
{ACAD_REACTORS
330
29
102
}
330
29
100
AcDbVisualStyle
  2
Shaded
 70
    27
177
     3
291
     0
 70
    58
 90
        2
176
     1
 90
        2
176
     1
 90
        1
176
     1
 90
        2
176
     1
 40
0.6
176
     1
 40
30.0
176
     1
 62
     7
420
 16777215
176
     1
 90
        0
176
     1
 90
        4
176
     1
 62
     7
176
     1
 62
   257
176
     1
 90
        1
176
     1
 90
        1
176
     1
 40
1.0
176
     1
 90
        8
176
     1
 62
   257
176
     1
 40
1.0
176
     1
 90
        1
176
     1
 90
        6
176
     1
 90
        2
176
     1
 62
     8
420
  7895160
176
     1
 90
        3
176
     1
 90
        0
176
     1
 90
        0
176
     1
290
     0
176
     1
 90
        5
176
     1
 40
0.0
176
     1
 90
        0
176
     1
290
     0
176
     1
290
     1
176
     1
290
     1
176
     1
290
     0
176
     1
290
     0
176
     1
290
     0
176
     1
290
     0
176
     1
290
     0
176
     1
290
     0
176
     1
 90
       50
176
     1
 40
0.0
176
     1
 40
1.0
176
     1
 90
        0
176
     1
 62
    18
420
        0
176
     1
 90
       50
176
     1
 90
        3
176
     1
 62
     5
420
      255
176
     1
290
     0
176
     1
 90
       50
176
     1
 90
       50
176
     1
 90
       50
176
     1
290
     0
176
     1
 90
       50
176
     1
 62
   256
176
     0
 40
1.0
176
     0
 90
        2
176
     1
  1
strokes_ogs.tif
176
     1
290
     0
176
     1
 40
1.0
176
     1
 40
1.0
176
     1
  0
VISUALSTYLE
  5
3D
102
{ACAD_REACTORS
330
29
102
}
330
29
100
AcDbVisualStyle
  2
Shaded with edges
 70
    26
177
     3
291
     0
 70
    58
 90
        2
176
     1
 90
        2
176
     1
 90
        1
176
     1
 90
        2
176
     1
 40
0.6
176
     1
 40
30.0
176
     1
 62
     7
420
 16777215
176
     1
 90
        1
176
     1
 90
        2
176
     1
 62
     7
176
     1
 62
   257
176
     1
 90
        2
176
     1
 90
        1
176
     1
 40
1.0
176
     1
 90
        8
176
     1
 62
   257
176
     1
 40
1.0
176
     1
 90
        1
176
     1
 90
        6
176
     1
 90
        2
176
     1
 62
     7
176
     1
 90
        3
176
     1
 90
        0
176
     1
 90
        0
176
     1
290
     0
176
     1
 90
        5
176
     1
 40
0.0
176
     1
 90
        0
176
     1
290
     0
176
     1
290
     1
176
     1
290
     1
176
     1
290
     0
176
     1
290
     0
176
     1
290
     0
176
     1
290
     0
176
     1
290
     0
176
     1
290
     0
176
     1
 90
       50
176
     1
 40
0.0
176
     1
 40
1.0
176
     1
 90
        0
176
     1
 62
    18
420
        0
176
     1
 90
       50
176
     1
 90
        3
176
     1
 62
     5
420
      255
176
     1
290
     0
176
     1
 90
       50
176
     1
 90
       50
176
     1
 90
       50
176
     1
290
     0
176
     1
 90
       50
176
     1
 62
   256
176
     0
 40
1.0
176
     0
 90
        2
176
     1
  1
strokes_ogs.tif
176
     1
290
     0
176
     1
 40
1.0
176
     1
 40
1.0
176
     1
  0
VISUALSTYLE
  5
3A
102
{ACAD_REACTORS
330
29
102
}
330
29
100
AcDbVisualStyle
  2
Shades of Gray
 70
    23
177
     3
291
     0
 70
    58
 90
        2
176
     1
 90
        2
176
     1
 90
        3
176
     1
 90
        0
176
     1
 40
0.6
176
     1
 40
30.0
176
     1
 62
     7
420
 16777215
176
     1
 90
        2
176
     1
 90
        2
176
     1
 62
     7
176
     1
 62
     7
176
     1
 90
        1
176
     1
 90
        1
176
     1
 40
40.0
176
     1
 90
        8
176
     1
 62
     7
176
     1
 40
1.0
176
     1
 90
        1
176
     1
 90
        6
176
     1
 90
        2
176
     1
 62
     7
176
     1
 90
        3
176
     1
 90
        0
176
     1
 90
        0
176
     1
290
     0
176
     1
 90
        1
176
     1
 40
0.0
176
     1
 90
        0
176
     1
290
     0
176
     1
290
     1
176
     1
290
     1
176
     1
290
     0
176
     1
290
     0
176
     1
290
     0
176
     1
290
     0
176
     1
290
     0
176
     1
290
     0
176
     1
 90
       50
176
     1
 40
0.0
176
     1
 40
1.0
176
     1
 90
        0
176
     1
 62
    18
420
        0
176
     1
 90
       50
176
     1
 90
        3
176
     1
 62
     5
420
      255
176
     1
290
     0
176
     1
 90
       50
176
     1
 90
       50
176
     1
 90
       50
176
     1
290
     0
176
     1
 90
       50
176
     1
 62
   256
176
     0
 40
1.0
176
     0
 90
        2
176
     1
  1
strokes_ogs.tif
176
     1
290
     0
176
     1
 40
1.0
176
     1
 40
1.0
176
     1
  0
VISUALSTYLE
  5
3B
102
{ACAD_REACTORS
330
29
102
}
330
29
100
AcDbVisualStyle
  2
Sketchy
 70
    24
177
     3
291
     0
 70
    58
 90
        1
176
     1
 90
        2
176
     1
 90
        2
176
     1
 90
        0
176
     1
 40
0.6
176
     1
 40
30.0
176
     1
 62
     7
420
 16777215
176
     1
 90
        2
176
     1
 90
        2
176
     1
 62
     7
176
     1
 62
     7
176
     1
 90
        1
176
     1
 90
        1
176
     1
 40
40.0
176
     1
 90
       11
176
     1
 62
     7
176
     1
 40
1.0
176
     1
 90
        1
176
     1
 90
        6
176
     1
 90
        2
176
     1
 62
     7
176
     1
 90
        6
176
     1
 90
        0
176
     1
 90
        0
176
     1
290
     0
176
     1
 90
        1
176
     1
 40
0.0
176
     1
 90
        0
176
     1
290
     0
176
     1
290
     1
176
     1
290
     1
176
     1
290
     0
176
     1
290
     0
176
     1
290
     0
176
     1
290
     0
176
     1
290
     0
176
     1
290
     0
176
     1
 90
       50
176
     1
 40
0.0
176
     1
 40
1.0
176
     1
 90
        0
176
     1
 62
    18
420
        0
176
     1
 90
       50
176
     1
 90
        3
176
     1
 62
     5
420
      255
176
     1
290
     0
176
     1
 90
       50
176
     1
 90
       50
176
     1
 90
       50
176
     1
290
     0
176
     1
 90
       50
176
     1
 62
   256
176
     0
 40
1.0
176
     0
 90
        2
176
     1
  1
strokes_ogs.tif
176
     1
290
     0
176
     1
 40
1.0
176
     1
 40
1.0
176
     1
  0
VISUALSTYLE
  5
36
102
{ACAD_REACTORS
330
29
102
}
330
29
100
AcDbVisualStyle
  2
Thicken
 70
    13
177
     3
291
     1
 70
    58
 90
        2
176
     1
 90
        2
176
     1
 90
        0
176
     1
 90
        0
176
     1
 40
0.6
176
     1
 40
30.0
176
     1
 62
     7
420
 16777215
176
     1
 90
        1
176
     1
 90
        4
176
     1
 62
     7
176
     1
 62
   257
176
     1
 90
        1
176
     1
 90
        1
176
     1
 40
1.0
176
     1
 90
       12
176
     1
 62
     7
176
     1
 40
1.0
176
     1
 90
        1
176
     1
 90
        6
176
     1
 90
        2
176
     1
 62
     7
176
     1
 90
        5
176
     1
 90
        0
176
     1
 90
        0
176
     1
290
     0
176
     1
 90
        1
176
     1
 40
0.0
176
     1
 90
        0
176
     1
290
     0
176
     1
290
     1
176
     1
290
     1
176
     1
290
     0
176
     1
290
     0
176
     1
290
     0
176
     1
290
     0
176
     1
290
     0
176
     1
290
     0
176
     1
 90
       50
176
     1
 40
0.0
176
     1
 40
1.0
176
     1
 90
        0
176
     1
 62
    18
420
        0
176
     1
 90
       50
176
     1
 90
        3
176
     1
 62
     5
420
      255
176
     1
290
     0
176
     1
 90
       50
176
     1
 90
       50
176
     1
 90
       50
176
     1
290
     0
176
     1
 90
       50
176
     1
 62
   256
176
     0
 40
1.0
176
     0
 90
        2
176
     1
  1
strokes_ogs.tif
176
     1
290
     0
176
     1
 40
1.0
176
     1
 40
1.0
176
     1
  0
VISUALSTYLE
  5
30
102
{ACAD_REACTORS
330
29
102
}
330
29
100
AcDbVisualStyle
  2
Wireframe
 70
     5
177
     3
291
     0
 70
    58
 90
        0
176
     1
 90
        2
176
     1
 90
        0
176
     1
 90
        0
176
     1
 40
0.6
176
     1
 40
30.0
176
     1
 62
     7
420
 16777215
176
     1
 90
        1
176
     1
 90
        4
176
     1
 62
     7
176
     1
 62
   257
176
     1
 90
        1
176
     1
 90
        1
176
     1
 40
1.0
176
     1
 90
        0
176
     1
 62
   257
176
     1
 40
1.0
176
     1
 90
        1
176
     1
 90
        6
176
     1
 90
        2
176
     1
 62
     7
176
     1
 90
        3
176
     1
 90
        0
176
     1
 90
        0
176
     1
290
     0
176
     1
 90
        1
176
     1
 40
0.0
176
     1
 90
        0
176
     1
290
     0
176
     1
290
     1
176
     1
290
     1
176
     1
290
     0
176
     1
290
     0
176
     1
290
     0
176
     1
290
     0
176
     1
290
     0
176
     1
290
     0
176
     1
 90
       50
176
     1
 40
0.0
176
     1
 40
1.0
176
     1
 90
        0
176
     1
 62
    18
420
        0
176
     1
 90
       50
176
     1
 90
        3
176
     1
 62
     5
420
      255
176
     1
290
     0
176
     1
 90
       50
176
     1
 90
       50
176
     1
 90
       50
176
     1
290
     0
176
     1
 90
       50
176
     1
 62
   256
176
     0
 40
1.0
176
     0
 90
        2
176
     1
  1
strokes_ogs.tif
176
     1
290
     0
176
     1
 40
1.0
176
     1
 40
1.0
176
     1
  0
VISUALSTYLE
  5
3C
102
{ACAD_REACTORS
330
29
102
}
330
29
100
AcDbVisualStyle
  2
X-Ray
 70
    25
177
     3
291
     0
 70
    58
 90
        2
176
     1
 90
        2
176
     1
 90
        1
176
     1
 90
        1
176
     1
 40
0.5
176
     1
 40
30.0
176
     1
 62
     7
420
 16777215
176
     1
 90
        1
176
     1
 90
        0
176
     1
 62
     7
176
     1
 62
   257
176
     1
 90
        1
176
     1
 90
        1
176
     1
 40
1.0
176
     1
 90
        8
176
     1
 62
     7
176
     1
 40
1.0
176
     1
 90
        1
176
     1
 90
        6
176
     1
 90
        2
176
     1
 62
     7
176
     1
 90
        3
176
     1
 90
        0
176
     1
 90
        0
176
     1
290
     0
176
     1
 90
       13
176
     1
 40
0.0
176
     1
 90
        0
176
     1
290
     0
176
     1
290
     1
176
     1
290
     1
176
     1
290
     0
176
     1
290
     0
176
     1
290
     0
176
     1
290
     0
176
     1
290
     0
176
     1
290
     0
176
     1
 90
       50
176
     1
 40
0.0
176
     1
 40
1.0
176
     1
 90
        0
176
     1
 62
    18
420
        0
176
     1
 90
       50
176
     1
 90
        3
176
     1
 62
     5
420
      255
176
     1
290
     0
176
     1
 90
       50
176
     1
 90
       50
176
     1
 90
       50
176
     1
290
     0
176
     1
 90
       50
176
     1
 62
   256
176
     0
 40
1.0
176
     0
 90
        2
176
     1
  1
strokes_ogs.tif
176
     1
290
     0
176
     1
 40
1.0
176
     1
 40
1.0
176
     1
  0
DICTIONARYVAR
  5
356
102
{ACAD_REACTORS
330
351
102
}
330
351
100
DictionaryVariables
280
     0
  1
1:1
  0
DICTIONARYVAR
  5
353
102
{ACAD_REACTORS
330
351
102
}
330
351
100
DictionaryVariables
280
     0
  1
STANDARD
  0
DICTIONARYVAR
  5
352
102
{ACAD_REACTORS
330
351
102
}
330
351
100
DictionaryVariables
280
     0
  1
STANDARD
  0
DICTIONARYVAR
  5
354
102
{ACAD_REACTORS
330
351
102
}
330
351
100
DictionaryVariables
280
     0
  1
Imperial24
  0
DICTIONARYVAR
  5
355
102
{ACAD_REACTORS
330
351
102
}
330
351
100
DictionaryVariables
280
     0
  1
Imperial24
  0
DICTIONARY
  5
1A
330
19
100
AcDbDictionary
280
     1
281
     1
  3
BUMPTILE
360
1C
  3
DIFFUSETILE
360
1B
  3
OPACITYTILE
360
1F
  3
REFLECTIONTILE
360
1E
  3
REFRACTIONTILE
360
20
  3
SPECULARTILE
360
1D
  0
DICTIONARY
  5
12
330
11
100
AcDbDictionary
280
     1
281
     1
  3
BUMPTILE
360
14
  3
DIFFUSETILE
360
13
  3
OPACITYTILE
360
17
  3
REFLECTIONTILE
360
16
  3
REFRACTIONTILE
360
18
  3
SPECULARTILE
360
15
  0
DICTIONARY
  5
22
330
21
100
AcDbDictionary
280
     1
281
     1
  3
BUMPTILE
360
24
  3
DIFFUSETILE
360
23
  3
OPACITYTILE
360
27
  3
REFLECTIONTILE
360
26
  3
REFRACTIONTILE
360
28
  3
SPECULARTILE
360
25
  0
DICTIONARY
  5
357
330
65
100
AcDbDictionary
280
     1
281
     1
  3
ACAD_ROUNDTRIP_2008_TABLESTYLE_CELLSTYLEMAP
360
358
  0
XRECORD
  5
1C
102
{ACAD_REACTORS
330
1A
102
}
330
1A
100
AcDbXrecord
280
     1
270
     1
271
     1
  0
XRECORD
  5
1B
102
{ACAD_REACTORS
330
1A
102
}
330
1A
100
AcDbXrecord
280
     1
270
     1
271
     1
  0
XRECORD
  5
1F
102
{ACAD_REACTORS
330
1A
102
}
330
1A
100
AcDbXrecord
280
     1
270
     1
271
     1
  0
XRECORD
  5
1E
102
{ACAD_REACTORS
330
1A
102
}
330
1A
100
AcDbXrecord
280
     1
270
     1
271
     1
  0
XRECORD
  5
20
102
{ACAD_REACTORS
330
1A
102
}
330
1A
100
AcDbXrecord
280
     1
270
     1
271
     1
  0
XRECORD
  5
1D
102
{ACAD_REACTORS
330
1A
102
}
330
1A
100
AcDbXrecord
280
     1
270
     1
271
     1
  0
XRECORD
  5
14
102
{ACAD_REACTORS
330
12
102
}
330
12
100
AcDbXrecord
280
     1
270
     1
271
     1
  0
XRECORD
  5
13
102
{ACAD_REACTORS
330
12
102
}
330
12
100
AcDbXrecord
280
     1
270
     1
271
     1
  0
XRECORD
  5
17
102
{ACAD_REACTORS
330
12
102
}
330
12
100
AcDbXrecord
280
     1
270
     1
271
     1
  0
XRECORD
  5
16
102
{ACAD_REACTORS
330
12
102
}
330
12
100
AcDbXrecord
280
     1
270
     1
271
     1
  0
XRECORD
  5
18
102
{ACAD_REACTORS
330
12
102
}
330
12
100
AcDbXrecord
280
     1
270
     1
271
     1
  0
XRECORD
  5
15
102
{ACAD_REACTORS
330
12
102
}
330
12
100
AcDbXrecord
280
     1
270
     1
271
     1
  0
XRECORD
  5
24
102
{ACAD_REACTORS
330
22
102
}
330
22
100
AcDbXrecord
280
     1
270
     1
271
     1
  0
XRECORD
  5
23
102
{ACAD_REACTORS
330
22
102
}
330
22
100
AcDbXrecord
280
     1
270
     1
271
     1
  0
XRECORD
  5
27
102
{ACAD_REACTORS
330
22
102
}
330
22
100
AcDbXrecord
280
     1
270
     1
271
     1
  0
XRECORD
  5
26
102
{ACAD_REACTORS
330
22
102
}
330
22
100
AcDbXrecord
280
     1
270
     1
271
     1
  0
XRECORD
  5
28
102
{ACAD_REACTORS
330
22
102
}
330
22
100
AcDbXrecord
280
     1
270
     1
271
     1
  0
XRECORD
  5
25
102
{ACAD_REACTORS
330
22
102
}
330
22
100
AcDbXrecord
280
     1
270
     1
271
     1
  0
CELLSTYLEMAP
  5
358
102
{ACAD_REACTORS
330
357
102
}
330
357
100
AcDbCellStyleMap
 90
        3
300
CELLSTYLE
  1
TABLEFORMAT_BEGIN
 90
        5
170
     1
 91
        0
 92
    32768
 62
   257
 93
        1
300
CONTENTFORMAT
  1
CONTENTFORMAT_BEGIN
 90
        0
 91
        0
 92
      512
 93
        0
300

 40
0.0
140
1.0
 94
        5
 62
     0
340
55
144
0.25
309
CONTENTFORMAT_END
171
     0
 94
        0
309
TABLEFORMAT_END
  1
CELLSTYLE_BEGIN
 90
        1
 91
        1
300
_TITLE
309
CELLSTYLE_END
300
CELLSTYLE
  1
TABLEFORMAT_BEGIN
 90
        5
170
     1
 91
        0
 92
        0
 62
   257
 93
        1
300
CONTENTFORMAT
  1
CONTENTFORMAT_BEGIN
 90
        0
 91
        0
 92
      512
 93
        0
300

 40
0.0
140
1.0
 94
        5
 62
     0
340
55
144
0.18
309
CONTENTFORMAT_END
171
     0
 94
        0
309
TABLEFORMAT_END
  1
CELLSTYLE_BEGIN
 90
        2
 91
        1
300
_HEADER
309
CELLSTYLE_END
300
CELLSTYLE
  1
TABLEFORMAT_BEGIN
 90
        5
170
     1
 91
        0
 92
        0
 62
   257
 93
        1
300
CONTENTFORMAT
  1
CONTENTFORMAT_BEGIN
 90
        0
 91
        0
 92
      512
 93
        0
300

 40
0.0
140
1.0
 94
        2
 62
     0
340
55
144
0.18
309
CONTENTFORMAT_END
171
     0
 94
        0
309
TABLEFORMAT_END
  1
CELLSTYLE_BEGIN
 90
        3
 91
        2
300
_DATA
309
CELLSTYLE_END
  0
ENDSEC
  0
EOF
