  0
SECTION
  2
HEADER
  9
$ACADVER
  1
AC1014
  9
$HANDSEED
  5
FFFF
  9
$MEASUREMENT
 70
     1
  0
ENDSEC
  0
SECTION
  2
TABLES
  0
TABLE
  2
VPORT
  5
8
330
0
100
AcDbSymbolTable
 70
     4
  0
VPORT
  5
2E
330
8
100
AcDbSymbolTableRecord
100
AcDbViewportTableRecord
  2
*ACTIVE
 70
     0
 10
0.0
 20
0.0
 11
1.0
 21
1.0
 12
210.0
 22
148.5
 13
0.0
 23
0.0
 14
10.0
 24
10.0
 15
10.0
 25
10.0
 16
0.0
 26
0.0
 36
1.0
 17
0.0
 27
0.0
 37
0.0
 40
341.0
 41
1.24
 42
50.0
 43
0.0
 44
0.0
 50
0.0
 51
0.0
 71
     0
 72
   100
 73
     1
 74
     3
 75
     0
 76
     0
 77
     0
 78
     0
  0
ENDTAB
  0
TABLE
  2
LTYPE
  5
5
330
0
100
AcDbSymbolTable
 70
     1
  0
LTYPE
  5
14
330
5
100
AcDbSymbolTableRecord
100
AcDbLinetypeTableRecord
  2
BYBLOCK
 70
     0
  3

 72
    65
 73
     0
 40
0.0
  0
LTYPE
  5
15
330
5
100
AcDbSymbolTableRecord
100
AcDbLinetypeTableRecord
  2
BYLAYER
 70
     0
  3

 72
    65
 73
     0
 40
0.0
  0
LTYPE
  5
16
330
5
100
AcDbSymbolTableRecord
100
AcDbLinetypeTableRecord
  2
CONTINUOUS
 70
     0
  3
Solid line
 72
    65
 73
     0
 40
0.0
  0
ENDTAB
  0
TABLE
  2
LAYER
  5
2
100
AcDbSymbolTable
 70
2
  0
LAYER
  5
50
100
AcDbSymbolTableRecord
100
AcDbLayerTableRecord
  2
0
 70
0
  6
CONTINUOUS
  0
LAYER
  5
51
100
AcDbSymbolTableRecord
100
AcDbLayerTableRecord
  2
Ebene_1
 70
0
  6
CONTINUOUS
  0
ENDTAB
  0
TABLE
  2
STYLE
  5
3
330
0
100
AcDbSymbolTable
 70
     1
  0
STYLE
  5
11
330
3
100
AcDbSymbolTableRecord
100
AcDbTextStyleTableRecord
  2
STANDARD
 70
     0
 40
0.0
 41
1.0
 50
0.0
 71
     0
 42
2.5
  3
txt
  4

  0
ENDTAB
  0
TABLE
  2
VIEW
  5
6
330
0
100
AcDbSymbolTable
 70
     0
  0
ENDTAB
  0
TABLE
  2
UCS
  5
7
330
0
100
AcDbSymbolTable
 70
     0
  0
ENDTAB
  0
TABLE
  2
APPID
  5
9
330
0
100
AcDbSymbolTable
 70
     2
  0
APPID
  5
12
330
9
100
AcDbSymbolTableRecord
100
AcDbRegAppTableRecord
  2
ACAD
 70
     0
  0
ENDTAB
  0
TABLE
  2
DIMSTYLE
  5
A
330
0
100
AcDbSymbolTable
 70
     1
  0
DIMSTYLE
105
27
330
A
100
AcDbSymbolTableRecord
100
AcDbDimStyleTableRecord
  2
ISO-25
 70
     0
  3

  4

  5

  6

  7

 40
1.0
 41
2.5
 42
0.625
 43
3.75
 44
1.25
 45
0.0
 46
0.0
 47
0.0
 48
0.0
140
2.5
141
2.5
142
0.0
143
0.03937007874016
144
1.0
145
0.0
146
1.0
147
0.625
 71
     0
 72
     0
 73
     0
 74
     0
 75
     0
 76
     0
 77
     1
 78
     8
170
     0
171
     3
172
     1
173
     0
174
     0
175
     0
176
     0
177
     0
178
     0
270
     2
271
     2
272
     2
273
     2
274
     3
340
11
275
     0
280
     0
281
     0
282
     0
283
     0
284
     8
285
     0
286
     0
287
     3
288
     0
  0
ENDTAB
  0
TABLE
  2
BLOCK_RECORD
  5
1
330
0
100
AcDbSymbolTable
 70
     1
  0
BLOCK_RECORD
  5
1F
330
1
100
AcDbSymbolTableRecord
100
AcDbBlockTableRecord
  2
*MODEL_SPACE
  0
BLOCK_RECORD
  5
1B
330
1
100
AcDbSymbolTableRecord
100
AcDbBlockTableRecord
  2
*PAPER_SPACE
  0
ENDTAB
  0
ENDSEC
  0
SECTION
  2
BLOCKS
  0
BLOCK
  5
20
330
1F
100
AcDbEntity
  8
0
100
AcDbBlockBegin
  2
*MODEL_SPACE
 70
     0
 10
0.0
 20
0.0
 30
0.0
  3
*MODEL_SPACE
  1

  0
ENDBLK
  5
21
330
1F
100
AcDbEntity
  8
0
100
AcDbBlockEnd
  0
BLOCK
  5
1C
330
1B
100
AcDbEntity
 67
     1
  8
0
100
AcDbBlockBegin
  2
*PAPER_SPACE
  1

  0
ENDBLK
  5
1D
330
1B
100
AcDbEntity
 67
     1
  8
0
100
AcDbBlockEnd
  0
ENDSEC
  0
SECTION
  2
ENTITIES
  0
LWPOLYLINE
  5
100
100
AcDbEntity
  8
Ebene_1
 62
7
100
AcDbPolyline
 90
4
 70
1
 10
0.910645
 20
11.298610
 30
0.0
 10
0.910645
 20
1.931220
 30
0.0
 10
53.612338
 20
1.931220
 30
0.0
 10
53.612338
 20
11.298610
 30
0.0
  0
LWPOLYLINE
  5
101
100
AcDbEntity
  8
Ebene_1
 62
7
100
AcDbPolyline
 90
12
 70
1
 10
5.581161
 20
10.547750
 30
0.0
 10
6.520121
 20
10.547750
 30
0.0
 10
6.520121
 20
6.608970
 30
0.0
 10
6.543891
 20
6.608970
 30
0.0
 10
6.543891
 20
10.547750
 30
0.0
 10
7.520059
 20
10.547750
 30
0.0
 10
7.520059
 20
6.608970
 30
0.0
 10
6.543892
 20
6.608970
 30
0.0
 10
6.543892
 20
2.626790
 30
0.0
 10
6.514952
 20
2.626790
 30
0.0
 10
6.514952
 20
6.608970
 30
0.0
 10
5.581159
 20
6.608970
 30
0.0
  0
LWPOLYLINE
  5
102
100
AcDbEntity
  8
Ebene_1
 62
7
100
AcDbPolyline
 90
12
 70
1
 10
8.053361
 20
10.547750
 30
0.0
 10
8.993872
 20
10.547750
 30
0.0
 10
8.993872
 20
6.608970
 30
0.0
 10
9.031592
 20
6.608970
 30
0.0
 10
9.031592
 20
10.547750
 30
0.0
 10
9.991741
 20
10.547750
 30
0.0
 10
9.991741
 20
6.608970
 30
0.0
 10
9.037276
 20
6.608970
 30
0.0
 10
9.037276
 20
2.625760
 30
0.0
 10
8.993866
 20
2.625760
 30
0.0
 10
8.993866
 20
6.608970
 30
0.0
 10
8.053355
 20
6.608970
 30
0.0
  0
LWPOLYLINE
  5
103
100
AcDbEntity
  8
Ebene_1
 62
7
100
AcDbPolyline
 90
12
 70
1
 10
10.525045
 20
10.547750
 30
0.0
 10
11.437651
 20
10.547750
 30
0.0
 10
11.437651
 20
6.608970
 30
0.0
 10
11.491391
 20
6.608970
 30
0.0
 10
11.491391
 20
10.547750
 30
0.0
 10
12.463945
 20
10.547750
 30
0.0
 10
12.463945
 20
6.608970
 30
0.0
 10
11.491394
 20
6.608970
 30
0.0
 10
11.491394
 20
2.628860
 30
0.0
 10
11.430934
 20
2.628860
 30
0.0
 10
11.430934
 20
6.608970
 30
0.0
 10
10.525045
 20
6.608970
 30
0.0
  0
LWPOLYLINE
  5
104
100
AcDbEntity
  8
Ebene_1
 62
7
100
AcDbPolyline
 90
12
 70
1
 10
12.997246
 20
10.547750
 30
0.0
 10
13.956360
 20
10.547750
 30
0.0
 10
13.956360
 20
6.608970
 30
0.0
 10
14.026640
 20
6.608970
 30
0.0
 10
14.026640
 20
10.547750
 30
0.0
 10
14.935629
 20
10.547750
 30
0.0
 10
14.935629
 20
6.608970
 30
0.0
 10
14.026640
 20
6.608970
 30
0.0
 10
14.026640
 20
2.631440
 30
0.0
 10
13.949120
 20
2.631440
 30
0.0
 10
13.949120
 20
6.608970
 30
0.0
 10
12.997241
 20
6.608970
 30
0.0
  0
LWPOLYLINE
  5
105
100
AcDbEntity
  8
Ebene_1
 62
7
100
AcDbPolyline
 90
4
 70
1
 10
15.468929
 20
10.547750
 30
0.0
 10
16.390320
 20
10.547750
 30
0.0
 10
16.390320
 20
6.608970
 30
0.0
 10
15.468929
 20
6.608970
 30
0.0
  0
LWPOLYLINE
  5
106
100
AcDbEntity
  8
Ebene_1
 62
7
100
AcDbPolyline
 90
4
 70
1
 10
16.481787
 20
10.547750
 30
0.0
 10
17.407829
 20
10.547750
 30
0.0
 10
17.407829
 20
6.608970
 30
0.0
 10
16.481787
 20
6.608970
 30
0.0
  0
LWPOLYLINE
  5
107
100
AcDbEntity
  8
Ebene_1
 62
7
100
AcDbPolyline
 90
12
 70
1
 10
17.941130
 20
10.547750
 30
0.0
 10
18.855803
 20
10.547750
 30
0.0
 10
18.855803
 20
6.608970
 30
0.0
 10
18.967941
 20
6.608970
 30
0.0
 10
18.967941
 20
10.547750
 30
0.0
 10
19.879514
 20
10.547750
 30
0.0
 10
19.879514
 20
6.608970
 30
0.0
 10
18.975692
 20
6.608970
 30
0.0
 10
18.975692
 20
2.628860
 30
0.0
 10
18.855803
 20
2.628860
 30
0.0
 10
18.855803
 20
6.608970
 30
0.0
 10
17.941130
 20
6.608970
 30
0.0
  0
LWPOLYLINE
  5
108
100
AcDbEntity
  8
Ebene_1
 62
7
100
AcDbPolyline
 90
12
 70
1
 10
20.412813
 20
10.547750
 30
0.0
 10
21.335754
 20
10.547750
 30
0.0
 10
21.335754
 20
6.608970
 30
0.0
 10
21.469080
 20
6.608970
 30
0.0
 10
21.469080
 20
10.547750
 30
0.0
 10
22.351714
 20
10.547750
 30
0.0
 10
22.351714
 20
6.608970
 30
0.0
 10
21.476314
 20
6.608970
 30
0.0
 10
21.476314
 20
2.628340
 30
0.0
 10
21.335754
 20
2.628340
 30
0.0
 10
21.335754
 20
6.608970
 30
0.0
 10
20.412813
 20
6.608970
 30
0.0
  0
LWPOLYLINE
  5
109
100
AcDbEntity
  8
Ebene_1
 62
7
100
AcDbPolyline
 90
12
 70
1
 10
22.885014
 20
10.547750
 30
0.0
 10
23.786251
 20
10.547750
 30
0.0
 10
23.786251
 20
6.608970
 30
0.0
 10
23.940246
 20
6.608970
 30
0.0
 10
23.940246
 20
10.547750
 30
0.0
 10
24.823396
 20
10.547750
 30
0.0
 10
24.823396
 20
6.608970
 30
0.0
 10
23.947482
 20
6.608970
 30
0.0
 10
23.947482
 20
2.627820
 30
0.0
 10
23.786251
 20
2.627820
 30
0.0
 10
23.786251
 20
6.608970
 30
0.0
 10
22.885014
 20
6.608970
 30
0.0
  0
LWPOLYLINE
  5
10a
100
AcDbEntity
  8
Ebene_1
 62
7
100
AcDbPolyline
 90
12
 70
1
 10
25.356698
 20
10.547750
 30
0.0
 10
26.255869
 20
10.547750
 30
0.0
 10
26.255869
 20
6.608970
 30
0.0
 10
26.430018
 20
6.608970
 30
0.0
 10
26.430018
 20
10.547750
 30
0.0
 10
27.295597
 20
10.547750
 30
0.0
 10
27.295597
 20
6.608970
 30
0.0
 10
26.437251
 20
6.608970
 30
0.0
 10
26.437251
 20
2.627310
 30
0.0
 10
26.255869
 20
2.627310
 30
0.0
 10
26.255869
 20
6.608970
 30
0.0
 10
25.356698
 20
6.608970
 30
0.0
  0
LWPOLYLINE
  5
10b
100
AcDbEntity
  8
Ebene_1
 62
7
100
AcDbPolyline
 90
12
 70
1
 10
27.828898
 20
10.547750
 30
0.0
 10
28.716700
 20
10.547750
 30
0.0
 10
28.716700
 20
6.608970
 30
0.0
 10
28.912552
 20
6.608970
 30
0.0
 10
28.912552
 20
10.547750
 30
0.0
 10
29.767281
 20
10.547750
 30
0.0
 10
29.767281
 20
6.608970
 30
0.0
 10
28.919789
 20
6.608970
 30
0.0
 10
28.919789
 20
2.626270
 30
0.0
 10
28.716700
 20
2.626270
 30
0.0
 10
28.716700
 20
6.608970
 30
0.0
 10
27.828898
 20
6.608970
 30
0.0
  0
LWPOLYLINE
  5
10c
100
AcDbEntity
  8
Ebene_1
 62
7
100
AcDbPolyline
 90
12
 70
1
 10
30.300583
 20
10.547750
 30
0.0
 10
31.165646
 20
10.547750
 30
0.0
 10
31.165646
 20
6.608970
 30
0.0
 10
31.381652
 20
6.608970
 30
0.0
 10
31.381652
 20
10.547750
 30
0.0
 10
32.239481
 20
10.547750
 30
0.0
 10
32.239481
 20
6.608970
 30
0.0
 10
31.381652
 20
6.608970
 30
0.0
 10
31.381652
 20
2.625760
 30
0.0
 10
31.158410
 20
2.625760
 30
0.0
 10
31.158410
 20
6.608970
 30
0.0
 10
30.300583
 20
6.608970
 30
0.0
  0
LWPOLYLINE
  5
10d
100
AcDbEntity
  8
Ebene_1
 62
7
100
AcDbPolyline
 90
12
 70
1
 10
32.772783
 20
10.547750
 30
0.0
 10
33.614592
 20
10.547750
 30
0.0
 10
33.614592
 20
6.608970
 30
0.0
 10
33.851270
 20
6.608970
 30
0.0
 10
33.851270
 20
10.547750
 30
0.0
 10
34.711166
 20
10.547750
 30
0.0
 10
34.711166
 20
6.608970
 30
0.0
 10
33.857472
 20
6.608970
 30
0.0
 10
33.857472
 20
2.625760
 30
0.0
 10
33.614592
 20
2.625760
 30
0.0
 10
33.614592
 20
6.608970
 30
0.0
 10
32.772783
 20
6.608970
 30
0.0
  0
LWPOLYLINE
  5
10e
100
AcDbEntity
  8
Ebene_1
 62
7
100
AcDbPolyline
 90
12
 70
1
 10
35.244465
 20
10.547750
 30
0.0
 10
36.109012
 20
10.547750
 30
0.0
 10
36.109012
 20
6.608970
 30
0.0
 10
36.365844
 20
6.608970
 30
0.0
 10
36.365844
 20
10.547750
 30
0.0
 10
37.183366
 20
10.547750
 30
0.0
 10
37.183366
 20
6.608970
 30
0.0
 10
36.372045
 20
6.608970
 30
0.0
 10
36.372045
 20
2.625760
 30
0.0
 10
36.109012
 20
2.625760
 30
0.0
 10
36.109012
 20
6.608970
 30
0.0
 10
35.244465
 20
6.608970
 30
0.0
  0
LWPOLYLINE
  5
10f
100
AcDbEntity
  8
Ebene_1
 62
7
100
AcDbPolyline
 90
4
 70
1
 10
37.716666
 20
10.547750
 30
0.0
 10
38.538837
 20
10.547750
 30
0.0
 10
38.538837
 20
6.608970
 30
0.0
 10
37.716666
 20
6.608970
 30
0.0
  0
LWPOLYLINE
  5
110
100
AcDbEntity
  8
Ebene_1
 62
7
100
AcDbPolyline
 90
4
 70
1
 10
38.815824
 20
10.547750
 30
0.0
 10
39.655048
 20
10.547750
 30
0.0
 10
39.655048
 20
6.608970
 30
0.0
 10
38.815824
 20
6.608970
 30
0.0
  0
LWPOLYLINE
  5
111
100
AcDbEntity
  8
Ebene_1
 62
7
100
AcDbPolyline
 90
4
 70
1
 10
40.188350
 20
10.547750
 30
0.0
 10
41.015689
 20
10.547750
 30
0.0
 10
41.015689
 20
6.608970
 30
0.0
 10
40.188350
 20
6.608970
 30
0.0
  0
LWPOLYLINE
  5
112
100
AcDbEntity
  8
Ebene_1
 62
7
100
AcDbPolyline
 90
4
 70
1
 10
41.312314
 20
10.547750
 30
0.0
 10
42.126733
 20
10.547750
 30
0.0
 10
42.126733
 20
6.608970
 30
0.0
 10
41.312314
 20
6.608970
 30
0.0
  0
LWPOLYLINE
  5
113
100
AcDbEntity
  8
Ebene_1
 62
7
100
AcDbPolyline
 90
4
 70
1
 10
42.660551
 20
10.547750
 30
0.0
 10
43.468771
 20
10.547750
 30
0.0
 10
43.468771
 20
6.608970
 30
0.0
 10
42.660551
 20
6.608970
 30
0.0
  0
LWPOLYLINE
  5
114
100
AcDbEntity
  8
Ebene_1
 62
7
100
AcDbPolyline
 90
4
 70
1
 10
43.786065
 20
10.547750
 30
0.0
 10
44.598933
 20
10.547750
 30
0.0
 10
44.598933
 20
6.608970
 30
0.0
 10
43.786065
 20
6.608970
 30
0.0
  0
LWPOLYLINE
  5
115
100
AcDbEntity
  8
Ebene_1
 62
7
100
AcDbPolyline
 90
4
 70
1
 10
45.132235
 20
10.547750
 30
0.0
 10
45.921850
 20
10.547750
 30
0.0
 10
45.921850
 20
6.608970
 30
0.0
 10
45.132235
 20
6.608970
 30
0.0
  0
LWPOLYLINE
  5
116
100
AcDbEntity
  8
Ebene_1
 62
7
100
AcDbPolyline
 90
4
 70
1
 10
46.259297
 20
10.547750
 30
0.0
 10
47.070618
 20
10.547750
 30
0.0
 10
47.070618
 20
6.608970
 30
0.0
 10
46.259297
 20
6.608970
 30
0.0
  0
LWPOLYLINE
  5
117
100
AcDbEntity
  8
Ebene_1
 62
7
100
AcDbPolyline
 90
12
 70
1
 10
47.604436
 20
10.547750
 30
0.0
 10
48.375448
 20
10.547750
 30
0.0
 10
48.375448
 20
6.610010
 30
0.0
 10
48.732532
 20
6.610010
 30
0.0
 10
48.732532
 20
10.547750
 30
0.0
 10
49.542818
 20
10.547750
 30
0.0
 10
49.542818
 20
6.608970
 30
0.0
 10
48.735633
 20
6.608970
 30
0.0
 10
48.735633
 20
2.626270
 30
0.0
 10
48.371831
 20
2.626270
 30
0.0
 10
48.371831
 20
6.608970
 30
0.0
 10
47.604436
 20
6.608970
 30
0.0
  0
LWPOLYLINE
  5
118
100
AcDbEntity
  8
Ebene_1
 62
7
100
AcDbPolyline
 90
12
 70
1
 10
3.108443
 20
10.545750
 30
0.0
 10
4.072209
 20
10.545750
 30
0.0
 10
4.072209
 20
6.611630
 30
0.0
 10
4.078409
 20
6.611630
 30
0.0
 10
4.078409
 20
10.545750
 30
0.0
 10
5.046827
 20
10.545750
 30
0.0
 10
5.046827
 20
6.606980
 30
0.0
 10
4.079444
 20
6.606980
 30
0.0
 10
4.079444
 20
2.627380
 30
0.0
 10
4.071144
 20
2.627380
 30
0.0
 10
4.071144
 20
6.606980
 30
0.0
 10
3.108412
 20
6.606980
 30
0.0
  0
LWPOLYLINE
  5
119
100
AcDbEntity
  8
Ebene_1
 62
7
100
AcDbPolyline
 90
12
 70
1
 10
50.076118
 20
10.494550
 30
0.0
 10
50.828527
 20
10.494550
 30
0.0
 10
50.828527
 20
6.555770
 30
0.0
 10
51.205764
 20
6.555770
 30
0.0
 10
51.205764
 20
10.494550
 30
0.0
 10
52.014503
 20
10.494550
 30
0.0
 10
52.014503
 20
6.555770
 30
0.0
 10
51.211966
 20
6.555770
 30
0.0
 10
51.211966
 20
2.572030
 30
0.0
 10
50.828527
 20
2.572030
 30
0.0
 10
50.828527
 20
6.555770
 30
0.0
 10
50.076118
 20
6.555770
 30
0.0
  0
LWPOLYLINE
  5
11a
100
AcDbEntity
  8
Ebene_1
 62
7
100
AcDbPolyline
 90
4
 70
1
 10
45.918749
 20
6.607450
 30
0.0
 10
46.262398
 20
6.607450
 30
0.0
 10
46.262398
 20
2.623710
 30
0.0
 10
45.918749
 20
2.623710
 30
0.0
  0
LWPOLYLINE
  5
11b
100
AcDbEntity
  8
Ebene_1
 62
7
100
AcDbPolyline
 90
4
 70
1
 10
38.535739
 20
6.606920
 30
0.0
 10
38.818925
 20
6.606920
 30
0.0
 10
38.818925
 20
2.623700
 30
0.0
 10
38.535739
 20
2.623700
 30
0.0
  0
LWPOLYLINE
  5
11c
100
AcDbEntity
  8
Ebene_1
 62
7
100
AcDbPolyline
 90
4
 70
1
 10
43.465670
 20
6.603920
 30
0.0
 10
43.789163
 20
6.603920
 30
0.0
 10
43.789163
 20
2.620180
 30
0.0
 10
43.465670
 20
2.620180
 30
0.0
  0
LWPOLYLINE
  5
11d
100
AcDbEntity
  8
Ebene_1
 62
7
100
AcDbPolyline
 90
4
 70
1
 10
16.386703
 20
6.603390
 30
0.0
 10
16.485923
 20
6.603390
 30
0.0
 10
16.485923
 20
2.591230
 30
0.0
 10
16.386703
 20
2.591230
 30
0.0
  0
LWPOLYLINE
  5
11e
100
AcDbEntity
  8
Ebene_1
 62
7
100
AcDbPolyline
 90
4
 70
1
 10
41.012588
 20
6.600390
 30
0.0
 10
41.315930
 20
6.600390
 30
0.0
 10
41.315930
 20
2.617170
 30
0.0
 10
41.012588
 20
2.617170
 30
0.0
  0
ENDSEC
  0
SECTION
  2
OBJECTS
  0
DICTIONARY
  5
C
330
0
100
AcDbDictionary
  3
ACAD_GROUP
350
D
  3
ACAD_MLINESTYLE
350
17
  0
DICTIONARY
  5
D
330
C
100
AcDbDictionary
  0
DICTIONARY
  5
1A
330
C
100
AcDbDictionary
  0
DICTIONARY
  5
17
330
C
100
AcDbDictionary
  3
STANDARD
350
18
  0
DICTIONARY
  5
19
330
C
100
AcDbDictionary
  0
ENDSEC
  0
EOF
