999
"DXF R12 Output" (www.mydxf.blogspot.com)
 0 
SECTION
 2 
HEADER
 9 
$ACADVER
 1 
AC1009
 9 
$EXTMIN
 10 
 0 
 20 
 0 
 9 
$EXTMAX
 10 
 8.5 
 20 
 11 
 0 
ENDSEC
 0 
SECTION
 2 
ENTITIES
0
LINE
8
Ebene 1
10
0.165220
20
2.795590
11
0.185657
21
2.329768
0
LINE
8
Ebene 1
10
0.185657
20
2.329768
11
0.189024
21
2.252925
0
LINE
8
Ebene 1
10
0.189024
20
2.252925
11
0.015791
21
1.898034
0
LINE
8
Ebene 1
10
0.015791
20
1.898034
11
0.300474
21
1.457623
0
LINE
8
Ebene 1
10
0.300474
20
1.457623
11
0.987777
21
1.275198
0
LINE
8
Ebene 1
10
0.987777
20
1.275198
11
1.675080
21
1.457623
0
LINE
8
Ebene 1
10
1.675080
20
1.457623
11
1.959763
21
1.898034
0
LINE
8
Ebene 1
10
1.959763
20
1.898034
11
1.795600
21
2.244399
0
LINE
8
Ebene 1
10
1.795600
20
2.244399
11
1.799341
21
2.329768
0
LINE
8
Ebene 1
10
1.799341
20
2.329768
11
1.819778
21
2.795590
0
LINE
8
Ebene 1
10
1.819778
20
2.795590
11
1.406132
21
2.580373
0
LINE
8
Ebene 1
10
1.406132
20
2.580373
11
1.248033
21
2.498111
0
LINE
8
Ebene 1
10
1.248033
20
2.498111
11
0.987777
21
2.520858
0
LINE
8
Ebene 1
10
0.987777
20
2.520858
11
0.734566
21
2.499353
0
LINE
8
Ebene 1
10
0.734566
20
2.499353
11
0.578854
21
2.580376
0
LINE
8
Ebene 1
10
0.578854
20
2.580376
11
0.165220
21
2.795590
0
LINE
8
Ebene 1
10
0.519698
20
2.077332
11
0.519723
21
2.077332
0
LINE
8
Ebene 1
10
0.519723
20
2.077332
11
0.520651
21
2.077332
0
LINE
8
Ebene 1
10
0.520651
20
2.077332
11
0.707498
21
2.050381
0
LINE
8
Ebene 1
10
0.707498
20
2.050381
11
0.784881
21
1.985316
0
LINE
8
Ebene 1
10
0.784881
20
1.985316
11
0.520653
21
1.893312
0
LINE
8
Ebene 1
10
0.520653
20
1.893312
11
0.256423
21
1.985316
0
LINE
8
Ebene 1
10
0.256423
20
1.985316
11
0.519698
21
2.077332
0
LINE
8
Ebene 1
10
0.519698
20
2.077332
11
0.519698
21
2.077332
0
LINE
8
Ebene 1
10
1.411473
20
2.063164
11
1.411498
21
2.063164
0
LINE
8
Ebene 1
10
1.411498
20
2.063164
11
1.412426
21
2.063164
0
LINE
8
Ebene 1
10
1.412426
20
2.063164
11
1.599273
21
2.036213
0
LINE
8
Ebene 1
10
1.599273
20
2.036213
11
1.676656
21
1.971149
0
LINE
8
Ebene 1
10
1.676656
20
1.971149
11
1.412426
21
1.879144
0
LINE
8
Ebene 1
10
1.412426
20
1.879144
11
1.148196
21
1.971149
0
LINE
8
Ebene 1
10
1.148196
20
1.971149
11
1.411471
21
2.063164
0
LINE
8
Ebene 1
10
1.411471
20
2.063164
11
1.411473
21
2.063164
0
LINE
8
Ebene 1
10
0.836528
20
1.846206
11
0.965030
21
1.845360
0
LINE
8
Ebene 1
10
0.965030
20
1.845360
11
1.093519
21
1.844513
0
LINE
8
Ebene 1
10
1.093519
20
1.844513
11
1.028016
21
1.773554
0
LINE
8
Ebene 1
10
1.028016
20
1.773554
11
0.962501
21
1.702581
0
LINE
8
Ebene 1
10
0.962501
20
1.702581
11
0.899514
21
1.774483
0
LINE
8
Ebene 1
10
0.899514
20
1.774483
11
0.836528
21
1.846206
 0 
ENDSEC
 0 
EOF