999
"DXF R12 Output" (www.mydxf.blogspot.com)
 0 
SECTION
 2 
HEADER
 9 
$ACADVER
 1 
AC1009
 9 
$EXTMIN
 10 
 0 
 20 
 0 
 9 
$EXTMAX
 10 
 8.5 
 20 
 11 
 0 
ENDSEC
 0 
SECTION
 2 
ENTITIES
0
LINE
8
Ebene 1
10
2.211850
20
7.290370
11
1.417652
21
7.130824
0
LINE
8
Ebene 1
10
1.417652
20
7.130824
11
0.770479
21
6.695201
0
LINE
8
Ebene 1
10
0.770479
20
6.695201
11
0.334856
21
6.048028
0
LINE
8
Ebene 1
10
0.334856
20
6.048028
11
0.175310
21
5.253830
0
LINE
8
Ebene 1
10
0.175310
20
5.253830
11
0.175303
21
-18.486400
0
LINE
8
Ebene 1
10
0.175303
20
-18.486400
11
0.334849
21
-19.280622
0
LINE
8
Ebene 1
10
0.334849
20
-19.280622
11
0.770472
21
-19.927846
0
LINE
8
Ebene 1
10
0.770472
20
-19.927846
11
1.417645
21
-20.363520
0
LINE
8
Ebene 1
10
1.417645
20
-20.363520
11
2.211843
21
-20.523090
0
LINE
8
Ebene 1
10
2.211843
20
-20.523090
11
25.952100
21
-20.523100
0
LINE
8
Ebene 1
10
25.952100
20
-20.523100
11
26.746298
21
-20.363531
0
LINE
8
Ebene 1
10
26.746298
20
-20.363531
11
27.393471
21
-19.927858
0
LINE
8
Ebene 1
10
27.393471
20
-19.927858
11
27.829094
21
-19.280633
0
LINE
8
Ebene 1
10
27.829094
20
-19.280633
11
27.988640
21
-18.486410
0
LINE
8
Ebene 1
10
27.988640
20
-18.486410
11
27.988600
21
-18.024200
0
LINE
8
Ebene 1
10
27.988600
20
-18.024200
11
27.621413
21
-17.973283
0
LINE
8
Ebene 1
10
27.621413
20
-17.973283
11
27.295309
21
-17.792402
0
LINE
8
Ebene 1
10
27.295309
20
-17.792402
11
26.698190
21
-17.301843
0
LINE
8
Ebene 1
10
26.698190
20
-17.301843
11
26.238965
21
-16.440519
0
LINE
8
Ebene 1
10
26.238965
20
-16.440519
11
25.540284
21
-15.517797
0
LINE
8
Ebene 1
10
25.540284
20
-15.517797
11
24.718981
21
-14.725400
0
LINE
8
Ebene 1
10
24.718981
20
-14.725400
11
23.891890
21
-14.255053
0
LINE
8
Ebene 1
10
23.891890
20
-14.255053
11
21.279200
21
-13.000700
0
LINE
8
Ebene 1
10
21.279200
20
-13.000700
11
20.850280
21
-11.960073
0
LINE
8
Ebene 1
10
20.850280
20
-11.960073
11
20.275291
21
-11.306099
0
LINE
8
Ebene 1
10
20.275291
20
-11.306099
11
19.602637
21
-10.936842
0
LINE
8
Ebene 1
10
19.602637
20
-10.936842
11
18.880725
21
-10.750366
0
LINE
8
Ebene 1
10
18.880725
20
-10.750366
11
17.482747
21
-10.518020
0
LINE
8
Ebene 1
10
17.482747
20
-10.518020
11
16.903492
21
-10.268280
0
LINE
8
Ebene 1
10
16.903492
20
-10.268280
11
16.468600
21
-9.793580
0
LINE
8
Ebene 1
10
16.468600
20
-9.793580
11
15.786761
21
-8.165484
0
LINE
8
Ebene 1
10
15.786761
20
-8.165484
11
14.902675
21
-6.738163
0
LINE
8
Ebene 1
10
14.902675
20
-6.738163
11
13.855353
21
-5.480084
0
LINE
8
Ebene 1
10
13.855353
20
-5.480084
11
12.683804
21
-4.359713
0
LINE
8
Ebene 1
10
12.683804
20
-4.359713
11
10.124063
21
-2.405962
0
LINE
8
Ebene 1
10
10.124063
20
-2.405962
11
7.535530
21
-0.624643
0
LINE
8
Ebene 1
10
7.535530
20
-0.624643
11
6.092270
21
1.620310
0
LINE
8
Ebene 1
10
6.092270
20
1.620310
11
4.705719
21
2.860338
0
LINE
8
Ebene 1
10
4.705719
20
2.860338
11
4.020139
21
4.064556
0
LINE
8
Ebene 1
10
4.020139
20
4.064556
11
3.789335
21
5.464166
0
LINE
8
Ebene 1
10
3.789335
20
5.464166
11
3.767110
21
7.290370
0
LINE
8
Ebene 1
10
3.767110
20
7.290370
11
2.211850
21
7.290370
0
LINE
8
Ebene 1
10
55.041500
20
0.502112
11
54.939440
21
1.110235
0
LINE
8
Ebene 1
10
54.939440
20
1.110235
11
54.728082
21
1.577748
0
LINE
8
Ebene 1
10
54.728082
20
1.577748
11
54.034061
21
2.203177
0
LINE
8
Ebene 1
10
54.034061
20
2.203177
11
51.956930
21
3.001272
0
LINE
8
Ebene 1
10
51.956930
20
3.001272
11
50.612816
21
4.251759
0
LINE
8
Ebene 1
10
50.612816
20
4.251759
11
49.209329
21
5.210860
0
LINE
8
Ebene 1
10
49.209329
20
5.210860
11
47.692785
21
5.956234
0
LINE
8
Ebene 1
10
47.692785
20
5.956234
11
46.009500
21
6.565540
0
LINE
8
Ebene 1
10
46.009500
20
6.565540
11
45.121673
21
6.852758
0
LINE
8
Ebene 1
10
45.121673
20
6.852758
11
44.477156
21
7.234682
0
LINE
8
Ebene 1
10
44.477156
20
7.234682
11
44.030217
21
7.709297
0
LINE
8
Ebene 1
10
44.030217
20
7.709297
11
43.735125
21
8.274587
0
LINE
8
Ebene 1
10
43.735125
20
8.274587
11
43.417556
21
9.669134
0
LINE
8
Ebene 1
10
43.417556
20
9.669134
11
43.158600
21
11.402200
0
LINE
8
Ebene 1
10
43.158600
20
11.402200
11
41.839678
21
12.938069
0
LINE
8
Ebene 1
10
41.839678
20
12.938069
11
40.445850
21
14.194150
0
LINE
8
Ebene 1
10
40.445850
20
14.194150
11
37.291500
21
16.474900
0
LINE
8
Ebene 1
10
37.291500
20
16.474900
11
35.421237
21
17.729250
0
LINE
8
Ebene 1
10
35.421237
20
17.729250
11
33.985836
21
19.238428
0
LINE
8
Ebene 1
10
33.985836
20
19.238428
11
32.890108
21
20.861968
0
LINE
8
Ebene 1
10
32.890108
20
20.861968
11
32.038863
21
22.459400
0
LINE
8
Ebene 1
10
32.038863
20
22.459400
11
30.689058
21
25.014072
0
LINE
8
Ebene 1
10
30.689058
20
25.014072
11
30.000118
21
25.690375
0
LINE
8
Ebene 1
10
30.000118
20
25.690375
11
29.610493
21
25.816814
0
LINE
8
Ebene 1
10
29.610493
20
25.816814
11
29.174900
21
25.778700
0
LINE
8
Ebene 1
10
29.174900
20
25.778700
11
29.055687
21
24.761390
0
LINE
8
Ebene 1
10
29.055687
20
24.761390
11
28.982442
21
1.967190
0
LINE
8
Ebene 1
10
28.982442
20
1.967190
11
29.132821
21
1.206022
0
LINE
8
Ebene 1
10
29.132821
20
1.206022
11
29.548086
21
0.584805
0
LINE
8
Ebene 1
10
29.548086
20
0.584805
11
30.166619
21
0.165556
0
LINE
8
Ebene 1
10
30.166619
20
0.165556
11
30.926802
21
0.010290
0
LINE
8
Ebene 1
10
30.926802
20
0.010290
11
54.348502
21
-0.064972
0
LINE
8
Ebene 1
10
54.348502
20
-0.064972
11
55.041500
21
0.502112
0
LINE
8
Ebene 1
10
31.082500
20
27.214900
11
32.972570
21
26.097220
0
LINE
8
Ebene 1
10
32.972570
20
26.097220
11
35.763440
21
25.657545
0
LINE
8
Ebene 1
10
35.763440
20
25.657545
11
37.023963
21
24.534678
0
LINE
8
Ebene 1
10
37.023963
20
24.534678
11
38.082826
21
24.039550
0
LINE
8
Ebene 1
10
38.082826
20
24.039550
11
39.245072
21
24.037967
0
LINE
8
Ebene 1
10
39.245072
20
24.037967
11
40.815740
21
24.395735
0
LINE
8
Ebene 1
10
40.815740
20
24.395735
11
41.831892
21
24.346105
0
LINE
8
Ebene 1
10
41.831892
20
24.346105
11
42.617741
21
23.823436
0
LINE
8
Ebene 1
10
42.617741
20
23.823436
11
43.185672
21
22.968272
0
LINE
8
Ebene 1
10
43.185672
20
22.968272
11
43.548070
21
21.921155
0
LINE
8
Ebene 1
10
43.548070
20
21.921155
11
43.750935
21
19.976676
0
LINE
8
Ebene 1
10
43.750935
20
19.976676
11
44.090436
21
18.453075
0
LINE
8
Ebene 1
10
44.090436
20
18.453075
11
44.617104
21
17.101635
0
LINE
8
Ebene 1
10
44.617104
20
17.101635
11
45.409648
21
16.155865
0
LINE
8
Ebene 1
10
45.409648
20
16.155865
11
47.279456
21
14.698745
0
LINE
8
Ebene 1
10
47.279456
20
14.698745
11
48.454166
21
14.291693
0
LINE
8
Ebene 1
10
48.454166
20
14.291693
11
49.552846
21
13.817056
0
LINE
8
Ebene 1
10
49.552846
20
13.817056
11
50.366931
21
13.089432
0
LINE
8
Ebene 1
10
50.366931
20
13.089432
11
50.602074
21
12.572810
0
LINE
8
Ebene 1
10
50.602074
20
12.572810
11
50.687856
21
11.923415
0
LINE
8
Ebene 1
10
50.687856
20
11.923415
11
51.156379
21
11.296532
0
LINE
8
Ebene 1
10
51.156379
20
11.296532
11
51.829151
21
10.832405
0
LINE
8
Ebene 1
10
51.829151
20
10.832405
11
53.484444
21
10.012200
0
LINE
8
Ebene 1
10
53.484444
20
10.012200
11
54.315469
21
9.466011
0
LINE
8
Ebene 1
10
54.315469
20
9.466011
11
55.047750
21
8.702357
0
LINE
8
Ebene 1
10
55.047750
20
8.702357
11
55.605539
21
7.626184
0
LINE
8
Ebene 1
10
55.605539
20
7.626184
11
55.913086
21
6.142435
0
LINE
8
Ebene 1
10
55.913086
20
6.142435
11
55.974234
21
4.680705
0
LINE
8
Ebene 1
10
55.974234
20
4.680705
11
55.919996
21
3.519249
0
LINE
8
Ebene 1
10
55.919996
20
3.519249
11
55.980944
21
3.054616
0
LINE
8
Ebene 1
10
55.980944
20
3.054616
11
56.170651
21
2.669244
0
LINE
8
Ebene 1
10
56.170651
20
2.669244
11
56.541650
21
2.364527
0
LINE
8
Ebene 1
10
56.541650
20
2.364527
11
57.146476
21
2.141865
0
LINE
8
Ebene 1
10
57.146476
20
2.141865
11
57.257711
21
3.160075
0
LINE
8
Ebene 1
10
57.257711
20
3.160075
11
57.152233
21
25.954075
0
LINE
8
Ebene 1
10
57.152233
20
25.954075
11
56.995893
21
26.714040
0
LINE
8
Ebene 1
10
56.995893
20
26.714040
11
56.575769
21
27.331981
0
LINE
8
Ebene 1
10
56.575769
20
27.331981
11
55.953964
21
27.746367
0
LINE
8
Ebene 1
10
55.953964
20
27.746367
11
55.192583
21
27.895665
0
LINE
8
Ebene 1
10
55.192583
20
27.895665
11
31.770983
21
27.787283
0
LINE
8
Ebene 1
10
31.770983
20
27.787283
11
31.082500
21
27.214900
0
LINE
8
Ebene 1
10
78.501100
20
0.995926
11
77.390852
21
2.163997
0
LINE
8
Ebene 1
10
77.390852
20
2.163997
11
76.647050
21
2.745197
0
LINE
8
Ebene 1
10
76.647050
20
2.745197
11
75.795998
21
2.833680
0
LINE
8
Ebene 1
10
75.795998
20
2.833680
11
74.364000
21
2.523596
0
LINE
8
Ebene 1
10
74.364000
20
2.523596
11
73.171483
21
2.463334
0
LINE
8
Ebene 1
10
73.171483
20
2.463334
11
72.000822
21
2.732860
0
LINE
8
Ebene 1
10
72.000822
20
2.732860
11
71.050681
21
3.333161
0
LINE
8
Ebene 1
10
71.050681
20
3.333161
11
70.720387
21
3.757662
0
LINE
8
Ebene 1
10
70.720387
20
3.757662
11
70.519720
21
4.265226
0
LINE
8
Ebene 1
10
70.519720
20
4.265226
11
70.250870
21
5.184536
0
LINE
8
Ebene 1
10
70.250870
20
5.184536
11
69.766384
21
6.022661
0
LINE
8
Ebene 1
10
69.766384
20
6.022661
11
68.873120
21
7.360306
0
LINE
8
Ebene 1
10
68.873120
20
7.360306
11
68.321706
21
8.810119
0
LINE
8
Ebene 1
10
68.321706
20
8.810119
11
67.458814
21
9.969505
0
LINE
8
Ebene 1
10
67.458814
20
9.969505
11
65.487340
21
11.742956
0
LINE
8
Ebene 1
10
65.487340
20
11.742956
11
64.399243
21
12.578869
0
LINE
8
Ebene 1
10
64.399243
20
12.578869
11
63.296633
21
13.248296
0
LINE
8
Ebene 1
10
63.296633
20
13.248296
11
61.254164
21
14.360515
0
LINE
8
Ebene 1
10
61.254164
20
14.360515
11
60.417450
21
14.939718
0
LINE
8
Ebene 1
10
60.417450
20
14.939718
11
59.772513
21
15.625259
0
LINE
8
Ebene 1
10
59.772513
20
15.625259
11
59.370926
21
16.485343
0
LINE
8
Ebene 1
10
59.370926
20
16.485343
11
59.264260
21
17.588176
0
LINE
8
Ebene 1
10
59.264260
20
17.588176
11
59.118452
21
22.052446
0
LINE
8
Ebene 1
10
59.118452
20
22.052446
11
58.851655
21
23.897477
0
LINE
8
Ebene 1
10
58.851655
20
23.897477
11
58.648506
21
24.520979
0
LINE
8
Ebene 1
10
58.648506
20
24.520979
11
58.390752
21
24.868096
0
LINE
8
Ebene 1
10
58.390752
20
24.868096
11
58.317507
21
2.073896
0
LINE
8
Ebene 1
10
58.317507
20
2.073896
11
58.467885
21
1.312238
0
LINE
8
Ebene 1
10
58.467885
20
1.312238
11
58.883149
21
0.690206
0
LINE
8
Ebene 1
10
58.883149
20
0.690206
11
59.501681
21
0.270794
0
LINE
8
Ebene 1
10
59.501681
20
0.270794
11
60.261867
21
0.116996
0
LINE
8
Ebene 1
10
60.261867
20
0.116996
11
80.817267
21
0.117163
0
LINE
8
Ebene 1
10
80.817267
20
0.117163
11
79.979121
21
0.528029
0
LINE
8
Ebene 1
10
79.979121
20
0.528029
11
78.501097
21
0.995872
0
LINE
8
Ebene 1
10
78.501097
20
0.995872
11
78.501100
21
0.995926
0
LINE
8
Ebene 1
10
17.294800
20
23.077500
11
17.270515
21
22.674036
0
LINE
8
Ebene 1
10
17.270515
20
22.674036
11
17.126652
21
22.394132
0
LINE
8
Ebene 1
10
17.126652
20
22.394132
11
16.651339
21
22.075223
0
LINE
8
Ebene 1
10
16.651339
20
22.075223
11
16.211149
21
21.861215
0
LINE
8
Ebene 1
10
16.211149
20
21.861215
11
16.111190
21
21.712437
0
LINE
8
Ebene 1
10
16.111190
20
21.712437
11
16.148370
21
21.492550
0
LINE
8
Ebene 1
10
16.148370
20
21.492550
11
16.273746
21
20.195781
0
LINE
8
Ebene 1
10
16.273746
20
20.195781
11
16.202091
21
19.373566
0
LINE
8
Ebene 1
10
16.202091
20
19.373566
11
16.270009
21
18.760101
0
LINE
8
Ebene 1
10
16.270009
20
18.760101
11
16.814103
21
18.089580
0
LINE
8
Ebene 1
10
16.814103
20
18.089580
11
18.401113
21
17.511670
0
LINE
8
Ebene 1
10
18.401113
20
17.511670
11
19.554564
21
16.844522
0
LINE
8
Ebene 1
10
19.554564
20
16.844522
11
20.400504
21
16.089856
0
LINE
8
Ebene 1
10
20.400504
20
16.089856
11
21.064982
21
15.249391
0
LINE
8
Ebene 1
10
21.064982
20
15.249391
11
22.353742
21
13.317947
0
LINE
8
Ebene 1
10
22.353742
20
13.317947
11
23.230122
21
12.230408
0
LINE
8
Ebene 1
10
23.230122
20
12.230408
11
24.429233
21
11.063950
0
LINE
8
Ebene 1
10
24.429233
20
11.063950
11
24.368900
21
23.826100
0
LINE
8
Ebene 1
10
24.368900
20
23.826100
11
24.219549
21
24.587958
0
LINE
8
Ebene 1
10
24.219549
20
24.587958
11
23.805124
21
25.210549
0
LINE
8
Ebene 1
10
23.805124
20
25.210549
11
23.187157
21
25.630795
0
LINE
8
Ebene 1
10
23.187157
20
25.630795
11
22.427180
21
25.785620
0
LINE
8
Ebene 1
10
22.427180
20
25.785620
11
10.696980
21
25.801264
0
LINE
8
Ebene 1
10
10.696980
20
25.801264
11
11.891463
21
24.888912
0
LINE
8
Ebene 1
10
11.891463
20
24.888912
11
13.001862
21
24.439128
0
LINE
8
Ebene 1
10
13.001862
20
24.439128
11
14.017396
21
24.302327
0
LINE
8
Ebene 1
10
14.017396
20
24.302327
11
14.927285
21
24.328920
0
LINE
8
Ebene 1
10
14.927285
20
24.328920
11
15.720750
21
24.369322
0
LINE
8
Ebene 1
10
15.720750
20
24.369322
11
16.387011
21
24.273943
0
LINE
8
Ebene 1
10
16.387011
20
24.273943
11
16.915287
21
23.893198
0
LINE
8
Ebene 1
10
16.915287
20
23.893198
11
17.294800
21
23.077500
0
LINE
8
Ebene 1
10
17.294800
20
23.077500
11
17.294800
21
23.077500
 0 
ENDSEC
 0 
EOF