  0
SECTION
  2
HEADER
  9
$ACADVER
  1
AC1032
  9
$ACADMAINTVER
 90
      155
  9
$DWGCODEPAGE
  3
ANSI_1252
  9
$LASTSAVEDBY
  1
Kurt
  9
$REQUIREDVERSIONS
160
                 0
  9
$INSBASE
 10
0.0
 20
0.0
 30
0.0
  9
$EXTMIN
 10
0.0
 20
-50.0
 30
0.0
  9
$EXTMAX
 10
52.99989369468967
 20
12.51125595120694
 30
0.0
  9
$LIMMIN
 10
0.0
 20
0.0
  9
$LIMMAX
 10
12.0
 20
9.0
  9
$ORTHOMODE
 70
     0
  9
$REGENMODE
 70
     1
  9
$FILLMODE
 70
     1
  9
$QTEXTMODE
 70
     0
  9
$MIRRTEXT
 70
     0
  9
$LTSCALE
 40
1.0
  9
$ATTMODE
 70
     1
  9
$TEXTSIZE
 40
0.2
  9
$TRACEWID
 40
0.05
  9
$TEXTSTYLE
  7
STANDARD
  9
$CLAYER
  8
0
  9
$CELTYPE
  6
Continuous
  9
$CECOLOR
 62
   256
  9
$CELTSCALE
 40
1.0
  9
$DISPSILH
 70
     0
  9
$DIMSCALE
 40
1.0
  9
$DIMASZ
 40
0.18
  9
$DIMEXO
 40
0.0625
  9
$DIMDLI
 40
0.38
  9
$DIMRND
 40
0.0
  9
$DIMDLE
 40
0.0
  9
$DIMEXE
 40
0.18
  9
$DIMTP
 40
0.0
  9
$DIMTM
 40
0.0
  9
$DIMTXT
 40
0.18
  9
$DIMCEN
 40
0.09
  9
$DIMTSZ
 40
0.0
  9
$DIMTOL
 70
     0
  9
$DIMLIM
 70
     0
  9
$DIMTIH
 70
     1
  9
$DIMTOH
 70
     1
  9
$DIMSE1
 70
     0
  9
$DIMSE2
 70
     0
  9
$DIMTAD
 70
     0
  9
$DIMZIN
 70
     0
  9
$DIMBLK
  1

  9
$DIMASO
 70
     1
  9
$DIMSHO
 70
     1
  9
$DIMPOST
  1

  9
$DIMAPOST
  1

  9
$DIMALT
 70
     0
  9
$DIMALTD
 70
     2
  9
$DIMALTF
 40
25.4
  9
$DIMLFAC
 40
1.0
  9
$DIMTOFL
 70
     0
  9
$DIMTVP
 40
0.0
  9
$DIMTIX
 70
     0
  9
$DIMSOXD
 70
     0
  9
$DIMSAH
 70
     0
  9
$DIMBLK1
  1

  9
$DIMBLK2
  1

  9
$DIMSTYLE
  2
Standard
  9
$DIMCLRD
 70
     0
  9
$DIMCLRE
 70
     0
  9
$DIMCLRT
 70
     0
  9
$DIMTFAC
 40
1.0
  9
$DIMGAP
 40
0.09
  9
$DIMJUST
 70
     0
  9
$DIMSD1
 70
     0
  9
$DIMSD2
 70
     0
  9
$DIMTOLJ
 70
     1
  9
$DIMTZIN
 70
     0
  9
$DIMALTZ
 70
     0
  9
$DIMALTTZ
 70
     0
  9
$DIMUPT
 70
     0
  9
$DIMDEC
 70
     4
  9
$DIMTDEC
 70
     4
  9
$DIMALTU
 70
     2
  9
$DIMALTTD
 70
     2
  9
$DIMTXSTY
  7
STANDARD
  9
$DIMAUNIT
 70
     0
  9
$DIMADEC
 70
     0
  9
$DIMALTRND
 40
0.0
  9
$DIMAZIN
 70
     0
  9
$DIMDSEP
 70
    46
  9
$DIMATFIT
 70
     3
  9
$DIMFRAC
 70
     0
  9
$DIMLDRBLK
  1

  9
$DIMLUNIT
 70
     2
  9
$DIMLWD
 70
    -2
  9
$DIMLWE
 70
    -2
  9
$DIMTMOVE
 70
     0
  9
$DIMFXL
 40
1.0
  9
$DIMFXLON
 70
     0
  9
$DIMJOGANG
 40
0.7853981633974483
  9
$DIMTFILL
 70
     0
  9
$DIMTFILLCLR
 70
     0
  9
$DIMARCSYM
 70
     0
  9
$DIMLTYPE
  6

  9
$DIMLTEX1
  6

  9
$DIMLTEX2
  6

  9
$DIMTXTDIRECTION
 70
     0
  9
$LUNITS
 70
     2
  9
$LUPREC
 70
     4
  9
$SKETCHINC
 40
0.1
  9
$FILLETRAD
 40
0.0
  9
$AUNITS
 70
     0
  9
$AUPREC
 70
     0
  9
$MENU
  1
.
  9
$ELEVATION
 40
0.0
  9
$PELEVATION
 40
0.0
  9
$THICKNESS
 40
0.0
  9
$LIMCHECK
 70
     0
  9
$CHAMFERA
 40
0.0
  9
$CHAMFERB
 40
0.0
  9
$CHAMFERC
 40
0.0
  9
$CHAMFERD
 40
0.0
  9
$SKPOLY
 70
     0
  9
$TDCREATE
 40
2459259.910451389
  9
$TDUCREATE
 40
2459259.868784723
  9
$TDUPDATE
 40
2459259.910879630
  9
$TDUUPDATE
 40
2459259.869212963
  9
$TDINDWG
 40
0.0004282407
  9
$TDUSRTIMER
 40
0.0004282407
  9
$USRTIMER
 70
     1
  9
$ANGBASE
 50
0.0
  9
$ANGDIR
 70
     0
  9
$PDMODE
 70
     0
  9
$PDSIZE
 40
0.0
  9
$PLINEWID
 40
0.0
  9
$SPLFRAME
 70
     0
  9
$SPLINETYPE
 70
     6
  9
$SPLINESEGS
 70
     8
  9
$HANDSEED
  5
1006A
  9
$SURFTAB1
 70
     6
  9
$SURFTAB2
 70
     6
  9
$SURFTYPE
 70
     6
  9
$SURFU
 70
     6
  9
$SURFV
 70
     6
  9
$UCSBASE
  2

  9
$UCSNAME
  2

  9
$UCSORG
 10
0.0
 20
0.0
 30
0.0
  9
$UCSXDIR
 10
1.0
 20
0.0
 30
0.0
  9
$UCSYDIR
 10
0.0
 20
1.0
 30
0.0
  9
$UCSORTHOREF
  2

  9
$UCSORTHOVIEW
 70
     0
  9
$UCSORGTOP
 10
0.0
 20
0.0
 30
0.0
  9
$UCSORGBOTTOM
 10
0.0
 20
0.0
 30
0.0
  9
$UCSORGLEFT
 10
0.0
 20
0.0
 30
0.0
  9
$UCSORGRIGHT
 10
0.0
 20
0.0
 30
0.0
  9
$UCSORGFRONT
 10
0.0
 20
0.0
 30
0.0
  9
$UCSORGBACK
 10
0.0
 20
0.0
 30
0.0
  9
$PUCSBASE
  2

  9
$PUCSNAME
  2

  9
$PUCSORG
 10
0.0
 20
0.0
 30
0.0
  9
$PUCSXDIR
 10
1.0
 20
0.0
 30
0.0
  9
$PUCSYDIR
 10
0.0
 20
1.0
 30
0.0
  9
$PUCSORTHOREF
  2

  9
$PUCSORTHOVIEW
 70
     0
  9
$PUCSORGTOP
 10
0.0
 20
0.0
 30
0.0
  9
$PUCSORGBOTTOM
 10
0.0
 20
0.0
 30
0.0
  9
$PUCSORGLEFT
 10
0.0
 20
0.0
 30
0.0
  9
$PUCSORGRIGHT
 10
0.0
 20
0.0
 30
0.0
  9
$PUCSORGFRONT
 10
0.0
 20
0.0
 30
0.0
  9
$PUCSORGBACK
 10
0.0
 20
0.0
 30
0.0
  9
$USERI1
 70
     0
  9
$USERI2
 70
     0
  9
$USERI3
 70
     0
  9
$USERI4
 70
     0
  9
$USERI5
 70
     0
  9
$USERR1
 40
0.0
  9
$USERR2
 40
0.0
  9
$USERR3
 40
0.0
  9
$USERR4
 40
0.0
  9
$USERR5
 40
0.0
  9
$WORLDVIEW
 70
     1
  9
$SHADEDGE
 70
     3
  9
$SHADEDIF
 70
    70
  9
$TILEMODE
 70
     1
  9
$MAXACTVP
 70
    64
  9
$PINSBASE
 10
0.0
 20
0.0
 30
0.0
  9
$PLIMCHECK
 70
     0
  9
$PEXTMIN
 10
1.000000000000000E+20
 20
1.000000000000000E+20
 30
1.000000000000000E+20
  9
$PEXTMAX
 10
-1.000000000000000E+20
 20
-1.000000000000000E+20
 30
-1.000000000000000E+20
  9
$PLIMMIN
 10
0.0
 20
0.0
  9
$PLIMMAX
 10
12.0
 20
9.0
  9
$UNITMODE
 70
     0
  9
$VISRETAIN
 70
     1
  9
$PLINEGEN
 70
     0
  9
$PSLTSCALE
 70
     1
  9
$TREEDEPTH
 70
  3020
  9
$CMLSTYLE
  2
Standard
  9
$CMLJUST
 70
     0
  9
$CMLSCALE
 40
1.0
  9
$PROXYGRAPHICS
 70
     1
  9
$MEASUREMENT
 70
     0
  9
$CELWEIGHT
370
    -1
  9
$ENDCAPS
280
     0
  9
$JOINSTYLE
280
     0
  9
$LWDISPLAY
290
     0
  9
$INSUNITS
 70
     4
  9
$HYPERLINKBASE
  1

  9
$STYLESHEET
  1

  9
$XEDIT
290
     1
  9
$CEPSNTYPE
380
     0
  9
$PSTYLEMODE
290
     1
  9
$FINGERPRINTGUID
  2
{E74C15AD-F970-B447-9556-C83842C1517B}
  9
$VERSIONGUID
  2
{005CC98D-4999-4742-A7D2-2DF7E3D4D19B}
  9
$EXTNAMES
290
     1
  9
$PSVPSCALE
 40
0.0
  9
$OLESTARTUP
290
     0
  9
$SORTENTS
280
   127
  9
$INDEXCTL
280
     0
  9
$HIDETEXT
280
     0
  9
$XCLIPFRAME
280
     2
  9
$HALOGAP
280
     0
  9
$OBSCOLOR
 70
   257
  9
$OBSLTYPE
280
     0
  9
$INTERSECTIONDISPLAY
280
     0
  9
$INTERSECTIONCOLOR
 70
   257
  9
$DIMASSOC
280
     1
  9
$PROJECTNAME
  1

  9
$CAMERADISPLAY
290
     0
  9
$LENSLENGTH
 40
50.0
  9
$CAMERAHEIGHT
 40
0.0
  9
$STEPSPERSEC
 40
2.0
  9
$STEPSIZE
 40
6.0
  9
$3DDWFPREC
 40
2.0
  9
$PSOLWIDTH
 40
0.25
  9
$PSOLHEIGHT
 40
4.0
  9
$LOFTANG1
 40
1.570796326794896
  9
$LOFTANG2
 40
1.570796326794896
  9
$LOFTMAG1
 40
0.0
  9
$LOFTMAG2
 40
0.0
  9
$LOFTPARAM
 70
     7
  9
$LOFTNORMALS
280
     1
  9
$LATITUDE
 40
37.795
  9
$LONGITUDE
 40
-122.394
  9
$NORTHDIRECTION
 40
0.0
  9
$TIMEZONE
 70
 -8000
  9
$LIGHTGLYPHDISPLAY
280
     1
  9
$TILEMODELIGHTSYNCH
280
     1
  9
$CMATERIAL
347
10005
  9
$SOLIDHIST
280
     0
  9
$SHOWHIST
280
     1
  9
$DWFFRAME
280
     2
  9
$DGNFRAME
280
     0
  9
$REALWORLDSCALE
290
     1
  9
$INTERFERECOLOR
 62
     1
  9
$INTERFEREOBJVS
345
10027
  9
$INTERFEREVPVS
346
10024
  9
$CSHADOW
280
     0
  9
$SHADOWPLANELOCATION
 40
0.0
  0
ENDSEC
  0
SECTION
  2
CLASSES
  0
CLASS
  1
ACDBDICTIONARYWDFLT
  2
AcDbDictionaryWithDefault
  3
ObjectDBX Classes
 90
        0
 91
        1
280
     0
281
     0
  0
CLASS
  1
MATERIAL
  2
AcDbMaterial
  3
ObjectDBX Classes
 90
     1153
 91
        3
280
     0
281
     0
  0
CLASS
  1
VISUALSTYLE
  2
AcDbVisualStyle
  3
ObjectDBX Classes
 90
     4095
 91
       24
280
     0
281
     0
  0
CLASS
  1
TABLESTYLE
  2
AcDbTableStyle
  3
ObjectDBX Classes
 90
     4095
 91
        1
280
     0
281
     0
  0
CLASS
  1
SCALE
  2
AcDbScale
  3
ObjectDBX Classes
 90
     1153
 91
       17
280
     0
281
     0
  0
CLASS
  1
MLEADERSTYLE
  2
AcDbMLeaderStyle
  3
ACDB_MLEADERSTYLE_CLASS
 90
     4095
 91
        1
280
     0
281
     0
  0
CLASS
  1
ACDBSECTIONVIEWSTYLE
  2
AcDbSectionViewStyle
  3
ObjectDBX Classes
 90
     1025
 91
        1
280
     0
281
     0
  0
CLASS
  1
ACDBDETAILVIEWSTYLE
  2
AcDbDetailViewStyle
  3
ObjectDBX Classes
 90
     1025
 91
        1
280
     0
281
     0
  0
CLASS
  1
DICTIONARYVAR
  2
AcDbDictionaryVar
  3
ObjectDBX Classes
 90
        0
 91
        9
280
     0
281
     0
  0
CLASS
  1
CELLSTYLEMAP
  2
AcDbCellStyleMap
  3
ObjectDBX Classes
 90
     1152
 91
        1
280
     0
281
     0
  0
ENDSEC
  0
SECTION
  2
TABLES
  0
TABLE
  2
VPORT
  5
8
330
0
100
AcDbSymbolTable
 70
     1
  0
VPORT
  5
10059
330
8
100
AcDbSymbolTableRecord
100
AcDbViewportTableRecord
  2
*Active
 70
     0
 10
0.0
 20
0.0
 11
1.0
 21
1.0
 12
57.07625101404635
 22
-12.33404467425689
 13
0.0
 23
0.0
 14
1.0
 24
1.0
 15
0.0
 25
0.0
 16
0.0
 26
0.0
 36
1.0
 17
0.0
 27
0.0
 37
0.0
 40
94.50470275079711
 41
2.147522522522522
 42
50.0
 43
0.0
 44
0.0
 50
0.0
 51
0.0
 71
     0
 72
  1000
 73
     1
 74
     3
 75
     0
 76
     0
 77
     0
 78
     0
281
     0
 65
     1
110
0.0
120
0.0
130
0.0
111
1.0
121
0.0
131
0.0
112
0.0
122
1.0
132
0.0
 79
     0
146
0.0
348
10023
 60
     3
 61
     5
292
     1
282
     1
141
0.0
142
0.0
 63
   250
421
  3355443
1001
ACAD_NAV_VCDISPLAY
1070
     1
  0
ENDTAB
  0
TABLE
  2
LTYPE
  5
5
330
0
100
AcDbSymbolTable
 70
     1
  0
LTYPE
  5
14
330
5
100
AcDbSymbolTableRecord
100
AcDbLinetypeTableRecord
  2
BYBLOCK
 70
     0
  3

 72
    65
 73
     0
 40
0.0
  0
LTYPE
  5
15
330
5
100
AcDbSymbolTableRecord
100
AcDbLinetypeTableRecord
  2
BYLAYER
 70
     0
  3

 72
    65
 73
     0
 40
0.0
  0
LTYPE
  5
10001
330
5
100
AcDbSymbolTableRecord
100
AcDbLinetypeTableRecord
  2
Continuous
 70
     0
  3
Solid line
 72
    65
 73
     0
 40
0.0
  0
ENDTAB
  0
TABLE
  2
LAYER
  5
2
330
0
100
AcDbSymbolTable
 70
     1
  0
LAYER
  5
50
102
{ACAD_XDICTIONARY
360
1005B
102
}
330
2
100
AcDbSymbolTableRecord
100
AcDbLayerTableRecord
  2
0
 70
     0
 62
     7
  6
Continuous
370
    -3
390
10003
347
10015
348
0
  0
ENDTAB
  0
TABLE
  2
STYLE
  5
3
330
0
100
AcDbSymbolTable
 70
     1
  0
STYLE
  5
11
330
3
100
AcDbSymbolTableRecord
100
AcDbTextStyleTableRecord
  2
STANDARD
 70
     0
 40
0.0
 41
1.0
 50
0.0
 71
     0
 42
0.2
  3

  4

  0
ENDTAB
  0
TABLE
  2
VIEW
  5
6
330
0
100
AcDbSymbolTable
 70
     0
  0
ENDTAB
  0
TABLE
  2
UCS
  5
7
330
0
100
AcDbSymbolTable
 70
     0
  0
ENDTAB
  0
TABLE
  2
APPID
  5
9
330
0
100
AcDbSymbolTable
 70
     2
  0
APPID
  5
12
330
9
100
AcDbSymbolTableRecord
100
AcDbRegAppTableRecord
  2
ACAD
 70
     0
  0
APPID
  5
10058
330
9
100
AcDbSymbolTableRecord
100
AcDbRegAppTableRecord
  2
ACAD_NAV_VCDISPLAY
 70
     0
  0
ENDTAB
  0
TABLE
  2
DIMSTYLE
  5
A
330
0
100
AcDbSymbolTable
 70
     1
100
AcDbDimStyleTable
 71
     0
  0
DIMSTYLE
105
10053
330
A
100
AcDbSymbolTableRecord
100
AcDbDimStyleTableRecord
  2
Standard
 70
     0
340
11
  0
ENDTAB
  0
TABLE
  2
BLOCK_RECORD
  5
1
330
0
100
AcDbSymbolTable
 70
     0
  0
BLOCK_RECORD
  5
1F
330
1
100
AcDbSymbolTableRecord
100
AcDbBlockTableRecord
  2
*MODEL_SPACE
340
10055
 70
     0
280
     1
281
     0
  0
BLOCK_RECORD
  5
1B
330
1
100
AcDbSymbolTableRecord
100
AcDbBlockTableRecord
  2
*PAPER_SPACE
340
10056
 70
     0
280
     1
281
     0
  0
ENDTAB
  0
ENDSEC
  0
SECTION
  2
BLOCKS
  0
BLOCK
  5
20
330
1F
100
AcDbEntity
  8
0
100
AcDbBlockBegin
  2
*MODEL_SPACE
 70
     0
 10
0.0
 20
0.0
 30
0.0
  3
*MODEL_SPACE
  1

  0
ENDBLK
  5
21
330
1F
100
AcDbEntity
  8
0
100
AcDbBlockEnd
  0
BLOCK
  5
1C
330
1B
100
AcDbEntity
 67
     1
  8
0
100
AcDbBlockBegin
  2
*PAPER_SPACE
 70
     0
 10
0.0
 20
0.0
 30
0.0
  3
*PAPER_SPACE
  1

  0
ENDBLK
  5
1D
330
1B
100
AcDbEntity
 67
     1
  8
0
100
AcDbBlockEnd
  0
ENDSEC
  0
SECTION
  2
ENTITIES
  0
LINE
  5
100
330
1F
100
AcDbEntity
  8
0
100
AcDbLine
 10
49.99989369472178
 20
-50.0
 30
0.0
 11
0.0
 21
-50.0
 31
0.0
  0
LINE
  5
101
330
1F
100
AcDbEntity
  8
0
100
AcDbLine
 10
0.0
 20
-50.0
 30
0.0
 11
0.0
 21
0.0
 31
0.0
  0
LINE
  5
102
330
1F
100
AcDbEntity
  8
0
100
AcDbLine
 10
37.46868629078899
 20
-38.59319099875597
 30
0.0
 11
12.61868629078901
 21
-38.59319099875596
 31
0.0
  0
LINE
  5
103
330
1F
100
AcDbEntity
  8
0
100
AcDbLine
 10
12.61868629078901
 20
-38.59319099875596
 30
0.0
 11
12.618686290789
 21
-41.44319099875597
 31
0.0
  0
LINE
  5
104
330
1F
100
AcDbEntity
  8
0
100
AcDbLine
 10
12.618686290789
 20
-41.44319099875597
 30
0.0
 11
37.468686290789
 21
-41.44319099875595
 31
0.0
  0
LINE
  5
105
330
1F
100
AcDbEntity
  8
0
100
AcDbLine
 10
37.468686290789
 20
-41.44319099875595
 30
0.0
 11
37.46868629078899
 21
-38.59319099875597
 31
0.0
  0
LINE
  5
108
330
1F
100
AcDbEntity
  8
0
100
AcDbLine
 10
51.52349040499792
 20
-37.674297348255
 30
0.0
 11
49.99989369471122
 21
-37.67429734825463
 31
0.0
  0
LINE
  5
109
330
1F
100
AcDbEntity
  8
0
100
AcDbLine
 10
49.99989369468967
 20
-12.52429734825462
 30
0.0
 11
51.49824349823236
 21
-12.52429734825474
 31
0.0
  0
LINE
  5
112
330
1F
100
AcDbEntity
  8
0
100
AcDbLine
 10
49.99989369468967
 20
-12.52429734825462
 30
0.0
 11
50.99989369468968
 21
-12.52429734825462
 31
0.0
  0
LINE
  5
113
330
1F
100
AcDbEntity
  8
0
100
AcDbLine
 10
52.99989369468967
 20
-14.52429734825462
 30
0.0
 11
52.99989369468967
 21
-35.67429734825476
 31
0.0
  0
LINE
  5
114
330
1F
100
AcDbEntity
  8
0
100
AcDbLine
 10
50.99989369468968
 20
-37.67429734825474
 30
0.0
 11
49.99989369471122
 21
-37.67429734825463
 31
0.0
  0
LINE
  5
117
330
1F
100
AcDbEntity
  8
0
100
AcDbLine
 10
23.38362649753517
 20
0.0482192060899985
 30
0.0
 11
23.55005932454176
 21
-12.584546745901
 31
0.0
  0
LINE
  5
118
330
1F
100
AcDbEntity
  8
0
100
AcDbLine
 10
23.55005932454176
 20
-12.584546745901
 30
0.0
 11
26.40003923519984
 21
-12.595247626488
 31
0.0
  0
LINE
  5
119
330
1F
100
AcDbEntity
  8
0
100
AcDbLine
 10
26.40003923519984
 20
-12.595247626488
 30
0.0
 11
26.23338800663771
 21
0.0540956785665515
 31
0.0
  0
LINE
  5
122
330
1F
100
AcDbEntity
  8
0
100
AcDbLine
 10
0.0
 20
0.0
 30
0.0
 11
23.38362649753517
 21
0.0482192060899985
 31
0.0
  0
LINE
  5
123
330
1F
100
AcDbEntity
  8
0
100
AcDbLine
 10
26.23338800663771
 20
0.0540956785665515
 30
0.0
 11
49.99989369467885
 21
0.1031044170499247
 31
0.0
  0
LINE
  5
124
330
1F
100
AcDbEntity
  8
0
100
AcDbLine
 10
49.99989369467885
 20
0.1031044170499247
 30
0.0
 11
49.99989369468967
 21
-12.52429734825462
 31
0.0
  0
LINE
  5
125
330
1F
100
AcDbEntity
  8
0
100
AcDbLine
 10
49.99989369471122
 20
-37.67429734825463
 30
0.0
 11
49.99989369472178
 21
-50.0
 31
0.0
  0
ARC
  5
126
330
1F
100
AcDbEntity
  8
0
100
AcDbCircle
 10
50.99989369468968
 20
-14.52429734825462
 30
0.0
 40
1.999999999999992
100
AcDbArc
 50
0.0
 51
90.0
  0
ARC
  5
127
330
1F
100
AcDbEntity
  8
0
100
AcDbCircle
 10
50.99989369468968
 20
-35.67429734825476
 30
0.0
 40
1.999999999999992
100
AcDbArc
 50
-90.0
 51
0.0
  0
LINE
  5
128
330
1F
100
AcDbEntity
  8
0
100
AcDbLine
 10
6.949289563034509
 20
-23.54504185268304
 30
0.0
 11
6.949289563034505
 21
-18.54504185268304
 31
0.0
  0
LINE
  5
129
330
1F
100
AcDbEntity
  8
0
100
AcDbLine
 10
6.949289563034505
 20
-18.54504185268304
 30
0.0
 11
7.563204961751435
 21
-18.54504185268304
 31
0.0
  0
LINE
  5
130
330
1F
100
AcDbEntity
  8
0
100
AcDbLine
 10
7.563204961751435
 20
-18.54504185268304
 30
0.0
 11
7.563204961751433
 21
-20.33903914043329
 31
0.0
  0
SPLINE
  5
131
330
1F
100
AcDbEntity
  8
0
100
AcDbSpline
210
0.0
220
0.0
230
1.0
 70
  1064
 71
     3
 72
     9
 73
     5
 74
     3
 42
0.000000001
 43
0.0000000001
 44
0.0000000001
 40
0.0
 40
0.0
 40
0.0
 40
0.0
 40
0.6129340579524359
 40
1.224309983218456
 40
1.224309983218456
 40
1.224309983218456
 40
1.224309983218456
 10
7.563204961751433
 20
-20.33903914043329
 30
0.0
 10
7.715691950634093
 20
-20.19380278017527
 30
0.0
 10
8.020278292962046
 20
-19.90369926335615
 30
0.0
 10
8.43879628127393
 20
-19.86193907005112
 30
0.0
 10
8.647788959477875
 20
-19.84108554670236
 30
0.0
 11
7.563204961751433
 21
-20.33903914043329
 31
0.0
 11
8.04922138426158
 21
-19.96557401964089
 31
0.0
 11
8.647788959477875
 21
-19.84108554670236
 31
0.0
  0
SPLINE
  5
132
330
1F
100
AcDbEntity
  8
0
100
AcDbSpline
210
0.0
220
0.0
230
1.0
 70
  1064
 71
     3
 72
     9
 73
     5
 74
     3
 42
0.000000001
 43
0.0000000001
 44
0.0000000001
 40
0.0
 40
0.0
 40
0.0
 40
0.0
 40
0.3781078968987813
 40
0.7224612264837573
 40
0.7224612264837573
 40
0.7224612264837573
 40
0.7224612264837573
 10
8.647788959477875
 20
-19.84108554670236
 30
0.0
 10
8.774978283584783
 20
-19.84636790544851
 30
0.0
 10
9.018002446379552
 20
-19.85646105454636
 30
0.0
 10
9.240783864686477
 20
-19.95345112525348
 30
0.0
 10
9.346970218156311
 20
-19.99968039342782
 30
0.0
 11
8.647788959477875
 21
-19.84108554670236
 31
0.0
 11
9.023812311624025
 21
-19.88073425838372
 31
0.0
 11
9.346970218156311
 21
-19.99968039342782
 31
0.0
  0
SPLINE
  5
133
330
1F
100
AcDbEntity
  8
0
100
AcDbSpline
210
0.0
220
0.0
230
1.0
 70
  1064
 71
     3
 72
     9
 73
     5
 74
     3
 42
0.000000001
 43
0.0000000001
 44
0.0000000001
 40
0.0
 40
0.0
 40
0.0
 40
0.0
 40
0.3169380713796119
 40
0.6188285540522911
 40
0.6188285540522911
 40
0.6188285540522911
 40
0.6188285540522911
 10
9.346970218156311
 20
-19.99968039342782
 30
0.0
 10
9.438291745922391
 20
-20.05640639284401
 30
0.0
 10
9.616599037108127
 20
-20.1671651541474
 30
0.0
 10
9.720774193792614
 20
-20.3491620008942
 30
0.0
 10
9.771595197652311
 20
-20.43794768402002
 30
0.0
 11
9.346970218156311
 21
-19.99968039342782
 31
0.0
 11
9.601489501927826
 21
-20.1885445649328
 31
0.0
 11
9.771595197652311
 21
-20.43794768402002
 31
0.0
  0
SPLINE
  5
134
330
1F
100
AcDbEntity
  8
0
100
AcDbSpline
210
0.0
220
0.0
230
1.0
 70
  1064
 71
     3
 72
     9
 73
     5
 74
     3
 42
0.000000001
 43
0.0000000001
 44
0.0000000001
 40
0.0
 40
0.0
 40
0.0
 40
0.0
 40
0.3559388357057986
 40
0.8259904201643887
 40
0.8259904201643887
 40
0.8259904201643887
 40
0.8259904201643887
 10
9.771595197652311
 20
-20.43794768402002
 30
0.0
 10
9.808720286322156
 20
-20.55131761813672
 30
0.0
 10
9.894872637549134
 20
-20.81440349166717
 30
0.0
 10
9.897818071606003
 20
-21.09181294562495
 30
0.0
 10
9.899494248364899
 20
-21.2496800954046
 30
0.0
 11
9.771595197652311
 21
-20.43794768402002
 31
0.0
 11
9.867519336675139
 21
-20.78071730682275
 31
0.0
 11
9.899494248364899
 21
-21.2496800954046
 31
0.0
  0
LINE
  5
135
330
1F
100
AcDbEntity
  8
0
100
AcDbLine
 10
9.8994942483649
 20
-21.24968009540461
 30
0.0
 11
9.8994942483649
 21
-23.54504185268304
 31
0.0
  0
LINE
  5
136
330
1F
100
AcDbEntity
  8
0
100
AcDbLine
 10
9.8994942483649
 20
-23.54504185268304
 30
0.0
 11
9.285578924153778
 21
-23.54504185268304
 31
0.0
  0
LINE
  5
137
330
1F
100
AcDbEntity
  8
0
100
AcDbLine
 10
9.285578924153778
 20
-23.54504185268304
 30
0.0
 11
9.285578924153776
 21
-21.2496800954046
 31
0.0
  0
SPLINE
  5
138
330
1F
100
AcDbEntity
  8
0
100
AcDbSpline
210
0.0
220
0.0
230
1.0
 70
  1064
 71
     3
 72
     9
 73
     5
 74
     3
 42
0.000000001
 43
0.0000000001
 44
0.0000000001
 40
0.0
 40
0.0
 40
0.0
 40
0.0
 40
0.4008813130435939
 40
0.7116995694160333
 40
0.7116995694160333
 40
0.7116995694160333
 40
0.7116995694160333
 10
9.285578924153776
 20
-21.2496800954046
 30
0.0
 10
9.282388104682722
 20
-21.11273519045198
 30
0.0
 10
9.276723323687084
 20
-20.86961178530113
 30
0.0
 10
9.144013975475566
 20
-20.66767885909709
 30
0.0
 10
9.086056250070067
 20
-20.57948934385201
 30
0.0
 11
9.285578924153776
 21
-21.2496800954046
 31
0.0
 11
9.235698181127043
 21
-20.85191416093728
 31
0.0
 11
9.086056250070067
 21
-20.57948934385201
 31
0.0
  0
SPLINE
  5
139
330
1F
100
AcDbEntity
  8
0
100
AcDbSpline
210
0.0
220
0.0
230
1.0
 70
  1064
 71
     3
 72
     9
 73
     5
 74
     3
 42
0.000000001
 43
0.0000000001
 44
0.0000000001
 40
0.0
 40
0.0
 40
0.0
 40
0.0
 40
0.2876971811700706
 40
0.6155033086044073
 40
0.6155033086044073
 40
0.6155033086044073
 40
0.6155033086044073
 10
9.086056250070067
 20
-20.57948934385201
 30
0.0
 10
9.009122978582789
 20
-20.518380695052
 30
0.0
 10
8.844530878828471
 20
-20.38764401084891
 30
0.0
 10
8.633817434611232
 20
-20.37595845558168
 30
0.0
 10
8.521595197652313
 20
-20.36973493644616
 30
0.0
 11
9.086056250070067
 21
-20.57948934385201
 31
0.0
 11
8.845179873441193
 21
-20.42217361280343
 31
0.0
 11
8.521595197652313
 21
-20.36973493644616
 31
0.0
  0
SPLINE
  5
140
330
1F
100
AcDbEntity
  8
0
100
AcDbSpline
210
0.0
220
0.0
230
1.0
 70
  1064
 71
     3
 72
     9
 73
     5
 74
     3
 42
0.000000001
 43
0.0000000001
 44
0.0000000001
 40
0.0
 40
0.0
 40
0.0
 40
0.0
 40
0.2671052862013775
 40
0.537376392597998
 40
0.537376392597998
 40
0.537376392597998
 40
0.537376392597998
 10
8.521595197652313
 20
-20.36973493644616
 30
0.0
 10
8.431761579887858
 20
-20.37577029807349
 30
0.0
 10
8.251029606609368
 20
-20.3879125544303
 30
0.0
 10
8.089522831894445
 20
-20.4699940613588
 30
0.0
 10
8.008293705914947
 20
-20.51127659627816
 30
0.0
 11
8.521595197652313
 21
-20.36973493644616
 31
0.0
 11
8.256844180558655
 21
-20.40512042590997
 31
0.0
 11
8.008293705914947
 21
-20.51127659627816
 31
0.0
  0
SPLINE
  5
141
330
1F
100
AcDbEntity
  8
0
100
AcDbSpline
210
0.0
220
0.0
230
1.0
 70
  1064
 71
     3
 72
     9
 73
     5
 74
     3
 42
0.000000001
 43
0.0000000001
 44
0.0000000001
 40
0.0
 40
0.0
 40
0.0
 40
0.0
 40
0.2649324118497677
 40
0.5214835234965115
 40
0.5214835234965115
 40
0.5214835234965115
 40
0.5214835234965115
 10
8.008293705914947
 20
-20.51127659627816
 30
0.0
 10
7.934185130499656
 20
-20.5619815969585
 30
0.0
 10
7.788312450146796
 20
-20.66178751435854
 30
0.0
 10
7.706012730203497
 20
-20.81808232884933
 30
0.0
 10
7.665524232123825
 20
-20.89497374841592
 30
0.0
 11
8.008293705914947
 21
-20.51127659627816
 31
0.0
 11
7.802376198504897
 21
-20.67797141620538
 31
0.0
 11
7.665524232123825
 21
-20.89497374841592
 31
0.0
  0
SPLINE
  5
142
330
1F
100
AcDbEntity
  8
0
100
AcDbSpline
210
0.0
220
0.0
230
1.0
 70
  1064
 71
     3
 72
     9
 73
     5
 74
     3
 42
0.000000001
 43
0.0000000001
 44
0.0000000001
 40
0.0
 40
0.0
 40
0.0
 40
0.0
 40
0.2982407368448343
 40
0.6793866506563723
 40
0.6793866506563723
 40
0.6793866506563723
 40
0.6793866506563723
 10
7.665524232123825
 20
-20.89497374841592
 30
0.0
 10
7.635794291031461
 20
-20.99035453763271
 30
0.0
 10
7.568070058196494
 20
-21.2076301372322
 30
0.0
 10
7.564953433879928
 20
-21.43557742597002
 30
0.0
 10
7.563204961751433
 20
-21.56345921108148
 30
0.0
 11
7.665524232123825
 21
-20.89497374841592
 31
0.0
 11
7.588784816597435
 21
-21.18317263671777
 31
0.0
 11
7.563204961751433
 21
-21.56345921108148
 31
0.0
  0
LINE
  5
143
330
1F
100
AcDbEntity
  8
0
100
AcDbLine
 10
7.563204961751433
 20
-21.56345921108148
 30
0.0
 11
7.563204961751436
 21
-23.54504185268304
 31
0.0
  0
LINE
  5
144
330
1F
100
AcDbEntity
  8
0
100
AcDbLine
 10
7.563204961751436
 20
-23.54504185268304
 30
0.0
 11
6.949289563034509
 21
-23.54504185268304
 31
0.0
  0
SPLINE
  5
145
330
1F
100
AcDbEntity
  8
0
100
AcDbSpline
210
0.0
220
0.0
230
1.0
 70
  1064
 71
     3
 72
     9
 73
     5
 74
     3
 42
0.000000001
 43
0.0000000001
 44
0.0000000001
 40
0.0
 40
0.0
 40
0.0
 40
0.0
 40
0.4161091770630404
 40
0.7764591420687017
 40
0.7764591420687017
 40
0.7764591420687017
 40
0.7764591420687017
 10
13.19758464667651
 20
-23.0982478196325
 30
0.0
 10
13.08933441990082
 20
-23.18604846140271
 30
0.0
 10
12.88733964822995
 20
-23.34988433607184
 30
0.0
 10
12.65080855148914
 20
-23.45755541042585
 30
0.0
 10
12.5410359081969
 20
-23.50752490112206
 30
0.0
 11
13.19758464667651
 21
-23.0982478196325
 31
0.0
 11
12.86291529509876
 21
-23.34551947662255
 31
0.0
 11
12.5410359081969
 21
-23.50752490112206
 31
0.0
  0
SPLINE
  5
146
330
1F
100
AcDbEntity
  8
0
100
AcDbSpline
210
0.0
220
0.0
230
1.0
 70
  1064
 71
     3
 72
     9
 73
     5
 74
     3
 42
0.000000001
 43
0.0000000001
 44
0.0000000001
 40
0.0
 40
0.0
 40
0.0
 40
0.0
 40
0.3390301940488751
 40
0.6903170601395584
 40
0.6903170601395584
 40
0.6903170601395584
 40
0.6903170601395584
 10
12.5410359081969
 20
-23.50752490112206
 30
0.0
 10
12.43292227476607
 20
-23.54233897730702
 30
0.0
 10
12.2127864670975
 20
-23.61322573354682
 30
0.0
 10
11.9816459348043
 20
-23.62228662367523
 30
0.0
 10
11.864023703073
 20
-23.62689750739953
 30
0.0
 11
12.5410359081969
 21
-23.50752490112206
 31
0.0
 11
12.21404065463397
 21
-23.59705465385339
 31
0.0
 11
11.864023703073
 21
-23.62689750739953
 31
0.0
  0
SPLINE
  5
147
330
1F
100
AcDbEntity
  8
0
100
AcDbSpline
210
0.0
220
0.0
230
1.0
 70
  1064
 71
     3
 72
     9
 73
     5
 74
     3
 42
0.000000001
 43
0.0000000001
 44
0.0000000001
 40
0.0
 40
0.0
 40
0.0
 40
0.0
 40
0.5328078173759784
 40
0.9796553475864087
 40
0.9796553475864087
 40
0.9796553475864087
 40
0.9796553475864087
 10
11.864023703073
 20
-23.62689750739953
 30
0.0
 10
11.68236533201459
 20
-23.61962701932558
 30
0.0
 10
11.34835635384746
 20
-23.60625902379525
 30
0.0
 10
11.0724221257569
 20
-23.42016823349192
 30
0.0
 10
10.94656099650714
 20
-23.33528714725396
 30
0.0
 11
11.864023703073
 21
-23.62689750739953
 31
0.0
 11
11.33622695777271
 21
-23.55399506637475
 31
0.0
 11
10.94656099650714
 21
-23.33528714725396
 31
0.0
  0
SPLINE
  5
148
330
1F
100
AcDbEntity
  8
0
100
AcDbSpline
210
0.0
220
0.0
230
1.0
 70
  1064
 71
     3
 72
     9
 73
     5
 74
     3
 42
0.000000001
 43
0.0000000001
 44
0.0000000001
 40
0.0
 40
0.0
 40
0.0
 40
0.0
 40
0.4100170157214798
 40
0.8308342203647166
 40
0.8308342203647166
 40
0.8308342203647166
 40
0.8308342203647166
 10
10.94656099650714
 20
-23.33528714725396
 30
0.0
 10
10.85305718844265
 20
-23.23037386396526
 30
0.0
 10
10.66358660430678
 20
-23.01778379432221
 30
0.0
 10
10.6386109064085
 20
-22.73386629558851
 30
0.0
 10
10.62596072528217
 20
-22.59006219455621
 30
0.0
 11
10.94656099650714
 21
-23.33528714725396
 31
0.0
 11
10.70611109111163
 21
-23.00317602702996
 31
0.0
 11
10.62596072528217
 21
-22.59006219455621
 31
0.0
  0
SPLINE
  5
149
330
1F
100
AcDbEntity
  8
0
100
AcDbSpline
210
0.0
220
0.0
230
1.0
 70
  1064
 71
     3
 72
     9
 73
     5
 74
     3
 42
0.000000001
 43
0.0000000001
 44
0.0000000001
 40
0.0
 40
0.0
 40
0.0
 40
0.0
 40
0.2563125945577898
 40
0.5049834426503641
 40
0.5049834426503641
 40
0.5049834426503641
 40
0.5049834426503641
 10
10.62596072528217
 20
-22.59006219455621
 30
0.0
 10
10.63069315224939
 20
-22.50387683036505
 30
0.0
 10
10.64001691281651
 20
-22.33407564681253
 30
0.0
 10
10.71172643669398
 20
-22.17994502717645
 30
0.0
 10
10.74703862044665
 20
-22.10404592105768
 30
0.0
 11
10.62596072528217
 21
-22.59006219455621
 31
0.0
 11
10.65623005006167
 21
-22.33554320880792
 31
0.0
 11
10.74703862044665
 21
-22.10404592105768
 31
0.0
  0
SPLINE
  5
150
330
1F
100
AcDbEntity
  8
0
100
AcDbSpline
210
0.0
220
0.0
230
1.0
 70
  1064
 71
     3
 72
     9
 73
     5
 74
     3
 42
0.000000001
 43
0.0000000001
 44
0.0000000001
 40
0.0
 40
0.0
 40
0.0
 40
0.0
 40
0.2426001592153717
 40
0.4779806575684943
 40
0.4779806575684943
 40
0.4779806575684943
 40
0.4779806575684943
 10
10.74703862044665
 20
-22.10404592105768
 30
0.0
 10
10.79001696786824
 20
-22.03468757467955
 30
0.0
 10
10.87469464832903
 20
-21.89803495203944
 30
0.0
 10
11.00168962541528
 20
-21.79954548243171
 30
0.0
 10
11.06422801587436
 20
-21.7510445649328
 30
0.0
 11
10.74703862044665
 21
-22.10404592105768
 31
0.0
 11
10.88687499139163
 21
-21.90580206462762
 31
0.0
 11
11.06422801587436
 21
-21.7510445649328
 31
0.0
  0
SPLINE
  5
151
330
1F
100
AcDbEntity
  8
0
100
AcDbSpline
210
0.0
220
0.0
230
1.0
 70
  1064
 71
     3
 72
     9
 73
     5
 74
     3
 42
0.000000001
 43
0.0000000001
 44
0.0000000001
 40
0.0
 40
0.0
 40
0.0
 40
0.0
 40
0.2389721107396082
 40
0.486982002242799
 40
0.486982002242799
 40
0.486982002242799
 40
0.486982002242799
 10
11.06422801587436
 20
-21.7510445649328
 30
0.0
 10
11.13239260126142
 20
-21.70920487374781
 30
0.0
 10
11.2712997154477
 20
-21.62394313955034
 30
0.0
 10
11.42674222139833
 20
-21.57482947602659
 30
0.0
 10
11.5059058842406
 20
-21.54981689998528
 30
0.0
 11
11.06422801587436
 21
-21.7510445649328
 31
0.0
 11
11.27270360562655
 21
-21.63423019000909
 31
0.0
 11
11.5059058842406
 21
-21.54981689998528
 31
0.0
  0
SPLINE
  5
152
330
1F
100
AcDbEntity
  8
0
100
AcDbSpline
210
0.0
220
0.0
230
1.0
 70
  1064
 71
     3
 72
     9
 73
     5
 74
     3
 42
0.000000001
 43
0.0000000001
 44
0.0000000001
 40
0.0
 40
0.0
 40
0.0
 40
0.0
 40
0.2316051627081391
 40
0.5536868617766883
 40
0.5536868617766883
 40
0.5536868617766883
 40
0.5536868617766883
 10
11.5059058842406
 20
-21.54981689998528
 30
0.0
 10
11.58133367473293
 20
-21.53318087702771
 30
0.0
 10
11.76165511541289
 20
-21.49340997021319
 30
0.0
 10
11.94497259803672
 20
-21.47085172612038
 30
0.0
 10
12.05160905692431
 20
-21.45772951194665
 30
0.0
 11
11.5059058842406
 21
-21.54981689998528
 31
0.0
 11
11.73271347853991
 21
-21.50292056152245
 31
0.0
 11
12.05160905692431
 21
-21.45772951194665
 31
0.0
  0
SPLINE
  5
153
330
1F
100
AcDbEntity
  8
0
100
AcDbSpline
210
0.0
220
0.0
230
1.0
 70
  1064
 71
     3
 72
     9
 73
     5
 74
     3
 42
0.000000001
 43
0.0000000001
 44
0.0000000001
 40
0.0
 40
0.0
 40
0.0
 40
0.0
 40
0.6527415717546117
 40
1.116392367152438
 40
1.116392367152438
 40
1.116392367152438
 40
1.116392367152438
 10
12.05160905692431
 20
-21.45772951194665
 30
0.0
 10
12.26801592849273
 20
-21.43153107635978
 30
0.0
 10
12.63813940472374
 20
-21.38672355254618
 30
0.0
 10
12.99727258262923
 20
-21.28748461007167
 30
0.0
 10
13.1464247879729
 20
-21.24626951763055
 30
0.0
 11
12.05160905692431
 21
-21.45772951194665
 31
0.0
 11
12.6970725235686
 21
-21.36052625724695
 31
0.0
 11
13.1464247879729
 21
-21.24626951763055
 31
0.0
  0
SPLINE
  5
154
330
1F
100
AcDbEntity
  8
0
100
AcDbSpline
210
0.0
220
0.0
230
1.0
 70
  1064
 71
     3
 72
     9
 73
     5
 74
     3
 42
0.000000001
 43
0.0000000001
 44
0.0000000001
 40
0.0
 40
0.0
 40
0.0
 40
0.0
 40
0.1032034776876961
 40
0.1603382055803035
 40
0.1603382055803035
 40
0.1603382055803035
 40
0.1603382055803035
 10
13.1464247879729
 20
-21.24626951763055
 30
0.0
 10
13.14738680641732
 20
-21.21188109893561
 30
0.0
 10
13.14888141022884
 20
-21.15845482426126
 30
0.0
 10
13.14958474150567
 20
-21.10501283700164
 30
0.0
 10
13.14983536574694
 20
-21.08596938201806
 30
0.0
 11
13.1464247879729
 21
-21.24626951763055
 31
0.0
 11
13.14898301932666
 21
-21.14309775182626
 31
0.0
 11
13.14983536574694
 21
-21.08596938201806
 31
0.0
  0
SPLINE
  5
155
330
1F
100
AcDbEntity
  8
0
100
AcDbSpline
210
0.0
220
0.0
230
1.0
 70
  1064
 71
     3
 72
     9
 73
     5
 74
     3
 42
0.000000001
 43
0.0000000001
 44
0.0000000001
 40
0.0
 40
0.0
 40
0.0
 40
0.0
 40
0.3226908204934089
 40
0.5689816516831961
 40
0.5689816516831961
 40
0.5689816516831961
 40
0.5689816516831961
 10
13.14983536574694
 20
-21.08596938201806
 30
0.0
 10
13.14738608146257
 20
-20.97503478637338
 30
0.0
 10
13.14306740324473
 20
-20.77943037047397
 30
0.0
 10
13.02639530246761
 20
-20.62441872406257
 30
0.0
 10
12.97589232299182
 20
-20.55731999227425
 30
0.0
 11
13.14983536574694
 21
-21.08596938201806
 31
0.0
 11
13.10634960505816
 21
-20.76622205325982
 31
0.0
 11
12.97589232299182
 21
-20.55731999227425
 31
0.0
  0
SPLINE
  5
156
330
1F
100
AcDbEntity
  8
0
100
AcDbSpline
210
0.0
220
0.0
230
1.0
 70
  1064
 71
     3
 72
     9
 73
     5
 74
     3
 42
0.000000001
 43
0.0000000001
 44
0.0000000001
 40
0.0
 40
0.0
 40
0.0
 40
0.0
 40
0.331483942946385
 40
0.7415156214599455
 40
0.7415156214599455
 40
0.7415156214599455
 40
0.7415156214599455
 10
12.97589232299182
 20
-20.55731999227425
 30
0.0
 10
12.88111280501598
 20
-20.49681487196031
 30
0.0
 10
12.66909501450448
 20
-20.36146746571095
 30
0.0
 10
12.41642710440437
 20
-20.35361371670402
 30
0.0
 10
12.27671076629016
 20
-20.34927087375542
 30
0.0
 11
12.97589232299182
 21
-20.55731999227425
 31
0.0
 11
12.68343021247241
 21
-20.40128307887933
 31
0.0
 11
12.27671076629016
 21
-20.34927087375542
 31
0.0
  0
SPLINE
  5
157
330
1F
100
AcDbEntity
  8
0
100
AcDbSpline
210
0.0
220
0.0
230
1.0
 70
  1064
 71
     3
 72
     9
 73
     5
 74
     3
 42
0.000000001
 43
0.0000000001
 44
0.0000000001
 40
0.0
 40
0.0
 40
0.0
 40
0.0
 40
0.3783566096859079
 40
0.6649752209806544
 40
0.6649752209806544
 40
0.6649752209806544
 40
0.6649752209806544
 10
12.27671076629016
 20
-20.34927087375542
 30
0.0
 10
12.14845763142984
 20
-20.35126735706406
 30
0.0
 10
11.92304817772423
 20
-20.35477624760635
 30
0.0
 10
11.72330829210595
 20
-20.45698877078343
 30
0.0
 10
11.63721610877368
 20
-20.5010445649328
 30
0.0
 11
12.27671076629016
 21
-20.34927087375542
 31
0.0
 11
11.90026153895709
 21
-20.38721429654977
 31
0.0
 11
11.63721610877368
 21
-20.5010445649328
 31
0.0
  0
SPLINE
  5
158
330
1F
100
AcDbEntity
  8
0
100
AcDbSpline
210
0.0
220
0.0
230
1.0
 70
  1064
 71
     3
 72
     9
 73
     5
 74
     3
 42
0.000000001
 43
0.0000000001
 44
0.0000000001
 40
0.0
 40
0.0
 40
0.0
 40
0.0
 40
0.2763888046818491
 40
0.6267363210121636
 40
0.6267363210121636
 40
0.6267363210121636
 40
0.6267363210121636
 10
11.63721610877368
 20
-20.5010445649328
 30
0.0
 10
11.57148815261981
 20
-20.56759253769847
 30
0.0
 10
11.42244413661873
 20
-20.7184960146681
 30
0.0
 10
11.36440659848637
 20
-20.92357860511304
 30
0.0
 10
11.33196343753192
 20
-21.03822039911172
 30
0.0
 11
11.63721610877368
 21
-20.5010445649328
 31
0.0
 11
11.45773102614734
 21
-20.71122514554879
 31
0.0
 11
11.33196343753192
 21
-21.03822039911172
 31
0.0
  0
LINE
  5
159
330
1F
100
AcDbEntity
  8
0
100
AcDbLine
 10
11.33196343753192
 20
-21.03822039911172
 30
0.0
 11
10.73169072244021
 21
-20.95636504241845
 31
0.0
  0
SPLINE
  5
160
330
1F
100
AcDbEntity
  8
0
100
AcDbSpline
210
0.0
220
0.0
230
1.0
 70
  1064
 71
     3
 72
     9
 73
     5
 74
     3
 42
0.000000001
 43
0.0000000001
 44
0.0000000001
 40
0.0
 40
0.0
 40
0.0
 40
0.0
 40
0.3647563922670103
 40
0.6827464816008191
 40
0.6827464816008191
 40
0.6827464816008191
 40
0.6827464816008191
 10
10.73169072244021
 20
-20.95636504241845
 30
0.0
 10
10.76096908539647
 20
-20.83724573693491
 30
0.0
 10
10.81577196128626
 20
-20.61427970142786
 30
0.0
 10
10.94223213805492
 20
-20.42300801853972
 30
0.0
 10
11.00113113496158
 20
-20.33392297574899
 30
0.0
 11
10.73169072244021
 21
-20.95636504241845
 31
0.0
 11
10.83997835490558
 21
-20.6080533797445
 31
0.0
 11
11.00113113496158
 21
-20.33392297574899
 31
0.0
  0
SPLINE
  5
161
330
1F
100
AcDbEntity
  8
0
100
AcDbSpline
210
0.0
220
0.0
230
1.0
 70
  1064
 71
     3
 72
     9
 73
     5
 74
     3
 42
0.000000001
 43
0.0000000001
 44
0.0000000001
 40
0.0
 40
0.0
 40
0.0
 40
0.0
 40
0.3108144034688491
 40
0.6601066038278161
 40
0.6601066038278161
 40
0.6601066038278161
 40
0.6601066038278161
 10
11.00113113496158
 20
-20.33392297574899
 30
0.0
 10
11.07373412107604
 20
-20.25838083964075
 30
0.0
 10
11.22792810326252
 20
-20.0979447004021
 30
0.0
 10
11.4342494789292
 20
-20.01360993077582
 30
0.0
 10
11.54342343184802
 20
-19.96898459741494
 30
0.0
 11
11.00113113496158
 21
-20.33392297574899
 31
0.0
 11
11.23049696061465
 21
-20.12416856834314
 31
0.0
 11
11.54342343184802
 21
-19.96898459741494
 31
0.0
  0
SPLINE
  5
162
330
1F
100
AcDbEntity
  8
0
100
AcDbSpline
210
0.0
220
0.0
230
1.0
 70
  1064
 71
     3
 72
     9
 73
     5
 74
     3
 42
0.000000001
 43
0.0000000001
 44
0.0000000001
 40
0.0
 40
0.0
 40
0.0
 40
0.0
 40
0.3946785138893439
 40
0.83496105081686
 40
0.83496105081686
 40
0.83496105081686
 40
0.83496105081686
 10
11.54342343184802
 20
-19.96898459741494
 30
0.0
 10
11.6701879452627
 20
-19.93171092798813
 30
0.0
 10
11.93836426498171
 20
-19.85285671855648
 30
0.0
 10
12.21795620834131
 20
-19.8451495870601
 30
0.0
 10
12.36538757655475
 20
-19.84108554670236
 30
0.0
 11
11.54342343184802
 21
-19.96898459741494
 31
0.0
 11
11.92626764151904
 21
-19.87306045839211
 31
0.0
 11
12.36538757655475
 21
-19.84108554670236
 31
0.0
  0
SPLINE
  5
163
330
1F
100
AcDbEntity
  8
0
100
AcDbSpline
210
0.0
220
0.0
230
1.0
 70
  1064
 71
     3
 72
     9
 73
     5
 74
     3
 42
0.000000001
 43
0.0000000001
 44
0.0000000001
 40
0.0
 40
0.0
 40
0.0
 40
0.0
 40
0.4212463339346594
 40
0.7645383344285656
 40
0.7645383344285656
 40
0.7645383344285656
 40
0.7645383344285656
 10
12.36538757655475
 20
-19.84108554670236
 30
0.0
 10
12.50654269113265
 20
-19.84346236660926
 30
0.0
 10
12.76273126181397
 20
-19.84777616066863
 30
0.0
 10
13.00869655588836
 20
-19.91847915556772
 30
0.0
 10
13.11913956973407
 20
-19.95022612163445
 30
0.0
 11
12.36538757655475
 21
-19.84108554670236
 31
0.0
 11
12.78574933383319
 21
-19.86837046691796
 31
0.0
 11
13.11913956973407
 21
-19.95022612163445
 31
0.0
  0
SPLINE
  5
164
330
1F
100
AcDbEntity
  8
0
100
AcDbSpline
210
0.0
220
0.0
230
1.0
 70
  1064
 71
     3
 72
     9
 73
     5
 74
     3
 42
0.000000001
 43
0.0000000001
 44
0.0000000001
 40
0.0
 40
0.0
 40
0.0
 40
0.0
 40
0.2800896128892265
 40
0.5113025213994631
 40
0.5113025213994631
 40
0.5113025213994631
 40
0.5113025213994631
 10
13.11913956973407
 20
-19.95022612163445
 30
0.0
 10
13.20661711691234
 20
-19.98580593434563
 30
0.0
 10
13.36630704606291
 20
-20.05075674691769
 30
0.0
 10
13.48967988283936
 20
-20.17059251654971
 30
0.0
 10
13.54546954009387
 20
-20.22478269884011
 30
0.0
 11
13.11913956973407
 21
-19.95022612163445
 31
0.0
 11
13.37067415091845
 21
-20.07343547889611
 31
0.0
 11
13.54546954009387
 21
-20.22478269884011
 31
0.0
  0
SPLINE
  5
165
330
1F
100
AcDbEntity
  8
0
100
AcDbSpline
210
0.0
220
0.0
230
1.0
 70
  1064
 71
     3
 72
     9
 73
     5
 74
     3
 42
0.000000001
 43
0.0000000001
 44
0.0000000001
 40
0.0
 40
0.0
 40
0.0
 40
0.0
 40
0.2201715266792551
 40
0.4627145693573369
 40
0.4627145693573369
 40
0.4627145693573369
 40
0.4627145693573369
 10
13.54546954009387
 20
-20.22478269884011
 30
0.0
 10
13.58791789610711
 20
-20.28540750809185
 30
0.0
 10
13.67712776383539
 20
-20.41281718239617
 30
0.0
 10
13.7160588175122
 20
-20.56356703844439
 30
0.0
 10
13.73646547171924
 20
-20.6425862247648
 30
0.0
 11
13.54546954009387
 21
-20.22478269884011
 31
0.0
 11
13.66143097255084
 21
-20.41194158145807
 31
0.0
 11
13.73646547171924
 21
-20.6425862247648
 31
0.0
  0
SPLINE
  5
166
330
1F
100
AcDbEntity
  8
0
100
AcDbSpline
210
0.0
220
0.0
230
1.0
 70
  1064
 71
     3
 72
     9
 73
     5
 74
     3
 42
0.000000001
 43
0.0000000001
 44
0.0000000001
 40
0.0
 40
0.0
 40
0.0
 40
0.0
 40
0.2211877750083766
 40
0.5674527266167258
 40
0.5674527266167258
 40
0.5674527266167258
 40
0.5674527266167258
 10
13.73646547171924
 20
-20.6425862247648
 30
0.0
 10
13.74531651438306
 20
-20.71584052215019
 30
0.0
 10
13.76802368385839
 20
-20.90377292838813
 30
0.0
 10
13.76748809130722
 20
-21.09317664803718
 30
0.0
 10
13.76716126773211
 20
-21.20875256606957
 30
0.0
 11
13.73646547171924
 21
-20.6425862247648
 31
0.0
 11
13.75948716971728
 21
-20.86257266351601
 31
0.0
 11
13.76716126773211
 21
-21.20875256606957
 31
0.0
  0
LINE
  5
167
330
1F
100
AcDbEntity
  8
0
100
AcDbLine
 10
13.76716126773211
 20
-21.20875256606957
 30
0.0
 11
13.76716126773211
 21
-22.02730643102548
 31
0.0
  0
SPLINE
  5
168
330
1F
100
AcDbEntity
  8
0
100
AcDbSpline
210
0.0
220
0.0
230
1.0
 70
  1064
 71
     3
 72
     9
 73
     5
 74
     3
 42
0.000000001
 43
0.0000000001
 44
0.0000000001
 40
0.0
 40
0.0
 40
0.0
 40
0.0
 40
0.6988238823029059
 40
1.084071990962887
 40
1.084071990962887
 40
1.084071990962887
 40
1.084071990962887
 10
13.76716126773211
 20
-22.02730643102548
 30
0.0
 10
13.76575019801193
 20
-22.26043660846321
 30
0.0
 10
13.76356123280957
 20
-22.62208694985625
 30
0.0
 10
13.79515616946611
 20
-22.98220810635934
 30
0.0
 10
13.80638410422656
 20
-23.11018484184167
 30
0.0
 11
13.76716126773211
 21
-22.02730643102548
 31
0.0
 11
13.77696682784412
 21
-22.72606151649377
 31
0.0
 11
13.80638410422656
 21
-23.11018484184167
 31
0.0
  0
SPLINE
  5
169
330
1F
100
AcDbEntity
  8
0
100
AcDbSpline
210
0.0
220
0.0
230
1.0
 70
  1064
 71
     3
 72
     9
 73
     5
 74
     3
 42
0.000000001
 43
0.0000000001
 44
0.0000000001
 40
0.0
 40
0.0
 40
0.0
 40
0.0
 40
0.2296688081226877
 40
0.4633857674032001
 40
0.4633857674032001
 40
0.4633857674032001
 40
0.4633857674032001
 10
13.80638410422656
 20
-23.11018484184167
 30
0.0
 10
13.82282212455914
 20
-23.18530326430824
 30
0.0
 10
13.85598790239665
 20
-23.33686414941631
 30
0.0
 10
13.92617011429116
 20
-23.47524631475857
 30
0.0
 10
13.96156777713154
 20
-23.54504185268304
 30
0.0
 11
13.80638410422656
 21
-23.11018484184167
 31
0.0
 11
13.86479129168842
 21
-23.33230274269006
 31
0.0
 11
13.96156777713154
 21
-23.54504185268304
 31
0.0
  0
LINE
  5
170
330
1F
100
AcDbEntity
  8
0
100
AcDbLine
 10
13.96156777713154
 20
-23.54504185268304
 30
0.0
 11
13.32036723468158
 21
-23.54504185268304
 31
0.0
  0
SPLINE
  5
171
330
1F
100
AcDbEntity
  8
0
100
AcDbSpline
210
0.0
220
0.0
230
1.0
 70
  1064
 71
     3
 72
     9
 73
     5
 74
     3
 42
0.000000001
 43
0.0000000001
 44
0.0000000001
 40
0.0
 40
0.0
 40
0.0
 40
0.0
 40
0.2215489008148933
 40
0.4652143641224738
 40
0.4652143641224738
 40
0.4652143641224738
 40
0.4652143641224738
 10
13.32036723468158
 20
-23.54504185268304
 30
0.0
 10
13.2911925734235
 20
-23.47682196671559
 30
0.0
 10
13.22993083194907
 20
-23.33357200810998
 30
0.0
 10
13.20870310133652
 20
-23.17913653333835
 30
0.0
 10
13.19758464667651
 20
-23.0982478196325
 30
0.0
 11
13.32036723468158
 21
-23.54504185268304
 31
0.0
 11
13.24192275378559
 21
-23.33784537860772
 31
0.0
 11
13.19758464667651
 21
-23.0982478196325
 31
0.0
  0
SPLINE
  5
172
330
1F
100
AcDbEntity
  8
0
100
AcDbSpline
210
0.0
220
0.0
230
1.0
 70
  1064
 71
     3
 72
     9
 73
     5
 74
     3
 42
0.000000001
 43
0.0000000001
 44
0.0000000001
 40
0.0
 40
0.0
 40
0.0
 40
0.0
 40
0.4364455601976254
 40
1.030849890772733
 40
1.030849890772733
 40
1.030849890772733
 40
1.030849890772733
 10
13.1464247879729
 20
-21.72716992446801
 30
0.0
 10
13.00798128015681
 20
-21.77266129122394
 30
0.0
 10
12.68098866544036
 20
-21.88010830117914
 30
0.0
 10
12.34019998515177
 20
-21.93020635452904
 30
0.0
 10
12.1436958489165
 20
-21.95909368345162
 30
0.0
 11
13.1464247879729
 21
-21.72716992446801
 31
0.0
 11
12.72862126204821
 21
-21.8533639843168
 31
0.0
 11
12.1436958489165
 21
-21.95909368345162
 31
0.0
  0
SPLINE
  5
173
330
1F
100
AcDbEntity
  8
0
100
AcDbSpline
210
0.0
220
0.0
230
1.0
 70
  1064
 71
     3
 72
     9
 73
     5
 74
     3
 42
0.000000001
 43
0.0000000001
 44
0.0000000001
 40
0.0
 40
0.0
 40
0.0
 40
0.0
 40
0.3283187189961926
 40
0.55029979509064
 40
0.55029979509064
 40
0.55029979509064
 40
0.55029979509064
 10
12.1436958489165
 20
-21.95909368345162
 30
0.0
 10
12.03506739031279
 20
-21.97465550869027
 30
0.0
 10
11.85299364595425
 20
-22.00073891102033
 30
0.0
 10
11.67858067050418
 20
-22.05855471157995
 30
0.0
 10
11.60822560164783
 20
-22.08187656947991
 30
0.0
 11
12.1436958489165
 21
-21.95909368345162
 31
0.0
 11
11.82053734633776
 21
-22.01707439968011
 31
0.0
 11
11.60822560164783
 21
-22.08187656947991
 31
0.0
  0
SPLINE
  5
174
330
1F
100
AcDbEntity
  8
0
100
AcDbSpline
210
0.0
220
0.0
230
1.0
 70
  1064
 71
     3
 72
     9
 73
     5
 74
     3
 42
0.000000001
 43
0.0000000001
 44
0.0000000001
 40
0.0
 40
0.0
 40
0.0
 40
0.0
 40
0.1623893839599892
 40
0.3172857069752902
 40
0.3172857069752902
 40
0.3172857069752902
 40
0.3172857069752902
 10
11.60822560164783
 20
-22.08187656947991
 30
0.0
 10
11.55926864170478
 20
-22.10670442845986
 30
0.0
 10
11.46361372099447
 20
-22.15521452559205
 30
0.0
 10
11.398068472813
 20
-22.24000494612834
 30
0.0
 10
11.36606981131885
 20
-22.2813989455404
 30
0.0
 11
11.60822560164783
 21
-22.08187656947991
 31
0.0
 11
11.46924187514636
 21
-22.16586368629357
 31
0.0
 11
11.36606981131885
 21
-22.2813989455404
 31
0.0
  0
SPLINE
  5
175
330
1F
100
AcDbEntity
  8
0
100
AcDbSpline
210
0.0
220
0.0
230
1.0
 70
  1064
 71
     3
 72
     9
 73
     5
 74
     3
 42
0.000000001
 43
0.0000000001
 44
0.0000000001
 40
0.0
 40
0.0
 40
0.0
 40
0.0
 40
0.1526030774610189
 40
0.3071332159098373
 40
0.3071332159098373
 40
0.3071332159098373
 40
0.3071332159098373
 10
11.36606981131885
 20
-22.2813989455404
 30
0.0
 10
11.34120096970778
 20
-22.32654249307484
 30
0.0
 10
11.29114924449333
 20
-22.41739965770426
 30
0.0
 10
11.28426672717071
 20
-22.52092290935506
 30
0.0
 10
11.28080387685153
 20
-22.57300930568597
 30
0.0
 11
11.36606981131885
 21
-22.2813989455404
 31
0.0
 11
11.30212058398578
 21
-22.41995649883172
 31
0.0
 11
11.28080387685153
 21
-22.57300930568597
 31
0.0
  0
SPLINE
  5
176
330
1F
100
AcDbEntity
  8
0
100
AcDbSpline
210
0.0
220
0.0
230
1.0
 70
  1064
 71
     3
 72
     9
 73
     5
 74
     3
 42
0.000000001
 43
0.0000000001
 44
0.0000000001
 40
0.0
 40
0.0
 40
0.0
 40
0.0
 40
0.2298482719529296
 40
0.4608362982242386
 40
0.4608362982242386
 40
0.4608362982242386
 40
0.4608362982242386
 10
11.28080387685153
 20
-22.57300930568597
 30
0.0
 10
11.28862516698
 20
-22.65152089461395
 30
0.0
 10
11.30430653086201
 20
-22.80893338983029
 30
0.0
 10
11.41246876943874
 20
-22.92440646019548
 30
0.0
 10
11.46668364379261
 20
-22.98228579112908
 30
0.0
 11
11.28080387685153
 21
-22.57300930568597
 31
0.0
 11
11.327273744081
 21
-22.79811101505181
 31
0.0
 11
11.46668364379261
 21
-22.98228579112908
 31
0.0
  0
SPLINE
  5
177
330
1F
100
AcDbEntity
  8
0
100
AcDbSpline
210
0.0
220
0.0
230
1.0
 70
  1064
 71
     3
 72
     9
 73
     5
 74
     3
 42
0.000000001
 43
0.0000000001
 44
0.0000000001
 40
0.0
 40
0.0
 40
0.0
 40
0.0
 40
0.2597863510634406
 40
0.577491799240252
 40
0.577491799240252
 40
0.577491799240252
 40
0.577491799240252
 10
11.46668364379261
 20
-22.98228579112908
 30
0.0
 10
11.54084616509274
 20
-23.02991034173393
 30
0.0
 10
11.70570566477965
 20
-23.13577728703037
 30
0.0
 10
11.90244522808262
 20
-23.14237008936678
 30
0.0
 10
12.01068093154285
 20
-23.14599710056207
 30
0.0
 11
11.46668364379261
 21
-22.98228579112908
 31
0.0
 11
11.69562270018909
 21
-23.10506957122704
 31
0.0
 11
12.01068093154285
 21
-23.14599710056207
 31
0.0
  0
SPLINE
  5
178
330
1F
100
AcDbEntity
  8
0
100
AcDbSpline
210
0.0
220
0.0
230
1.0
 70
  1064
 71
     3
 72
     9
 73
     5
 74
     3
 42
0.000000001
 43
0.0000000001
 44
0.0000000001
 40
0.0
 40
0.0
 40
0.0
 40
0.0
 40
0.3373338784735413
 40
0.6552760334077366
 40
0.6552760334077366
 40
0.6552760334077366
 40
0.6552760334077366
 10
12.01068093154285
 20
-23.14599710056207
 30
0.0
 10
12.12419637386968
 20
-23.14033150165324
 30
0.0
 10
12.34470179453789
 20
-23.12932599222545
 30
0.0
 10
12.54463935694819
 20
-23.03606391024867
 30
0.0
 10
12.64164974067065
 20
-22.99081283161065
 30
0.0
 11
12.01068093154285
 21
-23.14599710056207
 31
0.0
 11
12.34577645633075
 21
-23.10720103332421
 31
0.0
 11
12.64164974067065
 21
-22.99081283161065
 31
0.0
  0
SPLINE
  5
179
330
1F
100
AcDbEntity
  8
0
100
AcDbSpline
210
0.0
220
0.0
230
1.0
 70
  1064
 71
     3
 72
     9
 73
     5
 74
     3
 42
0.000000001
 43
0.0000000001
 44
0.0000000001
 40
0.0
 40
0.0
 40
0.0
 40
0.0
 40
0.3019445964452809
 40
0.5946334007559897
 40
0.5946334007559897
 40
0.5946334007559897
 40
0.5946334007559897
 10
12.64164974067065
 20
-22.99081283161065
 30
0.0
 10
12.72727649523772
 20
-22.9350427297814
 30
0.0
 10
12.89590520680713
 20
-22.82521209958748
 30
0.0
 10
12.99750599164477
 20
-22.65162842785235
 30
0.0
 10
13.04751564833972
 20
-22.56618755409142
 30
0.0
 11
12.64164974067065
 21
-22.99081283161065
 31
0.0
 11
12.88124729964587
 21
-22.80706422874352
 31
0.0
 11
13.04751564833972
 21
-22.56618755409142
 31
0.0
  0
SPLINE
  5
180
330
1F
100
AcDbEntity
  8
0
100
AcDbSpline
210
0.0
220
0.0
230
1.0
 70
  1064
 71
     3
 72
     9
 73
     5
 74
     3
 42
0.000000001
 43
0.0000000001
 44
0.0000000001
 40
0.0
 40
0.0
 40
0.0
 40
0.0
 40
0.2679755574244714
 40
0.6252442518033763
 40
0.6252442518033763
 40
0.6252442518033763
 40
0.6252442518033763
 10
13.04751564833972
 20
-22.56618755409142
 30
0.0
 10
13.07621690944725
 20
-22.48105523657933
 30
0.0
 10
13.14318308613689
 20
-22.28242334388464
 30
0.0
 10
13.14524601614397
 20
-22.07232424334882
 30
0.0
 10
13.1464247879729
 20
-21.9522722298803
 30
0.0
 11
13.04751564833972
 21
-22.56618755409142
 31
0.0
 11
13.12169720504138
 21
-22.30868416377923
 31
0.0
 11
13.1464247879729
 21
-21.9522722298803
 31
0.0
  0
LINE
  5
181
330
1F
100
AcDbEntity
  8
0
100
AcDbLine
 10
13.1464247879729
 20
-21.9522722298803
 30
0.0
 11
13.1464247879729
 21
-21.72716992446801
 31
0.0
  0
LINE
  5
182
330
1F
100
AcDbEntity
  8
0
100
AcDbLine
 10
14.71190859649036
 20
-23.54504185268304
 30
0.0
 11
14.71190859649035
 21
-19.92294090339562
 31
0.0
  0
LINE
  5
183
330
1F
100
AcDbEntity
  8
0
100
AcDbLine
 10
14.71190859649035
 20
-19.92294090339562
 30
0.0
 11
15.26443232867572
 21
-19.92294090339562
 31
0.0
  0
LINE
  5
184
330
1F
100
AcDbEntity
  8
0
100
AcDbLine
 10
15.26443232867572
 20
-19.92294090339562
 30
0.0
 11
15.26443232867572
 21
-20.47205405780694
 31
0.0
  0
SPLINE
  5
185
330
1F
100
AcDbEntity
  8
0
100
AcDbSpline
210
0.0
220
0.0
230
1.0
 70
  1064
 71
     3
 72
     9
 73
     5
 74
     3
 42
0.000000001
 43
0.0000000001
 44
0.0000000001
 40
0.0
 40
0.0
 40
0.0
 40
0.0
 40
0.3789376225819724
 40
0.6445260541614822
 40
0.6445260541614822
 40
0.6445260541614822
 40
0.6445260541614822
 10
15.26443232867572
 20
-20.47205405780694
 30
0.0
 10
15.32597943719185
 20
-20.36048515528696
 30
0.0
 10
15.43066346071704
 20
-20.17072024353614
 30
0.0
 10
15.58949944298305
 20
-20.02423166050246
 30
0.0
 10
15.65495063636157
 20
-19.96386843273065
 30
0.0
 11
15.26443232867572
 21
-20.47205405780694
 31
0.0
 11
15.46779205176684
 21
-20.15230643102548
 31
0.0
 11
15.65495063636157
 21
-19.96386843273065
 31
0.0
  0
SPLINE
  5
186
330
1F
100
AcDbEntity
  8
0
100
AcDbSpline
210
0.0
220
0.0
230
1.0
 70
  1064
 71
     3
 72
     9
 73
     5
 74
     3
 42
0.000000001
 43
0.0000000001
 44
0.0000000001
 40
0.0
 40
0.0
 40
0.0
 40
0.0
 40
0.2093527897665814
 40
0.4175454658689179
 40
0.4175454658689179
 40
0.4175454658689179
 40
0.4175454658689179
 10
15.65495063636157
 20
-19.96386843273065
 30
0.0
 10
15.7160292102003
 20
-19.92805687416723
 30
0.0
 10
15.83784789528463
 20
-19.85663220425704
 30
0.0
 10
15.97866646104171
 20
-19.84625815809305
 30
0.0
 10
16.04888011786791
 20
-19.84108554670236
 30
0.0
 11
15.65495063636157
 21
-19.96386843273065
 31
0.0
 11
15.84296275946948
 21
-19.87178134271523
 31
0.0
 11
16.04888011786791
 21
-19.84108554670236
 31
0.0
  0
SPLINE
  5
187
330
1F
100
AcDbEntity
  8
0
100
AcDbSpline
210
0.0
220
0.0
230
1.0
 70
  1064
 71
     3
 72
     9
 73
     5
 74
     3
 42
0.000000001
 43
0.0000000001
 44
0.0000000001
 40
0.0
 40
0.0
 40
0.0
 40
0.0
 40
0.3168104921178934
 40
0.667755308453671
 40
0.667755308453671
 40
0.667755308453671
 40
0.667755308453671
 10
16.04888011786791
 20
-19.84108554670236
 30
0.0
 10
16.15523062344184
 20
-19.85089031939699
 30
0.0
 10
16.37939022806532
 20
-19.87155626695212
 30
0.0
 10
16.57634013147612
 20
-19.981251379522
 30
0.0
 10
16.67984892699572
 20
-20.03890263387582
 30
0.0
 11
16.04888011786791
 21
-19.84108554670236
 31
0.0
 11
16.36180688712451
 21
-19.89053981849572
 31
0.0
 11
16.67984892699572
 21
-20.03890263387582
 31
0.0
  0
LINE
  5
188
330
1F
100
AcDbEntity
  8
0
100
AcDbLine
 10
16.67984892699572
 20
-20.03890263387582
 30
0.0
 11
16.46838893267962
 21
-20.60847985097787
 31
0.0
  0
SPLINE
  5
189
330
1F
100
AcDbEntity
  8
0
100
AcDbSpline
210
0.0
220
0.0
230
1.0
 70
  1064
 71
     3
 72
     9
 73
     5
 74
     3
 42
0.000000001
 43
0.0000000001
 44
0.0000000001
 40
0.0
 40
0.0
 40
0.0
 40
0.0
 40
0.2462180792288255
 40
0.4737634114991925
 40
0.4737634114991925
 40
0.4737634114991925
 40
0.4737634114991925
 10
16.46838893267962
 20
-20.60847985097787
 30
0.0
 10
16.3949548581841
 20
-20.56970178704132
 30
0.0
 10
16.25365582050885
 20
-20.49508651947261
 30
0.0
 10
16.09458496690245
 20
-20.48183111557936
 30
0.0
 10
16.01818432185504
 20
-20.47546463558099
 30
0.0
 11
16.46838893267962
 21
-20.60847985097787
 31
0.0
 11
16.24328662726734
 21
-20.50871866294762
 31
0.0
 11
16.01818432185504
 21
-20.47546463558099
 31
0.0
  0
SPLINE
  5
190
330
1F
100
AcDbEntity
  8
0
100
AcDbSpline
210
0.0
220
0.0
230
1.0
 70
  1064
 71
     3
 72
     9
 73
     5
 74
     3
 42
0.000000001
 43
0.0000000001
 44
0.0000000001
 40
0.0
 40
0.0
 40
0.0
 40
0.0
 40
0.1933802566119672
 40
0.3865823719269698
 40
0.3865823719269698
 40
0.3865823719269698
 40
0.3865823719269698
 10
16.01818432185504
 20
-20.47546463558099
 30
0.0
 10
15.95282569803069
 20
-20.48050031697917
 30
0.0
 10
15.82216865854501
 20
-20.49056704092135
 30
0.0
 10
15.71181028227116
 20
-20.56122822128031
 30
0.0
 10
15.65665652129504
 20
-20.59654253074548
 30
0.0
 11
16.01818432185504
 21
-20.47546463558099
 31
0.0
 11
15.82718779418322
 21
-20.50573425838372
 31
0.0
 11
15.65665652129504
 21
-20.59654253074548
 31
0.0
  0
SPLINE
  5
191
330
1F
100
AcDbEntity
  8
0
100
AcDbSpline
210
0.0
220
0.0
230
1.0
 70
  1064
 71
     3
 72
     9
 73
     5
 74
     3
 42
0.000000001
 43
0.0000000001
 44
0.0000000001
 40
0.0
 40
0.0
 40
0.0
 40
0.0
 40
0.199332175959219
 40
0.4113844013152994
 40
0.4113844013152994
 40
0.4113844013152994
 40
0.4113844013152994
 10
15.65665652129504
 20
-20.59654253074548
 30
0.0
 10
15.60673647618794
 20
-20.64185800978593
 30
0.0
 10
15.50371082179375
 20
-20.73538069936509
 30
0.0
 10
15.45384624134787
 20
-20.86544681374769
 30
0.0
 10
15.42814304206225
 20
-20.93249069997689
 30
0.0
 11
15.65665652129504
 21
-20.59654253074548
 31
0.0
 11
15.51937748763415
 21
-20.74106859514138
 31
0.0
 11
15.42814304206225
 21
-20.93249069997689
 31
0.0
  0
SPLINE
  5
192
330
1F
100
AcDbEntity
  8
0
100
AcDbSpline
210
0.0
220
0.0
230
1.0
 70
  1064
 71
     3
 72
     9
 73
     5
 74
     3
 42
0.000000001
 43
0.0000000001
 44
0.0000000001
 40
0.0
 40
0.0
 40
0.0
 40
0.0
 40
0.3512549065666124
 40
0.725594990902795
 40
0.725594990902795
 40
0.725594990902795
 40
0.725594990902795
 10
15.42814304206225
 20
-20.93249069997689
 30
0.0
 10
15.39830811079576
 20
-21.04612887129547
 30
0.0
 10
15.33667743667224
 20
-21.28087374273397
 30
0.0
 10
15.32951768970231
 20
-21.52353474839848
 30
0.0
 10
15.32582392070147
 20
-21.64872544357201
 30
0.0
 11
15.42814304206225
 21
-20.93249069997689
 31
0.0
 11
15.35140325400683
 21
-21.27526032277962
 31
0.0
 11
15.32582392070147
 21
-21.64872544357201
 31
0.0
  0
LINE
  5
193
330
1F
100
AcDbEntity
  8
0
100
AcDbLine
 10
15.32582392070147
 20
-21.64872544357201
 30
0.0
 11
15.32582392070147
 21
-23.54504185268304
 31
0.0
  0
LINE
  5
194
330
1F
100
AcDbEntity
  8
0
100
AcDbLine
 10
15.32582392070147
 20
-23.54504185268304
 30
0.0
 11
14.71190859649036
 21
-23.54504185268304
 31
0.0
  0
LINE
  5
195
330
1F
100
AcDbEntity
  8
0
100
AcDbLine
 10
19.39472009513233
 20
-23.54504185268304
 30
0.0
 11
19.39472009513233
 21
-23.08801608631036
 31
0.0
  0
SPLINE
  5
196
330
1F
100
AcDbEntity
  8
0
100
AcDbSpline
210
0.0
220
0.0
230
1.0
 70
  1064
 71
     3
 72
     9
 73
     5
 74
     3
 42
0.000000001
 43
0.0000000001
 44
0.0000000001
 40
0.0
 40
0.0
 40
0.0
 40
0.0
 40
0.5868364242583755
 40
1.189569007177915
 40
1.189569007177915
 40
1.189569007177915
 40
1.189569007177915
 10
19.39472009513233
 20
-23.08801608631036
 30
0.0
 10
19.2649406511484
 20
-23.24518199478077
 30
0.0
 10
19.00186631228615
 20
-23.56377110406729
 30
0.0
 10
18.59029498913339
 20
-23.60566874749602
 30
0.0
 10
18.38175942275379
 20
-23.62689750739953
 30
0.0
 11
19.39472009513233
 21
-23.08801608631036
 31
0.0
 11
18.96924306723926
 21
-23.49217730113885
 31
0.0
 11
18.38175942275379
 21
-23.62689750739953
 31
0.0
  0
SPLINE
  5
197
330
1F
100
AcDbEntity
  8
0
100
AcDbSpline
210
0.0
220
0.0
230
1.0
 70
  1064
 71
     3
 72
     9
 73
     5
 74
     3
 42
0.000000001
 43
0.0000000001
 44
0.0000000001
 40
0.0
 40
0.0
 40
0.0
 40
0.0
 40
0.4199353753007643
 40
0.8406541521654894
 40
0.8406541521654894
 40
0.8406541521654894
 40
0.8406541521654894
 10
18.38175942275379
 20
-23.62689750739953
 30
0.0
 10
18.24023248603311
 20
-23.61691276107543
 30
0.0
 10
17.95691459000617
 20
-23.59692464159476
 30
0.0
 10
17.70929818841518
 20
-23.45778629787924
 30
0.0
 10
17.58537461135242
 20
-23.3881522948446
 30
0.0
 11
18.38175942275379
 21
-23.62689750739953
 31
0.0
 11
17.96608735892627
 21
-23.5672112042608
 31
0.0
 11
17.58537461135242
 21
-23.3881522948446
 31
0.0
  0
SPLINE
  5
198
330
1F
100
AcDbEntity
  8
0
100
AcDbSpline
210
0.0
220
0.0
230
1.0
 70
  1064
 71
     3
 72
     9
 73
     5
 74
     3
 42
0.000000001
 43
0.0000000001
 44
0.0000000001
 40
0.0
 40
0.0
 40
0.0
 40
0.0
 40
0.4309469024209729
 40
0.8812338699982527
 40
0.8812338699982527
 40
0.8812338699982527
 40
0.8812338699982527
 10
17.58537461135242
 20
-23.3881522948446
 30
0.0
 10
17.4704263383436
 20
-23.29917763178946
 30
0.0
 10
17.23537113570931
 20
-23.11723529454236
 30
0.0
 10
17.09456692984867
 20
-22.8552429252636
 30
0.0
 10
17.02261974189136
 20
-22.72137182304284
 30
0.0
 11
17.58537461135242
 21
-23.3881522948446
 31
0.0
 11
17.26306964728687
 21
-23.10208457061669
 31
0.0
 11
17.02261974189136
 21
-22.72137182304284
 31
0.0
  0
SPLINE
  5
199
330
1F
100
AcDbEntity
  8
0
100
AcDbSpline
210
0.0
220
0.0
230
1.0
 70
  1064
 71
     3
 72
     9
 73
     5
 74
     3
 42
0.000000001
 43
0.0000000001
 44
0.0000000001
 40
0.0
 40
0.0
 40
0.0
 40
0.0
 40
0.4837376914084741
 40
1.010066641940955
 40
1.010066641940955
 40
1.010066641940955
 40
1.010066641940955
 10
17.02261974189136
 20
-22.72137182304284
 30
0.0
 10
16.96445390881932
 20
-22.56975522924659
 30
0.0
 10
16.84300096287313
 20
-22.25317277871972
 30
0.0
 10
16.82991542580693
 20
-21.91409135549802
 30
0.0
 10
16.82309676978443
 20
-21.73740165779015
 30
0.0
 11
17.02261974189136
 21
-22.72137182304284
 31
0.0
 11
16.87297751281116
 21
-22.26136165210625
 31
0.0
 11
16.82309676978443
 21
-21.73740165779015
 31
0.0
  0
SPLINE
  5
200
330
1F
100
AcDbEntity
  8
0
100
AcDbSpline
210
0.0
220
0.0
230
1.0
 70
  1064
 71
     3
 72
     9
 73
     5
 74
     3
 42
0.000000001
 43
0.0000000001
 44
0.0000000001
 40
0.0
 40
0.0
 40
0.0
 40
0.0
 40
0.5191093346159442
 40
1.005228215182532
 40
1.005228215182532
 40
1.005228215182532
 40
1.005228215182532
 10
16.82309676978443
 20
-21.73740165779015
 30
0.0
 10
16.8295895393258
 20
-21.56341906215274
 30
0.0
 10
16.84216244969831
 20
-21.22651081869993
 30
0.0
 10
16.95115378612259
 20
-20.90763643429123
 30
0.0
 10
17.00386096808765
 20
-20.75343179056069
 30
0.0
 11
16.82309676978443
 21
-21.73740165779015
 31
0.0
 11
16.86828781936023
 21
-21.22026311704537
 31
0.0
 11
17.00386096808765
 21
-20.75343179056069
 31
0.0
  0
SPLINE
  5
201
330
1F
100
AcDbEntity
  8
0
100
AcDbSpline
210
0.0
220
0.0
230
1.0
 70
  1064
 71
     3
 72
     9
 73
     5
 74
     3
 42
0.000000001
 43
0.0000000001
 44
0.0000000001
 40
0.0
 40
0.0
 40
0.0
 40
0.0
 40
0.4508077721422795
 40
0.877881373386068
 40
0.877881373386068
 40
0.877881373386068
 40
0.877881373386068
 10
17.00386096808765
 20
-20.75343179056069
 30
0.0
 10
17.06993940372544
 20
-20.61593568766888
 30
0.0
 10
17.19861737117318
 20
-20.34818238992005
 30
0.0
 10
17.43241432876577
 20
-20.16535940345515
 30
0.0
 10
17.54615237090442
 20
-20.07641928741357
 30
0.0
 11
17.00386096808765
 21
-20.75343179056069
 31
0.0
 11
17.22981621596667
 21
-20.36333965608498
 31
0.0
 11
17.54615237090442
 21
-20.07641928741357
 31
0.0
  0
SPLINE
  5
202
330
1F
100
AcDbEntity
  8
0
100
AcDbSpline
210
0.0
220
0.0
230
1.0
 70
  1064
 71
     3
 72
     9
 73
     5
 74
     3
 42
0.000000001
 43
0.0000000001
 44
0.0000000001
 40
0.0
 40
0.0
 40
0.0
 40
0.0
 40
0.421571083253027
 40
0.8510976598584544
 40
0.8510976598584544
 40
0.8510976598584544
 40
0.8510976598584544
 10
17.54615237090442
 20
-20.07641928741357
 30
0.0
 10
17.67089805360907
 20
-20.00778181634835
 30
0.0
 10
17.92274350232465
 20
-19.86921161235942
 30
0.0
 10
18.209670367485
 20
-19.85051894543417
 30
0.0
 10
18.3544748005614
 20
-19.84108524867913
 30
0.0
 11
17.54615237090442
 21
-20.07641928741357
 31
0.0
 11
17.92899658057544
 21
-19.89991860935113
 31
0.0
 11
18.3544748005614
 21
-19.84108524867913
 31
0.0
  0
SPLINE
  5
203
330
1F
100
AcDbEntity
  8
0
100
AcDbSpline
210
0.0
220
0.0
230
1.0
 70
  1064
 71
     3
 72
     9
 73
     5
 74
     3
 42
0.000000001
 43
0.0000000001
 44
0.0000000001
 40
0.0
 40
0.0
 40
0.0
 40
0.0
 40
0.3114354373690976
 40
0.6040901209257516
 40
0.6040901209257516
 40
0.6040901209257516
 40
0.6040901209257516
 10
18.3544748005614
 20
-19.84108524867913
 30
0.0
 10
18.45921422284235
 20
-19.84609044136492
 30
0.0
 10
18.66237687769596
 20
-19.8557989943811
 30
0.0
 10
18.84784385946679
 20
-19.93893860471178
 30
0.0
 10
18.93769432875964
 20
-19.97921603271386
 30
0.0
 11
18.3544748005614
 21
-19.84108524867913
 31
0.0
 11
18.66398979995105
 21
-19.8756177956762
 31
0.0
 11
18.93769432875964
 21
-19.97921603271386
 31
0.0
  0
SPLINE
  5
204
330
1F
100
AcDbEntity
  8
0
100
AcDbSpline
210
0.0
220
0.0
230
1.0
 70
  1064
 71
     3
 72
     9
 73
     5
 74
     3
 42
0.000000001
 43
0.0000000001
 44
0.0000000001
 40
0.0
 40
0.0
 40
0.0
 40
0.0
 40
0.2812045427002476
 40
0.5536784429831335
 40
0.5536784429831335
 40
0.5536784429831335
 40
0.5536784429831335
 10
18.93769432875964
 20
-19.97921603271386
 30
0.0
 10
19.01854406254319
 20
-20.02814192672135
 30
0.0
 10
19.17773336399266
 20
-20.12447469771965
 30
0.0
 10
19.29572675291261
 20
-20.26827328707248
 30
0.0
 10
19.35379316184375
 20
-20.33903884241006
 30
0.0
 11
18.93769432875964
 21
-19.97921603271386
 31
0.0
 11
19.16961719367359
 21
-20.13823735067269
 31
0.0
 11
19.35379316184375
 21
-20.33903884241006
 31
0.0
  0
LINE
  5
205
330
1F
100
AcDbEntity
  8
0
100
AcDbLine
 10
19.35379316184375
 20
-20.33903884241006
 30
0.0
 11
19.35379316184375
 21
-18.54504185268304
 31
0.0
  0
LINE
  5
206
330
1F
100
AcDbEntity
  8
0
100
AcDbLine
 10
19.35379316184375
 20
-18.54504185268304
 30
0.0
 11
19.96429731223437
 21
-18.54504185268304
 31
0.0
  0
LINE
  5
207
330
1F
100
AcDbEntity
  8
0
100
AcDbLine
 10
19.96429731223437
 20
-18.54504185268304
 30
0.0
 11
19.96429731223437
 21
-23.54504185268304
 31
0.0
  0
LINE
  5
208
330
1F
100
AcDbEntity
  8
0
100
AcDbLine
 10
19.96429731223437
 20
-23.54504185268304
 30
0.0
 11
19.39472009513233
 21
-23.54504185268304
 31
0.0
  0
SPLINE
  5
209
330
1F
100
AcDbEntity
  8
0
100
AcDbSpline
210
0.0
220
0.0
230
1.0
 70
  1064
 71
     3
 72
     9
 73
     5
 74
     3
 42
0.000000001
 43
0.0000000001
 44
0.0000000001
 40
0.0
 40
0.0
 40
0.0
 40
0.0
 40
0.6123534013806693
 40
1.097406252089663
 40
1.097406252089663
 40
1.097406252089663
 40
1.097406252089663
 10
17.45406557891223
 20
-21.73740165779015
 30
0.0
 10
17.45949966662624
 20
-21.9458346427729
 30
0.0
 10
17.46923816373969
 20
-22.31937002339794
 30
0.0
 10
17.66212443099555
 20
-22.63717704934147
 30
0.0
 10
17.74738003585192
 20
-22.77764754840753
 30
0.0
 11
17.45406557891223
 21
-21.73740165779015
 31
0.0
 11
17.5273935971007
 21
-22.34534876891992
 31
0.0
 11
17.74738003585192
 21
-22.77764754840753
 31
0.0
  0
SPLINE
  5
210
330
1F
100
AcDbEntity
  8
0
100
AcDbSpline
210
0.0
220
0.0
230
1.0
 70
  1064
 71
     3
 72
     9
 73
     5
 74
     3
 42
0.000000001
 43
0.0000000001
 44
0.0000000001
 40
0.0
 40
0.0
 40
0.0
 40
0.0
 40
0.4110799558527246
 40
0.7935148747140503
 40
0.7935148747140503
 40
0.7935148747140503
 40
0.7935148747140503
 10
17.74738003585192
 20
-22.77764754840753
 30
0.0
 10
17.84698853405297
 20
-22.87808066501042
 30
0.0
 10
18.03926457146399
 20
-23.07194847783765
 30
0.0
 10
18.30950022098519
 20
-23.10580519643583
 30
0.0
 10
18.4397404370055
 20
-23.12212246009728
 30
0.0
 11
17.74738003585192
 21
-22.77764754840753
 31
0.0
 11
18.06712796065661
 21
-23.03600388118645
 31
0.0
 11
18.4397404370055
 21
-23.12212246009728
 31
0.0
  0
SPLINE
  5
211
330
1F
100
AcDbEntity
  8
0
100
AcDbSpline
210
0.0
220
0.0
230
1.0
 70
  1064
 71
     3
 72
     9
 73
     5
 74
     3
 42
0.000000001
 43
0.0000000001
 44
0.0000000001
 40
0.0
 40
0.0
 40
0.0
 40
0.0
 40
0.3811736967998032
 40
0.7787365343736735
 40
0.7787365343736735
 40
0.7787365343736735
 40
0.7787365343736735
 10
18.4397404370055
 20
-23.12212246009728
 30
0.0
 10
18.56978967462865
 20
-23.10729005722644
 30
0.0
 10
18.83547981394009
 20
-23.07698750984438
 30
0.0
 10
19.02620448473382
 20
-22.88897820488246
 30
0.0
 10
19.12357379767749
 20
-22.79299514839074
 30
0.0
 11
18.4397404370055
 21
-23.12212246009728
 31
0.0
 11
18.81192733619068
 21
-23.03984063217065
 31
0.0
 11
19.12357379767749
 21
-22.79299514839074
 31
0.0
  0
SPLINE
  5
212
330
1F
100
AcDbEntity
  8
0
100
AcDbSpline
210
0.0
220
0.0
230
1.0
 70
  1064
 71
     3
 72
     9
 73
     5
 74
     3
 42
0.000000001
 43
0.0000000001
 44
0.0000000001
 40
0.0
 40
0.0
 40
0.0
 40
0.0
 40
0.4661743646933051
 40
1.05912334383894
 40
1.05912334383894
 40
1.05912334383894
 40
1.05912334383894
 10
19.12357379767749
 20
-22.79299514839074
 30
0.0
 10
19.20534248802124
 20
-22.65790106250887
 30
0.0
 10
19.39111660023607
 20
-22.35097448994582
 30
0.0
 10
19.39998619569481
 20
-21.99041841696178
 30
0.0
 10
19.40495182845447
 20
-21.78856151649377
 30
0.0
 11
19.12357379767749
 21
-22.79299514839074
 31
0.0
 11
19.33460761878345
 21
-22.37732308456322
 31
0.0
 11
19.40495182845447
 21
-21.78856151649377
 31
0.0
  0
SPLINE
  5
213
330
1F
100
AcDbEntity
  8
0
100
AcDbSpline
210
0.0
220
0.0
230
1.0
 70
  1064
 71
     3
 72
     9
 73
     5
 74
     3
 42
0.000000001
 43
0.0000000001
 44
0.0000000001
 40
0.0
 40
0.0
 40
0.0
 40
0.0
 40
0.6485782769015497
 40
1.144354450768934
 40
1.144354450768934
 40
1.144354450768934
 40
1.144354450768934
 10
19.40495182845447
 20
-21.78856151649377
 30
0.0
 10
19.40086416250116
 20
-21.56801283325426
 30
0.0
 10
19.39365186617007
 20
-21.17887573713984
 30
0.0
 10
19.20164354823556
 20
-20.842769550028
 30
0.0
 10
19.11845852706287
 20
-20.69715606519601
 30
0.0
 11
19.40495182845447
 21
-21.78856151649377
 31
0.0
 11
19.33332850310656
 21
-21.14395009824654
 31
0.0
 11
19.11845852706287
 21
-20.69715606519601
 31
0.0
  0
SPLINE
  5
214
330
1F
100
AcDbEntity
  8
0
100
AcDbSpline
210
0.0
220
0.0
230
1.0
 70
  1064
 71
     3
 72
     9
 73
     5
 74
     3
 42
0.000000001
 43
0.0000000001
 44
0.0000000001
 40
0.0
 40
0.0
 40
0.0
 40
0.0
 40
0.4126923668743415
 40
0.8086175549035715
 40
0.8086175549035715
 40
0.8086175549035715
 40
0.8086175549035715
 10
19.11845852706287
 20
-20.69715606519601
 30
0.0
 10
19.01892444815635
 20
-20.59570211738313
 30
0.0
 10
18.8239002364789
 20
-20.39691616978465
 30
0.0
 10
18.5476948596435
 20
-20.3649313656001
 30
0.0
 10
18.41245581481311
 20
-20.3492705757322
 30
0.0
 11
19.11845852706287
 21
-20.69715606519601
 31
0.0
 11
18.79871060225817
 21
-20.43624179908654
 31
0.0
 11
18.41245581481311
 21
-20.3492705757322
 31
0.0
  0
SPLINE
  5
215
330
1F
100
AcDbEntity
  8
0
100
AcDbSpline
210
0.0
220
0.0
230
1.0
 70
  1064
 71
     3
 72
     9
 73
     5
 74
     3
 42
0.000000001
 43
0.0000000001
 44
0.0000000001
 40
0.0
 40
0.0
 40
0.0
 40
0.0
 40
0.3847790933707184
 40
0.782084615264826
 40
0.782084615264826
 40
0.782084615264826
 40
0.782084615264826
 10
18.41245581481311
 20
-20.3492705757322
 30
0.0
 10
18.28093680989595
 20
-20.36406847285268
 30
0.0
 10
18.01361721760834
 20
-20.39414601052456
 30
0.0
 10
17.82462969523031
 20
-20.58603317338476
 30
0.0
 10
17.72862245414111
 20
-20.68351345607659
 30
0.0
 11
18.41245581481311
 21
-20.3492705757322
 31
0.0
 11
18.03685952994677
 21
-20.43283122131249
 31
0.0
 11
17.72862245414111
 21
-20.68351345607659
 31
0.0
  0
SPLINE
  5
216
330
1F
100
AcDbEntity
  8
0
100
AcDbSpline
210
0.0
220
0.0
230
1.0
 70
  1064
 71
     3
 72
     9
 73
     5
 74
     3
 42
0.000000001
 43
0.0000000001
 44
0.0000000001
 40
0.0
 40
0.0
 40
0.0
 40
0.0
 40
0.4772973000524771
 40
1.104360040272408
 40
1.104360040272408
 40
1.104360040272408
 40
1.104360040272408
 10
17.72862245414111
 20
-20.68351345607659
 30
0.0
 10
17.64891403203266
 20
-20.82388703339217
 30
0.0
 10
17.46448643053553
 20
-21.14868034246885
 30
0.0
 10
17.45783965873142
 20
-21.52418671954944
 30
0.0
 10
17.45406557891223
 20
-21.73740165779015
 30
0.0
 11
17.72862245414111
 21
-20.68351345607659
 31
0.0
 11
17.52270509574267
 21
-21.11410694667718
 31
0.0
 11
17.45406557891223
 21
-21.73740165779015
 31
0.0
  0
LINE
  5
217
330
1F
100
AcDbEntity
  8
0
100
AcDbLine
 10
21.49567415091846
 20
-23.54504185268304
 30
0.0
 11
20.92609693381641
 21
-23.54504185268304
 31
0.0
  0
LINE
  5
218
330
1F
100
AcDbEntity
  8
0
100
AcDbLine
 10
20.92609693381641
 20
-23.54504185268304
 30
0.0
 11
20.92609693381641
 21
-18.54504185268303
 31
0.0
  0
LINE
  5
219
330
1F
100
AcDbEntity
  8
0
100
AcDbLine
 10
20.92609693381641
 20
-18.54504185268303
 30
0.0
 11
21.54001285407397
 21
-18.54504185268303
 31
0.0
  0
LINE
  5
220
330
1F
100
AcDbEntity
  8
0
100
AcDbLine
 10
21.54001285407397
 20
-18.54504185268303
 30
0.0
 11
21.54001285407397
 21
-20.32880681106469
 31
0.0
  0
SPLINE
  5
221
330
1F
100
AcDbEntity
  8
0
100
AcDbSpline
210
0.0
220
0.0
230
1.0
 70
  1064
 71
     3
 72
     9
 73
     5
 74
     3
 42
0.000000001
 43
0.0000000001
 44
0.0000000001
 40
0.0
 40
0.0
 40
0.0
 40
0.0
 40
0.5741402900674034
 40
1.137459365111261
 40
1.137459365111261
 40
1.137459365111261
 40
1.137459365111261
 10
21.54001285407397
 20
-20.32880681106469
 30
0.0
 10
21.67759646879021
 20
-20.18655832755277
 30
0.0
 10
21.95017056566552
 20
-19.90474241506122
 30
0.0
 10
22.33963114423984
 20
-19.86216929774727
 30
0.0
 10
22.53250886771533
 20
-19.84108524867913
 30
0.0
 11
21.54001285407397
 21
-20.32880681106469
 31
0.0
 11
21.98254396293017
 21
-19.9630154902639
 31
0.0
 11
22.53250886771533
 21
-19.84108524867913
 31
0.0
  0
SPLINE
  5
222
330
1F
100
AcDbEntity
  8
0
100
AcDbSpline
210
0.0
220
0.0
230
1.0
 70
  1064
 71
     3
 72
     9
 73
     5
 74
     3
 42
0.000000001
 43
0.0000000001
 44
0.0000000001
 40
0.0
 40
0.0
 40
0.0
 40
0.0
 40
0.32702892384274
 40
0.6505941485006513
 40
0.6505941485006513
 40
0.6505941485006513
 40
0.6505941485006513
 10
22.53250886771533
 20
-19.84108524867913
 30
0.0
 10
22.64216323531089
 20
-19.84657816612506
 30
0.0
 10
22.86031057554283
 20
-19.85750582324643
 30
0.0
 10
23.06392056621253
 20
-19.93651245221305
 30
0.0
 10
23.16518356177661
 20
-19.97580545493981
 30
0.0
 11
22.53250886771533
 21
-19.84108524867913
 31
0.0
 11
22.85779883239123
 21
-19.87476544925591
 31
0.0
 11
23.16518356177661
 21
-19.97580545493981
 31
0.0
  0
SPLINE
  5
223
330
1F
100
AcDbEntity
  8
0
100
AcDbSpline
210
0.0
220
0.0
230
1.0
 70
  1064
 71
     3
 72
     9
 73
     5
 74
     3
 42
0.000000001
 43
0.0000000001
 44
0.0000000001
 40
0.0
 40
0.0
 40
0.0
 40
0.0
 40
0.3165896710841535
 40
0.6246875963039376
 40
0.6246875963039376
 40
0.6246875963039376
 40
0.6246875963039376
 10
23.16518356177661
 20
-19.97580545493981
 30
0.0
 10
23.25980499069043
 20
-20.02469371168236
 30
0.0
 10
23.44650985943933
 20
-20.1211589169034
 30
0.0
 10
23.58701668772177
 20
-20.27735187348317
 30
0.0
 10
23.65631510588977
 20
-20.35438674041649
 30
0.0
 11
23.16518356177661
 21
-19.97580545493981
 31
0.0
 11
23.43718220565173
 21
-20.13781087943932
 31
0.0
 11
23.65631510588977
 21
-20.35438674041649
 31
0.0
  0
SPLINE
  5
224
330
1F
100
AcDbEntity
  8
0
100
AcDbSpline
210
0.0
220
0.0
230
1.0
 70
  1064
 71
     3
 72
     9
 73
     5
 74
     3
 42
0.000000001
 43
0.0000000001
 44
0.0000000001
 40
0.0
 40
0.0
 40
0.0
 40
0.0
 40
0.3191981681825136
 40
0.6639796641785641
 40
0.6639796641785641
 40
0.6639796641785641
 40
0.6639796641785641
 10
23.65631510588977
 20
-20.35438674041649
 30
0.0
 10
23.7177057574367
 20
-20.44192584913692
 30
0.0
 10
23.84540744328887
 20
-20.62402021497128
 30
0.0
 10
23.9196204010865
 20
-20.8337941438779
 30
0.0
 10
23.95815660331103
 20
-20.94272243329903
 30
0.0
 11
23.65631510588977
 21
-20.35438674041649
 31
0.0
 11
23.82812549445483
 21
-20.62340097972771
 31
0.0
 11
23.95815660331103
 21
-20.94272243329903
 31
0.0
  0
SPLINE
  5
225
330
1F
100
AcDbEntity
  8
0
100
AcDbSpline
210
0.0
220
0.0
230
1.0
 70
  1064
 71
     3
 72
     9
 73
     5
 74
     3
 42
0.000000001
 43
0.0000000001
 44
0.0000000001
 40
0.0
 40
0.0
 40
0.0
 40
0.0
 40
0.3656907399093544
 40
0.7469549452873212
 40
0.7469549452873212
 40
0.7469549452873212
 40
0.7469549452873212
 10
23.95815660331103
 20
-20.94272243329903
 30
0.0
 10
23.98998519114686
 20
-21.06084581108321
 30
0.0
 10
24.0549978329528
 20
-21.30212302037705
 30
0.0
 10
24.06314100211716
 20
-21.5519189469125
 30
0.0
 10
24.06729747626636
 20
-21.67942094156167
 30
0.0
 11
23.95815660331103
 21
-20.94272243329903
 31
0.0
 11
24.04001166198108
 21
-21.29913436719796
 31
0.0
 11
24.06729747626636
 21
-21.67942094156167
 31
0.0
  0
SPLINE
  5
226
330
1F
100
AcDbEntity
  8
0
100
AcDbSpline
210
0.0
220
0.0
230
1.0
 70
  1064
 71
     3
 72
     9
 73
     5
 74
     3
 42
0.000000001
 43
0.0000000001
 44
0.0000000001
 40
0.0
 40
0.0
 40
0.0
 40
0.0
 40
0.8333629995025017
 40
1.537737959308724
 40
1.537737959308724
 40
1.537737959308724
 40
1.537737959308724
 10
24.06729747626636
 20
-21.67942094156167
 30
0.0
 10
24.05543405503123
 20
-21.96349125024907
 30
0.0
 10
24.03354343453163
 20
-22.48766342616995
 30
0.0
 10
23.74090626742447
 20
-22.92046373560893
 30
0.0
 10
23.60686113211964
 20
-23.11871188232323
 30
0.0
 11
24.06729747626636
 21
-21.67942094156167
 31
0.0
 11
23.95218898627612
 21
-22.50479596206567
 31
0.0
 11
23.60686113211964
 21
-23.11871188232323
 31
0.0
  0
SPLINE
  5
227
330
1F
100
AcDbEntity
  8
0
100
AcDbSpline
210
0.0
220
0.0
230
1.0
 70
  1064
 71
     3
 72
     9
 73
     5
 74
     3
 42
0.000000001
 43
0.0000000001
 44
0.0000000001
 40
0.0
 40
0.0
 40
0.0
 40
0.0
 40
0.6338692814832667
 40
1.245770096168578
 40
1.245770096168578
 40
1.245770096168578
 40
1.245770096168578
 10
23.60686113211964
 20
-23.11871188232323
 30
0.0
 10
23.44766566950013
 20
-23.26691943466409
 30
0.0
 10
23.13479209671392
 20
-23.55819800285805
 30
0.0
 10
22.71031131612081
 20
-23.60426848169224
 30
0.0
 10
22.5018136677489
 20
-23.62689750739953
 30
0.0
 11
23.60686113211964
 21
-23.11871188232323
 31
0.0
 11
23.10038019988391
 21
-23.49985139915368
 31
0.0
 11
22.5018136677489
 21
-23.62689750739953
 31
0.0
  0
SPLINE
  5
228
330
1F
100
AcDbEntity
  8
0
100
AcDbSpline
210
0.0
220
0.0
230
1.0
 70
  1064
 71
     3
 72
     9
 73
     5
 74
     3
 42
0.000000001
 43
0.0000000001
 44
0.0000000001
 40
0.0
 40
0.0
 40
0.0
 40
0.0
 40
0.5875867690836781
 40
1.178895083289806
 40
1.178895083289806
 40
1.178895083289806
 40
1.178895083289806
 10
22.5018136677489
 20
-23.62689750739953
 30
0.0
 10
22.29940092847971
 20
-23.60430574801343
 30
0.0
 10
21.89329344669994
 20
-23.55897914186013
 30
0.0
 10
21.62849255801053
 20
-23.24760513929665
 30
0.0
 10
21.49567415091846
 20
-23.0914266640844
 30
0.0
 11
22.5018136677489
 21
-23.62689750739953
 31
0.0
 11
21.92967941138599
 21
-23.49302964755913
 31
0.0
 11
21.49567415091846
 21
-23.0914266640844
 31
0.0
  0
LINE
  5
229
330
1F
100
AcDbEntity
  8
0
100
AcDbLine
 10
21.49567415091846
 20
-23.0914266640844
 30
0.0
 11
21.49567415091846
 21
-23.54504185268304
 31
0.0
  0
SPLINE
  5
230
330
1F
100
AcDbEntity
  8
0
100
AcDbSpline
210
0.0
220
0.0
230
1.0
 70
  1064
 71
     3
 72
     9
 73
     5
 74
     3
 42
0.000000001
 43
0.0000000001
 44
0.0000000001
 40
0.0
 40
0.0
 40
0.0
 40
0.0
 40
0.5628000445164104
 40
0.9656782480534152
 40
0.9656782480534152
 40
0.9656782480534152
 40
0.9656782480534152
 10
21.48885299537036
 20
-21.70670586177728
 30
0.0
 10
21.48989043424493
 20
-21.89661835142169
 30
0.0
 10
21.49167051966712
 20
-22.22247895159428
 30
0.0
 10
21.61482635400332
 20
-22.52276480817158
 30
0.0
 10
21.66620661589953
 20
-22.64804320880791
 30
0.0
 11
21.48885299537036
 21
-21.70670586177728
 31
0.0
 11
21.53319169852588
 21
-22.26775663444421
 31
0.0
 11
21.66620661589953
 21
-22.64804320880791
 31
0.0
  0
SPLINE
  5
231
330
1F
100
AcDbEntity
  8
0
100
AcDbSpline
210
0.0
220
0.0
230
1.0
 70
  1064
 71
     3
 72
     9
 73
     5
 74
     3
 42
0.000000001
 43
0.0000000001
 44
0.0000000001
 40
0.0
 40
0.0
 40
0.0
 40
0.0
 40
0.4926937116884479
 40
0.951644470618779
 40
0.951644470618779
 40
0.951644470618779
 40
0.951644470618779
 10
21.66620661589953
 20
-22.64804320880791
 30
0.0
 10
21.76825269568491
 20
-22.78626490510013
 30
0.0
 10
21.96535605883374
 20
-23.05324195367105
 30
0.0
 10
22.29275750676022
 20
-23.09971152318385
 30
0.0
 10
22.45065380904529
 20
-23.12212246009728
 30
0.0
 11
21.66620661589953
 21
-22.64804320880791
 31
0.0
 11
22.0072703537688
 21
-23.00360279628655
 31
0.0
 11
22.45065380904529
 21
-23.12212246009728
 31
0.0
  0
SPLINE
  5
232
330
1F
100
AcDbEntity
  8
0
100
AcDbSpline
210
0.0
220
0.0
230
1.0
 70
  1064
 71
     3
 72
     9
 73
     5
 74
     3
 42
0.000000001
 43
0.0000000001
 44
0.0000000001
 40
0.0
 40
0.0
 40
0.0
 40
0.0
 40
0.3852160652638181
 40
0.7993775640571528
 40
0.7993775640571528
 40
0.7993775640571528
 40
0.7993775640571528
 10
22.45065380904529
 20
-23.12212246009728
 30
0.0
 10
22.58189317945658
 20
-23.10555698747017
 30
0.0
 10
22.85423334822895
 20
-23.07118129977126
 30
0.0
 10
23.04670451664131
 20
-22.87445602617149
 30
0.0
 10
23.14642478797289
 20
-22.77253168174645
 30
0.0
 11
22.45065380904529
 21
-23.12212246009728
 31
0.0
 11
22.82582451674792
 21
-23.03472476550957
 31
0.0
 11
23.14642478797289
 21
-22.77253168174645
 31
0.0
  0
SPLINE
  5
233
330
1F
100
AcDbEntity
  8
0
100
AcDbSpline
210
0.0
220
0.0
230
1.0
 70
  1064
 71
     3
 72
     9
 73
     5
 74
     3
 42
0.000000001
 43
0.0000000001
 44
0.0000000001
 40
0.0
 40
0.0
 40
0.0
 40
0.0
 40
0.487714551302778
 40
1.098798060291742
 40
1.098798060291742
 40
1.098798060291742
 40
1.098798060291742
 10
23.14642478797289
 20
-22.77253168174645
 30
0.0
 10
23.23169809304565
 20
-22.63105529994723
 30
0.0
 10
23.42381485880201
 20
-22.31231563248635
 30
0.0
 10
23.43404813161108
 20
-21.93848305589165
 30
0.0
 10
23.4397392449126
 20
-21.73058050224206
 30
0.0
 11
23.14642478797289
 21
-22.77253168174645
 31
0.0
 11
23.36641122672412
 21
-22.33724849769494
 31
0.0
 11
23.4397392449126
 21
-21.73058050224206
 31
0.0
  0
SPLINE
  5
234
330
1F
100
AcDbEntity
  8
0
100
AcDbSpline
210
0.0
220
0.0
230
1.0
 70
  1064
 71
     3
 72
     9
 73
     5
 74
     3
 42
0.000000001
 43
0.0000000001
 44
0.0000000001
 40
0.0
 40
0.0
 40
0.0
 40
0.0
 40
0.6204739741077389
 40
1.100000853227333
 40
1.100000853227333
 40
1.100000853227333
 40
1.100000853227333
 10
23.4397392449126
 20
-21.73058050224206
 30
0.0
 10
23.43534898795053
 20
-21.519512958541
 30
0.0
 10
23.42756576640427
 20
-21.14532405159508
 30
0.0
 10
23.24008869264108
 20
-20.8237139660634
 30
0.0
 10
23.15836121413561
 20
-20.68351345607659
 30
0.0
 11
23.4397392449126
 21
-21.73058050224206
 31
0.0
 11
23.36939503524157
 21
-21.11410694667717
 31
0.0
 11
23.15836121413561
 21
-20.68351345607659
 31
0.0
  0
SPLINE
  5
235
330
1F
100
AcDbEntity
  8
0
100
AcDbSpline
210
0.0
220
0.0
230
1.0
 70
  1064
 71
     3
 72
     9
 73
     5
 74
     3
 42
0.000000001
 43
0.0000000001
 44
0.0000000001
 40
0.0
 40
0.0
 40
0.0
 40
0.0
 40
0.4009043597778847
 40
0.7800482300349112
 40
0.7800482300349112
 40
0.7800482300349112
 40
0.7800482300349112
 10
23.15836121413561
 20
-20.68351345607659
 30
0.0
 10
23.06161940175881
 20
-20.58505368485554
 30
0.0
 10
22.87338677800607
 20
-20.39347839165301
 30
0.0
 10
22.60728007930683
 20
-20.36143482984007
 30
0.0
 10
22.47793843123767
 20
-20.34585999795815
 30
0.0
 11
23.15836121413561
 21
-20.68351345607659
 31
0.0
 11
22.84756590697619
 21
-20.43027328798196
 31
0.0
 11
22.47793843123767
 21
-20.34585999795815
 31
0.0
  0
SPLINE
  5
236
330
1F
100
AcDbEntity
  8
0
100
AcDbSpline
210
0.0
220
0.0
230
1.0
 70
  1064
 71
     3
 72
     9
 73
     5
 74
     3
 42
0.000000001
 43
0.0000000001
 44
0.0000000001
 40
0.0
 40
0.0
 40
0.0
 40
0.0
 40
0.3852149042574722
 40
0.7993773258444388
 40
0.7993773258444388
 40
0.7993773258444388
 40
0.7993773258444388
 10
22.47793843123767
 20
-20.34585999795815
 30
0.0
 10
22.34669953423329
 20
-20.36242560738857
 30
0.0
 10
22.07435960819549
 20
-20.39680167233599
 30
0.0
 10
21.8818881339823
 20
-20.59352643772177
 30
0.0
 10
21.78216745231005
 20
-20.69545077630898
 30
0.0
 11
22.47793843123767
 21
-20.34585999795815
 31
0.0
 11
22.10276891562793
 21
-20.43325769254586
 31
0.0
 11
21.78216745231005
 21
-20.69545077630898
 31
0.0
  0
SPLINE
  5
237
330
1F
100
AcDbEntity
  8
0
100
AcDbSpline
210
0.0
220
0.0
230
1.0
 70
  1064
 71
     3
 72
     9
 73
     5
 74
     3
 42
0.000000001
 43
0.0000000001
 44
0.0000000001
 40
0.0
 40
0.0
 40
0.0
 40
0.0
 40
0.4808781743545191
 40
1.069112228982382
 40
1.069112228982382
 40
1.069112228982382
 40
1.069112228982382
 10
21.78216745231005
 20
-20.69545077630898
 30
0.0
 10
21.69684109793847
 20
-20.83427511620337
 30
0.0
 10
21.50713931112811
 20
-21.14291628017532
 30
0.0
 10
21.495343270679
 20
-21.50660269998043
 30
0.0
 10
21.48885299537036
 20
-21.70670586177728
 30
0.0
 11
21.78216745231005
 21
-20.69545077630898
 31
0.0
 11
21.56218101355884
 21
-21.12306016036889
 31
0.0
 11
21.48885299537036
 21
-21.70670586177728
 31
0.0
  0
SPLINE
  5
238
330
1F
100
AcDbEntity
  8
0
100
AcDbSpline
210
0.0
220
0.0
230
1.0
 70
  1064
 71
     3
 72
     9
 73
     5
 74
     3
 42
0.000000001
 43
0.0000000001
 44
0.0000000001
 40
0.0
 40
0.0
 40
0.0
 40
0.0
 40
0.8867770314862822
 40
1.63104029208853
 40
1.63104029208853
 40
1.63104029208853
 40
1.63104029208853
 10
24.5857160267577
 20
-21.73399137803933
 30
0.0
 10
24.59970656606282
 20
-21.42912158368304
 30
0.0
 10
24.62543922771786
 20
-20.86837756260433
 30
0.0
 10
24.982246204656
 20
-20.43932363237717
 30
0.0
 10
25.1450615105376
 20
-20.2435411746206
 30
0.0
 11
24.5857160267577
 21
-21.73399137803933
 31
0.0
 11
24.72555209967944
 21
-20.85830914327523
 31
0.0
 11
25.1450615105376
 21
-20.2435411746206
 31
0.0
  0
SPLINE
  5
239
330
1F
100
AcDbEntity
  8
0
100
AcDbSpline
210
0.0
220
0.0
230
1.0
 70
  1064
 71
     3
 72
     9
 73
     5
 74
     3
 42
0.000000001
 43
0.0000000001
 44
0.0000000001
 40
0.0
 40
0.0
 40
0.0
 40
0.0
 40
0.5998875119270036
 40
1.22872585408246
 40
1.22872585408246
 40
1.22872585408246
 40
1.22872585408246
 10
25.1450615105376
 20
-20.2435411746206
 30
0.0
 10
25.31186693192865
 20
-20.12617643655113
 30
0.0
 10
25.6535278763379
 20
-19.88578288750003
 30
0.0
 10
26.07071008574877
 20
-19.85621686853924
 30
0.0
 10
26.2842159447417
 20
-19.84108554670235
 30
0.0
 11
25.1450615105376
 21
-20.2435411746206
 31
0.0
 11
25.66347886893603
 21
-19.94169937917611
 31
0.0
 11
26.2842159447417
 21
-19.84108554670235
 31
0.0
  0
SPLINE
  5
240
330
1F
100
AcDbEntity
  8
0
100
AcDbSpline
210
0.0
220
0.0
230
1.0
 70
  1064
 71
     3
 72
     9
 73
     5
 74
     3
 42
0.000000001
 43
0.0000000001
 44
0.0000000001
 40
0.0
 40
0.0
 40
0.0
 40
0.0
 40
0.6896565627676005
 40
1.344501387927594
 40
1.344501387927594
 40
1.344501387927594
 40
1.344501387927594
 10
26.2842159447417
 20
-19.84108554670235
 30
0.0
 10
26.51965288970905
 20
-19.8592820905048
 30
0.0
 10
26.97864264833286
 20
-19.89475667266452
 30
0.0
 10
27.33275324891057
 20
-20.18778955193383
 30
0.0
 10
27.50522424552295
 20
-20.33051239797494
 30
0.0
 11
26.2842159447417
 21
-19.84108554670235
 31
0.0
 11
26.96293165061328
 21
-19.96344225952049
 31
0.0
 11
27.50522424552295
 21
-20.33051239797494
 31
0.0
  0
SPLINE
  5
241
330
1F
100
AcDbEntity
  8
0
100
AcDbSpline
210
0.0
220
0.0
230
1.0
 70
  1064
 71
     3
 72
     9
 73
     5
 74
     3
 42
0.000000001
 43
0.0000000001
 44
0.0000000001
 40
0.0
 40
0.0
 40
0.0
 40
0.0
 40
0.6826933532117922
 40
1.461292709176123
 40
1.461292709176123
 40
1.461292709176123
 40
1.461292709176123
 10
27.50522424552295
 20
-20.33051239797494
 30
0.0
 10
27.64333721020058
 20
-20.5176178308075
 30
0.0
 10
27.93896549979302
 20
-20.91811360765835
 30
0.0
 10
27.96528138834235
 20
-21.41701137233239
 30
0.0
 10
27.97930290076588
 20
-21.68283181735893
 30
0.0
 11
27.50522424552295
 21
-20.33051239797494
 31
0.0
 11
27.86078264090869
 21
-20.91330605098626
 31
0.0
 11
27.97930290076588
 21
-21.68283181735893
 31
0.0
  0
SPLINE
  5
242
330
1F
100
AcDbEntity
  8
0
100
AcDbSpline
210
0.0
220
0.0
230
1.0
 70
  1064
 71
     3
 72
     9
 73
     5
 74
     3
 42
0.000000001
 43
0.0000000001
 44
0.0000000001
 40
0.0
 40
0.0
 40
0.0
 40
0.0
 40
0.6267712390674768
 40
1.127483980676064
 40
1.127483980676064
 40
1.127483980676064
 40
1.127483980676064
 10
27.97930290076588
 20
-21.68283181735893
 30
0.0
 10
27.97521009449127
 20
-21.89376006795105
 30
0.0
 10
27.96784764193602
 20
-22.27319391684379
 30
0.0
 10
27.83053124626229
 20
-22.62605757172416
 30
0.0
 10
27.76954938742969
 20
-22.7827634150686
 30
0.0
 11
27.97930290076588
 21
-21.68283181735893
 31
0.0
 11
27.92686511847828
 21
-22.3074056441488
 31
0.0
 11
27.76954938742969
 21
-22.7827634150686
 31
0.0
  0
SPLINE
  5
243
330
1F
100
AcDbEntity
  8
0
100
AcDbSpline
210
0.0
220
0.0
230
1.0
 70
  1064
 71
     3
 72
     9
 73
     5
 74
     3
 42
0.000000001
 43
0.0000000001
 44
0.0000000001
 40
0.0
 40
0.0
 40
0.0
 40
0.0
 40
0.4393551375991364
 40
0.8816332411330282
 40
0.8816332411330282
 40
0.8816332411330282
 40
0.8816332411330282
 10
27.76954938742969
 20
-22.7827634150686
 30
0.0
 10
27.69145377862936
 20
-22.90900762488125
 30
0.0
 10
27.53474300228307
 20
-23.16233592890341
 30
0.0
 10
27.28455431722286
 20
-23.32407042468204
 30
0.0
 10
27.15904523703907
 20
-23.40520577976128
 30
0.0
 11
27.76954938742969
 21
-22.7827634150686
 31
0.0
 11
27.51204778525684
 21
-23.13874917575738
 31
0.0
 11
27.15904523703907
 21
-23.40520577976128
 31
0.0
  0
SPLINE
  5
244
330
1F
100
AcDbEntity
  8
0
100
AcDbSpline
210
0.0
220
0.0
230
1.0
 70
  1064
 71
     3
 72
     9
 73
     5
 74
     3
 42
0.000000001
 43
0.0000000001
 44
0.0000000001
 40
0.0
 40
0.0
 40
0.0
 40
0.0
 40
0.4508609791019789
 40
0.9099652096254994
 40
0.9099652096254994
 40
0.9099652096254994
 40
0.9099652096254994
 10
27.15904523703907
 20
-23.40520577976128
 30
0.0
 10
27.02170294295237
 20
-23.46986443860167
 30
0.0
 10
26.74450727683379
 20
-23.60036393350802
 30
0.0
 10
26.43857020292585
 20
-23.61799972934148
 30
0.0
 10
26.28421594474171
 20
-23.62689750739953
 30
0.0
 11
27.15904523703907
 21
-23.40520577976128
 31
0.0
 11
26.73996259543751
 21
-23.57147472450158
 31
0.0
 11
26.28421594474171
 21
-23.62689750739953
 31
0.0
  0
SPLINE
  5
245
330
1F
100
AcDbEntity
  8
0
100
AcDbSpline
210
0.0
220
0.0
230
1.0
 70
  1064
 71
     3
 72
     9
 73
     5
 74
     3
 42
0.000000001
 43
0.0000000001
 44
0.0000000001
 40
0.0
 40
0.0
 40
0.0
 40
0.0
 40
0.6983968294585096
 40
1.352171915695259
 40
1.352171915695259
 40
1.352171915695259
 40
1.352171915695259
 10
26.28421594474171
 20
-23.62689750739953
 30
0.0
 10
26.04562468179982
 20
-23.60939538862443
 30
0.0
 10
25.58368615133653
 20
-23.57550939075813
 30
0.0
 10
25.22709245455108
 20
-23.28138465236634
 30
0.0
 10
25.05467941138599
 20
-23.13917534896752
 30
0.0
 11
26.28421594474171
 21
-23.62689750739953
 31
0.0
 11
25.59654523703907
 21
-23.5049666697683
 31
0.0
 11
25.05467941138599
 21
-23.13917534896752
 31
0.0
  0
SPLINE
  5
246
330
1F
100
AcDbEntity
  8
0
100
AcDbSpline
210
0.0
220
0.0
230
1.0
 70
  1064
 71
     3
 72
     9
 73
     5
 74
     3
 42
0.000000001
 43
0.0000000001
 44
0.0000000001
 40
0.0
 40
0.0
 40
0.0
 40
0.0
 40
0.6913180834400335
 40
1.50978593764141
 40
1.50978593764141
 40
1.50978593764141
 40
1.50978593764141
 10
25.05467941138599
 20
-23.13917534896752
 30
0.0
 10
24.91815364799588
 20
-22.9475843559694
 30
0.0
 10
24.61999179944931
 20
-22.52916424815457
 30
0.0
 10
24.59776523643762
 20
-22.01352423438109
 30
0.0
 10
24.5857160267577
 20
-21.73399137803933
 30
0.0
 11
25.05467941138599
 21
-23.13917534896752
 31
0.0
 11
24.70295597884509
 21
-22.54401879856011
 31
0.0
 11
24.5857160267577
 21
-21.73399137803933
 31
0.0
  0
SPLINE
  5
247
330
1F
100
AcDbEntity
  8
0
100
AcDbSpline
210
0.0
220
0.0
230
1.0
 70
  1064
 71
     3
 72
     9
 73
     5
 74
     3
 42
0.000000001
 43
0.0000000001
 44
0.0000000001
 40
0.0
 40
0.0
 40
0.0
 40
0.0
 40
0.6130876065860931
 40
1.102801178553156
 40
1.102801178553156
 40
1.102801178553156
 40
1.102801178553156
 10
25.21668483588549
 20
-21.73399137803933
 30
0.0
 10
25.22260310019861
 20
-21.94285722072338
 30
0.0
 10
25.23324867317933
 20
-22.31855800964337
 30
0.0
 10
25.43198202344509
 20
-22.63529221235727
 30
0.0
 10
25.52023221824023
 20
-22.7759422595205
 30
0.0
 11
25.21668483588549
 21
-21.73399137803933
 31
0.0
 11
25.29257108542773
 21
-22.34236436435601
 31
0.0
 11
25.52023221824023
 21
-22.7759422595205
 31
0.0
  0
SPLINE
  5
248
330
1F
100
AcDbEntity
  8
0
100
AcDbSpline
210
0.0
220
0.0
230
1.0
 70
  1064
 71
     3
 72
     9
 73
     5
 74
     3
 42
0.000000001
 43
0.0000000001
 44
0.0000000001
 40
0.0
 40
0.0
 40
0.0
 40
0.0
 40
0.4300018376834903
 40
0.8600149947780275
 40
0.8600149947780275
 40
0.8600149947780275
 40
0.8600149947780275
 10
25.52023221824023
 20
-22.7759422595205
 30
0.0
 10
25.62795272910986
 20
-22.87691163369403
 30
0.0
 10
25.84339658649453
 20
-23.07885303996893
 30
0.0
 10
26.13727486932944
 20
-23.10769919349799
 30
0.0
 10
26.28421594474171
 20
-23.12212246009728
 30
0.0
 11
25.52023221824023
 21
-22.7759422595205
 31
0.0
 11
25.86300184104297
 21
-23.03557770797631
 31
0.0
 11
26.28421594474171
 21
-23.12212246009728
 31
0.0
  0
SPLINE
  5
249
330
1F
100
AcDbEntity
  8
0
100
AcDbSpline
210
0.0
220
0.0
230
1.0
 70
  1064
 71
     3
 72
     9
 73
     5
 74
     3
 42
0.000000001
 43
0.0000000001
 44
0.0000000001
 40
0.0
 40
0.0
 40
0.0
 40
0.0
 40
0.4275941825839763
 40
0.8576903432718019
 40
0.8576903432718019
 40
0.8576903432718019
 40
0.8576903432718019
 10
26.28421594474171
 20
-23.12212246009728
 30
0.0
 10
26.4303094971647
 20
-23.10745875816574
 30
0.0
 10
26.72335143793729
 20
-23.07804555271169
 30
0.0
 10
26.93743424577798
 20
-22.87570324965883
 30
0.0
 10
27.04478790137623
 20
-22.77423697063348
 30
0.0
 11
26.28421594474171
 21
-23.12212246009728
 31
0.0
 11
26.70287181708668
 21
-23.03515093871972
 31
0.0
 11
27.04478790137623
 21
-22.77423697063348
 31
0.0
  0
SPLINE
  5
250
330
1F
100
AcDbEntity
  8
0
100
AcDbSpline
210
0.0
220
0.0
230
1.0
 70
  1064
 71
     3
 72
     9
 73
     5
 74
     3
 42
0.000000001
 43
0.0000000001
 44
0.0000000001
 40
0.0
 40
0.0
 40
0.0
 40
0.0
 40
0.4946270400405099
 40
1.120831585451016
 40
1.120831585451016
 40
1.120831585451016
 40
1.120831585451016
 10
27.04478790137623
 20
-22.77423697063348
 30
0.0
 10
27.13301085514923
 20
-22.6316781188347
 30
0.0
 10
27.33292526569673
 20
-22.3086378259534
 30
0.0
 10
27.34281174408148
 20
-21.92683786698118
 30
0.0
 10
27.34833528373096
 20
-21.71352761337182
 30
0.0
 11
27.04478790137623
 21
-22.77423697063348
 31
0.0
 11
27.27244903418873
 21
-22.33511703559777
 31
0.0
 11
27.34833528373096
 21
-21.71352761337182
 31
0.0
  0
SPLINE
  5
251
330
1F
100
AcDbEntity
  8
0
100
AcDbSpline
210
0.0
220
0.0
230
1.0
 70
  1064
 71
     3
 72
     9
 73
     5
 74
     3
 42
0.000000001
 43
0.0000000001
 44
0.0000000001
 40
0.0
 40
0.0
 40
0.0
 40
0.0
 40
0.5953784425841756
 40
1.080417226605452
 40
1.080417226605452
 40
1.080417226605452
 40
1.080417226605452
 10
27.34833528373096
 20
-21.71352761337182
 30
0.0
 10
27.34169865825586
 20
-21.5106817138902
 30
0.0
 10
27.32965535272618
 20
-21.14258272260832
 30
0.0
 10
27.1318743361106
 20
-20.83398974262123
 30
0.0
 10
27.04308320853564
 20
-20.69545107433221
 30
0.0
 11
27.34833528373096
 21
-21.71352761337182
 31
0.0
 11
27.27202226493213
 21
-21.12306016036889
 31
0.0
 11
27.04308320853564
 21
-20.69545107433221
 31
0.0
  0
SPLINE
  5
252
330
1F
100
AcDbEntity
  8
0
100
AcDbSpline
210
0.0
220
0.0
230
1.0
 70
  1064
 71
     3
 72
     9
 73
     5
 74
     3
 42
0.000000001
 43
0.0000000001
 44
0.0000000001
 40
0.0
 40
0.0
 40
0.0
 40
0.0
 40
0.4296615420470788
 40
0.8550820752101319
 40
0.8550820752101319
 40
0.8550820752101319
 40
0.8550820752101319
 10
27.04308320853564
 20
-20.69545107433221
 30
0.0
 10
26.93552912387032
 20
-20.59448256235045
 30
0.0
 10
26.72148257580185
 20
-20.3935421562231
 30
0.0
 10
26.42948874786105
 20
-20.36397909259704
 30
0.0
 10
26.2842159447417
 20
-20.34927087375542
 30
0.0
 11
27.04308320853564
 21
-20.69545107433221
 31
0.0
 11
26.7007403549895
 21
-20.43581592389961
 31
0.0
 11
26.2842159447417
 21
-20.34927087375542
 31
0.0
  0
SPLINE
  5
253
330
1F
100
AcDbEntity
  8
0
100
AcDbSpline
210
0.0
220
0.0
230
1.0
 70
  1064
 71
     3
 72
     9
 73
     5
 74
     3
 42
0.000000001
 43
0.0000000001
 44
0.0000000001
 40
0.0
 40
0.0
 40
0.0
 40
0.0
 40
0.4299275878428189
 40
0.859158305526568
 40
0.859158305526568
 40
0.859158305526568
 40
0.859158305526568
 10
26.2842159447417
 20
-20.34927087375542
 30
0.0
 10
26.13731531361485
 20
-20.36357729610148
 30
0.0
 10
25.84375216277591
 20
-20.3921669514959
 30
0.0
 10
25.62801387073526
 20
-20.59327388060721
 30
0.0
 10
25.52023221824023
 20
-20.69374578544518
 30
0.0
 11
26.2842159447417
 21
-20.34927087375542
 31
0.0
 11
25.86300184104297
 21
-20.43538945266625
 31
0.0
 11
25.52023221824023
 21
-20.69374578544518
 31
0.0
  0
SPLINE
  5
254
330
1F
100
AcDbEntity
  8
0
100
AcDbSpline
210
0.0
220
0.0
230
1.0
 70
  1064
 71
     3
 72
     9
 73
     5
 74
     3
 42
0.000000001
 43
0.0000000001
 44
0.0000000001
 40
0.0
 40
0.0
 40
0.0
 40
0.0
 40
0.4885806235258087
 40
1.10124577981344
 40
1.10124577981344
 40
1.10124577981344
 40
1.10124577981344
 10
25.52023221824023
 20
-20.69374578544518
 30
0.0
 10
25.43198647404789
 20
-20.83396178572956
 30
0.0
 10
25.23308326606346
 20
-21.1500043611825
 30
0.0
 10
25.22254671970701
 20
-21.52523578320868
 30
0.0
 10
25.21668483588549
 20
-21.73399137803933
 30
0.0
 11
25.52023221824023
 21
-20.69374578544518
 31
0.0
 11
25.29257227752063
 21
-21.12604426690957
 31
0.0
 11
25.21668483588549
 21
-21.73399137803933
 31
0.0
  0
SPLINE
  5
255
330
1F
100
AcDbEntity
  8
0
100
AcDbSpline
210
0.0
220
0.0
230
1.0
 70
  1064
 71
     3
 72
     9
 73
     5
 74
     3
 42
0.000000001
 43
0.0000000001
 44
0.0000000001
 40
0.0
 40
0.0
 40
0.0
 40
0.0
 40
0.41610821828413
 40
0.7764581832897866
 40
0.7764581832897866
 40
0.7764581832897866
 40
0.7764581832897866
 10
31.06252242896412
 20
-23.0982478196325
 30
0.0
 10
30.95427262599865
 20
-23.18604849415308
 30
0.0
 10
30.75227842915574
 20
-23.34988460513161
 30
0.0
 10
30.51574755712935
 20
-23.45755545356944
 30
0.0
 10
30.4059748825774
 20
-23.50752490112206
 30
0.0
 11
31.06252242896412
 21
-23.0982478196325
 31
0.0
 11
30.72785426947926
 21
-23.34551947662255
 31
0.0
 11
30.4059748825774
 21
-23.50752490112206
 31
0.0
  0
SPLINE
  5
256
330
1F
100
AcDbEntity
  8
0
100
AcDbSpline
210
0.0
220
0.0
230
1.0
 70
  1064
 71
     3
 72
     9
 73
     5
 74
     3
 42
0.000000001
 43
0.0000000001
 44
0.0000000001
 40
0.0
 40
0.0
 40
0.0
 40
0.0
 40
0.3390307689368171
 40
0.6903182289192229
 40
0.6903182289192229
 40
0.6903182289192229
 40
0.6903182289192229
 10
30.4059748825774
 20
-23.50752490112206
 30
0.0
 10
30.2978610489045
 20
-23.54233897730789
 30
0.0
 10
30.07772483408017
 20
-23.61322573336672
 30
0.0
 10
29.84658391408969
 20
-23.62228662362209
 30
0.0
 10
29.7289614853606
 20
-23.62689750739953
 30
0.0
 11
30.4059748825774
 21
-23.50752490112206
 31
0.0
 11
30.07897903296802
 21
-23.59705465385339
 31
0.0
 11
29.7289614853606
 21
-23.62689750739953
 31
0.0
  0
SPLINE
  5
257
330
1F
100
AcDbEntity
  8
0
100
AcDbSpline
210
0.0
220
0.0
230
1.0
 70
  1064
 71
     3
 72
     9
 73
     5
 74
     3
 42
0.000000001
 43
0.0000000001
 44
0.0000000001
 40
0.0
 40
0.0
 40
0.0
 40
0.0
 40
0.5328078173759789
 40
0.9796558673589091
 40
0.9796558673589091
 40
0.9796558673589091
 40
0.9796558673589091
 10
29.7289614853606
 20
-23.62689750739953
 30
0.0
 10
29.54730313277315
 20
-23.61962698279352
 30
0.0
 10
29.21329401135393
 20
-23.60625891300029
 30
0.0
 10
28.93735951430233
 20
-23.42016823566331
 30
0.0
 10
28.81149818274829
 20
-23.33528714725396
 30
0.0
 11
29.7289614853606
 21
-23.62689750739953
 31
0.0
 11
29.20116474006031
 21
-23.55399506637475
 31
0.0
 11
28.81149818274829
 21
-23.33528714725396
 31
0.0
  0
SPLINE
  5
258
330
1F
100
AcDbEntity
  8
0
100
AcDbSpline
210
0.0
220
0.0
230
1.0
 70
  1064
 71
     3
 72
     9
 73
     5
 74
     3
 42
0.000000001
 43
0.0000000001
 44
0.0000000001
 40
0.0
 40
0.0
 40
0.0
 40
0.0
 40
0.4100170157214736
 40
0.8308339933160253
 40
0.8308339933160253
 40
0.8308339933160253
 40
0.8308339933160253
 10
28.81149818274829
 20
-23.33528714725396
 30
0.0
 10
28.7179942789667
 20
-23.23037388341008
 30
0.0
 10
28.52852355265356
 20
-23.01778391126501
 30
0.0
 10
28.50354880173136
 20
-22.7338663094893
 30
0.0
 10
28.49089910361621
 20
-22.59006219455621
 30
0.0
 11
28.81149818274829
 21
-23.33528714725396
 31
0.0
 11
28.57104827735279
 21
-23.00317602702996
 31
0.0
 11
28.49089910361621
 21
-22.59006219455621
 31
0.0
  0
SPLINE
  5
259
330
1F
100
AcDbEntity
  8
0
100
AcDbSpline
210
0.0
220
0.0
230
1.0
 70
  1064
 71
     3
 72
     9
 73
     5
 74
     3
 42
0.000000001
 43
0.0000000001
 44
0.0000000001
 40
0.0
 40
0.0
 40
0.0
 40
0.0
 40
0.2563126297531181
 40
0.5049835866767131
 40
0.5049835866767131
 40
0.5049835866767131
 40
0.5049835866767131
 10
28.49089910361621
 20
-22.59006219455621
 30
0.0
 10
28.49563163232016
 20
-22.50387682450172
 30
0.0
 10
28.50495559470651
 20
-22.33407560428446
 30
0.0
 10
28.57666531095935
 20
-22.17994502089667
 30
0.0
 10
28.61197759482715
 20
-22.10404592105767
 30
0.0
 11
28.49089910361621
 21
-22.59006219455621
 31
0.0
 11
28.52116872641895
 21
-22.33554320880791
 31
0.0
 11
28.61197759482715
 21
-22.10404592105767
 31
0.0
  0
SPLINE
  5
260
330
1F
100
AcDbEntity
  8
0
100
AcDbSpline
210
0.0
220
0.0
230
1.0
 70
  1064
 71
     3
 72
     9
 73
     5
 74
     3
 42
0.000000001
 43
0.0000000001
 44
0.0000000001
 40
0.0
 40
0.0
 40
0.0
 40
0.0
 40
0.2425993003054285
 40
0.4779811459775213
 40
0.4779811459775213
 40
0.4779811459775213
 40
0.4779811459775213
 10
28.61197759482715
 20
-22.10404592105767
 30
0.0
 10
28.65495532342327
 20
-22.03468746462844
 30
0.0
 10
28.73963217096579
 20
-21.89803400171434
 30
0.0
 10
28.86662812342811
 20
-21.79954532167087
 30
0.0
 10
28.92916728827808
 20
-21.75104456493279
 30
0.0
 11
28.61197759482715
 21
-22.10404592105767
 31
0.0
 11
28.75181247565601
 21
-21.90580206462762
 31
0.0
 11
28.92916728827808
 21
-21.75104456493279
 31
0.0
  0
SPLINE
  5
261
330
1F
100
AcDbEntity
  8
0
100
AcDbSpline
210
0.0
220
0.0
230
1.0
 70
  1064
 71
     3
 72
     9
 73
     5
 74
     3
 42
0.000000001
 43
0.0000000001
 44
0.0000000001
 40
0.0
 40
0.0
 40
0.0
 40
0.0
 40
0.238972110739611
 40
0.4869817220132857
 40
0.4869817220132857
 40
0.4869817220132857
 40
0.4869817220132857
 10
28.92916728827808
 20
-21.75104456493279
 30
0.0
 10
28.99733187562218
 20
-21.70920487959465
 30
0.0
 10
29.13623891386365
 20
-21.62394320637513
 30
0.0
 10
29.29168130045832
 20
-21.57482948938642
 30
0.0
 10
29.37084485862109
 20
-21.54981689998528
 30
0.0
 11
28.92916728827808
 21
-21.75104456493279
 31
0.0
 11
29.13764287803028
 21
-21.63423019000909
 31
0.0
 11
29.37084485862109
 21
-21.54981689998528
 31
0.0
  0
SPLINE
  5
262
330
1F
100
AcDbEntity
  8
0
100
AcDbSpline
210
0.0
220
0.0
230
1.0
 70
  1064
 71
     3
 72
     9
 73
     5
 74
     3
 42
0.000000001
 43
0.0000000001
 44
0.0000000001
 40
0.0
 40
0.0
 40
0.0
 40
0.0
 40
0.2316051627081391
 40
0.5536856814763569
 40
0.5536856814763569
 40
0.5536856814763569
 40
0.5536856814763569
 10
29.37084485862109
 20
-21.54981689998528
 30
0.0
 10
29.44627264991745
 20
-21.53318088318991
 30
0.0
 10
29.62659370812636
 20
-21.49341007588712
 30
0.0
 10
29.80991078172029
 20
-21.47085175226681
 30
0.0
 10
29.91654683921192
 20
-21.45772951194665
 30
0.0
 11
29.37084485862109
 21
-21.54981689998528
 31
0.0
 11
29.59765245292041
 21
-21.50292056152245
 31
0.0
 11
29.91654683921192
 21
-21.45772951194665
 31
0.0
  0
SPLINE
  5
263
330
1F
100
AcDbEntity
  8
0
100
AcDbSpline
210
0.0
220
0.0
230
1.0
 70
  1064
 71
     3
 72
     9
 73
     5
 74
     3
 42
0.000000001
 43
0.0000000001
 44
0.0000000001
 40
0.0
 40
0.0
 40
0.0
 40
0.0
 40
0.6527415717546067
 40
1.116392367152435
 40
1.116392367152435
 40
1.116392367152435
 40
1.116392367152435
 10
29.91654683921192
 20
-21.45772951194665
 30
0.0
 10
30.13295371078033
 20
-21.43153107635977
 30
0.0
 10
30.50307718701134
 20
-21.38672355254616
 30
0.0
 10
30.86221036491683
 20
-21.28748461007166
 30
0.0
 10
31.01136257026051
 20
-21.24626951763055
 30
0.0
 11
29.91654683921192
 21
-21.45772951194665
 31
0.0
 11
30.56201030585621
 21
-21.36052625724693
 31
0.0
 11
31.01136257026051
 21
-21.24626951763055
 31
0.0
  0
SPLINE
  5
264
330
1F
100
AcDbEntity
  8
0
100
AcDbSpline
210
0.0
220
0.0
230
1.0
 70
  1064
 71
     3
 72
     9
 73
     5
 74
     3
 42
0.000000001
 43
0.0000000001
 44
0.0000000001
 40
0.0
 40
0.0
 40
0.0
 40
0.0
 40
0.1032034776876961
 40
0.1603382233766023
 40
0.1603382233766023
 40
0.1603382233766023
 40
0.1603382233766023
 10
31.01136257026051
 20
-21.24626951763055
 30
0.0
 10
31.01232435774522
 20
-21.21188109548725
 30
0.0
 10
31.01381860290071
 20
-21.1584548095256
 30
0.0
 10
31.01452324775661
 20
-21.10501283594519
 30
0.0
 10
31.01477434012744
 20
-21.08596938201805
 30
0.0
 11
31.01136257026051
 21
-21.24626951763055
 31
0.0
 11
31.01392080161426
 21
-21.14309775182626
 31
0.0
 11
31.01477434012744
 21
-21.08596938201805
 31
0.0
  0
SPLINE
  5
265
330
1F
100
AcDbEntity
  8
0
100
AcDbSpline
210
0.0
220
0.0
230
1.0
 70
  1064
 71
     3
 72
     9
 73
     5
 74
     3
 42
0.000000001
 43
0.0000000001
 44
0.0000000001
 40
0.0
 40
0.0
 40
0.0
 40
0.0
 40
0.3226907401708305
 40
0.5689818870797544
 40
0.5689818870797544
 40
0.5689818870797544
 40
0.5689818870797544
 10
31.01477434012744
 20
-21.08596938201805
 30
0.0
 10
31.01232535196761
 20
-20.97503474965327
 30
0.0
 10
31.00800719302731
 20
-20.77943013939393
 30
0.0
 10
30.89133455377827
 20
-20.62441869490958
 30
0.0
 10
30.84083129737231
 20
-20.55731999227424
 30
0.0
 11
31.01477434012744
 21
-21.08596938201805
 31
0.0
 11
30.97128917548511
 21
-20.76622205325982
 31
0.0
 11
30.84083129737231
 21
-20.55731999227424
 31
0.0
  0
SPLINE
  5
266
330
1F
100
AcDbEntity
  8
0
100
AcDbSpline
210
0.0
220
0.0
230
1.0
 70
  1064
 71
     3
 72
     9
 73
     5
 74
     3
 42
0.000000001
 43
0.0000000001
 44
0.0000000001
 40
0.0
 40
0.0
 40
0.0
 40
0.0
 40
0.3314849947082135
 40
0.7415154907586324
 40
0.7415154907586324
 40
0.7415154907586324
 40
0.7415154907586324
 10
30.84083129737231
 20
-20.55731999227424
 30
0.0
 10
30.74605137885725
 20
-20.49681486249157
 30
0.0
 10
30.53403340243685
 20
-20.36146788835865
 30
0.0
 10
30.28136562637479
 20
-20.35361385962432
 30
0.0
 10
30.14164974067065
 20
-20.34927087375542
 30
0.0
 11
30.84083129737231
 21
-20.55731999227424
 31
0.0
 11
30.54836799476002
 21
-20.40128307887933
 31
0.0
 11
30.14164974067065
 21
-20.34927087375542
 31
0.0
  0
SPLINE
  5
267
330
1F
100
AcDbEntity
  8
0
100
AcDbSpline
210
0.0
220
0.0
230
1.0
 70
  1064
 71
     3
 72
     9
 73
     5
 74
     3
 42
0.000000001
 43
0.0000000001
 44
0.0000000001
 40
0.0
 40
0.0
 40
0.0
 40
0.0
 40
0.3783560166442681
 40
0.6649762690122517
 40
0.6649762690122517
 40
0.6649762690122517
 40
0.6649762690122517
 10
30.14164974067065
 20
-20.34927087375542
 30
0.0
 10
30.01339685341593
 20
-20.35126749446732
 30
0.0
 10
29.7879871263205
 20
-20.35477663753158
 30
0.0
 10
29.58824667532907
 20
-20.45698876047874
 30
0.0
 10
29.50215389106129
 20
-20.50104456493279
 30
0.0
 11
30.14164974067065
 21
-20.34927087375542
 31
0.0
 11
29.76520110938403
 21
-20.38721429654977
 31
0.0
 11
29.50215389106129
 21
-20.50104456493279
 31
0.0
  0
SPLINE
  5
268
330
1F
100
AcDbEntity
  8
0
100
AcDbSpline
210
0.0
220
0.0
230
1.0
 70
  1064
 71
     3
 72
     9
 73
     5
 74
     3
 42
0.000000001
 43
0.0000000001
 44
0.0000000001
 40
0.0
 40
0.0
 40
0.0
 40
0.0
 40
0.2763895788206751
 40
0.6267364532495343
 40
0.6267364532495343
 40
0.6267364532495343
 40
0.6267364532495343
 10
29.50215389106129
 20
-20.50104456493279
 30
0.0
 10
29.43642536474841
 20
-20.56759244075655
 30
0.0
 10
29.28738044187388
 20
-20.71849530707676
 30
0.0
 10
29.22934419097005
 20
-20.92357850164216
 30
0.0
 10
29.19690181586597
 20
-21.03822039911172
 30
0.0
 11
29.50215389106129
 21
-20.50104456493279
 31
0.0
 11
29.32266761634204
 21
-20.71122514554879
 31
0.0
 11
29.19690181586597
 21
-21.03822039911172
 31
0.0
  0
LINE
  5
269
330
1F
100
AcDbEntity
  8
0
100
AcDbLine
 10
29.19690181586596
 20
-21.03822039911172
 30
0.0
 11
28.59662820670459
 21
-20.95636504241845
 31
0.0
  0
SPLINE
  5
270
330
1F
100
AcDbEntity
  8
0
100
AcDbSpline
210
0.0
220
0.0
230
1.0
 70
  1064
 71
     3
 72
     9
 73
     5
 74
     3
 42
0.000000001
 43
0.0000000001
 44
0.0000000001
 40
0.0
 40
0.0
 40
0.0
 40
0.0
 40
0.3647563037910041
 40
0.6827471482967101
 40
0.6827471482967101
 40
0.6827471482967101
 40
0.6827471482967101
 10
28.59662820670459
 20
-20.95636504241845
 30
0.0
 10
28.62590634298048
 20
-20.83724566732744
 30
0.0
 10
28.68070886137991
 20
-20.61427922972237
 30
0.0
 10
28.80717019380318
 20
-20.42300795363996
 30
0.0
 10
28.86606981131885
 20
-20.33392297574899
 30
0.0
 11
28.59662820670459
 21
-20.95636504241845
 31
0.0
 11
28.70491554114673
 21
-20.6080533797445
 31
0.0
 11
28.86606981131885
 21
-20.33392297574899
 31
0.0
  0
SPLINE
  5
271
330
1F
100
AcDbEntity
  8
0
100
AcDbSpline
210
0.0
220
0.0
230
1.0
 70
  1064
 71
     3
 72
     9
 73
     5
 74
     3
 42
0.000000001
 43
0.0000000001
 44
0.0000000001
 40
0.0
 40
0.0
 40
0.0
 40
0.0
 40
0.3108144034688515
 40
0.6601068708230894
 40
0.6601068708230894
 40
0.6601068708230894
 40
0.6601068708230894
 10
28.86606981131885
 20
-20.33392297574899
 30
0.0
 10
28.93867279488361
 20
-20.25838083363209
 30
0.0
 10
29.09286683402235
 20
-20.09794461674019
 30
0.0
 10
29.29918834331084
 20
-20.01360991232896
 30
0.0
 10
29.40836240622851
 20
-19.96898459741493
 30
0.0
 11
28.86606981131885
 21
-20.33392297574899
 31
0.0
 11
29.09543563697192
 21
-20.12416856834313
 31
0.0
 11
29.40836240622851
 21
-19.96898459741493
 31
0.0
  0
SPLINE
  5
272
330
1F
100
AcDbEntity
  8
0
100
AcDbSpline
210
0.0
220
0.0
230
1.0
 70
  1064
 71
     3
 72
     9
 73
     5
 74
     3
 42
0.000000001
 43
0.0000000001
 44
0.0000000001
 40
0.0
 40
0.0
 40
0.0
 40
0.0
 40
0.394677357541061
 40
0.8349616778862197
 40
0.8349616778862197
 40
0.8349616778862197
 40
0.8349616778862197
 10
29.40836240622851
 20
-19.96898459741493
 30
0.0
 10
29.53512652168586
 20
-19.93171093173023
 30
0.0
 10
29.80330298662789
 20
-19.85285643996265
 30
0.0
 10
30.08289516721224
 20
-19.84514949965429
 30
0.0
 10
30.2303271469817
 20
-19.84108554670235
 30
0.0
 11
29.40836240622851
 21
-19.96898459741493
 31
0.0
 11
29.79120542380664
 21
-19.87306045839211
 31
0.0
 11
30.2303271469817
 21
-19.84108554670235
 31
0.0
  0
SPLINE
  5
273
330
1F
100
AcDbEntity
  8
0
100
AcDbSpline
210
0.0
220
0.0
230
1.0
 70
  1064
 71
     3
 72
     9
 73
     5
 74
     3
 42
0.000000001
 43
0.0000000001
 44
0.0000000001
 40
0.0
 40
0.0
 40
0.0
 40
0.0
 40
0.4212451443450453
 40
0.7645371448389514
 40
0.7645371448389514
 40
0.7645371448389514
 40
0.7645371448389514
 10
30.2303271469817
 20
-19.84108554670235
 30
0.0
 10
30.37148185950274
 20
-19.84346240117557
 30
0.0
 10
30.62767002532529
 20
-19.84777626344093
 30
0.0
 10
30.87363493498643
 20
-19.91847915332463
 30
0.0
 10
30.98407794806811
 20
-19.95022612163445
 30
0.0
 11
30.2303271469817
 21
-19.84108554670235
 31
0.0
 11
30.65068771216723
 21
-19.86837046691795
 31
0.0
 11
30.98407794806811
 21
-19.95022612163445
 31
0.0
  0
SPLINE
  5
274
330
1F
100
AcDbEntity
  8
0
100
AcDbSpline
210
0.0
220
0.0
230
1.0
 70
  1064
 71
     3
 72
     9
 73
     5
 74
     3
 42
0.000000001
 43
0.0000000001
 44
0.0000000001
 40
0.0
 40
0.0
 40
0.0
 40
0.0
 40
0.2800912187295359
 40
0.511303226026949
 40
0.511303226026949
 40
0.511303226026949
 40
0.511303226026949
 10
30.98407794806811
 20
-19.95022612163445
 30
0.0
 10
31.07155621602529
 20
-19.98580574922073
 30
0.0
 10
31.2312467654707
 20
-20.05075594097691
 30
0.0
 10
31.35461929189829
 20
-20.1705924624609
 30
0.0
 10
31.41040851447436
 20
-20.22478269884011
 30
0.0
 11
30.98407794806811
 21
-19.95022612163445
 31
0.0
 11
31.23561431739184
 21
-20.07343547889611
 31
0.0
 11
31.41040851447436
 21
-20.22478269884011
 31
0.0
  0
SPLINE
  5
275
330
1F
100
AcDbEntity
  8
0
100
AcDbSpline
210
0.0
220
0.0
230
1.0
 70
  1064
 71
     3
 72
     9
 73
     5
 74
     3
 42
0.000000001
 43
0.0000000001
 44
0.0000000001
 40
0.0
 40
0.0
 40
0.0
 40
0.0
 40
0.2201718406096144
 40
0.4627143301046766
 40
0.4627143301046766
 40
0.4627143301046766
 40
0.4627143301046766
 10
31.41040851447436
 20
-20.22478269884011
 30
0.0
 10
31.45285723251725
 20
-20.28540744312472
 30
0.0
 10
31.54206768776273
 20
-20.41281673334889
 30
0.0
 10
31.58099735993748
 20
-20.56356697545125
 30
0.0
 10
31.60140325400683
 20
-20.64258622476479
 30
0.0
 11
31.41040851447436
 21
-20.22478269884011
 31
0.0
 11
31.52637054297778
 21
-20.41194158145805
 31
0.0
 11
31.60140325400683
 21
-20.64258622476479
 31
0.0
  0
SPLINE
  5
276
330
1F
100
AcDbEntity
  8
0
100
AcDbSpline
210
0.0
220
0.0
230
1.0
 70
  1064
 71
     3
 72
     9
 73
     5
 74
     3
 42
0.000000001
 43
0.0000000001
 44
0.0000000001
 40
0.0
 40
0.0
 40
0.0
 40
0.0
 40
0.2211880231722575
 40
0.5674529351555818
 40
0.5674529351555818
 40
0.5674529351555818
 40
0.5674529351555818
 10
31.60140325400683
 20
-20.64258622476479
 30
0.0
 10
31.61025532098794
 20
-20.71584050433195
 30
0.0
 10
31.63296510119474
 20
-20.90377272307021
 30
0.0
 10
31.63242762121174
 20
-21.09317660482121
 30
0.0
 10
31.63209964606617
 20
-21.20875256606957
 30
0.0
 11
31.60140325400683
 21
-20.64258622476479
 31
0.0
 11
31.62442733619067
 21
-20.86257266351601
 31
0.0
 11
31.63209964606617
 21
-21.20875256606957
 31
0.0
  0
LINE
  5
277
330
1F
100
AcDbEntity
  8
0
100
AcDbLine
 10
31.63209964606617
 20
-21.20875256606957
 30
0.0
 11
31.63209964606617
 21
-22.02730643102547
 31
0.0
  0
SPLINE
  5
278
330
1F
100
AcDbEntity
  8
0
100
AcDbSpline
210
0.0
220
0.0
230
1.0
 70
  1064
 71
     3
 72
     9
 73
     5
 74
     3
 42
0.000000001
 43
0.0000000001
 44
0.0000000001
 40
0.0
 40
0.0
 40
0.0
 40
0.0
 40
0.6988238906666
 40
1.084071908301031
 40
1.084071908301031
 40
1.084071908301031
 40
1.084071908301031
 10
31.63209964606617
 20
-22.02730643102547
 30
0.0
 10
31.63068906955513
 20
-22.26043658989792
 30
0.0
 10
31.62850086965164
 20
-22.62208687058638
 30
0.0
 10
31.66009443933388
 20
-22.98220810068519
 30
0.0
 10
31.67132188651417
 20
-23.11018484184167
 30
0.0
 11
31.63209964606617
 21
-22.02730643102547
 31
0.0
 11
31.64190580222461
 21
-22.72606151649377
 31
0.0
 11
31.67132188651417
 21
-23.11018484184167
 31
0.0
  0
SPLINE
  5
279
330
1F
100
AcDbEntity
  8
0
100
AcDbSpline
210
0.0
220
0.0
230
1.0
 70
  1064
 71
     3
 72
     9
 73
     5
 74
     3
 42
0.000000001
 43
0.0000000001
 44
0.0000000001
 40
0.0
 40
0.0
 40
0.0
 40
0.0
 40
0.2296683533866102
 40
0.4633862999103075
 40
0.4633862999103075
 40
0.4633862999103075
 40
0.4633862999103075
 10
31.67132188651417
 20
-23.11018484184167
 30
0.0
 10
31.68775902777947
 20
-23.18530336806869
 30
0.0
 10
31.72092313576266
 20
-23.3368649367819
 30
0.0
 10
31.79110736585991
 20
-23.47524643607649
 30
0.0
 10
31.82650615546558
 20
-23.54504185268304
 30
0.0
 11
31.67132188651417
 21
-23.11018484184167
 31
0.0
 11
31.72972728583668
 21
-23.33230274269006
 31
0.0
 11
31.82650615546558
 21
-23.54504185268304
 31
0.0
  0
LINE
  5
280
330
1F
100
AcDbEntity
  8
0
100
AcDbLine
 10
31.82650615546558
 20
-23.54504185268304
 30
0.0
 11
31.18530561301563
 21
-23.54504185268304
 31
0.0
  0
SPLINE
  5
281
330
1F
100
AcDbEntity
  8
0
100
AcDbSpline
210
0.0
220
0.0
230
1.0
 70
  1064
 71
     3
 72
     9
 73
     5
 74
     3
 42
0.000000001
 43
0.0000000001
 44
0.0000000001
 40
0.0
 40
0.0
 40
0.0
 40
0.0
 40
0.2215489008148887
 40
0.465214472581598
 40
0.465214472581598
 40
0.465214472581598
 40
0.465214472581598
 10
31.18530561301563
 20
-23.54504185268304
 30
0.0
 10
31.15613099405396
 20
-23.47682195882192
 30
0.0
 10
31.09486932711224
 20
-23.33357195024396
 30
0.0
 10
31.07364113020981
 20
-23.17913652470059
 30
0.0
 10
31.06252242896412
 20
-23.0982478196325
 30
0.0
 11
31.18530561301563
 21
-23.54504185268304
 31
0.0
 11
31.10686113211964
 21
-23.33784537860772
 31
0.0
 11
31.06252242896412
 21
-23.0982478196325
 31
0.0
  0
SPLINE
  5
282
330
1F
100
AcDbEntity
  8
0
100
AcDbSpline
210
0.0
220
0.0
230
1.0
 70
  1064
 71
     3
 72
     9
 73
     5
 74
     3
 42
0.000000001
 43
0.0000000001
 44
0.0000000001
 40
0.0
 40
0.0
 40
0.0
 40
0.0
 40
0.4364444190230995
 40
1.030849922680935
 40
1.030849922680935
 40
1.030849922680935
 40
1.030849922680935
 10
31.01136257026051
 20
-21.72716992446801
 30
0.0
 10
30.87291946445914
 20
-21.77266130729279
 30
0.0
 10
30.54592693416058
 20
-21.88010863946979
 30
0.0
 10
30.20513818746039
 20
-21.93020644265944
 30
0.0
 10
30.00863363120411
 20
-21.95909368345162
 30
0.0
 11
31.01136257026051
 21
-21.72716992446801
 31
0.0
 11
30.59356023642872
 21
-21.8533639843168
 31
0.0
 11
30.00863363120411
 21
-21.95909368345162
 31
0.0
  0
SPLINE
  5
283
330
1F
100
AcDbEntity
  8
0
100
AcDbSpline
210
0.0
220
0.0
230
1.0
 70
  1064
 71
     3
 72
     9
 73
     5
 74
     3
 42
0.000000001
 43
0.0000000001
 44
0.0000000001
 40
0.0
 40
0.0
 40
0.0
 40
0.0
 40
0.3283175456395981
 40
0.5502986217340472
 40
0.5502986217340472
 40
0.5502986217340472
 40
0.5502986217340472
 10
30.00863363120411
 20
-21.95909368345162
 30
0.0
 10
29.90000557822037
 20
-21.97465554817837
 30
0.0
 10
29.71793225124618
 20
-22.00073905429759
 30
0.0
 10
29.54351964568867
 20
-22.05855471732914
 30
0.0
 10
29.47316457602833
 20
-22.08187656947991
 30
0.0
 11
30.00863363120411
 21
-21.95909368345162
 31
0.0
 11
29.68547632071827
 21
-22.01707439968011
 31
0.0
 11
29.47316457602833
 21
-22.08187656947991
 31
0.0
  0
SPLINE
  5
284
330
1F
100
AcDbEntity
  8
0
100
AcDbSpline
210
0.0
220
0.0
230
1.0
 70
  1064
 71
     3
 72
     9
 73
     5
 74
     3
 42
0.000000001
 43
0.0000000001
 44
0.0000000001
 40
0.0
 40
0.0
 40
0.0
 40
0.0
 40
0.1623893839599968
 40
0.3172865009972391
 40
0.3172865009972391
 40
0.3172865009972391
 40
0.3172865009972391
 10
29.47316457602833
 20
-22.08187656947991
 30
0.0
 10
29.42420768197417
 20
-22.10670448935082
 30
0.0
 10
29.32855265062089
 20
-22.15521482685428
 30
0.0
 10
29.26300668789029
 20
-22.24000497198044
 30
0.0
 10
29.23100759360645
 20
-22.2813989455404
 30
0.0
 11
29.47316457602833
 21
-22.08187656947991
 31
0.0
 11
29.33418084952685
 21
-22.16586368629357
 31
0.0
 11
29.23100759360645
 21
-22.2813989455404
 31
0.0
  0
SPLINE
  5
285
330
1F
100
AcDbEntity
  8
0
100
AcDbSpline
210
0.0
220
0.0
230
1.0
 70
  1064
 71
     3
 72
     9
 73
     5
 74
     3
 42
0.000000001
 43
0.0000000001
 44
0.0000000001
 40
0.0
 40
0.0
 40
0.0
 40
0.0
 40
0.1526028276851691
 40
0.3071330072451701
 40
0.3071330072451701
 40
0.3071330072451701
 40
0.3071330072451701
 10
29.23100759360645
 20
-22.2813989455404
 30
0.0
 10
29.20613902449196
 20
-22.32654251788884
 30
0.0
 10
29.15608779979397
 20
-22.41739981944403
 30
0.0
 10
29.14920496865051
 20
-22.52092293073237
 30
0.0
 10
29.14574195716236
 20
-22.57300930568597
 30
0.0
 11
29.23100759360645
 21
-22.2813989455404
 31
0.0
 11
29.16705896231983
 21
-22.41995649883172
 31
0.0
 11
29.14574195716236
 21
-22.57300930568597
 31
0.0
  0
SPLINE
  5
286
330
1F
100
AcDbEntity
  8
0
100
AcDbSpline
210
0.0
220
0.0
230
1.0
 70
  1064
 71
     3
 72
     9
 73
     5
 74
     3
 42
0.000000001
 43
0.0000000001
 44
0.0000000001
 40
0.0
 40
0.0
 40
0.0
 40
0.0
 40
0.2298483322063424
 40
0.4608367182144269
 40
0.4608367182144269
 40
0.4608367182144269
 40
0.4608367182144269
 10
29.14574195716236
 20
-22.57300930568597
 30
0.0
 10
29.15356334201738
 20
-22.65152091208829
 30
0.0
 10
29.169244906003
 20
-22.80893354453548
 30
0.0
 10
29.27740752041367
 20
-22.92440648694203
 30
0.0
 10
29.3316226181731
 20
-22.98228579112908
 30
0.0
 11
29.14574195716236
 21
-22.57300930568597
 31
0.0
 11
29.19221212241505
 21
-22.79811101505181
 31
0.0
 11
29.3316226181731
 21
-22.98228579112908
 31
0.0
  0
SPLINE
  5
287
330
1F
100
AcDbEntity
  8
0
100
AcDbSpline
210
0.0
220
0.0
230
1.0
 70
  1064
 71
     3
 72
     9
 73
     5
 74
     3
 42
0.000000001
 43
0.0000000001
 44
0.0000000001
 40
0.0
 40
0.0
 40
0.0
 40
0.0
 40
0.2597863510634406
 40
0.5774917992402484
 40
0.5774917992402484
 40
0.5774917992402484
 40
0.5774917992402484
 10
29.3316226181731
 20
-22.98228579112908
 30
0.0
 10
29.40578513947324
 20
-23.02991034173392
 30
0.0
 10
29.57064463916014
 20
-23.13577728703036
 30
0.0
 10
29.76738420246311
 20
-23.14237008936678
 30
0.0
 10
29.87561990592335
 20
-23.14599710056207
 30
0.0
 11
29.3316226181731
 21
-22.98228579112908
 31
0.0
 11
29.56056167456959
 21
-23.10506957122704
 31
0.0
 11
29.87561990592335
 21
-23.14599710056207
 31
0.0
  0
SPLINE
  5
288
330
1F
100
AcDbEntity
  8
0
100
AcDbSpline
210
0.0
220
0.0
230
1.0
 70
  1064
 71
     3
 72
     9
 73
     5
 74
     3
 42
0.000000001
 43
0.0000000001
 44
0.0000000001
 40
0.0
 40
0.0
 40
0.0
 40
0.0
 40
0.3373332863821288
 40
0.6552748866424797
 40
0.6552748866424797
 40
0.6552748866424797
 40
0.6552748866424797
 10
29.87561990592335
 20
-23.14599710056207
 30
0.0
 10
29.9891351529642
 20
-23.14033150150308
 30
0.0
 10
30.20964019542427
 20
-23.12932599172681
 30
0.0
 10
30.4095773409692
 20
-23.03606391025256
 30
0.0
 10
30.50658752295826
 20
-22.99081283161065
 30
0.0
 11
29.87561990592335
 21
-23.14599710056207
 31
0.0
 11
30.2107148346648
 21
-23.10720103332421
 31
0.0
 11
30.50658752295826
 21
-22.99081283161065
 31
0.0
  0
SPLINE
  5
289
330
1F
100
AcDbEntity
  8
0
100
AcDbSpline
210
0.0
220
0.0
230
1.0
 70
  1064
 71
     3
 72
     9
 73
     5
 74
     3
 42
0.000000001
 43
0.0000000001
 44
0.0000000001
 40
0.0
 40
0.0
 40
0.0
 40
0.0
 40
0.301945542389719
 40
0.5946343467004239
 40
0.5946343467004239
 40
0.5946343467004239
 40
0.5946343467004239
 10
30.50658752295826
 20
-22.99081283161065
 30
0.0
 10
30.59221473918317
 20
-22.93504280411513
 30
0.0
 10
30.76084409988413
 20
-22.82521248967235
 30
0.0
 10
30.86244499252039
 20
-22.6516284654386
 30
0.0
 10
30.91245462272021
 20
-22.56618755409142
 30
0.0
 11
30.50658752295826
 21
-22.99081283161065
 31
0.0
 11
30.74618627402637
 21
-22.80706422874352
 31
0.0
 11
30.91245462272021
 21
-22.56618755409142
 31
0.0
  0
SPLINE
  5
290
330
1F
100
AcDbEntity
  8
0
100
AcDbSpline
210
0.0
220
0.0
230
1.0
 70
  1064
 71
     3
 72
     9
 73
     5
 74
     3
 42
0.000000001
 43
0.0000000001
 44
0.0000000001
 40
0.0
 40
0.0
 40
0.0
 40
0.0
 40
0.267974897438949
 40
0.6252436743279746
 40
0.6252436743279746
 40
0.6252436743279746
 40
0.6252436743279746
 10
30.91245462272021
 20
-22.56618755409142
 30
0.0
 10
30.94115485237267
 20
-22.48105518405724
 30
0.0
 10
31.0081187255319
 20
-22.28242286307073
 30
0.0
 10
31.01018301835033
 20
-22.07232415671643
 30
0.0
 10
31.01136257026051
 20
-21.9522722298803
 30
0.0
 11
30.91245462272021
 21
-22.56618755409142
 31
0.0
 11
30.98663379523609
 21
-22.30868416377923
 31
0.0
 11
31.01136257026051
 21
-21.9522722298803
 31
0.0
  0
LINE
  5
291
330
1F
100
AcDbEntity
  8
0
100
AcDbLine
 10
31.01136257026049
 20
-21.9522722298803
 30
0.0
 11
31.01136257026051
 21
-21.72716992446801
 31
0.0
  0
LINE
  5
292
330
1F
100
AcDbEntity
  8
0
100
AcDbLine
 10
32.57684757087086
 20
-23.54504185268303
 30
0.0
 11
32.57684757087086
 21
-19.92294090339561
 31
0.0
  0
LINE
  5
293
330
1F
100
AcDbEntity
  8
0
100
AcDbLine
 10
32.57684757087086
 20
-19.92294090339561
 30
0.0
 11
33.12937070700976
 21
-19.92294090339561
 31
0.0
  0
LINE
  5
294
330
1F
100
AcDbEntity
  8
0
100
AcDbLine
 10
33.12937070700976
 20
-19.92294090339561
 30
0.0
 11
33.12937070700976
 21
-20.47205405780692
 31
0.0
  0
SPLINE
  5
295
330
1F
100
AcDbEntity
  8
0
100
AcDbSpline
210
0.0
220
0.0
230
1.0
 70
  1064
 71
     3
 72
     9
 73
     5
 74
     3
 42
0.000000001
 43
0.0000000001
 44
0.0000000001
 40
0.0
 40
0.0
 40
0.0
 40
0.0
 40
0.3789385822033968
 40
0.6445270137829013
 40
0.6445270137829013
 40
0.6445270137829013
 40
0.6445270137829013
 10
33.12937070700976
 20
-20.47205405780693
 30
0.0
 10
33.19091851401507
 20
-20.36048521680046
 30
0.0
 10
33.29560361634314
 20
-20.17072060769945
 30
0.0
 10
33.45443967530243
 20
-20.02423170312531
 30
0.0
 10
33.51989080283496
 20
-19.96386843273064
 30
0.0
 11
33.12937070700976
 21
-20.47205405780693
 31
0.0
 11
33.33273221824023
 21
-20.15230643102547
 31
0.0
 11
33.51989080283496
 21
-19.96386843273064
 31
0.0
  0
SPLINE
  5
296
330
1F
100
AcDbEntity
  8
0
100
AcDbSpline
210
0.0
220
0.0
230
1.0
 70
  1064
 71
     3
 72
     9
 73
     5
 74
     3
 42
0.000000001
 43
0.0000000001
 44
0.0000000001
 40
0.0
 40
0.0
 40
0.0
 40
0.0
 40
0.2093506486187003
 40
0.4175433247210431
 40
0.4175433247210431
 40
0.4175433247210431
 40
0.4175433247210431
 10
33.51989080283496
 20
-19.96386843273064
 30
0.0
 10
33.5809685677995
 20
-19.9280568738754
 30
0.0
 10
33.70278626083311
 20
-19.85663183914768
 30
0.0
 10
33.84360419713222
 20
-19.84625805431483
 30
0.0
 10
33.91381790015552
 20
-19.84108554670234
 30
0.0
 11
33.51989080283496
 21
-19.96386843273064
 31
0.0
 11
33.70790054175708
 21
-19.87178134271523
 31
0.0
 11
33.91381790015552
 21
-19.84108554670234
 31
0.0
  0
SPLINE
  5
297
330
1F
100
AcDbEntity
  8
0
100
AcDbSpline
210
0.0
220
0.0
230
1.0
 70
  1064
 71
     3
 72
     9
 73
     5
 74
     3
 42
0.000000001
 43
0.0000000001
 44
0.0000000001
 40
0.0
 40
0.0
 40
0.0
 40
0.0
 40
0.3168104921178916
 40
0.6677563887824416
 40
0.6677563887824416
 40
0.6677563887824416
 40
0.6677563887824416
 10
33.91381790015552
 20
-19.84108554670234
 30
0.0
 10
34.02016838721849
 20
-19.85089036280525
 30
0.0
 10
34.24432831548246
 20
-19.87155643528848
 30
0.0
 10
34.44127870120134
 20
-19.98125138232211
 30
0.0
 10
34.54478790137622
 20
-20.03890263387581
 30
0.0
 11
33.91381790015552
 21
-19.84108554670234
 31
0.0
 11
34.22674466941211
 21
-19.89053981849571
 31
0.0
 11
34.54478790137622
 21
-20.03890263387581
 31
0.0
  0
LINE
  5
298
330
1F
100
AcDbEntity
  8
0
100
AcDbLine
 10
34.54478790137622
 20
-20.03890263387581
 30
0.0
 11
34.33332731101367
 21
-20.60847985097785
 31
0.0
  0
SPLINE
  5
299
330
1F
100
AcDbEntity
  8
0
100
AcDbSpline
210
0.0
220
0.0
230
1.0
 70
  1064
 71
     3
 72
     9
 73
     5
 74
     3
 42
0.000000001
 43
0.0000000001
 44
0.0000000001
 40
0.0
 40
0.0
 40
0.0
 40
0.0
 40
0.246218624158182
 40
0.4737621874876035
 40
0.4737621874876035
 40
0.4737621874876035
 40
0.4737621874876035
 10
34.33332731101367
 20
-20.60847985097785
 30
0.0
 10
34.25989303699708
 20
-20.56970179167031
 30
0.0
 10
34.11859429319323
 20
-20.49508689092151
 30
0.0
 10
33.95952391327074
 20
-20.48183121377536
 30
0.0
 10
33.88312389228198
 20
-20.47546463558098
 30
0.0
 11
34.33332731101367
 21
-20.60847985097785
 31
0.0
 11
34.10822440955493
 21
-20.50871866294762
 31
0.0
 11
33.88312389228198
 21
-20.47546463558098
 31
0.0
  0
SPLINE
  5
300
330
1F
100
AcDbEntity
  8
0
100
AcDbSpline
210
0.0
220
0.0
230
1.0
 70
  1064
 71
     3
 72
     9
 73
     5
 74
     3
 42
0.000000001
 43
0.0000000001
 44
0.0000000001
 40
0.0
 40
0.0
 40
0.0
 40
0.0
 40
0.1933808453111858
 40
0.3865829606261867
 40
0.3865829606261867
 40
0.3865829606261867
 40
0.3865829606261867
 10
33.88312389228198
 20
-20.47546463558098
 30
0.0
 10
33.8177650608277
 20
-20.48050028622071
 30
0.0
 10
33.68710780505861
 20
-20.49056693335867
 30
0.0
 10
33.57674925800991
 20
-20.56122822129439
 30
0.0
 10
33.52159549567554
 20
-20.59654253074547
 30
0.0
 11
33.88312389228198
 21
-20.47546463558098
 31
0.0
 11
33.69212676856372
 21
-20.50573425838371
 31
0.0
 11
33.52159549567554
 21
-20.59654253074547
 31
0.0
  0
SPLINE
  5
301
330
1F
100
AcDbEntity
  8
0
100
AcDbSpline
210
0.0
220
0.0
230
1.0
 70
  1064
 71
     3
 72
     9
 73
     5
 74
     3
 42
0.000000001
 43
0.0000000001
 44
0.0000000001
 40
0.0
 40
0.0
 40
0.0
 40
0.0
 40
0.1993321759592152
 40
0.4113838884258238
 40
0.4113838884258238
 40
0.4113838884258238
 40
0.4113838884258238
 10
33.52159549567554
 20
-20.59654253074547
 30
0.0
 10
33.47167537163805
 20
-20.64185797107345
 30
0.0
 10
33.3686496827927
 20
-20.73538046415889
 30
0.0
 10
33.31878594390773
 20
-20.86544678559331
 30
0.0
 10
33.29308320853564
 20
-20.93249069997688
 30
0.0
 11
33.52159549567554
 21
-20.59654253074547
 31
0.0
 11
33.38431646201465
 21
-20.74106859514137
 31
0.0
 11
33.29308320853564
 21
-20.93249069997688
 31
0.0
  0
SPLINE
  5
302
330
1F
100
AcDbEntity
  8
0
100
AcDbSpline
210
0.0
220
0.0
230
1.0
 70
  1064
 71
     3
 72
     9
 73
     5
 74
     3
 42
0.000000001
 43
0.0000000001
 44
0.0000000001
 40
0.0
 40
0.0
 40
0.0
 40
0.0
 40
0.3512549065666092
 40
0.7255950316321968
 40
0.7255950316321968
 40
0.7255950316321968
 40
0.7255950316321968
 10
33.29308320853564
 20
-20.93249069997688
 30
0.0
 10
33.26324832242186
 20
-21.04612887440644
 30
0.0
 10
33.20161773811181
 20
-21.28087376544816
 30
0.0
 10
33.19445750904259
 20
-21.52353475177898
 30
0.0
 10
33.19076349112843
 20
-21.64872544357201
 30
0.0
 11
33.29308320853564
 21
-20.93249069997688
 31
0.0
 11
33.21634342048024
 21
-21.27526032277961
 31
0.0
 11
33.19076349112843
 21
-21.64872544357201
 31
0.0
  0
LINE
  5
303
330
1F
100
AcDbEntity
  8
0
100
AcDbLine
 10
33.19076349112843
 20
-21.64872544357201
 30
0.0
 11
33.19076349112843
 21
-23.54504185268304
 31
0.0
  0
LINE
  5
304
330
1F
100
AcDbEntity
  8
0
100
AcDbLine
 10
33.19076349112843
 20
-23.54504185268304
 30
0.0
 11
32.57684757087086
 21
-23.54504185268303
 31
0.0
  0
LINE
  5
305
330
1F
100
AcDbEntity
  8
0
100
AcDbLine
 10
37.25965787741993
 20
-23.54504185268303
 30
0.0
 11
37.25965787741993
 21
-23.08801608631036
 31
0.0
  0
SPLINE
  5
306
330
1F
100
AcDbEntity
  8
0
100
AcDbSpline
210
0.0
220
0.0
230
1.0
 70
  1064
 71
     3
 72
     9
 73
     5
 74
     3
 42
0.000000001
 43
0.0000000001
 44
0.0000000001
 40
0.0
 40
0.0
 40
0.0
 40
0.0
 40
0.5868364242583835
 40
1.189567845244638
 40
1.189567845244638
 40
1.189567845244638
 40
1.189567845244638
 10
37.25965787741993
 20
-23.08801608631036
 30
0.0
 10
37.12987844043483
 20
-23.24518199591462
 30
0.0
 10
36.86680437272246
 20
-23.56377079631183
 30
0.0
 10
36.4552335245376
 20
-23.60566865740056
 30
0.0
 10
36.24669839713428
 20
-23.62689750739952
 30
0.0
 11
37.25965787741993
 21
-23.08801608631036
 31
0.0
 11
36.83418084952685
 21
-23.49217730113884
 31
0.0
 11
36.24669839713428
 21
-23.62689750739952
 31
0.0
  0
SPLINE
  5
307
330
1F
100
AcDbEntity
  8
0
100
AcDbSpline
210
0.0
220
0.0
230
1.0
 70
  1064
 71
     3
 72
     9
 73
     5
 74
     3
 42
0.000000001
 43
0.0000000001
 44
0.0000000001
 40
0.0
 40
0.0
 40
0.0
 40
0.0
 40
0.4199365552912128
 40
0.840654253419116
 40
0.840654253419116
 40
0.840654253419116
 40
0.840654253419116
 10
36.24669839713428
 20
-23.62689750739952
 30
0.0
 10
36.10517102676902
 20
-23.61691286769465
 30
0.0
 10
35.82185302462399
 20
-23.59692501540839
 30
0.0
 10
35.57423676105189
 20
-23.45778629797886
 30
0.0
 10
35.45031358573292
 20
-23.38815229484459
 30
0.0
 11
36.24669839713428
 21
-23.62689750739952
 31
0.0
 11
35.83102514121387
 21
-23.56721120426078
 31
0.0
 11
35.45031358573292
 21
-23.38815229484459
 31
0.0
  0
SPLINE
  5
308
330
1F
100
AcDbEntity
  8
0
100
AcDbSpline
210
0.0
220
0.0
230
1.0
 70
  1064
 71
     3
 72
     9
 73
     5
 74
     3
 42
0.000000001
 43
0.0000000001
 44
0.0000000001
 40
0.0
 40
0.0
 40
0.0
 40
0.0
 40
0.4309477939873503
 40
0.8812347615646283
 40
0.8812347615646283
 40
0.8812347615646283
 40
0.8812347615646283
 10
35.45031358573292
 20
-23.38815229484459
 30
0.0
 10
35.3353648490598
 20
-23.29917769997416
 30
0.0
 10
35.10030894677278
 20
-23.11723569449249
 30
0.0
 10
34.95950467369282
 20
-22.85524297087858
 30
0.0
 10
34.88755752417897
 20
-22.72137182304283
 30
0.0
 11
35.45031358573292
 21
-23.38815229484459
 31
0.0
 11
35.12800742957447
 21
-23.10208457061668
 31
0.0
 11
34.88755752417897
 21
-22.72137182304283
 31
0.0
  0
SPLINE
  5
309
330
1F
100
AcDbEntity
  8
0
100
AcDbSpline
210
0.0
220
0.0
230
1.0
 70
  1064
 71
     3
 72
     9
 73
     5
 74
     3
 42
0.000000001
 43
0.0000000001
 44
0.0000000001
 40
0.0
 40
0.0
 40
0.0
 40
0.0
 40
0.483737322640855
 40
1.010066386150563
 40
1.010066386150563
 40
1.010066386150563
 40
1.010066386150563
 10
34.88755752417897
 20
-22.72137182304283
 30
0.0
 10
34.82939227171838
 20
-22.56975519081782
 30
0.0
 10
34.70794047628595
 20
-22.25317249888126
 30
0.0
 10
34.6948538032304
 20
-21.91409131398324
 30
0.0
 10
34.68803455207203
 20
-21.73740165779014
 30
0.0
 11
34.88755752417897
 21
-22.72137182304283
 31
0.0
 11
34.73791648719165
 21
-22.26136165210625
 31
0.0
 11
34.68803455207203
 21
-21.73740165779014
 31
0.0
  0
SPLINE
  5
310
330
1F
100
AcDbEntity
  8
0
100
AcDbSpline
210
0.0
220
0.0
230
1.0
 70
  1064
 71
     3
 72
     9
 73
     5
 74
     3
 42
0.000000001
 43
0.0000000001
 44
0.0000000001
 40
0.0
 40
0.0
 40
0.0
 40
0.0
 40
0.5191094383949159
 40
1.005227986501398
 40
1.005227986501398
 40
1.005227986501398
 40
1.005227986501398
 10
34.68803455207203
 20
-21.73740165779014
 30
0.0
 10
34.69452791646747
 20
-21.56341909938908
 30
0.0
 10
34.70710197336969
 20
-21.22651107204011
 30
0.0
 10
34.81609215224572
 20
-20.90763646942997
 30
0.0
 10
34.86879875037524
 20
-20.75343179056068
 30
0.0
 11
34.68803455207203
 21
-21.73740165779014
 31
0.0
 11
34.73322679374073
 21
-21.22026311704536
 31
0.0
 11
34.86879875037524
 21
-20.75343179056068
 31
0.0
  0
SPLINE
  5
311
330
1F
100
AcDbEntity
  8
0
100
AcDbSpline
210
0.0
220
0.0
230
1.0
 70
  1064
 71
     3
 72
     9
 73
     5
 74
     3
 42
0.000000001
 43
0.0000000001
 44
0.0000000001
 40
0.0
 40
0.0
 40
0.0
 40
0.0
 40
0.4508071746390209
 40
0.8778825418675165
 40
0.8778825418675165
 40
0.8778825418675165
 40
0.8778825418675165
 10
34.86879875037524
 20
-20.75343179056068
 30
0.0
 10
34.93487665182789
 20
-20.61593556595892
 30
0.0
 10
35.06355392085088
 20
-20.34818131992849
 30
0.0
 10
35.29735229505867
 20
-20.16535922105132
 30
0.0
 10
35.41109134528491
 20
-20.07641928741356
 30
0.0
 11
34.86879875037524
 21
-20.75343179056068
 31
0.0
 11
35.09475280616138
 21
-20.36333965608497
 31
0.0
 11
35.41109134528491
 21
-20.07641928741356
 31
0.0
  0
SPLINE
  5
312
330
1F
100
AcDbEntity
  8
0
100
AcDbSpline
210
0.0
220
0.0
230
1.0
 70
  1064
 71
     3
 72
     9
 73
     5
 74
     3
 42
0.000000001
 43
0.0000000001
 44
0.0000000001
 40
0.0
 40
0.0
 40
0.0
 40
0.0
 40
0.4215700006699069
 40
0.8510953964181425
 40
0.8510953964181425
 40
0.8510953964181425
 40
0.8510953964181425
 10
35.41109134528491
 20
-20.07641928741356
 30
0.0
 10
35.53583662229215
 20
-20.00778181631558
 30
0.0
 10
35.78768122892228
 20
-19.86921162493468
 30
0.0
 10
36.07460734747298
 20
-19.85051894908914
 30
0.0
 10
36.2194113907561
 20
-19.84108524867912
 30
0.0
 11
35.41109134528491
 21
-20.07641928741356
 31
0.0
 11
35.79393436286304
 21
-19.89991860935112
 31
0.0
 11
36.2194113907561
 21
-19.84108524867912
 31
0.0
  0
SPLINE
  5
313
330
1F
100
AcDbEntity
  8
0
100
AcDbSpline
210
0.0
220
0.0
230
1.0
 70
  1064
 71
     3
 72
     9
 73
     5
 74
     3
 42
0.000000001
 43
0.0000000001
 44
0.0000000001
 40
0.0
 40
0.0
 40
0.0
 40
0.0
 40
0.3114354373690941
 40
0.6040901209257415
 40
0.6040901209257415
 40
0.6040901209257415
 40
0.6040901209257415
 10
36.2194113907561
 20
-19.84108524867912
 30
0.0
 10
36.32415081303706
 20
-19.8460904413649
 30
0.0
 10
36.52731346789066
 20
-19.85579899438109
 30
0.0
 10
36.71278044966149
 20
-19.93893860471177
 30
0.0
 10
36.80263091895433
 20
-19.97921603271385
 30
0.0
 11
36.2194113907561
 21
-19.84108524867912
 31
0.0
 11
36.52892639014575
 21
-19.87561779567619
 31
0.0
 11
36.80263091895433
 21
-19.97921603271385
 31
0.0
  0
SPLINE
  5
314
330
1F
100
AcDbEntity
  8
0
100
AcDbSpline
210
0.0
220
0.0
230
1.0
 70
  1064
 71
     3
 72
     9
 73
     5
 74
     3
 42
0.000000001
 43
0.0000000001
 44
0.0000000001
 40
0.0
 40
0.0
 40
0.0
 40
0.0
 40
0.2812055258772004
 40
0.5536794261601009
 40
0.5536794261601009
 40
0.5536794261601009
 40
0.5536794261601009
 10
36.80263091895433
 20
-19.97921603271385
 30
0.0
 10
36.8834811008503
 20
-20.02814185836716
 30
0.0
 10
37.04267101071236
 20
-20.12447432903121
 30
0.0
 10
37.16066455959138
 20
-20.2682732496909
 30
0.0
 10
37.21873094413135
 20
-20.33903884241005
 30
0.0
 11
36.80263091895433
 21
-19.97921603271385
 31
0.0
 11
37.03455497596117
 21
-20.13823735067268
 31
0.0
 11
37.21873094413135
 21
-20.33903884241005
 31
0.0
  0
LINE
  5
315
330
1F
100
AcDbEntity
  8
0
100
AcDbLine
 10
37.21873094413135
 20
-20.33903884241005
 30
0.0
 11
37.21873094413135
 21
-18.54504185268303
 31
0.0
  0
LINE
  5
316
330
1F
100
AcDbEntity
  8
0
100
AcDbLine
 10
37.21873094413135
 20
-18.54504185268303
 30
0.0
 11
37.82923509452197
 21
-18.54504185268303
 31
0.0
  0
LINE
  5
317
330
1F
100
AcDbEntity
  8
0
100
AcDbLine
 10
37.82923509452197
 20
-18.54504185268303
 30
0.0
 11
37.82923509452198
 21
-23.54504185268303
 31
0.0
  0
LINE
  5
318
330
1F
100
AcDbEntity
  8
0
100
AcDbLine
 10
37.82923509452198
 20
-23.54504185268303
 30
0.0
 11
37.25965787741993
 21
-23.54504185268303
 31
0.0
  0
SPLINE
  5
319
330
1F
100
AcDbEntity
  8
0
100
AcDbSpline
210
0.0
220
0.0
230
1.0
 70
  1064
 71
     3
 72
     9
 73
     5
 74
     3
 42
0.000000001
 43
0.0000000001
 44
0.0000000001
 40
0.0
 40
0.0
 40
0.0
 40
0.0
 40
0.6123536868864216
 40
1.097406537595412
 40
1.097406537595412
 40
1.097406537595412
 40
1.097406537595412
 10
35.31900216910694
 20
-21.73740165779014
 30
0.0
 10
35.32443725731967
 20
-21.94583462030055
 30
0.0
 10
35.33417754543223
 20
-22.31936988367478
 30
0.0
 10
35.52706354560639
 20
-22.63717703185729
 30
0.0
 10
35.61231901023242
 20
-22.77764754840752
 30
0.0
 11
35.31900216910694
 21
-21.73740165779014
 31
0.0
 11
35.39233257148121
 21
-22.34534876891991
 31
0.0
 11
35.61231901023242
 21
-22.77764754840752
 31
0.0
  0
SPLINE
  5
320
330
1F
100
AcDbEntity
  8
0
100
AcDbSpline
210
0.0
220
0.0
230
1.0
 70
  1064
 71
     3
 72
     9
 73
     5
 74
     3
 42
0.000000001
 43
0.0000000001
 44
0.0000000001
 40
0.0
 40
0.0
 40
0.0
 40
0.0
 40
0.4110799558527402
 40
0.7935148747140581
 40
0.7935148747140581
 40
0.7935148747140581
 40
0.7935148747140581
 10
35.61231901023242
 20
-22.77764754840752
 30
0.0
 10
35.71192750843347
 20
-22.87808066501041
 30
0.0
 10
35.9042035458445
 20
-23.07194847783765
 30
0.0
 10
36.1744391953657
 20
-23.10580519643581
 30
0.0
 10
36.304679411386
 20
-23.12212246009727
 30
0.0
 11
35.61231901023242
 21
-22.77764754840752
 31
0.0
 11
35.93206693503712
 21
-23.03600388118645
 31
0.0
 11
36.304679411386
 21
-23.12212246009727
 31
0.0
  0
SPLINE
  5
321
330
1F
100
AcDbEntity
  8
0
100
AcDbSpline
210
0.0
220
0.0
230
1.0
 70
  1064
 71
     3
 72
     9
 73
     5
 74
     3
 42
0.000000001
 43
0.0000000001
 44
0.0000000001
 40
0.0
 40
0.0
 40
0.0
 40
0.0
 40
0.3811725328125477
 40
0.7787353703864213
 40
0.7787353703864213
 40
0.7787353703864213
 40
0.7787353703864213
 10
36.304679411386
 20
-23.12212246009727
 30
0.0
 10
36.43472821949747
 20
-23.10728997863252
 30
0.0
 10
36.70041789552354
 20
-23.07698722344192
 30
0.0
 10
36.89114227182656
 20
-22.88897820306325
 30
0.0
 10
36.9885115799651
 20
-22.79299514839073
 30
0.0
 11
36.304679411386
 21
-23.12212246009727
 31
0.0
 11
36.67686511847828
 21
-23.03984063217064
 31
0.0
 11
36.9885115799651
 21
-22.79299514839073
 31
0.0
  0
SPLINE
  5
322
330
1F
100
AcDbEntity
  8
0
100
AcDbSpline
210
0.0
220
0.0
230
1.0
 70
  1064
 71
     3
 72
     9
 73
     5
 74
     3
 42
0.000000001
 43
0.0000000001
 44
0.0000000001
 40
0.0
 40
0.0
 40
0.0
 40
0.0
 40
0.4661743646933018
 40
1.059123485263461
 40
1.059123485263461
 40
1.059123485263461
 40
1.059123485263461
 10
36.9885115799651
 20
-22.79299514839073
 30
0.0
 10
37.07028020099806
 20
-22.65790105394746
 30
0.0
 10
37.2560541805488
 20
-22.35097442094954
 30
0.0
 10
37.2649246693931
 20
-21.9904184057835
 30
0.0
 10
37.26989080283497
 20
-21.78856151649377
 30
0.0
 11
36.9885115799651
 21
-22.79299514839073
 31
0.0
 11
37.19954540107105
 21
-22.37732308456322
 31
0.0
 11
37.26989080283497
 21
-21.78856151649377
 31
0.0
  0
SPLINE
  5
323
330
1F
100
AcDbEntity
  8
0
100
AcDbSpline
210
0.0
220
0.0
230
1.0
 70
  1064
 71
     3
 72
     9
 73
     5
 74
     3
 42
0.000000001
 43
0.0000000001
 44
0.0000000001
 40
0.0
 40
0.0
 40
0.0
 40
0.0
 40
0.6485782769015643
 40
1.144355484082525
 40
1.144355484082525
 40
1.144355484082525
 40
1.144355484082525
 10
37.26989080283497
 20
-21.78856151649377
 30
0.0
 10
37.26580335829638
 20
-21.56801272330677
 30
0.0
 10
37.2585914461183
 20
-21.17887508182263
 30
0.0
 10
37.06658111072979
 20
-20.84276947195343
 30
0.0
 10
36.98339511725758
 20
-20.697156065196
 30
0.0
 11
37.26989080283497
 21
-21.78856151649377
 31
0.0
 11
37.19826747748707
 21
-21.14395009824653
 31
0.0
 11
36.98339511725758
 21
-20.697156065196
 31
0.0
  0
SPLINE
  5
324
330
1F
100
AcDbEntity
  8
0
100
AcDbSpline
210
0.0
220
0.0
230
1.0
 70
  1064
 71
     3
 72
     9
 73
     5
 74
     3
 42
0.000000001
 43
0.0000000001
 44
0.0000000001
 40
0.0
 40
0.0
 40
0.0
 40
0.0
 40
0.4126905196453129
 40
0.8086180336273811
 40
0.8086180336273811
 40
0.8086180336273811
 40
0.8086180336273811
 10
36.98339511725758
 20
-20.697156065196
 30
0.0
 10
36.88386185706891
 20
-20.59570211096573
 30
0.0
 10
36.68883826117083
 20
-20.39691514332735
 30
0.0
 10
36.41263240094831
 20
-20.36493108374713
 30
0.0
 10
36.27739240500781
 20
-20.34927057573219
 30
0.0
 11
36.98339511725758
 21
-20.697156065196
 31
0.0
 11
36.66364957663867
 21
-20.43624179908653
 31
0.0
 11
36.27739240500781
 21
-20.34927057573219
 31
0.0
  0
SPLINE
  5
325
330
1F
100
AcDbEntity
  8
0
100
AcDbSpline
210
0.0
220
0.0
230
1.0
 70
  1064
 71
     3
 72
     9
 73
     5
 74
     3
 42
0.000000001
 43
0.0000000001
 44
0.0000000001
 40
0.0
 40
0.0
 40
0.0
 40
0.0
 40
0.3847779297273718
 40
0.7820834516214821
 40
0.7820834516214821
 40
0.7820834516214821
 40
0.7820834516214821
 10
36.27739240500781
 20
-20.34927057573219
 30
0.0
 10
36.14587383088835
 20
-20.36406855311417
 30
0.0
 10
35.87855470353464
 20
-20.39414630013076
 30
0.0
 10
35.68956747240695
 20
-20.5860331747667
 30
0.0
 10
35.59356023642871
 20
-20.68351345607659
 30
0.0
 11
36.27739240500781
 21
-20.34927057573219
 31
0.0
 11
35.90179731223437
 21
-20.43283122131248
 31
0.0
 11
35.59356023642871
 21
-20.68351345607659
 31
0.0
  0
SPLINE
  5
326
330
1F
100
AcDbEntity
  8
0
100
AcDbSpline
210
0.0
220
0.0
230
1.0
 70
  1064
 71
     3
 72
     9
 73
     5
 74
     3
 42
0.000000001
 43
0.0000000001
 44
0.0000000001
 40
0.0
 40
0.0
 40
0.0
 40
0.0
 40
0.477298328651529
 40
1.104360938383752
 40
1.104360938383752
 40
1.104360938383752
 40
1.104360938383752
 10
35.59356023642871
 20
-20.68351345607659
 30
0.0
 10
35.51385077653302
 20
-20.82388694839664
 30
0.0
 10
35.32942102129553
 20
-21.14867962500365
 30
0.0
 10
35.32277552234042
 20
-21.52418659860508
 30
0.0
 10
35.31900216910694
 20
-21.73740165779014
 30
0.0
 11
35.59356023642871
 21
-20.68351345607659
 31
0.0
 11
35.38764049384449
 21
-21.11410694667717
 31
0.0
 11
35.31900216910694
 21
-21.73740165779014
 31
0.0
  0
LINE
  5
327
330
1F
100
AcDbEntity
  8
0
100
AcDbLine
 10
10.00522424552295
 20
-30.75854795524499
 30
0.0
 11
10.00522424552295
 21
-31.34858863899133
 31
0.0
  0
LINE
  5
328
330
1F
100
AcDbEntity
  8
0
100
AcDbLine
 10
10.00522424552295
 20
-31.34858863899133
 30
0.0
 11
6.7003127475426
 21
-31.34858863899133
 31
0.0
  0
SPLINE
  5
329
330
1F
100
AcDbEntity
  8
0
100
AcDbSpline
210
0.0
220
0.0
230
1.0
 70
  1064
 71
     3
 72
     9
 73
     5
 74
     3
 42
0.000000001
 43
0.0000000001
 44
0.0000000001
 40
0.0
 40
0.0
 40
0.0
 40
0.0
 40
0.2179108469258365
 40
0.4344837658488216
 40
0.4344837658488216
 40
0.4344837658488216
 40
0.4344837658488216
 10
6.700312747542599
 20
-31.34858863899133
 30
0.0
 10
6.701551302770269
 20
-31.27550777093822
 30
0.0
 10
6.704020808749994
 20
-31.12979473640523
 30
0.0
 10
6.749344260705582
 20
-30.99129479721808
 30
0.0
 10
6.77193620327566
 20
-30.92225807258508
 30
0.0
 11
6.700312747542599
 21
-31.34858863899133
 31
0.0
 11
6.714807982479075
 21
-31.13116043159387
 31
0.0
 11
6.77193620327566
 21
-30.92225807258508
 31
0.0
  0
SPLINE
  5
330
330
1F
100
AcDbEntity
  8
0
100
AcDbSpline
210
0.0
220
0.0
230
1.0
 70
  1064
 71
     3
 72
     9
 73
     5
 74
     3
 42
0.000000001
 43
0.0000000001
 44
0.0000000001
 40
0.0
 40
0.0
 40
0.0
 40
0.0
 40
0.3731348311064592
 40
0.7811765645180483
 40
0.7811765645180483
 40
0.7811765645180483
 40
0.7811765645180483
 10
6.77193620327566
 20
-30.92225807258508
 30
0.0
 10
6.82224191313521
 20
-30.8079052478853
 30
0.0
 10
6.927559450731996
 20
-30.56850184918082
 30
0.0
 10
7.090819543800369
 20
-30.36400229677266
 30
0.0
 10
7.176097231839636
 20
-30.25718348571679
 30
0.0
 11
6.77193620327566
 21
-30.92225807258508
 31
0.0
 11
6.936073313389758
 21
-30.58716314384362
 31
0.0
 11
7.176097231839636
 21
-30.25718348571679
 31
0.0
  0
SPLINE
  5
331
330
1F
100
AcDbEntity
  8
0
100
AcDbSpline
210
0.0
220
0.0
230
1.0
 70
  1064
 71
     3
 72
     9
 73
     5
 74
     3
 42
0.000000001
 43
0.0000000001
 44
0.0000000001
 40
0.0
 40
0.0
 40
0.0
 40
0.0
 40
0.4899631632354303
 40
1.104865714020714
 40
1.104865714020714
 40
1.104865714020714
 40
1.104865714020714
 10
7.176097231839636
 20
-30.25718348571679
 30
0.0
 10
7.287180436368712
 20
-30.13722812286995
 30
0.0
 10
7.537672786196147
 20
-29.8667290781107
 30
0.0
 10
7.821398396866032
 20
-29.63113729227227
 30
0.0
 10
7.979303198789097
 20
-29.50002091476342
 30
0.0
 11
7.176097231839636
 21
-30.25718348571679
 31
0.0
 11
7.515882375572659
 21
-29.90418212959193
 31
0.0
 11
7.979303198789097
 21
-29.50002091476342
 31
0.0
  0
SPLINE
  5
332
330
1F
100
AcDbEntity
  8
0
100
AcDbSpline
210
0.0
220
0.0
230
1.0
 70
  1064
 71
     3
 72
     9
 73
     5
 74
     3
 42
0.000000001
 43
0.0000000001
 44
0.0000000001
 40
0.0
 40
0.0
 40
0.0
 40
0.0
 40
0.9084367151920185
 40
1.530435045372456
 40
1.530435045372456
 40
1.530435045372456
 40
1.530435045372456
 10
7.979303198789097
 20
-29.50002091476342
 30
0.0
 10
8.214039743101926
 20
-29.30756368887549
 30
0.0
 10
8.609498257534648
 20
-28.9833327564304
 30
0.0
 10
8.944705637004718
 20
-28.59773230820396
 30
0.0
 10
9.080940383409002
 20
-28.44101684638879
 30
0.0
 11
7.979303198789097
 21
-29.50002091476342
 31
0.0
 11
8.662284064029197
 21
-28.90102642127893
 31
0.0
 11
9.080940383409002
 21
-28.44101684638879
 31
0.0
  0
SPLINE
  5
333
330
1F
100
AcDbEntity
  8
0
100
AcDbSpline
210
0.0
220
0.0
230
1.0
 70
  1064
 71
     3
 72
     9
 73
     5
 74
     3
 42
0.000000001
 43
0.0000000001
 44
0.0000000001
 40
0.0
 40
0.0
 40
0.0
 40
0.0
 40
0.436420997564155
 40
0.8020482224070345
 40
0.8020482224070345
 40
0.8020482224070345
 40
0.8020482224070345
 10
9.080940383409002
 20
-28.44101684638879
 30
0.0
 10
9.164297171031218
 20
-28.31875931594238
 30
0.0
 10
9.317489074516867
 20
-28.09407618768388
 30
0.0
 10
9.351795237286003
 20
-27.82518955906893
 30
0.0
 10
9.367434280847053
 20
-27.70261304923913
 30
0.0
 11
9.080940383409002
 21
-28.44101684638879
 31
0.0
 11
9.295810955499151
 21
-28.06115644523523
 31
0.0
 11
9.367434280847053
 21
-27.70261304923913
 31
0.0
  0
SPLINE
  5
334
330
1F
100
AcDbEntity
  8
0
100
AcDbSpline
210
0.0
220
0.0
230
1.0
 70
  1064
 71
     3
 72
     9
 73
     5
 74
     3
 42
0.000000001
 43
0.0000000001
 44
0.0000000001
 40
0.0
 40
0.0
 40
0.0
 40
0.0
 40
0.3426401514262203
 40
0.6836262361583465
 40
0.6836262361583465
 40
0.6836262361583465
 40
0.6836262361583465
 10
9.367434280847053
 20
-27.70261304923913
 30
0.0
 10
9.35666841434546
 20
-27.58582938090217
 30
0.0
 10
9.335188652663028
 20
-27.3528258076267
 30
0.0
 10
9.182619844846458
 20
-27.17546051200335
 30
0.0
 10
9.106520014737583
 20
-27.08699243614099
 30
0.0
 11
9.367434280847053
 21
-27.70261304923913
 31
0.0
 11
9.302205639813875
 21
-27.3662390048208
 31
0.0
 11
9.106520014737583
 21
-27.08699243614099
 31
0.0
  0
SPLINE
  5
335
330
1F
100
AcDbEntity
  8
0
100
AcDbSpline
210
0.0
220
0.0
230
1.0
 70
  1064
 71
     3
 72
     9
 73
     5
 74
     3
 42
0.000000001
 43
0.0000000001
 44
0.0000000001
 40
0.0
 40
0.0
 40
0.0
 40
0.0
 40
0.3545228947538226
 40
0.739518012703638
 40
0.739518012703638
 40
0.739518012703638
 40
0.739518012703638
 10
9.106520014737583
 20
-27.08699243614099
 30
0.0
 10
9.010266039788319
 20
-27.01391063235964
 30
0.0
 10
8.80948479456371
 20
-26.86146544166269
 30
0.0
 10
8.557356117047737
 20
-26.84492250161323
 30
0.0
 10
8.426097231839634
 20
-26.83631020137689
 30
0.0
 11
9.106520014737583
 21
-27.08699243614099
 31
0.0
 11
8.805957334969974
 21
-26.89898031303308
 31
0.0
 11
8.426097231839634
 21
-26.83631020137689
 31
0.0
  0
SPLINE
  5
336
330
1F
100
AcDbEntity
  8
0
100
AcDbSpline
210
0.0
220
0.0
230
1.0
 70
  1064
 71
     3
 72
     9
 73
     5
 74
     3
 42
0.000000001
 43
0.0000000001
 44
0.0000000001
 40
0.0
 40
0.0
 40
0.0
 40
0.0
 40
0.4045493716538981
 40
0.773518141634929
 40
0.773518141634929
 40
0.773518141634929
 40
0.773518141634929
 10
8.426097231839634
 20
-26.83631020137689
 30
0.0
 10
8.287961438914479
 20
-26.84520772443287
 30
0.0
 10
8.023839061465464
 20
-26.86222022273754
 30
0.0
 10
7.815880291704004
 20
-27.0247931948958
 30
0.0
 10
7.716683792804217
 20
-27.10234063217065
 30
0.0
 11
8.426097231839634
 21
-26.83631020137689
 31
0.0
 11
8.027052181695438
 21
-26.90281766006372
 31
0.0
 11
7.716683792804217
 21
-27.10234063217065
 31
0.0
  0
SPLINE
  5
337
330
1F
100
AcDbEntity
  8
0
100
AcDbSpline
210
0.0
220
0.0
230
1.0
 70
  1064
 71
     3
 72
     9
 73
     5
 74
     3
 42
0.000000001
 43
0.0000000001
 44
0.0000000001
 40
0.0
 40
0.0
 40
0.0
 40
0.0
 40
0.3751782962168334
 40
0.8003349549493744
 40
0.8003349549493744
 40
0.8003349549493744
 40
0.8003349549493744
 10
7.716683792804217
 20
-27.10234063217065
 30
0.0
 10
7.638998596653274
 20
-27.20392877290361
 30
0.0
 10
7.473279580951562
 20
-27.42063784391532
 30
0.0
 10
7.456275906552326
 20
-27.69388386373637
 30
0.0
 10
7.44724315676544
 20
-27.83903854438684
 30
0.0
 11
7.716683792804217
 21
-27.10234063217065
 31
0.0
 11
7.516308623288607
 21
-27.41952913352868
 31
0.0
 11
7.44724315676544
 21
-27.83903854438684
 31
0.0
  0
LINE
  5
338
330
1F
100
AcDbEntity
  8
0
100
AcDbLine
 10
7.44724315676544
 20
-27.83903854438684
 30
0.0
 11
6.816274533902147
 21
-27.77423637458703
 31
0.0
  0
SPLINE
  5
339
330
1F
100
AcDbEntity
  8
0
100
AcDbSpline
210
0.0
220
0.0
230
1.0
 70
  1064
 71
     3
 72
     9
 73
     5
 74
     3
 42
0.000000001
 43
0.0000000001
 44
0.0000000001
 40
0.0
 40
0.0
 40
0.0
 40
0.0
 40
0.6408756730378958
 40
1.204171849829201
 40
1.204171849829201
 40
1.204171849829201
 40
1.204171849829201
 10
6.816274533902145
 20
-27.77423637458703
 30
0.0
 10
6.847762662599274
 20
-27.5575449332005
 30
0.0
 10
6.906927208510568
 20
-27.15039305523999
 30
0.0
 10
7.177449443819645
 20
-26.84230095701594
 30
0.0
 10
7.303996282552219
 20
-26.69817941734216
 30
0.0
 11
6.816274533902145
 21
-27.77423637458703
 31
0.0
 11
6.970606083904243
 21
-27.15222077915094
 31
0.0
 11
7.303996282552219
 21
-26.69817941734216
 31
0.0
  0
SPLINE
  5
340
330
1F
100
AcDbEntity
  8
0
100
AcDbSpline
210
0.0
220
0.0
230
1.0
 70
  1064
 71
     3
 72
     9
 73
     5
 74
     3
 42
0.000000001
 43
0.0000000001
 44
0.0000000001
 40
0.0
 40
0.0
 40
0.0
 40
0.0
 40
0.5678430165793386
 40
1.214839384251762
 40
1.214839384251762
 40
1.214839384251762
 40
1.214839384251762
 10
7.303996282552219
 20
-26.69817941734216
 30
0.0
 10
7.463938826870958
 20
-26.59036987568085
 30
0.0
 10
7.806118789259718
 20
-26.35972289511701
 30
0.0
 10
8.219553651867681
 20
-26.33910513539538
 30
0.0
 10
8.439739840959049
 20
-26.3281245763006
 30
0.0
 11
7.303996282552219
 21
-26.69817941734216
 31
0.0
 11
7.799391942952609
 21
-26.42063873359582
 31
0.0
 11
8.439739840959049
 21
-26.3281245763006
 31
0.0
  0
SPLINE
  5
341
330
1F
100
AcDbEntity
  8
0
100
AcDbSpline
210
0.0
220
0.0
230
1.0
 70
  1064
 71
     3
 72
     9
 73
     5
 74
     3
 42
0.000000001
 43
0.0000000001
 44
0.0000000001
 40
0.0
 40
0.0
 40
0.0
 40
0.0
 40
0.6522850078695887
 40
1.230336892675867
 40
1.230336892675867
 40
1.230336892675867
 40
1.230336892675867
 10
8.439739840959049
 20
-26.3281245763006
 30
0.0
 10
8.662258693155035
 20
-26.34035197009381
 30
0.0
 10
9.081972698336254
 20
-26.36341522235863
 30
0.0
 10
9.420052977135076
 20
-26.61089565104864
 30
0.0
 10
9.578893977139928
 20
-26.72716992446801
 30
0.0
 11
8.439739840959049
 21
-26.3281245763006
 31
0.0
 11
9.084350961183048
 21
-26.42788546630761
 31
0.0
 11
9.578893977139928
 21
-26.72716992446801
 31
0.0
  0
SPLINE
  5
342
330
1F
100
AcDbEntity
  8
0
100
AcDbSpline
210
0.0
220
0.0
230
1.0
 70
  1064
 71
     3
 72
     9
 73
     5
 74
     3
 42
0.000000001
 43
0.0000000001
 44
0.0000000001
 40
0.0
 40
0.0
 40
0.0
 40
0.0
 40
0.5464595615834903
 40
1.098799277853928
 40
1.098799277853928
 40
1.098799277853928
 40
1.098799277853928
 10
9.578893977139928
 20
-26.72716992446801
 30
0.0
 10
9.70124979321047
 20
-26.86866426589019
 30
0.0
 10
9.947278029865266
 20
-27.15317549252989
 30
0.0
 10
9.981300514865534
 20
-27.52789364425449
 30
0.0
 10
9.998402791951635
 20
-27.71625536033532
 30
0.0
 11
9.578893977139928
 21
-26.72716992446801
 31
0.0
 11
9.89352573726032
 21
-27.17396395751855
 31
0.0
 11
9.998402791951635
 21
-27.71625536033532
 31
0.0
  0
SPLINE
  5
343
330
1F
100
AcDbEntity
  8
0
100
AcDbSpline
210
0.0
220
0.0
230
1.0
 70
  1064
 71
     3
 72
     9
 73
     5
 74
     3
 42
0.000000001
 43
0.0000000001
 44
0.0000000001
 40
0.0
 40
0.0
 40
0.0
 40
0.0
 40
0.2991575490216467
 40
0.6057747667980975
 40
0.6057747667980975
 40
0.6057747667980975
 40
0.6057747667980975
 10
9.998402791951635
 20
-27.71625536033532
 30
0.0
 10
9.993039402768337
 20
-27.81645497873193
 30
0.0
 10
9.982178885150165
 20
-28.01935275171466
 30
0.0
 10
9.911429972530694
 20
-28.20986626888343
 30
0.0
 10
9.875619905923343
 20
-28.30629604408166
 30
0.0
 11
9.998402791951635
 21
-27.71625536033532
 31
0.0
 11
9.967706995938755
 21
-28.01383393356225
 31
0.0
 11
9.875619905923343
 21
-28.30629604408166
 31
0.0
  0
SPLINE
  5
344
330
1F
100
AcDbEntity
  8
0
100
AcDbSpline
210
0.0
220
0.0
230
1.0
 70
  1064
 71
     3
 72
     9
 73
     5
 74
     3
 42
0.000000001
 43
0.0000000001
 44
0.0000000001
 40
0.0
 40
0.0
 40
0.0
 40
0.0
 40
0.3394331278829333
 40
0.7364210680212734
 40
0.7364210680212734
 40
0.7364210680212734
 40
0.7364210680212734
 10
9.875619905923343
 20
-28.30629604408166
 30
0.0
 10
9.824693681773112
 20
-28.40779501548669
 30
0.0
 10
9.714206103224389
 20
-28.62800328269782
 30
0.0
 10
9.554267432787037
 20
-28.8156469369845
 30
0.0
 10
9.468048113320806
 20
-28.91680138656518
 30
0.0
 11
9.875619905923343
 21
-28.30629604408166
 31
0.0
 11
9.712335365746953
 21
-28.60387461730859
 31
0.0
 11
9.468048113320806
 21
-28.91680138656518
 31
0.0
  0
SPLINE
  5
345
330
1F
100
AcDbEntity
  8
0
100
AcDbSpline
210
0.0
220
0.0
230
1.0
 70
  1064
 71
     3
 72
     9
 73
     5
 74
     3
 42
0.000000001
 43
0.0000000001
 44
0.0000000001
 40
0.0
 40
0.0
 40
0.0
 40
0.0
 40
0.5369031437036051
 40
1.292980552312229
 40
1.292980552312229
 40
1.292980552312229
 40
1.292980552312229
 10
9.468048113320806
 20
-28.91680138656518
 30
0.0
 10
9.343369465506242
 20
-29.0453265797463
 30
0.0
 10
9.043115930388536
 20
-29.35484343993645
 30
0.0
 10
8.714029990451283
 20
-29.63369006267927
 30
0.0
 10
8.521595197652318
 20
-29.79674714157006
 30
0.0
 11
9.468048113320806
 21
-28.91680138656518
 31
0.0
 11
9.089040654633977
 21
-29.29708855697534
 31
0.0
 11
8.521595197652318
 21
-29.79674714157006
 31
0.0
  0
SPLINE
  5
346
330
1F
100
AcDbEntity
  8
0
100
AcDbSpline
210
0.0
220
0.0
230
1.0
 70
  1064
 71
     3
 72
     9
 73
     5
 74
     3
 42
0.000000001
 43
0.0000000001
 44
0.0000000001
 40
0.0
 40
0.0
 40
0.0
 40
0.0
 40
0.5977244240623639
 40
0.9485003847191347
 40
0.9485003847191347
 40
0.9485003847191347
 40
0.9485003847191347
 10
8.521595197652318
 20
-29.79674714157006
 30
0.0
 10
8.368527511250848
 20
-29.92441823122069
 30
0.0
 10
8.125631699075178
 20
-30.12701339510593
 30
0.0
 10
7.896806330112699
 20
-30.34528755838045
 30
0.0
 10
7.812181758616904
 20
-30.4260100657644
 30
0.0
 11
8.521595197652318
 21
-29.79674714157006
 31
0.0
 11
8.067979860042074
 21
-30.18598692962549
 31
0.0
 11
7.812181758616904
 21
-30.4260100657644
 31
0.0
  0
SPLINE
  5
347
330
1F
100
AcDbEntity
  8
0
100
AcDbSpline
210
0.0
220
0.0
230
1.0
 70
  1064
 71
     3
 72
     9
 73
     5
 74
     3
 42
0.000000001
 43
0.0000000001
 44
0.0000000001
 40
0.0
 40
0.0
 40
0.0
 40
0.0
 40
0.2191426776922156
 40
0.4222051933972864
 40
0.4222051933972864
 40
0.4222051933972864
 40
0.4222051933972864
 10
7.812181758616904
 20
-30.4260100657644
 30
0.0
 10
7.762866787003391
 20
-30.48007533552237
 30
0.0
 10
7.667855457641486
 20
-30.58423869573422
 30
0.0
 10
7.590282386123764
 20
-30.70193911997064
 30
0.0
 10
7.552973079417684
 20
-30.75854795524499
 30
0.0
 11
7.812181758616904
 21
-30.4260100657644
 31
0.0
 11
7.668934809897878
 21
-30.59185283729455
 31
0.0
 11
7.552973079417684
 21
-30.75854795524499
 31
0.0
  0
LINE
  5
348
330
1F
100
AcDbEntity
  8
0
100
AcDbLine
 10
7.552973079417684
 20
-30.75854795524499
 30
0.0
 11
10.00522424552295
 21
-30.75854795524499
 31
0.0
  0
LWPOLYLINE
  5
349
330
1F
100
AcDbEntity
  8
0
100
AcDbPolyline
 90
        4
 70
     1
 43
0.0
 10
11.0079525885329
 20
-30.64940708228967
 10
11.0079525885329
 20
-31.34858863899133
 10
11.70713414523456
 20
-31.34858863899133
 10
11.70713414523456
 20
-30.64940708228967
  0
LINE
  5
350
330
1F
100
AcDbEntity
  8
0
100
AcDbLine
 10
12.6450603184447
 20
-27.00343149253747
 30
0.0
 11
12.6450603184447
 21
-26.41339080879113
 31
0.0
  0
LINE
  5
351
330
1F
100
AcDbEntity
  8
0
100
AcDbLine
 10
12.6450603184447
 20
-26.41339080879113
 30
0.0
 11
15.88175882670734
 21
-26.41339080879113
 31
0.0
  0
LINE
  5
352
330
1F
100
AcDbEntity
  8
0
100
AcDbLine
 10
15.88175882670734
 20
-26.41339080879113
 30
0.0
 11
15.88175882670734
 21
-26.89088063785455
 31
0.0
  0
SPLINE
  5
353
330
1F
100
AcDbEntity
  8
0
100
AcDbSpline
210
0.0
220
0.0
230
1.0
 70
  1064
 71
     3
 72
     9
 73
     5
 74
     3
 42
0.000000001
 43
0.0000000001
 44
0.0000000001
 40
0.0
 40
0.0
 40
0.0
 40
0.0
 40
0.7590315363491907
 40
1.652233573219568
 40
1.652233573219568
 40
1.652233573219568
 40
1.652233573219568
 10
15.88175882670734
 20
-26.89088063785455
 30
0.0
 10
15.71756142379595
 20
-27.08406136263555
 30
0.0
 10
15.36014220109735
 20
-27.50457047707533
 30
0.0
 10
15.08438222069232
 20
-27.9829049409012
 30
0.0
 10
14.93530561301563
 20
-28.24149387428185
 30
0.0
 11
15.88175882670734
 21
-26.89088063785455
 31
0.0
 11
15.40640045974109
 21
-27.48262661048791
 31
0.0
 11
14.93530561301563
 21
-28.24149387428185
 31
0.0
  0
SPLINE
  5
354
330
1F
100
AcDbEntity
  8
0
100
AcDbSpline
210
0.0
220
0.0
230
1.0
 70
  1064
 71
     3
 72
     9
 73
     5
 74
     3
 42
0.000000001
 43
0.0000000001
 44
0.0000000001
 40
0.0
 40
0.0
 40
0.0
 40
0.0
 40
0.9501180077708745
 40
1.881162188108473
 40
1.881162188108473
 40
1.881162188108473
 40
1.881162188108473
 10
14.93530561301563
 20
-28.24149387428185
 30
0.0
 10
14.78830929366778
 20
-28.52275816431722
 30
0.0
 10
14.49726763832955
 20
-29.07964030206457
 30
0.0
 10
14.30547079410861
 20
-29.67796950544558
 30
0.0
 10
14.21054472300861
 20
-29.97410076209924
 30
0.0
 11
14.93530561301563
 21
-28.24149387428185
 31
0.0
 11
14.51963354918811
 21
-29.09585969993493
 31
0.0
 11
14.21054472300861
 21
-29.97410076209924
 31
0.0
  0
SPLINE
  5
355
330
1F
100
AcDbEntity
  8
0
100
AcDbSpline
210
0.0
220
0.0
230
1.0
 70
  1064
 71
     3
 72
     9
 73
     5
 74
     3
 42
0.000000001
 43
0.0000000001
 44
0.0000000001
 40
0.0
 40
0.0
 40
0.0
 40
0.0
 40
0.6745022304032374
 40
1.396540367056901
 40
1.396540367056901
 40
1.396540367056901
 40
1.396540367056901
 10
14.21054472300861
 20
-29.97410076209924
 30
0.0
 10
14.15443681501727
 20
-30.19223019693302
 30
0.0
 10
14.03826676414261
 20
-30.64386185544742
 30
0.0
 10
13.99670098748133
 20
-31.10840890869161
 30
0.0
 10
13.97521068427417
 20
-31.34858863899133
 30
0.0
 11
14.21054472300861
 21
-29.97410076209924
 31
0.0
 11
14.05962397429798
 21
-30.63150184699914
 31
0.0
 11
13.97521068427417
 21
-31.34858863899133
 31
0.0
  0
LINE
  5
356
330
1F
100
AcDbEntity
  8
0
100
AcDbLine
 10
13.97521068427417
 20
-31.34858863899133
 30
0.0
 11
13.34424187514637
 21
-31.34858863899133
 31
0.0
  0
SPLINE
  5
357
330
1F
100
AcDbEntity
  8
0
100
AcDbSpline
210
0.0
220
0.0
230
1.0
 70
  1064
 71
     3
 72
     9
 73
     5
 74
     3
 42
0.000000001
 43
0.0000000001
 44
0.0000000001
 40
0.0
 40
0.0
 40
0.0
 40
0.0
 40
0.6544820121428403
 40
1.44688995490067
 40
1.44688995490067
 40
1.44688995490067
 40
1.44688995490067
 10
13.34424187514637
 20
-31.34858863899133
 30
0.0
 10
13.35951836042163
 20
-31.13054110742486
 30
0.0
 10
13.3932907066143
 20
-30.64849457709858
 30
0.0
 10
13.51145250397743
 20
-30.17968856280285
 30
0.0
 10
13.57616533610676
 20
-29.92294090339563
 30
0.0
 11
13.34424187514637
 21
-31.34858863899133
 31
0.0
 11
13.4073381600127
 21
-30.69715517112634
 31
0.0
 11
13.57616533610676
 21
-29.92294090339563
 31
0.0
  0
SPLINE
  5
358
330
1F
100
AcDbEntity
  8
0
100
AcDbSpline
210
0.0
220
0.0
230
1.0
 70
  1064
 71
     3
 72
     9
 73
     5
 74
     3
 42
0.000000001
 43
0.0000000001
 44
0.0000000001
 40
0.0
 40
0.0
 40
0.0
 40
0.0
 40
0.8639171657637367
 40
1.735437663954551
 40
1.735437663954551
 40
1.735437663954551
 40
1.735437663954551
 10
13.57616533610676
 20
-29.92294090339563
 30
0.0
 10
13.65839183137716
 20
-29.64633058171194
 30
0.0
 10
13.82356849706024
 20
-29.0906754917195
 30
0.0
 10
14.08231163683244
 20
-28.57192442244233
 30
0.0
 10
14.21225001189563
 20
-28.31141250678918
 30
0.0
 11
13.57616533610676
 21
-29.92294090339563
 31
0.0
 11
13.84603192183826
 21
-29.10225527831933
 31
0.0
 11
14.21225001189563
 21
-28.31141250678918
 31
0.0
  0
SPLINE
  5
359
330
1F
100
AcDbEntity
  8
0
100
AcDbSpline
210
0.0
220
0.0
230
1.0
 70
  1064
 71
     3
 72
     9
 73
     5
 74
     3
 42
0.000000001
 43
0.0000000001
 44
0.0000000001
 40
0.0
 40
0.0
 40
0.0
 40
0.0
 40
0.8330727125869724
 40
1.57995527484139
 40
1.57995527484139
 40
1.57995527484139
 40
1.57995527484139
 10
14.21225001189563
 20
-28.31141250678918
 30
0.0
 10
14.34785865871786
 20
-28.06839299610742
 30
0.0
 10
14.60504580891938
 20
-27.60749690385794
 30
0.0
 10
14.93698492039632
 20
-27.19732808257205
 30
0.0
 10
15.09390045974109
 20
-27.00343149253747
 30
0.0
 11
14.21225001189563
 21
-28.31141250678918
 31
0.0
 11
14.63985850188587
 21
-27.59645717689416
 31
0.0
 11
15.09390045974109
 21
-27.00343149253747
 31
0.0
  0
LINE
  5
360
330
1F
100
AcDbEntity
  8
0
100
AcDbLine
 10
15.09390045974109
 20
-27.00343149253747
 30
0.0
 11
12.6450603184447
 21
-27.00343149253747
 31
0.0
  0
LINE
  5
361
330
1F
100
AcDbEntity
  8
0
100
AcDbLine
 10
16.48885299537036
 20
-30.03890293189904
 30
0.0
 11
17.13346411559436
 21
-29.98433249542138
 31
0.0
  0
SPLINE
  5
362
330
1F
100
AcDbEntity
  8
0
100
AcDbSpline
210
0.0
220
0.0
230
1.0
 70
  1064
 71
     3
 72
     9
 73
     5
 74
     3
 42
0.000000001
 43
0.0000000001
 44
0.0000000001
 40
0.0
 40
0.0
 40
0.0
 40
0.0
 40
0.4290765224538078
 40
0.7936455287460016
 40
0.7936455287460016
 40
0.7936455287460016
 40
0.7936455287460016
 10
17.13346411559436
 20
-29.98433249542138
 30
0.0
 10
17.16117903789695
 20
-30.12756773739376
 30
0.0
 10
17.21244221127964
 20
-30.39250418439425
 30
0.0
 10
17.3861894666694
 20
-30.59775560768823
 30
0.0
 10
17.46600200507495
 20
-30.69203990051172
 30
0.0
 11
17.13346411559436
 21
-29.98433249542138
 31
0.0
 11
17.25240995261524
 21
-30.39659278938195
 31
0.0
 11
17.46600200507495
 21
-30.69203990051172
 31
0.0
  0
SPLINE
  5
363
330
1F
100
AcDbEntity
  8
0
100
AcDbSpline
210
0.0
220
0.0
230
1.0
 70
  1064
 71
     3
 72
     9
 73
     5
 74
     3
 42
0.000000001
 43
0.0000000001
 44
0.0000000001
 40
0.0
 40
0.0
 40
0.0
 40
0.0
 40
0.3382579003626637
 40
0.6848520859114471
 40
0.6848520859114471
 40
0.6848520859114471
 40
0.6848520859114471
 10
17.46600200507495
 20
-30.69203990051172
 30
0.0
 10
17.55818025581134
 20
-30.76117333166422
 30
0.0
 10
17.74480846826342
 20
-30.90114397087249
 30
0.0
 10
17.97750196377747
 20
-30.9196922168983
 30
0.0
 10
18.09526492926929
 20
-30.92907922813318
 30
0.0
 11
17.46600200507495
 21
-30.69203990051172
 31
0.0
 11
17.75377442214344
 21
-30.86981909820458
 31
0.0
 11
18.09526492926929
 21
-30.92907922813318
 31
0.0
  0
SPLINE
  5
364
330
1F
100
AcDbEntity
  8
0
100
AcDbSpline
210
0.0
220
0.0
230
1.0
 70
  1064
 71
     3
 72
     9
 73
     5
 74
     3
 42
0.000000001
 43
0.0000000001
 44
0.0000000001
 40
0.0
 40
0.0
 40
0.0
 40
0.0
 40
0.4177196103040689
 40
0.8410003332767232
 40
0.8410003332767232
 40
0.8410003332767232
 40
0.8410003332767232
 10
18.09526492926929
 20
-30.92907922813318
 30
0.0
 10
18.2377080767685
 20
-30.91478757216453
 30
0.0
 10
18.52449072130993
 20
-30.88601399501801
 30
0.0
 10
18.73809697993029
 20
-30.69232268997596
 30
0.0
 10
18.84560634467456
 20
-30.594836645812
 30
0.0
 11
18.09526492926929
 21
-30.92907922813318
 31
0.0
 11
18.50454141471241
 21
-30.84551828452965
 31
0.0
 11
18.84560634467456
 21
-30.594836645812
 31
0.0
  0
SPLINE
  5
365
330
1F
100
AcDbEntity
  8
0
100
AcDbSpline
210
0.0
220
0.0
230
1.0
 70
  1064
 71
     3
 72
     9
 73
     5
 74
     3
 42
0.000000001
 43
0.0000000001
 44
0.0000000001
 40
0.0
 40
0.0
 40
0.0
 40
0.0
 40
0.4518577447148444
 40
0.9556901309147539
 40
0.9556901309147539
 40
0.9556901309147539
 40
0.9556901309147539
 10
18.84560634467456
 20
-30.594836645812
 30
0.0
 10
18.93506336029614
 20
-30.4697848659987
 30
0.0
 10
19.12426712623929
 20
-30.20529730720668
 30
0.0
 10
19.14279523710972
 20
-29.87971446915051
 30
0.0
 10
19.15256311271045
 20
-29.70806973525903
 30
0.0
 11
18.84560634467456
 21
-30.594836645812
 31
0.0
 11
19.07582332465503
 21
-30.20602362701318
 31
0.0
 11
19.15256311271045
 21
-29.70806973525903
 31
0.0
  0
SPLINE
  5
366
330
1F
100
AcDbEntity
  8
0
100
AcDbSpline
210
0.0
220
0.0
230
1.0
 70
  1064
 71
     3
 72
     9
 73
     5
 74
     3
 42
0.000000001
 43
0.0000000001
 44
0.0000000001
 40
0.0
 40
0.0
 40
0.0
 40
0.0
 40
0.4755697528352484
 40
0.8972538734529779
 40
0.8972538734529779
 40
0.8972538734529779
 40
0.8972538734529779
 10
19.15256311271045
 20
-29.70806973525903
 30
0.0
 10
19.1435066127459
 20
-29.54572482234308
 30
0.0
 10
19.12641978242359
 20
-29.23942989698082
 30
0.0
 10
18.9435075669875
 20
-28.99442789762778
 30
0.0
 10
18.85754396293018
 20
-28.87928383895776
 30
0.0
 11
19.15256311271045
 21
-29.70806973525903
 31
0.0
 11
19.07880832526538
 21
-29.23825400421045
 31
0.0
 11
18.85754396293018
 21
-28.87928383895776
 31
0.0
  0
SPLINE
  5
367
330
1F
100
AcDbEntity
  8
0
100
AcDbSpline
210
0.0
220
0.0
230
1.0
 70
  1064
 71
     3
 72
     9
 73
     5
 74
     3
 42
0.000000001
 43
0.0000000001
 44
0.0000000001
 40
0.0
 40
0.0
 40
0.0
 40
0.0
 40
0.4097113680840759
 40
0.8482004453967013
 40
0.8482004453967013
 40
0.8482004453967013
 40
0.8482004453967013
 10
18.85754396293018
 20
-28.87928383895776
 30
0.0
 10
18.74906101004185
 20
-28.79077755005113
 30
0.0
 10
18.52447537213751
 20
-28.60754838064324
 30
0.0
 10
18.23479006500458
 20
-28.58657838241919
 30
0.0
 10
18.08503319594715
 20
-28.57573764869592
 30
0.0
 11
18.85754396293018
 21
-28.87928383895776
 31
0.0
 11
18.51690580222461
 21
-28.65162389823815
 31
0.0
 11
18.08503319594715
 21
-28.57573764869592
 31
0.0
  0
SPLINE
  5
368
330
1F
100
AcDbEntity
  8
0
100
AcDbSpline
210
0.0
220
0.0
230
1.0
 70
  1064
 71
     3
 72
     9
 73
     5
 74
     3
 42
0.000000001
 43
0.0000000001
 44
0.0000000001
 40
0.0
 40
0.0
 40
0.0
 40
0.0
 40
0.2842329004950037
 40
0.5568854157844687
 40
0.5568854157844687
 40
0.5568854157844687
 40
0.5568854157844687
 10
18.08503319594715
 20
-28.57573764869592
 30
0.0
 10
17.98940525154932
 20
-28.58086932964717
 30
0.0
 10
17.80204549311231
 20
-28.59092361356447
 30
0.0
 10
17.63254890776228
 20
-28.6711689420721
 30
0.0
 10
17.54956294867847
 20
-28.71045725891015
 30
0.0
 11
18.08503319594715
 21
-28.57573764869592
 31
0.0
 11
17.80280281874988
 21
-28.60941784927269
 31
0.0
 11
17.54956294867847
 21
-28.71045725891015
 31
0.0
  0
SPLINE
  5
369
330
1F
100
AcDbEntity
  8
0
100
AcDbSpline
210
0.0
220
0.0
230
1.0
 70
  1064
 71
     3
 72
     9
 73
     5
 74
     3
 42
0.000000001
 43
0.0000000001
 44
0.0000000001
 40
0.0
 40
0.0
 40
0.0
 40
0.0
 40
0.2634192298350935
 40
0.5168068765777916
 40
0.5168068765777916
 40
0.5168068765777916
 40
0.5168068765777916
 10
17.54956294867847
 20
-28.71045725891015
 30
0.0
 10
17.47470663440946
 20
-28.7579839606957
 30
0.0
 10
17.32784469880318
 20
-28.8512274430307
 30
0.0
 10
17.22487683415123
 20
-28.99134778380384
 30
0.0
 10
17.17439224097583
 20
-29.06004803726098
 30
0.0
 11
17.54956294867847
 21
-28.71045725891015
 31
0.0
 11
17.33639766547534
 21
-28.86521595069787
 31
0.0
 11
17.17439224097583
 21
-29.06004803726098
 31
0.0
  0
LINE
  5
370
330
1F
100
AcDbEntity
  8
0
100
AcDbLine
 10
17.17439224097583
 20
-29.06004803726097
 30
0.0
 11
16.59799386832569
 21
-28.98501413413903
 31
0.0
  0
LINE
  5
371
330
1F
100
AcDbEntity
  8
0
100
AcDbLine
 10
16.59799386832569
 20
-28.98501413413903
 30
0.0
 11
17.08230425689075
 21
-26.41680138656518
 31
0.0
  0
LINE
  5
372
330
1F
100
AcDbEntity
  8
0
100
AcDbLine
 10
17.08230425689075
 20
-26.41680138656518
 30
0.0
 11
19.56866194579456
 21
-26.41680138656518
 31
0.0
  0
LINE
  5
373
330
1F
100
AcDbEntity
  8
0
100
AcDbLine
 10
19.56866194579456
 20
-26.41680138656518
 30
0.0
 11
19.56866194579456
 21
-27.00343149253747
 31
0.0
  0
LINE
  5
374
330
1F
100
AcDbEntity
  8
0
100
AcDbLine
 10
19.56866194579456
 20
-27.00343149253747
 30
0.0
 11
17.5734369930968
 21
-27.00343149253747
 31
0.0
  0
LINE
  5
375
330
1F
100
AcDbEntity
  8
0
100
AcDbLine
 10
17.5734369930968
 20
-27.00343149253747
 30
0.0
 11
17.30399658057544
 21
-28.34722416946313
 31
0.0
  0
SPLINE
  5
376
330
1F
100
AcDbEntity
  8
0
100
AcDbSpline
210
0.0
220
0.0
230
1.0
 70
  1064
 71
     3
 72
     9
 73
     5
 74
     3
 42
0.000000001
 43
0.0000000001
 44
0.0000000001
 40
0.0
 40
0.0
 40
0.0
 40
0.0
 40
0.5178520504660066
 40
1.007632833161185
 40
1.007632833161185
 40
1.007632833161185
 40
1.007632833161185
 10
17.30399658057544
 20
-28.34722416946313
 30
0.0
 10
17.45348766211931
 20
-28.25572598416899
 30
0.0
 10
17.74436634434684
 20
-28.07768946660749
 30
0.0
 10
18.08377022715176
 20
-28.04791671539798
 30
0.0
 10
18.24874450538013
 20
-28.03344505378625
 30
0.0
 11
17.30399658057544
 21
-28.34722416946313
 31
0.0
 11
17.76528646323535
 21
-28.11188953468224
 31
0.0
 11
18.24874450538013
 21
-28.03344505378625
 31
0.0
  0
SPLINE
  5
377
330
1F
100
AcDbEntity
  8
0
100
AcDbSpline
210
0.0
220
0.0
230
1.0
 70
  1064
 71
     3
 72
     9
 73
     5
 74
     3
 42
0.000000001
 43
0.0000000001
 44
0.0000000001
 40
0.0
 40
0.0
 40
0.0
 40
0.0
 40
0.6142422807573628
 40
1.220138412265836
 40
1.220138412265836
 40
1.220138412265836
 40
1.220138412265836
 10
18.24874450538013
 20
-28.03344505378625
 30
0.0
 10
18.45797758192446
 20
-28.05182319766669
 30
0.0
 10
18.87360073553334
 20
-28.08832976844041
 30
0.0
 10
19.19445981900452
 20
-28.35475756908597
 30
0.0
 10
19.35379196975085
 20
-28.48706024238488
 30
0.0
 11
18.24874450538013
 21
-28.03344505378625
 31
0.0
 11
18.85242750022266
 21
-28.14684885093591
 31
0.0
 11
19.35379196975085
 21
-28.48706024238488
 31
0.0
  0
SPLINE
  5
378
330
1F
100
AcDbEntity
  8
0
100
AcDbSpline
210
0.0
220
0.0
230
1.0
 70
  1064
 71
     3
 72
     9
 73
     5
 74
     3
 42
0.000000001
 43
0.0000000001
 44
0.0000000001
 40
0.0
 40
0.0
 40
0.0
 40
0.0
 40
0.6186810276799355
 40
1.276404335870817
 40
1.276404335870817
 40
1.276404335870817
 40
1.276404335870817
 10
19.35379196975085
 20
-28.48706024238488
 30
0.0
 10
19.48506744240129
 20
-28.65250350823002
 30
0.0
 10
19.75590261430378
 20
-28.99383044798972
 30
0.0
 10
19.78764165038387
 20
-29.42917099232998
 30
0.0
 10
19.80399658057544
 20
-29.65349929878136
 30
0.0
 11
19.35379196975085
 21
-28.48706024238488
 31
0.0
 11
19.69144512984607
 21
-29.00547760078332
 31
0.0
 11
19.80399658057544
 21
-29.65349929878136
 31
0.0
  0
SPLINE
  5
379
330
1F
100
AcDbEntity
  8
0
100
AcDbSpline
210
0.0
220
0.0
230
1.0
 70
  1064
 71
     3
 72
     9
 73
     5
 74
     3
 42
0.000000001
 43
0.0000000001
 44
0.0000000001
 40
0.0
 40
0.0
 40
0.0
 40
0.0
 40
0.6403593136608265
 40
1.257028142675069
 40
1.257028142675069
 40
1.257028142675069
 40
1.257028142675069
 10
19.80399658057544
 20
-29.65349929878136
 30
0.0
 10
19.78879064592218
 20
-29.87044623591618
 30
0.0
 10
19.75894132947273
 20
-30.29631402549605
 30
0.0
 10
19.52374450767855
 20
-30.65218074869519
 30
0.0
 10
19.40836240622852
 20
-30.82676070281884
 30
0.0
 11
19.80399658057544
 21
-29.65349929878136
 31
0.0
 11
19.70508863303516
 21
-30.28617399284264
 31
0.0
 11
19.40836240622852
 21
-30.82676070281884
 31
0.0
  0
SPLINE
  5
380
330
1F
100
AcDbEntity
  8
0
100
AcDbSpline
210
0.0
220
0.0
230
1.0
 70
  1064
 71
     3
 72
     9
 73
     5
 74
     3
 42
0.000000001
 43
0.0000000001
 44
0.0000000001
 40
0.0
 40
0.0
 40
0.0
 40
0.0
 40
0.7285356360301114
 40
1.488223618237222
 40
1.488223618237222
 40
1.488223618237222
 40
1.488223618237222
 10
19.40836240622852
 20
-30.82676070281884
 30
0.0
 10
19.23062791742664
 20
-31.00380780139227
 30
0.0
 10
18.86755897346719
 20
-31.36547257193543
 30
0.0
 10
18.35626385110914
 20
-31.41074448840396
 30
0.0
 10
18.09526492926929
 20
-31.43385427543541
 30
0.0
 11
19.40836240622852
 21
-30.82676070281884
 31
0.0
 11
18.83963753554676
 21
-31.28208058425805
 31
0.0
 11
18.09526492926929
 21
-31.43385427543541
 31
0.0
  0
SPLINE
  5
381
330
1F
100
AcDbEntity
  8
0
100
AcDbSpline
210
0.0
220
0.0
230
1.0
 70
  1064
 71
     3
 72
     9
 73
     5
 74
     3
 42
0.000000001
 43
0.0000000001
 44
0.0000000001
 40
0.0
 40
0.0
 40
0.0
 40
0.0
 40
0.6267759884393075
 40
1.19794108848636
 40
1.19794108848636
 40
1.19794108848636
 40
1.19794108848636
 10
18.09526492926929
 20
-31.43385427543541
 30
0.0
 10
17.88204414592527
 20
-31.42110893222583
 30
0.0
 10
17.47452065747278
 20
-31.39674908022252
 30
0.0
 10
17.14080321888575
 20
-31.16321086007973
 30
0.0
 10
16.981690424417
 20
-31.05186241218468
 30
0.0
 11
18.09526492926929
 21
-31.43385427543541
 31
0.0
 11
17.47580696914051
 21
-31.33835571357629
 31
0.0
 11
16.981690424417
 21
-31.05186241218468
 31
0.0
  0
SPLINE
  5
382
330
1F
100
AcDbEntity
  8
0
100
AcDbSpline
210
0.0
220
0.0
230
1.0
 70
  1064
 71
     3
 72
     9
 73
     5
 74
     3
 42
0.000000001
 43
0.0000000001
 44
0.0000000001
 40
0.0
 40
0.0
 40
0.0
 40
0.0
 40
0.5587669774326613
 40
1.147947271393781
 40
1.147947271393781
 40
1.147947271393781
 40
1.147947271393781
 10
16.981690424417
 20
-31.05186241218468
 30
0.0
 10
16.85305807100887
 20
-30.9115013257718
 30
0.0
 10
16.58879199038563
 20
-30.62313939196915
 30
0.0
 10
16.52274923168347
 20
-30.23705798749313
 30
0.0
 10
16.48885299537036
 20
-30.03890293189904
 30
0.0
 11
16.981690424417
 21
-31.05186241218468
 31
0.0
 11
16.6427581486449
 21
-30.60762661048791
 31
0.0
 11
16.48885299537036
 21
-30.03890293189904
 31
0.0
  0
LINE
  5
383
330
1F
100
AcDbEntity
  8
0
100
AcDbLine
 10
20.54410507056568
 20
-31.34858863899133
 30
0.0
 11
20.54410507056568
 21
-27.72648828575036
 31
0.0
  0
LINE
  5
384
330
1F
100
AcDbEntity
  8
0
100
AcDbLine
 10
20.54410507056568
 20
-27.72648828575036
 30
0.0
 11
21.09321882102344
 21
-27.72648828575036
 31
0.0
  0
LINE
  5
385
330
1F
100
AcDbEntity
  8
0
100
AcDbLine
 10
21.09321882102344
 20
-27.72648828575036
 30
0.0
 11
21.09321882102344
 21
-28.23467271873376
 31
0.0
  0
SPLINE
  5
386
330
1F
100
AcDbEntity
  8
0
100
AcDbSpline
210
0.0
220
0.0
230
1.0
 70
  1064
 71
     3
 72
     9
 73
     5
 74
     3
 42
0.000000001
 43
0.0000000001
 44
0.0000000001
 40
0.0
 40
0.0
 40
0.0
 40
0.0
 40
0.3115776784790946
 40
0.6283518826538565
 40
0.6283518826538565
 40
0.6283518826538565
 40
0.6283518826538565
 10
21.09321882102344
 20
-28.23467271873376
 30
0.0
 10
21.15513669566725
 20
-28.15011170525703
 30
0.0
 10
21.28000511786062
 20
-27.97957936071752
 30
0.0
 10
21.45740201634995
 20
-27.8646017183242
 30
0.0
 10
21.54683400962208
 20
-27.80663745948693
 30
0.0
 11
21.09321882102344
 21
-28.23467271873376
 31
0.0
 11
21.29188825461719
 21
-27.99464958259484
 31
0.0
 11
21.54683400962208
 21
-27.80663745948693
 31
0.0
  0
SPLINE
  5
387
330
1F
100
AcDbEntity
  8
0
100
AcDbSpline
210
0.0
220
0.0
230
1.0
 70
  1064
 71
     3
 72
     9
 73
     5
 74
     3
 42
0.000000001
 43
0.0000000001
 44
0.0000000001
 40
0.0
 40
0.0
 40
0.0
 40
0.0
 40
0.3261698970339901
 40
0.6704775846285946
 40
0.6704775846285946
 40
0.6704775846285946
 40
0.6704775846285946
 10
21.54683400962208
 20
-27.80663745948693
 30
0.0
 10
21.64601214505112
 20
-27.75939549692095
 30
0.0
 10
21.84988355469105
 20
-27.66228452119206
 30
0.0
 10
22.07555630160643
 20
-27.65062136777711
 30
0.0
 10
22.19144512984608
 20
-27.64463203498742
 30
0.0
 11
21.54683400962208
 21
-27.80663745948693
 31
0.0
 11
21.84952785346363
 21
-27.68513339111229
 31
0.0
 11
22.19144512984608
 21
-27.64463203498742
 31
0.0
  0
SPLINE
  5
388
330
1F
100
AcDbEntity
  8
0
100
AcDbSpline
210
0.0
220
0.0
230
1.0
 70
  1064
 71
     3
 72
     9
 73
     5
 74
     3
 42
0.000000001
 43
0.0000000001
 44
0.0000000001
 40
0.0
 40
0.0
 40
0.0
 40
0.0
 40
0.3685924906705263
 40
0.6879580780200352
 40
0.6879580780200352
 40
0.6879580780200352
 40
0.6879580780200352
 10
22.19144512984608
 20
-27.64463203498742
 30
0.0
 10
22.3159461533224
 20
-27.64937196824048
 30
0.0
 10
22.54832062374768
 20
-27.65821879896343
 30
0.0
 10
22.75531282591922
 20
-27.76307658392158
 30
0.0
 10
22.85140325400684
 20
-27.81175392219445
 30
0.0
 11
22.19144512984608
 21
-27.64463203498742
 31
0.0
 11
22.55766202781055
 21
-27.68641250678918
 31
0.0
 11
22.85140325400684
 21
-27.81175392219445
 31
0.0
  0
SPLINE
  5
389
330
1F
100
AcDbEntity
  8
0
100
AcDbSpline
210
0.0
220
0.0
230
1.0
 70
  1064
 71
     3
 72
     9
 73
     5
 74
     3
 42
0.000000001
 43
0.0000000001
 44
0.0000000001
 40
0.0
 40
0.0
 40
0.0
 40
0.0
 40
0.2972494578900769
 40
0.6003470498065927
 40
0.6003470498065927
 40
0.6003470498065927
 40
0.6003470498065927
 10
22.85140325400684
 20
-27.81175392219445
 30
0.0
 10
22.93108131736161
 20
-27.87348237920578
 30
0.0
 10
23.09200504320749
 20
-27.99815374889948
 30
0.0
 10
23.17349543186693
 20
-28.18478618613811
 30
0.0
 10
23.21463753554676
 20
-28.27901142188927
 30
0.0
 11
22.85140325400684
 21
-27.81175392219445
 31
0.0
 11
23.07096411559437
 21
-28.01212924072168
 31
0.0
 11
23.21463753554676
 21
-28.27901142188927
 31
0.0
  0
SPLINE
  5
390
330
1F
100
AcDbEntity
  8
0
100
AcDbSpline
210
0.0
220
0.0
230
1.0
 70
  1064
 71
     3
 72
     9
 73
     5
 74
     3
 42
0.000000001
 43
0.0000000001
 44
0.0000000001
 40
0.0
 40
0.0
 40
0.0
 40
0.0
 40
0.6862536106085583
 40
1.330234301929646
 40
1.330234301929646
 40
1.330234301929646
 40
1.330234301929646
 10
23.21463753554676
 20
-28.27901142188927
 30
0.0
 10
23.36481908329929
 20
-28.09403924001783
 30
0.0
 10
23.65593106179971
 20
-27.73548908097391
 30
0.0
 10
24.11236348166456
 20
-27.67426922419215
 30
0.0
 10
24.33332731101368
 20
-27.64463203498742
 30
0.0
 11
23.21463753554676
 21
-28.27901142188927
 31
0.0
 11
23.70918084952686
 21
-27.80322688171288
 31
0.0
 11
24.33332731101368
 21
-27.64463203498742
 31
0.0
  0
SPLINE
  5
391
330
1F
100
AcDbEntity
  8
0
100
AcDbSpline
210
0.0
220
0.0
230
1.0
 70
  1064
 71
     3
 72
     9
 73
     5
 74
     3
 42
0.000000001
 43
0.0000000001
 44
0.0000000001
 40
0.0
 40
0.0
 40
0.0
 40
0.0
 40
0.4824407984062599
 40
0.8997002841960723
 40
0.8997002841960723
 40
0.8997002841960723
 40
0.8997002841960723
 10
24.33332731101368
 20
-27.64463203498742
 30
0.0
 10
24.49841553691488
 20
-27.65304134754903
 30
0.0
 10
24.80628735093104
 20
-27.66872381247853
 30
0.0
 10
25.04937497699903
 20
-27.85614260065199
 30
0.0
 10
25.16211320731495
 20
-27.94306295463464
 30
0.0
 11
24.33332731101368
 21
-27.64463203498742
 31
0.0
 11
24.80996419761036
 21
-27.71924036094568
 31
0.0
 11
25.16211320731495
 21
-27.94306295463464
 31
0.0
  0
SPLINE
  5
392
330
1F
100
AcDbEntity
  8
0
100
AcDbSpline
210
0.0
220
0.0
230
1.0
 70
  1064
 71
     3
 72
     9
 73
     5
 74
     3
 42
0.000000001
 43
0.0000000001
 44
0.0000000001
 40
0.0
 40
0.0
 40
0.0
 40
0.0
 40
0.4369453367419947
 40
0.9819471213229451
 40
0.9819471213229451
 40
0.9819471213229451
 40
0.9819471213229451
 10
25.16211320731495
 20
-27.94306295463464
 30
0.0
 10
25.24640502665399
 20
-28.06538949970871
 30
0.0
 10
25.43583400641653
 20
-28.3402939069568
 30
0.0
 10
25.44624175443861
 20
-28.67594009330423
 30
0.0
 10
25.45201827857349
 20
-28.86223095008752
 30
0.0
 11
25.16211320731495
 21
-27.94306295463464
 31
0.0
 11
25.37954141471241
 21
-28.32206981727502
 31
0.0
 11
25.45201827857349
 21
-28.86223095008752
 31
0.0
  0
LINE
  5
393
330
1F
100
AcDbEntity
  8
0
100
AcDbLine
 10
25.45201827857349
 20
-28.86223095008752
 30
0.0
 11
25.45201827857349
 21
-31.34858863899133
 31
0.0
  0
LINE
  5
394
330
1F
100
AcDbEntity
  8
0
100
AcDbLine
 10
25.45201827857349
 20
-31.34858863899133
 30
0.0
 11
24.84151293608997
 21
-31.34858863899133
 31
0.0
  0
LINE
  5
395
330
1F
100
AcDbEntity
  8
0
100
AcDbLine
 10
24.84151293608997
 20
-31.34858863899133
 30
0.0
 11
24.84151293608997
 21
-29.06686919280907
 31
0.0
  0
SPLINE
  5
396
330
1F
100
AcDbEntity
  8
0
100
AcDbSpline
210
0.0
220
0.0
230
1.0
 70
  1064
 71
     3
 72
     9
 73
     5
 74
     3
 42
0.000000001
 43
0.0000000001
 44
0.0000000001
 40
0.0
 40
0.0
 40
0.0
 40
0.0
 40
0.31711417363639
 40
0.5353454647583007
 40
0.5353454647583007
 40
0.5353454647583007
 40
0.5353454647583007
 10
24.84151293608997
 20
-29.06686919280907
 30
0.0
 10
24.84148785394856
 20
-28.96065051550882
 30
0.0
 10
24.84144551080605
 20
-28.78133438304697
 30
0.0
 10
24.79909232444018
 20
-28.6074135092637
 30
0.0
 10
24.78182722899769
 20
-28.53651540824792
 30
0.0
 11
24.84151293608997
 21
-29.06686919280907
 31
0.0
 11
24.82659150931691
 21
-28.75010626861474
 31
0.0
 11
24.78182722899769
 21
-28.53651540824792
 31
0.0
  0
SPLINE
  5
397
330
1F
100
AcDbEntity
  8
0
100
AcDbSpline
210
0.0
220
0.0
230
1.0
 70
  1064
 71
     3
 72
     9
 73
     5
 74
     3
 42
0.000000001
 43
0.0000000001
 44
0.0000000001
 40
0.0
 40
0.0
 40
0.0
 40
0.0
 40
0.168634016480378
 40
0.3439397597738966
 40
0.3439397597738966
 40
0.3439397597738966
 40
0.3439397597738966
 10
24.78182722899769
 20
-28.53651540824792
 30
0.0
 10
24.75739104430771
 20
-28.48483680301458
 30
0.0
 10
24.70755189757161
 20
-28.37943501374109
 30
0.0
 10
24.6132943456807
 20
-28.3106569518292
 30
0.0
 10
24.56525136802051
 20
-28.27560084411523
 30
0.0
 11
24.78182722899769
 21
-28.53651540824792
 31
0.0
 11
24.69784070823048
 21
-28.39028375694177
 31
0.0
 11
24.56525136802051
 21
-28.27560084411523
 31
0.0
  0
SPLINE
  5
398
330
1F
100
AcDbEntity
  8
0
100
AcDbSpline
210
0.0
220
0.0
230
1.0
 70
  1064
 71
     3
 72
     9
 73
     5
 74
     3
 42
0.000000001
 43
0.0000000001
 44
0.0000000001
 40
0.0
 40
0.0
 40
0.0
 40
0.0
 40
0.1859688195134816
 40
0.3853252700780425
 40
0.3853252700780425
 40
0.3853252700780425
 40
0.3853252700780425
 10
24.56525136802051
 20
-28.27560084411523
 30
0.0
 10
24.50953337479423
 20
-28.24676152359382
 30
0.0
 10
24.39408632918578
 20
-28.18700678084797
 30
0.0
 10
24.26413498443251
 20
-28.18020879239332
 30
0.0
 10
24.19690181586597
 20
-28.17669170448205
 30
0.0
 11
24.56525136802051
 21
-28.27560084411523
 31
0.0
 11
24.39471890303944
 21
-28.20141809532067
 31
0.0
 11
24.19690181586597
 21
-28.17669170448205
 31
0.0
  0
SPLINE
  5
399
330
1F
100
AcDbEntity
  8
0
100
AcDbSpline
210
0.0
220
0.0
230
1.0
 70
  1064
 71
     3
 72
     9
 73
     5
 74
     3
 42
0.000000001
 43
0.0000000001
 44
0.0000000001
 40
0.0
 40
0.0
 40
0.0
 40
0.0
 40
0.355315199102206
 40
0.6979835687543752
 40
0.6979835687543752
 40
0.6979835687543752
 40
0.6979835687543752
 10
24.19690181586597
 20
-28.17669170448205
 30
0.0
 10
24.07576528840796
 20
-28.18649021563802
 30
0.0
 10
23.83780387849559
 20
-28.2057384769069
 30
0.0
 10
23.65316776581985
 20
-28.35668121620883
 30
0.0
 10
23.56252242896412
 20
-28.43078511306664
 30
0.0
 11
24.19690181586597
 21
-28.17669170448205
 31
0.0
 11
23.84731103751514
 21
-28.24021475860497
 31
0.0
 11
23.56252242896412
 21
-28.43078511306664
 31
0.0
  0
SPLINE
  5
400
330
1F
100
AcDbEntity
  8
0
100
AcDbSpline
210
0.0
220
0.0
230
1.0
 70
  1064
 71
     3
 72
     9
 73
     5
 74
     3
 42
0.000000001
 43
0.0000000001
 44
0.0000000001
 40
0.0
 40
0.0
 40
0.0
 40
0.0
 40
0.3807875116556464
 40
0.8679225054577738
 40
0.8679225054577738
 40
0.8679225054577738
 40
0.8679225054577738
 10
23.56252242896412
 20
-28.43078511306664
 30
0.0
 10
23.48919098472858
 20
-28.53747116673624
 30
0.0
 10
23.3220478698375
 20
-28.78063887619112
 30
0.0
 10
23.31441754417
 20
-29.07756718546101
 30
0.0
 10
23.310134905313
 20
-29.24422281333825
 30
0.0
 11
23.56252242896412
 21
-28.43078511306664
 31
0.0
 11
23.37323238227222
 21
-28.76119154045007
 31
0.0
 11
23.310134905313
 21
-29.24422281333825
 31
0.0
  0
LINE
  5
401
330
1F
100
AcDbEntity
  8
0
100
AcDbLine
 10
23.310134905313
 20
-29.24422281333825
 30
0.0
 11
23.310134905313
 21
-31.34858863899133
 31
0.0
  0
LINE
  5
402
330
1F
100
AcDbEntity
  8
0
100
AcDbLine
 10
23.310134905313
 20
-31.34858863899133
 30
0.0
 11
22.69622017714832
 21
-31.34858863899133
 31
0.0
  0
LINE
  5
403
330
1F
100
AcDbEntity
  8
0
100
AcDbLine
 10
22.69622017714832
 20
-31.34858863899133
 30
0.0
 11
22.69622017714832
 21
-28.99524586746117
 31
0.0
  0
SPLINE
  5
404
330
1F
100
AcDbEntity
  8
0
100
AcDbSpline
210
0.0
220
0.0
230
1.0
 70
  1064
 71
     3
 72
     9
 73
     5
 74
     3
 42
0.000000001
 43
0.0000000001
 44
0.0000000001
 40
0.0
 40
0.0
 40
0.0
 40
0.0
 40
0.3600775598345042
 40
0.6395416116018433
 40
0.6395416116018433
 40
0.6395416116018433
 40
0.6395416116018433
 10
22.69622017714832
 20
-28.99524586746117
 30
0.0
 10
22.69380252282754
 20
-28.87319567019509
 30
0.0
 10
22.68950847423058
 20
-28.65641965146251
 30
0.0
 10
22.5897452634022
 20
-28.46498388842399
 30
0.0
 10
22.54615117881153
 20
-28.3813311392965
 30
0.0
 11
22.69622017714832
 21
-28.99524586746117
 31
0.0
 11
22.6587038216338
 21
-28.63712804862877
 31
0.0
 11
22.54615117881153
 21
-28.3813311392965
 31
0.0
  0
SPLINE
  5
405
330
1F
100
AcDbEntity
  8
0
100
AcDbSpline
210
0.0
220
0.0
230
1.0
 70
  1064
 71
     3
 72
     9
 73
     5
 74
     3
 42
0.000000001
 43
0.0000000001
 44
0.0000000001
 40
0.0
 40
0.0
 40
0.0
 40
0.0
 40
0.250373937600719
 40
0.5481177891073229
 40
0.5481177891073229
 40
0.5481177891073229
 40
0.5481177891073229
 10
22.54615117881153
 20
-28.3813311392965
 30
0.0
 10
22.48393037589968
 20
-28.32176187498336
 30
0.0
 10
22.34771680169407
 20
-28.1913530402342
 30
0.0
 10
22.15804922918751
 20
-28.18185250426948
 30
0.0
 10
22.05501963469837
 20
-28.17669170448205
 30
0.0
 11
22.54615117881153
 21
-28.3813311392965
 31
0.0
 11
22.34833528373096
 21
-28.22785156318566
 31
0.0
 11
22.05501963469837
 21
-28.17669170448205
 31
0.0
  0
SPLINE
  5
406
330
1F
100
AcDbEntity
  8
0
100
AcDbSpline
210
0.0
220
0.0
230
1.0
 70
  1064
 71
     3
 72
     9
 73
     5
 74
     3
 42
0.000000001
 43
0.0000000001
 44
0.0000000001
 40
0.0
 40
0.0
 40
0.0
 40
0.0
 40
0.251725045463673
 40
0.5032671162566052
 40
0.5032671162566052
 40
0.5032671162566052
 40
0.5032671162566052
 10
22.05501963469837
 20
-28.17669170448205
 30
0.0
 10
21.9702640438966
 20
-28.18236802746294
 30
0.0
 10
21.80081446969605
 20
-28.19371654740173
 30
0.0
 10
21.65080298765579
 20
-28.27332742508858
 30
0.0
 10
21.57582451674793
 20
-28.31311839172265
 30
0.0
 11
22.05501963469837
 21
-28.17669170448205
 31
0.0
 11
21.8056159195647
 21
-28.21079867431543
 31
0.0
 11
21.57582451674793
 21
-28.31311839172265
 31
0.0
  0
SPLINE
  5
407
330
1F
100
AcDbEntity
  8
0
100
AcDbSpline
210
0.0
220
0.0
230
1.0
 70
  1064
 71
     3
 72
     9
 73
     5
 74
     3
 42
0.000000001
 43
0.0000000001
 44
0.0000000001
 40
0.0
 40
0.0
 40
0.0
 40
0.0
 40
0.2533926072645261
 40
0.5181202733317438
 40
0.5181202733317438
 40
0.5181202733317438
 40
0.5181202733317438
 10
21.57582451674793
 20
-28.31311839172265
 30
0.0
 10
21.50720026217245
 20
-28.36477326718005
 30
0.0
 10
21.36688197143119
 20
-28.47039370528134
 30
0.0
 10
21.29411062890149
 20
-28.63040645014124
 30
0.0
 10
21.25692893836353
 20
-28.71216314384361
 30
0.0
 11
21.57582451674793
 21
-28.31311839172265
 31
0.0
 11
21.38610770079945
 21
-28.48109262534997
 31
0.0
 11
21.25692893836353
 21
-28.71216314384361
 31
0.0
  0
SPLINE
  5
408
330
1F
100
AcDbEntity
  8
0
100
AcDbSpline
210
0.0
220
0.0
230
1.0
 70
  1064
 71
     3
 72
     9
 73
     5
 74
     3
 42
0.000000001
 43
0.0000000001
 44
0.0000000001
 40
0.0
 40
0.0
 40
0.0
 40
0.0
 40
0.3290705657821936
 40
0.7663325421168028
 40
0.7663325421168028
 40
0.7663325421168028
 40
0.7663325421168028
 10
21.25692893836353
 20
-28.71216314384361
 30
0.0
 10
21.22822447511044
 20
-28.81846138130233
 30
0.0
 10
21.16137813094547
 20
-29.06600645826979
 30
0.0
 10
21.15924062891745
 20
-29.32280113986806
 30
0.0
 10
21.15802099082325
 20
-29.46932571479699
 30
0.0
 11
21.25692893836353
 21
-28.71216314384361
 31
0.0
 11
21.18274738166188
 21
-29.0327634150686
 31
0.0
 11
21.15802099082325
 21
-29.46932571479699
 31
0.0
  0
LINE
  5
409
330
1F
100
AcDbEntity
  8
0
100
AcDbLine
 10
21.15802099082324
 20
-29.46932571479699
 30
0.0
 11
21.15802099082325
 21
-31.34858863899133
 31
0.0
  0
LINE
  5
410
330
1F
100
AcDbEntity
  8
0
100
AcDbLine
 10
21.15802099082325
 20
-31.34858863899133
 30
0.0
 11
20.54410507056568
 21
-31.34858863899133
 31
0.0
  0
LINE
  5
411
330
1F
100
AcDbEntity
  8
0
100
AcDbLine
 10
26.36265923354481
 20
-31.34858863899133
 30
0.0
 11
26.36265923354481
 21
-27.72648828575036
 31
0.0
  0
LINE
  5
412
330
1F
100
AcDbEntity
  8
0
100
AcDbLine
 10
26.36265923354481
 20
-27.72648828575036
 30
0.0
 11
26.91177179190967
 21
-27.72648828575036
 31
0.0
  0
LINE
  5
413
330
1F
100
AcDbEntity
  8
0
100
AcDbLine
 10
26.91177179190967
 20
-27.72648828575036
 30
0.0
 11
26.91177179190967
 21
-28.23467271873376
 31
0.0
  0
SPLINE
  5
414
330
1F
100
AcDbEntity
  8
0
100
AcDbSpline
210
0.0
220
0.0
230
1.0
 70
  1064
 71
     3
 72
     9
 73
     5
 74
     3
 42
0.000000001
 43
0.0000000001
 44
0.0000000001
 40
0.0
 40
0.0
 40
0.0
 40
0.0
 40
0.3115776784790969
 40
0.628351882653856
 40
0.628351882653856
 40
0.628351882653856
 40
0.628351882653856
 10
26.91177179190967
 20
-28.23467271873376
 30
0.0
 10
26.97368966655348
 20
-28.15011170525703
 30
0.0
 10
27.09855808874686
 20
-27.97957936071753
 30
0.0
 10
27.27595498723618
 20
-27.8646017183242
 30
0.0
 10
27.36538698050831
 20
-27.80663745948693
 30
0.0
 11
26.91177179190967
 21
-28.23467271873376
 31
0.0
 11
27.11044122550342
 21
-27.99464958259484
 31
0.0
 11
27.36538698050831
 21
-27.80663745948693
 31
0.0
  0
SPLINE
  5
415
330
1F
100
AcDbEntity
  8
0
100
AcDbSpline
210
0.0
220
0.0
230
1.0
 70
  1064
 71
     3
 72
     9
 73
     5
 74
     3
 42
0.000000001
 43
0.0000000001
 44
0.0000000001
 40
0.0
 40
0.0
 40
0.0
 40
0.0
 40
0.3261721096194019
 40
0.6704786133974351
 40
0.6704786133974351
 40
0.6704786133974351
 40
0.6704786133974351
 10
27.36538698050831
 20
-27.80663745948693
 30
0.0
 10
27.46456591806411
 20
-27.75939549333695
 30
0.0
 10
27.66843790640867
 20
-27.66228501998786
 30
0.0
 10
27.89411090937119
 20
-27.65062151733582
 30
0.0
 10
28.0099992928252
 20
-27.64463203498742
 30
0.0
 11
27.36538698050831
 21
-27.80663745948693
 31
0.0
 11
27.66808320853565
 21
-27.68513339111229
 31
0.0
 11
28.0099992928252
 21
-27.64463203498742
 31
0.0
  0
SPLINE
  5
416
330
1F
100
AcDbEntity
  8
0
100
AcDbSpline
210
0.0
220
0.0
230
1.0
 70
  1064
 71
     3
 72
     9
 73
     5
 74
     3
 42
0.000000001
 43
0.0000000001
 44
0.0000000001
 40
0.0
 40
0.0
 40
0.0
 40
0.0
 40
0.3685936750803623
 40
0.6879592624298711
 40
0.6879592624298711
 40
0.6879592624298711
 40
0.6879592624298711
 10
28.0099992928252
 20
-27.64463203498742
 30
0.0
 10
28.13450072646078
 20
-27.6493719130274
 30
0.0
 10
28.36687561579309
 20
-27.65821862750149
 30
0.0
 10
28.57386817887895
 20
-27.76307658679541
 30
0.0
 10
28.66995860907886
 20
-27.81175392219445
 30
0.0
 11
28.0099992928252
 21
-27.64463203498742
 31
0.0
 11
28.37621738288257
 21
-27.68641250678918
 31
0.0
 11
28.66995860907886
 21
-27.81175392219445
 31
0.0
  0
SPLINE
  5
417
330
1F
100
AcDbEntity
  8
0
100
AcDbSpline
210
0.0
220
0.0
230
1.0
 70
  1064
 71
     3
 72
     9
 73
     5
 74
     3
 42
0.000000001
 43
0.0000000001
 44
0.0000000001
 40
0.0
 40
0.0
 40
0.0
 40
0.0
 40
0.2972485773615706
 40
0.6003461692780896
 40
0.6003461692780896
 40
0.6003461692780896
 40
0.6003461692780896
 10
28.66995860907886
 20
-27.81175392219445
 30
0.0
 10
28.74963620143153
 20
-27.87348245075871
 30
0.0
 10
28.91055921667625
 20
-27.9981541514197
 30
0.0
 10
28.99204955826668
 20
-28.1847862293449
 30
0.0
 10
29.03319169852588
 20
-28.27901142188927
 30
0.0
 11
28.66995860907886
 21
-27.81175392219445
 31
0.0
 11
28.88951827857349
 21
-28.01212924072168
 31
0.0
 11
29.03319169852588
 21
-28.27901142188927
 31
0.0
  0
SPLINE
  5
418
330
1F
100
AcDbEntity
  8
0
100
AcDbSpline
210
0.0
220
0.0
230
1.0
 70
  1064
 71
     3
 72
     9
 73
     5
 74
     3
 42
0.000000001
 43
0.0000000001
 44
0.0000000001
 40
0.0
 40
0.0
 40
0.0
 40
0.0
 40
0.6862544696815042
 40
1.330235161002592
 40
1.330235161002592
 40
1.330235161002592
 40
1.330235161002592
 10
29.03319169852588
 20
-28.27901142188927
 30
0.0
 10
29.18337366566321
 20
-28.09403924222334
 30
0.0
 10
29.47448628067803
 20
-27.73548930474443
 30
0.0
 10
29.93091888846241
 20
-27.67426928428861
 30
0.0
 10
30.1518826660857
 20
-27.64463203498742
 30
0.0
 11
29.03319169852588
 21
-28.27901142188927
 31
0.0
 11
29.52773620459888
 21
-27.80322688171288
 31
0.0
 11
30.1518826660857
 21
-27.64463203498742
 31
0.0
  0
SPLINE
  5
419
330
1F
100
AcDbEntity
  8
0
100
AcDbSpline
210
0.0
220
0.0
230
1.0
 70
  1064
 71
     3
 72
     9
 73
     5
 74
     3
 42
0.000000001
 43
0.0000000001
 44
0.0000000001
 40
0.0
 40
0.0
 40
0.0
 40
0.0
 40
0.4824407984062599
 40
0.8997002841960753
 40
0.8997002841960753
 40
0.8997002841960753
 40
0.8997002841960753
 10
30.1518826660857
 20
-27.64463203498742
 30
0.0
 10
30.3169708919869
 20
-27.65304134754903
 30
0.0
 10
30.62484270600305
 20
-27.66872381247852
 30
0.0
 10
30.86793033207105
 20
-27.85614260065199
 30
0.0
 10
30.98066856238697
 20
-27.94306295463464
 30
0.0
 11
30.1518826660857
 21
-27.64463203498742
 31
0.0
 11
30.62851955268238
 21
-27.71924036094568
 31
0.0
 11
30.98066856238697
 21
-27.94306295463464
 31
0.0
  0
SPLINE
  5
420
330
1F
100
AcDbEntity
  8
0
100
AcDbSpline
210
0.0
220
0.0
230
1.0
 70
  1064
 71
     3
 72
     9
 73
     5
 74
     3
 42
0.000000001
 43
0.0000000001
 44
0.0000000001
 40
0.0
 40
0.0
 40
0.0
 40
0.0
 40
0.4369453367419947
 40
0.9819468042679886
 40
0.9819468042679886
 40
0.9819468042679886
 40
0.9819468042679886
 10
30.98066856238697
 20
-27.94306295463464
 30
0.0
 10
31.06496052479535
 20
-28.06538947972994
 30
0.0
 10
31.2543897649139
 20
-28.3402937533175
 30
0.0
 10
31.26479572124627
 20
-28.67594006947906
 30
0.0
 10
31.27057124945972
 20
-28.86223095008752
 30
0.0
 11
30.98066856238697
 21
-27.94306295463464
 31
0.0
 11
31.19809676978443
 21
-28.32206981727502
 31
0.0
 11
31.27057124945972
 21
-28.86223095008752
 31
0.0
  0
LINE
  5
421
330
1F
100
AcDbEntity
  8
0
100
AcDbLine
 10
31.27057124945972
 20
-28.86223095008752
 30
0.0
 11
31.27057124945972
 21
-31.34858863899133
 31
0.0
  0
LINE
  5
422
330
1F
100
AcDbEntity
  8
0
100
AcDbLine
 10
31.27057124945972
 20
-31.34858863899133
 30
0.0
 11
30.6600670990691
 21
-31.34858863899133
 31
0.0
  0
LINE
  5
423
330
1F
100
AcDbEntity
  8
0
100
AcDbLine
 10
30.6600670990691
 20
-31.34858863899133
 30
0.0
 11
30.6600670990691
 21
-29.06686919280907
 31
0.0
  0
SPLINE
  5
424
330
1F
100
AcDbEntity
  8
0
100
AcDbSpline
210
0.0
220
0.0
230
1.0
 70
  1064
 71
     3
 72
     9
 73
     5
 74
     3
 42
0.000000001
 43
0.0000000001
 44
0.0000000001
 40
0.0
 40
0.0
 40
0.0
 40
0.0
 40
0.3171141175461257
 40
0.5353456531969537
 40
0.5353456531969537
 40
0.5353456531969537
 40
0.5353456531969537
 10
30.6600670990691
 20
-29.06686919280907
 30
0.0
 10
30.66004269204992
 20
-28.9606504760888
 30
0.0
 10
30.6600014886127
 20
-28.7813341822436
 30
0.0
 10
30.61764702240864
 20
-28.60741348981926
 30
0.0
 10
30.60038139197681
 20
-28.53651540824792
 30
0.0
 11
30.6600670990691
 21
-29.06686919280907
 31
0.0
 11
30.64514686438892
 21
-28.75010626861474
 31
0.0
 11
30.60038139197681
 21
-28.53651540824792
 31
0.0
  0
SPLINE
  5
425
330
1F
100
AcDbEntity
  8
0
100
AcDbSpline
210
0.0
220
0.0
230
1.0
 70
  1064
 71
     3
 72
     9
 73
     5
 74
     3
 42
0.000000001
 43
0.0000000001
 44
0.0000000001
 40
0.0
 40
0.0
 40
0.0
 40
0.0
 40
0.1686346101937409
 40
0.3439403534872541
 40
0.3439403534872541
 40
0.3439403534872541
 40
0.3439403534872541
 10
30.60038139197681
 20
-28.53651540824792
 30
0.0
 10
30.57594475559007
 20
-28.48483682948709
 30
0.0
 10
30.52610477702791
 20
-28.37943528334958
 30
0.0
 10
30.43184723076571
 20
-28.31065700276967
 30
0.0
 10
30.38380433890675
 20
-28.27560084411523
 30
0.0
 11
30.60038139197681
 21
-28.53651540824792
 31
0.0
 11
30.51639367911671
 21
-28.39028375694177
 31
0.0
 11
30.38380433890675
 21
-28.27560084411523
 31
0.0
  0
SPLINE
  5
426
330
1F
100
AcDbEntity
  8
0
100
AcDbSpline
210
0.0
220
0.0
230
1.0
 70
  1064
 71
     3
 72
     9
 73
     5
 74
     3
 42
0.000000001
 43
0.0000000001
 44
0.0000000001
 40
0.0
 40
0.0
 40
0.0
 40
0.0
 40
0.1859677263709526
 40
0.3853253598235167
 40
0.3853253598235167
 40
0.3853253598235167
 40
0.3853253598235167
 10
30.38380433890675
 20
-28.27560084411523
 30
0.0
 10
30.32808674617711
 20
-28.24676152680591
 30
0.0
 10
30.21263982489668
 20
-28.18700642555187
 30
0.0
 10
30.08268838685485
 20
-28.1802086844624
 30
0.0
 10
30.0154547867522
 20
-28.17669170448205
 30
0.0
 11
30.38380433890675
 21
-28.27560084411523
 31
0.0
 11
30.21327306601856
 21
-28.20141809532067
 31
0.0
 11
30.0154547867522
 21
-28.17669170448205
 31
0.0
  0
SPLINE
  5
427
330
1F
100
AcDbEntity
  8
0
100
AcDbSpline
210
0.0
220
0.0
230
1.0
 70
  1064
 71
     3
 72
     9
 73
     5
 74
     3
 42
0.000000001
 43
0.0000000001
 44
0.0000000001
 40
0.0
 40
0.0
 40
0.0
 40
0.0
 40
0.3553128533278726
 40
0.6979832044580338
 40
0.6979832044580338
 40
0.6979832044580338
 40
0.6979832044580338
 10
30.0154547867522
 20
-28.17669170448205
 30
0.0
 10
29.89431918377555
 20
-28.18649049243052
 30
0.0
 10
29.6563581431104
 20
-28.20573941446646
 30
0.0
 10
29.47172154600192
 20
-28.35668121158517
 30
0.0
 10
29.38107539985035
 20
-28.43078511306664
 30
0.0
 11
30.0154547867522
 21
-28.17669170448205
 31
0.0
 11
29.66586639258716
 21
-28.24021475860497
 31
0.0
 11
29.38107539985035
 21
-28.43078511306664
 31
0.0
  0
SPLINE
  5
428
330
1F
100
AcDbEntity
  8
0
100
AcDbSpline
210
0.0
220
0.0
230
1.0
 70
  1064
 71
     3
 72
     9
 73
     5
 74
     3
 42
0.000000001
 43
0.0000000001
 44
0.0000000001
 40
0.0
 40
0.0
 40
0.0
 40
0.0
 40
0.3807875116556464
 40
0.8679221966454006
 40
0.8679221966454006
 40
0.8679221966454006
 40
0.8679221966454006
 10
29.38107539985035
 20
-28.43078511306664
 30
0.0
 10
29.30774381798198
 20
-28.53747114800622
 30
0.0
 10
29.14060044885744
 20
-28.78063872824947
 30
0.0
 10
29.13297190050531
 20
-29.07756716196555
 30
0.0
 10
29.12869026038502
 20
-29.24422281333825
 30
0.0
 11
29.38107539985035
 21
-28.43078511306664
 31
0.0
 11
29.19178535315845
 21
-28.76119154045007
 31
0.0
 11
29.12869026038502
 21
-29.24422281333825
 31
0.0
  0
LINE
  5
429
330
1F
100
AcDbEntity
  8
0
100
AcDbLine
 10
29.12869026038502
 20
-29.24422281333825
 30
0.0
 11
29.12869026038502
 21
-31.34858863899133
 31
0.0
  0
LINE
  5
430
330
1F
100
AcDbEntity
  8
0
100
AcDbLine
 10
29.12869026038502
 20
-31.34858863899133
 30
0.0
 11
28.51477434012745
 21
-31.34858863899133
 31
0.0
  0
LINE
  5
431
330
1F
100
AcDbEntity
  8
0
100
AcDbLine
 10
28.51477434012745
 20
-31.34858863899133
 30
0.0
 11
28.51477434012745
 21
-28.99524586746117
 31
0.0
  0
SPLINE
  5
432
330
1F
100
AcDbEntity
  8
0
100
AcDbSpline
210
0.0
220
0.0
230
1.0
 70
  1064
 71
     3
 72
     9
 73
     5
 74
     3
 42
0.000000001
 43
0.0000000001
 44
0.0000000001
 40
0.0
 40
0.0
 40
0.0
 40
0.0
 40
0.3600774356327141
 40
0.6395414874000477
 40
0.6395414874000477
 40
0.6395414874000477
 40
0.6395414874000477
 10
28.51477434012745
 20
-28.99524586746117
 30
0.0
 10
28.51235718881946
 20
-28.87319565993093
 30
0.0
 10
28.50806403298739
 20
-28.65641959029406
 30
0.0
 10
28.40830068630518
 20
-28.46498388112853
 30
0.0
 10
28.36470653388355
 20
-28.3813311392965
 30
0.0
 11
28.51477434012745
 21
-28.99524586746117
 31
0.0
 11
28.47725917670581
 21
-28.63712804862877
 31
0.0
 11
28.36470653388355
 21
-28.3813311392965
 31
0.0
  0
SPLINE
  5
433
330
1F
100
AcDbEntity
  8
0
100
AcDbSpline
210
0.0
220
0.0
230
1.0
 70
  1064
 71
     3
 72
     9
 73
     5
 74
     3
 42
0.000000001
 43
0.0000000001
 44
0.0000000001
 40
0.0
 40
0.0
 40
0.0
 40
0.0
 40
0.2503758213068248
 40
0.5481184984500369
 40
0.5481184984500369
 40
0.5481184984500369
 40
0.5481184984500369
 10
28.36470653388355
 20
-28.3813311392965
 30
0.0
 10
28.30248491691447
 20
-28.32176186015745
 30
0.0
 10
28.16627040911487
 20
-28.191353805318
 30
0.0
 10
27.97660284688168
 20
-28.18185275606049
 30
0.0
 10
27.87357379767749
 20
-28.17669170448205
 30
0.0
 11
28.36470653388355
 21
-28.3813311392965
 31
0.0
 11
28.16688825461719
 21
-28.22785156318566
 31
0.0
 11
27.87357379767749
 21
-28.17669170448205
 31
0.0
  0
SPLINE
  5
434
330
1F
100
AcDbEntity
  8
0
100
AcDbSpline
210
0.0
220
0.0
230
1.0
 70
  1064
 71
     3
 72
     9
 73
     5
 74
     3
 42
0.000000001
 43
0.0000000001
 44
0.0000000001
 40
0.0
 40
0.0
 40
0.0
 40
0.0
 40
0.2517238643639334
 40
0.503267024170791
 40
0.503267024170791
 40
0.503267024170791
 40
0.503267024170791
 10
27.87357379767749
 20
-28.17669170448205
 30
0.0
 10
27.78881863743431
 20
-28.18236813013675
 30
0.0
 10
27.61936915998217
 20
-28.19371690652069
 30
0.0
 10
27.46935755194045
 20
-28.27332742505199
 30
0.0
 10
27.39437867972705
 20
-28.31311839172265
 30
0.0
 11
27.87357379767749
 21
-28.17669170448205
 31
0.0
 11
27.62417127463673
 21
-28.21079867431543
 31
0.0
 11
27.39437867972705
 21
-28.31311839172265
 31
0.0
  0
SPLINE
  5
435
330
1F
100
AcDbEntity
  8
0
100
AcDbSpline
210
0.0
220
0.0
230
1.0
 70
  1064
 71
     3
 72
     9
 73
     5
 74
     3
 42
0.000000001
 43
0.0000000001
 44
0.0000000001
 40
0.0
 40
0.0
 40
0.0
 40
0.0
 40
0.2533926072645235
 40
0.5181196916300009
 40
0.5181196916300009
 40
0.5181196916300009
 40
0.5181196916300009
 10
27.39437867972705
 20
-28.31311839172265
 30
0.0
 10
27.32575434824408
 20
-28.36477322269689
 30
0.0
 10
27.18543605778523
 20
-28.47039345126037
 30
0.0
 10
27.11266552849923
 20
-28.63040642239054
 30
0.0
 10
27.07548429343555
 20
-28.71216314384361
 30
0.0
 11
27.39437867972705
 21
-28.31311839172265
 31
0.0
 11
27.20466186377857
 21
-28.48109262534997
 31
0.0
 11
27.07548429343555
 21
-28.71216314384361
 31
0.0
  0
SPLINE
  5
436
330
1F
100
AcDbEntity
  8
0
100
AcDbSpline
210
0.0
220
0.0
230
1.0
 70
  1064
 71
     3
 72
     9
 73
     5
 74
     3
 42
0.000000001
 43
0.0000000001
 44
0.0000000001
 40
0.0
 40
0.0
 40
0.0
 40
0.0
 40
0.3290711032514475
 40
0.7663330795860564
 40
0.7663330795860564
 40
0.7663330795860564
 40
0.7663330795860564
 10
27.07548429343555
 20
-28.71216314384361
 30
0.0
 10
27.04677886329024
 20
-28.81846134236827
 30
0.0
 10
26.97993032974612
 20
-29.06600609796966
 30
0.0
 10
26.97779331876299
 20
-29.32280107440326
 30
0.0
 10
26.97657396170948
 20
-29.46932571479699
 30
0.0
 11
27.07548429343555
 21
-28.71216314384361
 31
0.0
 11
27.0013003525481
 21
-29.0327634150686
 31
0.0
 11
26.97657396170948
 21
-29.46932571479699
 31
0.0
  0
LINE
  5
437
330
1F
100
AcDbEntity
  8
0
100
AcDbLine
 10
26.97657396170948
 20
-29.46932571479699
 30
0.0
 11
26.97657396170948
 21
-31.34858863899133
 31
0.0
  0
LINE
  5
438
330
1F
100
AcDbEntity
  8
0
100
AcDbLine
 10
26.97657396170948
 20
-31.34858863899133
 30
0.0
 11
26.36265923354481
 21
-31.34858863899133
 31
0.0
  0
ENDSEC
  0
SECTION
  2
OBJECTS
  0
DICTIONARY
  5
C
330
0
100
AcDbDictionary
281
     1
  3
ACAD_CIP_PREVIOUS_PRODUCT_INFO
350
1005A
  3
ACAD_COLOR
350
10036
  3
ACAD_DETAILVIEWSTYLE
350
10051
  3
ACAD_GROUP
350
D
  3
ACAD_LAYOUT
350
10037
  3
ACAD_MATERIAL
350
10004
  3
ACAD_MLEADERSTYLE
350
1004D
  3
ACAD_MLINESTYLE
350
17
  3
ACAD_PLOTSETTINGS
350
10054
  3
ACAD_PLOTSTYLENAME
350
10002
  3
ACAD_SCALELIST
350
1003B
  3
ACAD_SECTIONVIEWSTYLE
350
1004F
  3
ACAD_TABLESTYLE
350
10038
  3
ACAD_VISUALSTYLE
350
1001D
  3
ACDB_RECOMPOSE_DATA
350
10069
  3
AcDbVariableDictionary
350
1005D
  0
DICTIONARY
  5
1005B
330
50
100
AcDbDictionary
280
     1
281
     1
  3
ADSK_XREC_LAYER_RECONCILED
360
1005C
  0
XRECORD
  5
1005A
102
{ACAD_REACTORS
330
C
102
}
330
C
100
AcDbXrecord
280
     1
300
ACD
300
2020
300
ACD_F_S
  0
DICTIONARY
  5
10036
102
{ACAD_REACTORS
330
C
102
}
330
C
100
AcDbDictionary
281
     1
  0
DICTIONARY
  5
10051
102
{ACAD_REACTORS
330
C
102
}
330
C
100
AcDbDictionary
281
     1
  3
Imperial24
350
10052
  0
DICTIONARY
  5
D
330
C
100
AcDbDictionary
281
     1
  0
DICTIONARY
  5
10037
102
{ACAD_REACTORS
330
C
102
}
330
C
100
AcDbDictionary
281
     1
  3
Layout1
350
10056
  3
Model
350
10055
  0
DICTIONARY
  5
10004
102
{ACAD_REACTORS
330
C
102
}
330
C
100
AcDbDictionary
281
     1
  3
ByBlock
350
1000D
  3
ByLayer
350
10005
  3
Global
350
10015
  0
DICTIONARY
  5
1004D
102
{ACAD_REACTORS
330
C
102
}
330
C
100
AcDbDictionary
281
     1
  3
Standard
350
1004E
  0
DICTIONARY
  5
17
330
C
100
AcDbDictionary
281
     1
  3
Standard
350
1003A
  0
DICTIONARY
  5
10054
102
{ACAD_REACTORS
330
C
102
}
330
C
100
AcDbDictionary
281
     1
  0
ACDBDICTIONARYWDFLT
  5
10002
102
{ACAD_REACTORS
330
C
102
}
330
C
100
AcDbDictionary
281
     1
  3
Normal
350
10003
100
AcDbDictionaryWithDefault
340
10003
  0
DICTIONARY
  5
1003B
102
{ACAD_REACTORS
330
C
102
}
330
C
100
AcDbDictionary
281
     1
  3
A0
350
1003C
  3
A1
350
1003D
  3
A2
350
1003E
  3
A3
350
1003F
  3
A4
350
10040
  3
A5
350
10041
  3
A6
350
10042
  3
A7
350
10043
  3
A8
350
10044
  3
A9
350
10045
  3
B0
350
10046
  3
B1
350
10047
  3
B2
350
10048
  3
B3
350
10049
  3
B4
350
1004A
  3
B5
350
1004B
  3
B6
350
1004C
  0
DICTIONARY
  5
1004F
102
{ACAD_REACTORS
330
C
102
}
330
C
100
AcDbDictionary
281
     1
  3
Imperial24
350
10050
  0
DICTIONARY
  5
10038
102
{ACAD_REACTORS
330
C
102
}
330
C
100
AcDbDictionary
281
     1
  3
Standard
350
10039
  0
DICTIONARY
  5
1001D
102
{ACAD_REACTORS
330
C
102
}
330
C
100
AcDbDictionary
281
     1
  3
2dWireframe
350
10023
  3
Basic
350
10022
  3
Brighten
350
10029
  3
ColorChange
350
1002D
  3
Conceptual
350
10026
  3
Dim
350
10028
  3
EdgeColorOff
350
10035
  3
Facepattern
350
1002C
  3
Flat
350
1001E
  3
FlatWithEdges
350
1001F
  3
Gouraud
350
10020
  3
GouraudWithEdges
350
10021
  3
Hidden
350
10025
  3
JitterOff
350
10033
  3
Linepattern
350
1002B
  3
OverhangOff
350
10034
  3
Realistic
350
10027
  3
Shaded
350
10032
  3
Shaded with edges
350
10031
  3
Shades of Gray
350
1002E
  3
Sketchy
350
1002F
  3
Thicken
350
1002A
  3
Wireframe
350
10024
  3
X-Ray
350
10030
  0
XRECORD
  5
10069
102
{ACAD_REACTORS
330
C
102
}
330
C
100
AcDbXrecord
280
     1
 90
        1
330
10039
  0
DICTIONARY
  5
1005D
102
{ACAD_REACTORS
330
C
102
}
330
C
100
AcDbDictionary
281
     1
  3
CANNOSCALE
350
10063
  3
CMLEADERSTYLE
350
1005F
  3
CTABLESTYLE
350
1005E
  3
CVIEWDETAILSTYLE
350
10060
  3
CVIEWSECTIONSTYLE
350
10061
  3
LAYEREVAL
350
10065
  3
LAYERNOTIFY
350
10066
  3
LIGHTINGUNITS
350
10064
  3
MSLTSCALE
350
10062
  0
XRECORD
  5
1005C
102
{ACAD_REACTORS
330
1005B
102
}
330
1005B
100
AcDbXrecord
280
     1
290
     1
  0
ACDBDETAILVIEWSTYLE
  5
10052
102
{ACAD_REACTORS
330
10051
102
}
330
10051
100
AcDbModelDocViewStyle
 70
     0
  3
Imperial24
290
     0
300
Imperial24
 90
        0
100
AcDbDetailViewStyle
 70
     0
 71
     0
 90
        3
 71
     1
340
11
 62
   256
 40
0.24
340
0
 62
   256
 40
0.24
300

 40
0.36
280
     3
 71
     2
340
0
 90
       25
 62
   256
 71
     3
340
11
 62
   256
 40
0.24
 90
        1
 40
0.75
 90
        1
300
%<\AcVar ViewType \f "%tc1">% %<\AcVar ViewDetailId>%\PSCALE %<\AcVar ViewScale \f "%sn">%
 71
     4
340
0
 90
       25
 62
   256
340
0
 90
       25
 62
   256
280
     0
  0
LAYOUT
  5
10056
102
{ACAD_REACTORS
330
10037
102
}
330
10037
100
AcDbPlotSettings
  1

  2
Microsoft Print to PDF
  4

  6

 40
0.0
 41
0.0
 42
0.0
 43
0.0
 44
0.0
 45
0.0
 46
0.0
 47
0.0
 48
0.0
 49
0.0
140
0.0
141
0.0
142
1.0
143
1.0
 70
   688
 72
     0
 73
     0
 74
     5
  7

 75
    16
147
1.0
 76
     0
 77
     2
 78
   300
148
0.0
149
0.0
100
AcDbLayout
  1
Layout1
 70
     1
 71
     1
 10
0.0
 20
0.0
 11
12.0
 21
9.0
 12
0.0
 22
0.0
 32
0.0
 14
1.000000000000000E+20
 24
1.000000000000000E+20
 34
1.000000000000000E+20
 15
-1.000000000000000E+20
 25
-1.000000000000000E+20
 35
-1.000000000000000E+20
146
0.0
 13
0.0
 23
0.0
 33
0.0
 16
1.0
 26
0.0
 36
0.0
 17
0.0
 27
1.0
 37
0.0
 76
     0
330
1B
  0
LAYOUT
  5
10055
102
{ACAD_REACTORS
330
10037
102
}
330
10037
100
AcDbPlotSettings
  1

  2
Microsoft Print to PDF
  4

  6

 40
0.0
 41
0.0
 42
0.0
 43
0.0
 44
0.0
 45
0.0
 46
0.0
 47
0.0
 48
0.0
 49
0.0
140
0.0
141
0.0
142
1.0
143
1.0
 70
  1712
 72
     0
 73
     0
 74
     0
  7

 75
     0
147
1.0
 76
     0
 77
     2
 78
   300
148
0.0
149
0.0
100
AcDbLayout
  1
Model
 70
     1
 71
     0
 10
0.0
 20
0.0
 11
12.0
 21
9.0
 12
0.0
 22
0.0
 32
0.0
 14
0.0
 24
0.0
 34
0.0
 15
0.0
 25
0.0
 35
0.0
146
0.0
 13
0.0
 23
0.0
 33
0.0
 16
1.0
 26
0.0
 36
0.0
 17
0.0
 27
1.0
 37
0.0
 76
     0
330
1F
331
10059
  0
MATERIAL
  5
1000D
102
{ACAD_XDICTIONARY
360
1000E
102
}
102
{ACAD_REACTORS
330
10004
102
}
330
10004
100
AcDbMaterial
  1
ByBlock
 72
     0
 43
0.0008202099737533
 43
0.0
 43
0.0
 43
0.0
 43
0.0
 43
0.0008202099737533
 43
0.0
 43
0.0
 43
0.0
 43
0.0
 43
1.0
 43
0.0
 43
0.0
 43
0.0
 43
0.0
 43
1.0
 77
     0
 47
0.0008202099737533
 47
0.0
 47
0.0
 47
0.0
 47
0.0
 47
0.0008202099737533
 47
0.0
 47
0.0
 47
0.0
 47
0.0
 47
1.0
 47
0.0
 47
0.0
 47
0.0
 47
0.0
 47
1.0
171
     0
 49
0.0008202099737533
 49
0.0
 49
0.0
 49
0.0
 49
0.0
 49
0.0008202099737533
 49
0.0
 49
0.0
 49
0.0
 49
0.0
 49
1.0
 49
0.0
 49
0.0
 49
0.0
 49
0.0
 49
1.0
175
     0
142
0.0008202099737533
142
0.0
142
0.0
142
0.0
142
0.0
142
0.0008202099737533
142
0.0
142
0.0
142
0.0
142
0.0
142
1.0
142
0.0
142
0.0
142
0.0
142
0.0
142
1.0
179
     0
144
0.0008202099737533
144
0.0
144
0.0
144
0.0
144
0.0
144
0.0008202099737533
144
0.0
144
0.0
144
0.0
144
0.0
144
1.0
144
0.0
144
0.0
144
0.0
144
0.0
144
1.0
147
0.0008202099737533
147
0.0
147
0.0
147
0.0
147
0.0
147
0.0008202099737533
147
0.0
147
0.0
147
0.0
147
0.0
147
1.0
147
0.0
147
0.0
147
0.0
147
0.0
147
1.0
  0
MATERIAL
  5
10005
102
{ACAD_XDICTIONARY
360
10006
102
}
102
{ACAD_REACTORS
330
10004
102
}
330
10004
100
AcDbMaterial
  1
ByLayer
 72
     0
 43
0.0008202099737533
 43
0.0
 43
0.0
 43
0.0
 43
0.0
 43
0.0008202099737533
 43
0.0
 43
0.0
 43
0.0
 43
0.0
 43
1.0
 43
0.0
 43
0.0
 43
0.0
 43
0.0
 43
1.0
 77
     0
 47
0.0008202099737533
 47
0.0
 47
0.0
 47
0.0
 47
0.0
 47
0.0008202099737533
 47
0.0
 47
0.0
 47
0.0
 47
0.0
 47
1.0
 47
0.0
 47
0.0
 47
0.0
 47
0.0
 47
1.0
171
     0
 49
0.0008202099737533
 49
0.0
 49
0.0
 49
0.0
 49
0.0
 49
0.0008202099737533
 49
0.0
 49
0.0
 49
0.0
 49
0.0
 49
1.0
 49
0.0
 49
0.0
 49
0.0
 49
0.0
 49
1.0
175
     0
142
0.0008202099737533
142
0.0
142
0.0
142
0.0
142
0.0
142
0.0008202099737533
142
0.0
142
0.0
142
0.0
142
0.0
142
1.0
142
0.0
142
0.0
142
0.0
142
0.0
142
1.0
179
     0
144
0.0008202099737533
144
0.0
144
0.0
144
0.0
144
0.0
144
0.0008202099737533
144
0.0
144
0.0
144
0.0
144
0.0
144
1.0
144
0.0
144
0.0
144
0.0
144
0.0
144
1.0
147
0.0008202099737533
147
0.0
147
0.0
147
0.0
147
0.0
147
0.0008202099737533
147
0.0
147
0.0
147
0.0
147
0.0
147
1.0
147
0.0
147
0.0
147
0.0
147
0.0
147
1.0
  0
MATERIAL
  5
10015
102
{ACAD_XDICTIONARY
360
10016
102
}
102
{ACAD_REACTORS
330
10004
102
}
330
10004
100
AcDbMaterial
  1
Global
 72
     0
 43
0.0008202099737533
 43
0.0
 43
0.0
 43
0.0
 43
0.0
 43
0.0008202099737533
 43
0.0
 43
0.0
 43
0.0
 43
0.0
 43
1.0
 43
0.0
 43
0.0
 43
0.0
 43
0.0
 43
1.0
 77
     0
 47
0.0008202099737533
 47
0.0
 47
0.0
 47
0.0
 47
0.0
 47
0.0008202099737533
 47
0.0
 47
0.0
 47
0.0
 47
0.0
 47
1.0
 47
0.0
 47
0.0
 47
0.0
 47
0.0
 47
1.0
171
     0
 49
0.0008202099737533
 49
0.0
 49
0.0
 49
0.0
 49
0.0
 49
0.0008202099737533
 49
0.0
 49
0.0
 49
0.0
 49
0.0
 49
1.0
 49
0.0
 49
0.0
 49
0.0
 49
0.0
 49
1.0
175
     0
142
0.0008202099737533
142
0.0
142
0.0
142
0.0
142
0.0
142
0.0008202099737533
142
0.0
142
0.0
142
0.0
142
0.0
142
1.0
142
0.0
142
0.0
142
0.0
142
0.0
142
1.0
179
     0
144
0.0008202099737533
144
0.0
144
0.0
144
0.0
144
0.0
144
0.0008202099737533
144
0.0
144
0.0
144
0.0
144
0.0
144
1.0
144
0.0
144
0.0
144
0.0
144
0.0
144
1.0
147
0.0008202099737533
147
0.0
147
0.0
147
0.0
147
0.0
147
0.0008202099737533
147
0.0
147
0.0
147
0.0
147
0.0
147
1.0
147
0.0
147
0.0
147
0.0
147
0.0
147
1.0
  0
MLEADERSTYLE
  5
1004E
102
{ACAD_REACTORS
330
1004D
102
}
330
1004D
100
AcDbMLeaderStyle
179
     2
170
     2
171
     1
172
     0
 90
        2
 40
0.0
 41
0.0
173
     1
 91
-1056964608
340
14
 92
       -2
290
     1
 42
0.09
291
     1
 43
0.36
  3
Standard
 44
0.18
300

342
11
174
     1
178
     6
175
     1
176
     0
 93
-1056964608
 45
0.18
292
     0
297
     0
 46
0.18
 94
-1056964608
 47
1.0
 49
1.0
140
1.0
293
     1
141
0.0
294
     1
177
     0
142
1.0
295
     0
296
     0
143
0.125
271
     0
272
     9
273
     9
298
     0
  0
MLINESTYLE
  5
1003A
102
{ACAD_REACTORS
330
17
102
}
330
17
100
AcDbMlineStyle
  2
STANDARD
 70
     0
  3

 62
   256
 51
90.0
 52
90.0
 71
     2
 49
0.5
 62
   256
  6
BYLAYER
 49
-0.5
 62
   256
  6
BYLAYER
  0
ACDBPLACEHOLDER
  5
10003
102
{ACAD_REACTORS
330
10002
102
}
330
10002
  0
SCALE
  5
1003C
102
{ACAD_REACTORS
330
1003B
102
}
330
1003B
100
AcDbScale
 70
     0
300
1:1
140
1.0
141
1.0
290
     1
  0
SCALE
  5
1003D
102
{ACAD_REACTORS
330
1003B
102
}
330
1003B
100
AcDbScale
 70
     0
300
1/128" = 1'-0"
140
0.0078125
141
12.0
290
     0
  0
SCALE
  5
1003E
102
{ACAD_REACTORS
330
1003B
102
}
330
1003B
100
AcDbScale
 70
     0
300
1/64" = 1'-0"
140
0.015625
141
12.0
290
     0
  0
SCALE
  5
1003F
102
{ACAD_REACTORS
330
1003B
102
}
330
1003B
100
AcDbScale
 70
     0
300
1/32" = 1'-0"
140
0.03125
141
12.0
290
     0
  0
SCALE
  5
10040
102
{ACAD_REACTORS
330
1003B
102
}
330
1003B
100
AcDbScale
 70
     0
300
1/16" = 1'-0"
140
0.0625
141
12.0
290
     0
  0
SCALE
  5
10041
102
{ACAD_REACTORS
330
1003B
102
}
330
1003B
100
AcDbScale
 70
     0
300
3/32" = 1'-0"
140
0.09375
141
12.0
290
     0
  0
SCALE
  5
10042
102
{ACAD_REACTORS
330
1003B
102
}
330
1003B
100
AcDbScale
 70
     0
300
1/8" = 1'-0"
140
0.125
141
12.0
290
     0
  0
SCALE
  5
10043
102
{ACAD_REACTORS
330
1003B
102
}
330
1003B
100
AcDbScale
 70
     0
300
3/16" = 1'-0"
140
0.1875
141
12.0
290
     0
  0
SCALE
  5
10044
102
{ACAD_REACTORS
330
1003B
102
}
330
1003B
100
AcDbScale
 70
     0
300
1/4" = 1'-0"
140
0.25
141
12.0
290
     0
  0
SCALE
  5
10045
102
{ACAD_REACTORS
330
1003B
102
}
330
1003B
100
AcDbScale
 70
     0
300
3/8" = 1'-0"
140
0.375
141
12.0
290
     0
  0
SCALE
  5
10046
102
{ACAD_REACTORS
330
1003B
102
}
330
1003B
100
AcDbScale
 70
     0
300
1/2" = 1'-0"
140
0.5
141
12.0
290
     0
  0
SCALE
  5
10047
102
{ACAD_REACTORS
330
1003B
102
}
330
1003B
100
AcDbScale
 70
     0
300
3/4" = 1'-0"
140
0.75
141
12.0
290
     0
  0
SCALE
  5
10048
102
{ACAD_REACTORS
330
1003B
102
}
330
1003B
100
AcDbScale
 70
     0
300
1" = 1'-0"
140
1.0
141
12.0
290
     0
  0
SCALE
  5
10049
102
{ACAD_REACTORS
330
1003B
102
}
330
1003B
100
AcDbScale
 70
     0
300
1-1/2" = 1'-0"
140
1.5
141
12.0
290
     0
  0
SCALE
  5
1004A
102
{ACAD_REACTORS
330
1003B
102
}
330
1003B
100
AcDbScale
 70
     0
300
3" = 1'-0"
140
3.0
141
12.0
290
     0
  0
SCALE
  5
1004B
102
{ACAD_REACTORS
330
1003B
102
}
330
1003B
100
AcDbScale
 70
     0
300
6" = 1'-0"
140
6.0
141
12.0
290
     0
  0
SCALE
  5
1004C
102
{ACAD_REACTORS
330
1003B
102
}
330
1003B
100
AcDbScale
 70
     0
300
1'-0" = 1'-0"
140
12.0
141
12.0
290
     0
  0
ACDBSECTIONVIEWSTYLE
  5
10050
102
{ACAD_REACTORS
330
1004F
102
}
330
1004F
100
AcDbModelDocViewStyle
 70
     0
  3
Imperial24
290
     0
300
Imperial24
 90
        0
100
AcDbSectionViewStyle
 70
     0
 71
     0
 90
       78
 71
     1
340
11
 62
   256
 40
0.24
340
0
340
0
 62
   256
 40
0.24
300
I, O, Q, S, X, Z
 40
0.48
 90
        3
 40
0.18
 90
        1
 71
     2
340
0
 90
       25
 62
   256
340
0
 90
       50
 62
   256
 40
0.24
 40
0.0
 40
0.24
 71
     3
340
11
 62
   256
 40
0.24
 90
        1
 40
0.75
 90
        1
300
%<\AcVar ViewType \f "%tc1">% %<\AcVar ViewSectionStartId>%-%<\AcVar ViewSectionEndId>%\PSCALE %<\AcVar ViewScale \f "%sn">%
 71
     4
 62
   256
 62
   257
300
ANSI31
 40
1.0
 90
        0
290
     0
290
     0
 90
        6
 40
0.0
 40
1.570796326794896
 40
0.2617993877991494
 40
1.308996938995747
 40
-0.2617993877991494
 40
1.832595714594046
  0
TABLESTYLE
  5
10039
102
{ACAD_XDICTIONARY
360
10067
102
}
102
{ACAD_REACTORS
330
10038
102
}
330
10038
100
AcDbTableStyle
280
     0
  3
Standard
 70
     0
 71
     0
 40
0.06
 41
0.06
280
     0
281
     0
  7
STANDARD
140
0.18
170
     2
 62
     0
 63
     7
283
     0
 90
      512
 91
        0
  1

274
    -2
284
     1
 64
     0
275
    -2
285
     1
 65
     0
276
    -2
286
     1
 66
     0
277
    -2
287
     1
 67
     0
278
    -2
288
     1
 68
     0
279
    -2
289
     1
 69
     0
  7
STANDARD
140
0.25
170
     5
 62
     0
 63
     7
283
     0
 90
      512
 91
        0
  1

274
    -2
284
     1
 64
     0
275
    -2
285
     1
 65
     0
276
    -2
286
     1
 66
     0
277
    -2
287
     1
 67
     0
278
    -2
288
     1
 68
     0
279
    -2
289
     1
 69
     0
  7
STANDARD
140
0.18
170
     5
 62
     0
 63
     7
283
     0
 90
      512
 91
        0
  1

274
    -2
284
     1
 64
     0
275
    -2
285
     1
 65
     0
276
    -2
286
     1
 66
     0
277
    -2
287
     1
 67
     0
278
    -2
288
     1
 68
     0
279
    -2
289
     1
 69
     0
  0
VISUALSTYLE
  5
10023
102
{ACAD_REACTORS
330
1001D
102
}
330
1001D
100
AcDbVisualStyle
  2
2dWireframe
 70
     4
177
     3
291
     0
 70
    58
 90
        0
176
     1
 90
        2
176
     1
 90
        0
176
     1
 90
        0
176
     1
 40
0.6
176
     1
 40
30.0
176
     1
 62
     7
420
 16777215
176
     1
 90
        1
176
     1
 90
        4
176
     1
 62
     7
176
     1
 62
   257
176
     1
 90
        1
176
     1
 90
        1
176
     1
 40
1.0
176
     1
 90
        0
176
     1
 62
   257
176
     1
 40
1.0
176
     1
 90
        1
176
     1
 90
        6
176
     1
 90
        2
176
     1
 62
     7
176
     1
 90
        5
176
     1
 90
        0
176
     1
 90
        0
176
     1
290
     0
176
     1
 90
        1
176
     1
 40
0.0
176
     1
 90
        0
176
     1
290
     1
176
     1
290
     1
176
     1
290
     0
176
     1
290
     0
176
     1
290
     0
176
     1
290
     0
176
     1
290
     0
176
     1
290
     0
176
     1
290
     0
176
     1
 90
       50
176
     1
 40
0.0
176
     1
 40
1.0
176
     1
 90
        0
176
     1
 62
    18
420
        0
176
     1
 90
       50
176
     1
 90
        3
176
     1
 62
     5
420
      255
176
     1
290
     0
176
     1
 90
       50
176
     1
 90
       50
176
     1
 90
       50
176
     1
290
     0
176
     1
 90
       50
176
     1
 62
   256
176
     0
 40
1.0
176
     0
 90
        2
176
     1
  1
strokes_ogs.tif
176
     1
290
     0
176
     1
 40
1.0
176
     1
 40
1.0
176
     1
  0
VISUALSTYLE
  5
10022
102
{ACAD_REACTORS
330
1001D
102
}
330
1001D
100
AcDbVisualStyle
  2
Basic
 70
     7
177
     3
291
     1
 70
    58
 90
        1
176
     1
 90
        0
176
     1
 90
        1
176
     1
 90
        0
176
     1
 40
0.6
176
     1
 40
30.0
176
     1
 62
     7
420
 16777215
176
     1
 90
        0
176
     1
 90
        4
176
     1
 62
     7
176
     1
 62
   257
176
     1
 90
        1
176
     1
 90
        1
176
     1
 40
1.0
176
     1
 90
        8
176
     1
 62
     7
176
     1
 40
1.0
176
     1
 90
        1
176
     1
 90
        6
176
     1
 90
        2
176
     1
 62
     7
176
     1
 90
        5
176
     1
 90
        0
176
     1
 90
        0
176
     1
290
     0
176
     1
 90
        1
176
     1
 40
0.0
176
     1
 90
        0
176
     1
290
     0
176
     1
290
     1
176
     1
290
     1
176
     1
290
     0
176
     1
290
     0
176
     1
290
     0
176
     1
290
     0
176
     1
290
     0
176
     1
290
     0
176
     1
 90
       50
176
     1
 40
0.0
176
     1
 40
1.0
176
     1
 90
        0
176
     1
 62
    18
420
        0
176
     1
 90
       50
176
     1
 90
        3
176
     1
 62
     5
420
      255
176
     1
290
     0
176
     1
 90
       50
176
     1
 90
       50
176
     1
 90
       50
176
     1
290
     0
176
     1
 90
       50
176
     1
 62
   256
176
     0
 40
1.0
176
     0
 90
        2
176
     1
  1
strokes_ogs.tif
176
     1
290
     0
176
     1
 40
1.0
176
     1
 40
1.0
176
     1
  0
VISUALSTYLE
  5
10029
102
{ACAD_REACTORS
330
1001D
102
}
330
1001D
100
AcDbVisualStyle
  2
Brighten
 70
    12
177
     3
291
     1
 70
    58
 90
        2
176
     1
 90
        2
176
     1
 90
        0
176
     1
 90
        0
176
     1
 40
0.6
176
     1
 40
30.0
176
     1
 62
     7
420
 16777215
176
     1
 90
        1
176
     1
 90
        4
176
     1
 62
     7
176
     1
 62
   257
176
     1
 90
        1
176
     1
 90
        1
176
     1
 40
1.0
176
     1
 90
        8
176
     1
 62
     7
176
     1
 40
1.0
176
     1
 90
        1
176
     1
 90
        6
176
     1
 90
        2
176
     1
 62
     7
176
     1
 90
        5
176
     1
 90
        0
176
     1
 90
        0
176
     1
290
     0
176
     1
 90
        1
176
     1
 40
50.0
176
     1
 90
        0
176
     1
290
     0
176
     1
290
     1
176
     1
290
     1
176
     1
290
     0
176
     1
290
     0
176
     1
290
     0
176
     1
290
     0
176
     1
290
     0
176
     1
290
     0
176
     1
 90
       50
176
     1
 40
0.0
176
     1
 40
1.0
176
     1
 90
        0
176
     1
 62
    18
420
        0
176
     1
 90
       50
176
     1
 90
        3
176
     1
 62
     5
420
      255
176
     1
290
     0
176
     1
 90
       50
176
     1
 90
       50
176
     1
 90
       50
176
     1
290
     0
176
     1
 90
       50
176
     1
 62
   256
176
     0
 40
1.0
176
     0
 90
        2
176
     1
  1
strokes_ogs.tif
176
     1
290
     0
176
     1
 40
1.0
176
     1
 40
1.0
176
     1
  0
VISUALSTYLE
  5
1002D
102
{ACAD_REACTORS
330
1001D
102
}
330
1001D
100
AcDbVisualStyle
  2
ColorChange
 70
    16
177
     3
291
     1
 70
    58
 90
        2
176
     1
 90
        2
176
     1
 90
        3
176
     1
 90
        0
176
     1
 40
0.6
176
     1
 40
30.0
176
     1
 62
     8
420
  8421504
176
     1
 90
        1
176
     1
 90
        4
176
     1
 62
     7
176
     1
 62
   257
176
     1
 90
        1
176
     1
 90
        1
176
     1
 40
1.0
176
     1
 90
        8
176
     1
 62
     8
420
  8421504
176
     1
 40
1.0
176
     1
 90
        1
176
     1
 90
        6
176
     1
 90
        2
176
     1
 62
     7
176
     1
 90
        5
176
     1
 90
        0
176
     1
 90
        0
176
     1
290
     0
176
     1
 90
        1
176
     1
 40
0.0
176
     1
 90
        0
176
     1
290
     0
176
     1
290
     1
176
     1
290
     1
176
     1
290
     0
176
     1
290
     0
176
     1
290
     0
176
     1
290
     0
176
     1
290
     0
176
     1
290
     0
176
     1
 90
       50
176
     1
 40
0.0
176
     1
 40
1.0
176
     1
 90
        0
176
     1
 62
    18
420
        0
176
     1
 90
       50
176
     1
 90
        3
176
     1
 62
     5
420
      255
176
     1
290
     0
176
     1
 90
       50
176
     1
 90
       50
176
     1
 90
       50
176
     1
290
     0
176
     1
 90
       50
176
     1
 62
   256
176
     0
 40
1.0
176
     0
 90
        2
176
     1
  1
strokes_ogs.tif
176
     1
290
     0
176
     1
 40
1.0
176
     1
 40
1.0
176
     1
  0
VISUALSTYLE
  5
10026
102
{ACAD_REACTORS
330
1001D
102
}
330
1001D
100
AcDbVisualStyle
  2
Conceptual
 70
     9
177
     3
291
     0
 70
    58
 90
        3
176
     1
 90
        2
176
     1
 90
        0
176
     1
 90
        0
176
     1
 40
0.6
176
     1
 40
30.0
176
     1
 62
     7
420
 16777215
176
     1
 90
        2
176
     1
 90
        2
176
     1
 62
     7
176
     1
 62
   257
176
     1
 90
        1
176
     1
 90
        1
176
     1
 40
179.0
176
     1
 90
        8
176
     1
 62
     7
176
     1
 40
1.0
176
     1
 90
        1
176
     1
 90
        6
176
     1
 90
        2
176
     1
 62
     7
176
     1
 90
        3
176
     1
 90
        0
176
     1
 90
        0
176
     1
290
     0
176
     1
 90
        1
176
     1
 40
0.0
176
     1
 90
        0
176
     1
290
     0
176
     1
290
     1
176
     1
290
     1
176
     1
290
     0
176
     1
290
     0
176
     1
290
     0
176
     1
290
     0
176
     1
290
     0
176
     1
290
     0
176
     1
 90
       50
176
     1
 40
0.0
176
     1
 40
1.0
176
     1
 90
        0
176
     1
 62
    18
420
        0
176
     1
 90
       50
176
     1
 90
        3
176
     1
 62
     5
420
      255
176
     1
290
     0
176
     1
 90
       50
176
     1
 90
       50
176
     1
 90
       50
176
     1
290
     0
176
     1
 90
       50
176
     1
 62
   256
176
     0
 40
1.0
176
     0
 90
        2
176
     1
  1
strokes_ogs.tif
176
     1
290
     0
176
     1
 40
1.0
176
     1
 40
1.0
176
     1
  0
VISUALSTYLE
  5
10028
102
{ACAD_REACTORS
330
1001D
102
}
330
1001D
100
AcDbVisualStyle
  2
Dim
 70
    11
177
     3
291
     1
 70
    58
 90
        2
176
     1
 90
        2
176
     1
 90
        0
176
     1
 90
        0
176
     1
 40
0.6
176
     1
 40
30.0
176
     1
 62
     7
420
 16777215
176
     1
 90
        1
176
     1
 90
        4
176
     1
 62
     7
176
     1
 62
   257
176
     1
 90
        1
176
     1
 90
        1
176
     1
 40
1.0
176
     1
 90
        8
176
     1
 62
     7
176
     1
 40
1.0
176
     1
 90
        1
176
     1
 90
        6
176
     1
 90
        2
176
     1
 62
     7
176
     1
 90
        5
176
     1
 90
        0
176
     1
 90
        0
176
     1
290
     0
176
     1
 90
        1
176
     1
 40
-50.0
176
     1
 90
        0
176
     1
290
     0
176
     1
290
     1
176
     1
290
     1
176
     1
290
     0
176
     1
290
     0
176
     1
290
     0
176
     1
290
     0
176
     1
290
     0
176
     1
290
     0
176
     1
 90
       50
176
     1
 40
0.0
176
     1
 40
1.0
176
     1
 90
        0
176
     1
 62
    18
420
        0
176
     1
 90
       50
176
     1
 90
        3
176
     1
 62
     5
420
      255
176
     1
290
     0
176
     1
 90
       50
176
     1
 90
       50
176
     1
 90
       50
176
     1
290
     0
176
     1
 90
       50
176
     1
 62
   256
176
     0
 40
1.0
176
     0
 90
        2
176
     1
  1
strokes_ogs.tif
176
     1
290
     0
176
     1
 40
1.0
176
     1
 40
1.0
176
     1
  0
VISUALSTYLE
  5
10035
102
{ACAD_REACTORS
330
1001D
102
}
330
1001D
100
AcDbVisualStyle
  2
EdgeColorOff
 70
    22
177
     3
291
     1
 70
    58
 90
        2
176
     0
 90
        2
176
     0
 90
        0
176
     0
 90
        0
176
     0
 40
0.6
176
     0
 40
30.0
176
     0
 62
     7
420
 16777215
176
     0
 90
        1
176
     0
 90
        4
176
     0
 62
     7
176
     0
 62
   257
176
     0
 90
        1
176
     0
 90
        1
176
     0
 40
1.0
176
     0
 90
        8
176
     2
 62
     7
176
     0
 40
1.0
176
     0
 90
        1
176
     0
 90
        6
176
     0
 90
        2
176
     0
 62
     7
176
     0
 90
        5
176
     0
 90
        0
176
     0
 90
        0
176
     0
290
     0
176
     0
 90
        1
176
     0
 40
0.0
176
     0
 90
        0
176
     0
290
     0
176
     1
290
     1
176
     1
290
     1
176
     1
290
     0
176
     1
290
     0
176
     1
290
     0
176
     1
290
     0
176
     1
290
     0
176
     1
290
     0
176
     1
 90
       50
176
     0
 40
0.0
176
     0
 40
1.0
176
     0
 90
        0
176
     0
 62
    18
420
        0
176
     0
 90
       50
176
     0
 90
        3
176
     0
 62
     5
420
      255
176
     0
290
     0
176
     1
 90
       50
176
     0
 90
       50
176
     0
 90
       50
176
     0
290
     0
176
     1
 90
       50
176
     0
 62
   256
176
     0
 40
1.0
176
     0
 90
        2
176
     0
  1
strokes_ogs.tif
176
     0
290
     0
176
     1
 40
1.0
176
     0
 40
1.0
176
     0
  0
VISUALSTYLE
  5
1002C
102
{ACAD_REACTORS
330
1001D
102
}
330
1001D
100
AcDbVisualStyle
  2
Facepattern
 70
    15
177
     3
291
     1
 70
    58
 90
        2
176
     1
 90
        2
176
     1
 90
        0
176
     1
 90
        0
176
     1
 40
0.6
176
     1
 40
30.0
176
     1
 62
     7
420
 16777215
176
     1
 90
        1
176
     1
 90
        4
176
     1
 62
     7
176
     1
 62
   257
176
     1
 90
        1
176
     1
 90
        1
176
     1
 40
1.0
176
     1
 90
        8
176
     1
 62
     7
176
     1
 40
1.0
176
     1
 90
        1
176
     1
 90
        6
176
     1
 90
        2
176
     1
 62
     7
176
     1
 90
        5
176
     1
 90
        0
176
     1
 90
        0
176
     1
290
     0
176
     1
 90
        1
176
     1
 40
0.0
176
     1
 90
        0
176
     1
290
     0
176
     1
290
     1
176
     1
290
     1
176
     1
290
     0
176
     1
290
     0
176
     1
290
     0
176
     1
290
     0
176
     1
290
     0
176
     1
290
     0
176
     1
 90
       50
176
     1
 40
0.0
176
     1
 40
1.0
176
     1
 90
        0
176
     1
 62
    18
420
        0
176
     1
 90
       50
176
     1
 90
        3
176
     1
 62
     5
420
      255
176
     1
290
     0
176
     1
 90
       50
176
     1
 90
       50
176
     1
 90
       50
176
     1
290
     0
176
     1
 90
       50
176
     1
 62
   256
176
     0
 40
1.0
176
     0
 90
        2
176
     1
  1
strokes_ogs.tif
176
     1
290
     0
176
     1
 40
1.0
176
     1
 40
1.0
176
     1
  0
VISUALSTYLE
  5
1001E
102
{ACAD_REACTORS
330
1001D
102
}
330
1001D
100
AcDbVisualStyle
  2
Flat
 70
     0
177
     3
291
     1
 70
    58
 90
        2
176
     1
 90
        1
176
     1
 90
        1
176
     1
 90
        2
176
     1
 40
0.6
176
     1
 40
30.0
176
     1
 62
     7
420
 16777215
176
     1
 90
        0
176
     1
 90
        0
176
     1
 62
     7
176
     1
 62
   257
176
     1
 90
        1
176
     1
 90
        1
176
     1
 40
1.0
176
     1
 90
        8
176
     1
 62
     7
176
     1
 40
1.0
176
     1
 90
        1
176
     1
 90
        6
176
     1
 90
        2
176
     1
 62
     7
176
     1
 90
        5
176
     1
 90
        0
176
     1
 90
        0
176
     1
290
     0
176
     1
 90
       13
176
     1
 40
0.0
176
     1
 90
        0
176
     1
290
     0
176
     1
290
     1
176
     1
290
     1
176
     1
290
     0
176
     1
290
     0
176
     1
290
     0
176
     1
290
     0
176
     1
290
     0
176
     1
290
     0
176
     1
 90
       50
176
     1
 40
0.0
176
     1
 40
1.0
176
     1
 90
        0
176
     1
 62
    18
420
        0
176
     1
 90
       50
176
     1
 90
        3
176
     1
 62
     5
420
      255
176
     1
290
     0
176
     1
 90
       50
176
     1
 90
       50
176
     1
 90
       50
176
     1
290
     0
176
     1
 90
       50
176
     1
 62
   256
176
     0
 40
1.0
176
     0
 90
        2
176
     1
  1
strokes_ogs.tif
176
     1
290
     0
176
     1
 40
1.0
176
     1
 40
1.0
176
     1
  0
VISUALSTYLE
  5
1001F
102
{ACAD_REACTORS
330
1001D
102
}
330
1001D
100
AcDbVisualStyle
  2
FlatWithEdges
 70
     1
177
     3
291
     1
 70
    58
 90
        2
176
     1
 90
        1
176
     1
 90
        1
176
     1
 90
        2
176
     1
 40
0.6
176
     1
 40
30.0
176
     1
 62
     7
420
 16777215
176
     1
 90
        1
176
     1
 90
        0
176
     1
 62
     7
176
     1
 62
   257
176
     1
 90
        1
176
     1
 90
        1
176
     1
 40
1.0
176
     1
 90
        0
176
     1
 62
   257
176
     1
 40
1.0
176
     1
 90
        1
176
     1
 90
        6
176
     1
 90
        2
176
     1
 62
     7
176
     1
 90
        5
176
     1
 90
        0
176
     1
 90
        0
176
     1
290
     0
176
     1
 90
       13
176
     1
 40
0.0
176
     1
 90
        0
176
     1
290
     0
176
     1
290
     1
176
     1
290
     1
176
     1
290
     0
176
     1
290
     0
176
     1
290
     0
176
     1
290
     0
176
     1
290
     0
176
     1
290
     0
176
     1
 90
       50
176
     1
 40
0.0
176
     1
 40
1.0
176
     1
 90
        0
176
     1
 62
    18
420
        0
176
     1
 90
       50
176
     1
 90
        3
176
     1
 62
     5
420
      255
176
     1
290
     0
176
     1
 90
       50
176
     1
 90
       50
176
     1
 90
       50
176
     1
290
     0
176
     1
 90
       50
176
     1
 62
   256
176
     0
 40
1.0
176
     0
 90
        2
176
     1
  1
strokes_ogs.tif
176
     1
290
     0
176
     1
 40
1.0
176
     1
 40
1.0
176
     1
  0
VISUALSTYLE
  5
10020
102
{ACAD_REACTORS
330
1001D
102
}
330
1001D
100
AcDbVisualStyle
  2
Gouraud
 70
     2
177
     3
291
     1
 70
    58
 90
        2
176
     1
 90
        2
176
     1
 90
        1
176
     1
 90
        2
176
     1
 40
0.6
176
     1
 40
30.0
176
     1
 62
     7
420
 16777215
176
     1
 90
        0
176
     1
 90
        0
176
     1
 62
     7
176
     1
 62
   257
176
     1
 90
        1
176
     1
 90
        1
176
     1
 40
1.0
176
     1
 90
        0
176
     1
 62
     7
176
     1
 40
1.0
176
     1
 90
        1
176
     1
 90
        6
176
     1
 90
        2
176
     1
 62
     7
176
     1
 90
        5
176
     1
 90
        0
176
     1
 90
        0
176
     1
290
     0
176
     1
 90
       13
176
     1
 40
0.0
176
     1
 90
        0
176
     1
290
     0
176
     1
290
     1
176
     1
290
     1
176
     1
290
     0
176
     1
290
     0
176
     1
290
     0
176
     1
290
     0
176
     1
290
     0
176
     1
290
     0
176
     1
 90
       50
176
     1
 40
0.0
176
     1
 40
1.0
176
     1
 90
        0
176
     1
 62
    18
420
        0
176
     1
 90
       50
176
     1
 90
        3
176
     1
 62
     5
420
      255
176
     1
290
     0
176
     1
 90
       50
176
     1
 90
       50
176
     1
 90
       50
176
     1
290
     0
176
     1
 90
       50
176
     1
 62
   256
176
     0
 40
1.0
176
     0
 90
        2
176
     1
  1
strokes_ogs.tif
176
     1
290
     0
176
     1
 40
1.0
176
     1
 40
1.0
176
     1
  0
VISUALSTYLE
  5
10021
102
{ACAD_REACTORS
330
1001D
102
}
330
1001D
100
AcDbVisualStyle
  2
GouraudWithEdges
 70
     3
177
     3
291
     1
 70
    58
 90
        2
176
     1
 90
        2
176
     1
 90
        1
176
     1
 90
        2
176
     1
 40
0.6
176
     1
 40
30.0
176
     1
 62
     7
420
 16777215
176
     1
 90
        1
176
     1
 90
        0
176
     1
 62
     7
176
     1
 62
   257
176
     1
 90
        1
176
     1
 90
        1
176
     1
 40
1.0
176
     1
 90
        0
176
     1
 62
   257
176
     1
 40
1.0
176
     1
 90
        1
176
     1
 90
        6
176
     1
 90
        2
176
     1
 62
     7
176
     1
 90
        5
176
     1
 90
        0
176
     1
 90
        0
176
     1
290
     0
176
     1
 90
       13
176
     1
 40
0.0
176
     1
 90
        0
176
     1
290
     0
176
     1
290
     1
176
     1
290
     1
176
     1
290
     0
176
     1
290
     0
176
     1
290
     0
176
     1
290
     0
176
     1
290
     0
176
     1
290
     0
176
     1
 90
       50
176
     1
 40
0.0
176
     1
 40
1.0
176
     1
 90
        0
176
     1
 62
    18
420
        0
176
     1
 90
       50
176
     1
 90
        3
176
     1
 62
     5
420
      255
176
     1
290
     0
176
     1
 90
       50
176
     1
 90
       50
176
     1
 90
       50
176
     1
290
     0
176
     1
 90
       50
176
     1
 62
   256
176
     0
 40
1.0
176
     0
 90
        2
176
     1
  1
strokes_ogs.tif
176
     1
290
     0
176
     1
 40
1.0
176
     1
 40
1.0
176
     1
  0
VISUALSTYLE
  5
10025
102
{ACAD_REACTORS
330
1001D
102
}
330
1001D
100
AcDbVisualStyle
  2
Hidden
 70
     6
177
     3
291
     0
 70
    58
 90
        1
176
     1
 90
        2
176
     1
 90
        2
176
     1
 90
        0
176
     1
 40
0.6
176
     1
 40
30.0
176
     1
 62
     7
420
 16777215
176
     1
 90
        2
176
     1
 90
        2
176
     1
 62
     7
176
     1
 62
   257
176
     1
 90
        2
176
     1
 90
        1
176
     1
 40
40.0
176
     1
 90
        0
176
     1
 62
   257
176
     1
 40
1.0
176
     1
 90
        1
176
     1
 90
        6
176
     1
 90
        2
176
     1
 62
     7
176
     1
 90
        3
176
     1
 90
        0
176
     1
 90
        0
176
     1
290
     0
176
     1
 90
        1
176
     1
 40
0.0
176
     1
 90
        0
176
     1
290
     0
176
     1
290
     1
176
     1
290
     1
176
     1
290
     0
176
     1
290
     0
176
     1
290
     0
176
     1
290
     0
176
     1
290
     0
176
     1
290
     0
176
     1
 90
       50
176
     1
 40
0.0
176
     1
 40
1.0
176
     1
 90
        0
176
     1
 62
    18
420
        0
176
     1
 90
       50
176
     1
 90
        3
176
     1
 62
     5
420
      255
176
     1
290
     0
176
     1
 90
       50
176
     1
 90
       50
176
     1
 90
       50
176
     1
290
     0
176
     1
 90
       50
176
     1
 62
   256
176
     0
 40
1.0
176
     0
 90
        2
176
     1
  1
strokes_ogs.tif
176
     1
290
     0
176
     1
 40
1.0
176
     1
 40
1.0
176
     1
  0
VISUALSTYLE
  5
10033
102
{ACAD_REACTORS
330
1001D
102
}
330
1001D
100
AcDbVisualStyle
  2
JitterOff
 70
    20
177
     3
291
     1
 70
    58
 90
        2
176
     0
 90
        2
176
     0
 90
        0
176
     0
 90
        0
176
     0
 40
0.6
176
     0
 40
30.0
176
     0
 62
     7
420
 16777215
176
     0
 90
        1
176
     0
 90
        4
176
     0
 62
     7
176
     0
 62
   257
176
     0
 90
        1
176
     0
 90
        1
176
     0
 40
1.0
176
     0
 90
       10
176
     2
 62
     7
176
     0
 40
1.0
176
     0
 90
        1
176
     0
 90
        6
176
     0
 90
        2
176
     0
 62
     7
176
     0
 90
        5
176
     0
 90
        0
176
     0
 90
        0
176
     0
290
     0
176
     0
 90
        1
176
     0
 40
0.0
176
     0
 90
        0
176
     0
290
     0
176
     1
290
     1
176
     1
290
     1
176
     1
290
     0
176
     1
290
     0
176
     1
290
     0
176
     1
290
     0
176
     1
290
     0
176
     1
290
     0
176
     1
 90
       50
176
     0
 40
0.0
176
     0
 40
1.0
176
     0
 90
        0
176
     0
 62
    18
420
        0
176
     0
 90
       50
176
     0
 90
        3
176
     0
 62
     5
420
      255
176
     0
290
     0
176
     1
 90
       50
176
     0
 90
       50
176
     0
 90
       50
176
     0
290
     0
176
     1
 90
       50
176
     0
 62
   256
176
     0
 40
1.0
176
     0
 90
        2
176
     0
  1
strokes_ogs.tif
176
     0
290
     0
176
     1
 40
1.0
176
     0
 40
1.0
176
     0
  0
VISUALSTYLE
  5
1002B
102
{ACAD_REACTORS
330
1001D
102
}
330
1001D
100
AcDbVisualStyle
  2
Linepattern
 70
    14
177
     3
291
     1
 70
    58
 90
        2
176
     1
 90
        2
176
     1
 90
        0
176
     1
 90
        0
176
     1
 40
0.6
176
     1
 40
30.0
176
     1
 62
     7
420
 16777215
176
     1
 90
        1
176
     1
 90
        4
176
     1
 62
     7
176
     1
 62
   257
176
     1
 90
        7
176
     1
 90
        7
176
     1
 40
1.0
176
     1
 90
        8
176
     1
 62
     7
176
     1
 40
1.0
176
     1
 90
        1
176
     1
 90
        6
176
     1
 90
        2
176
     1
 62
     7
176
     1
 90
        5
176
     1
 90
        0
176
     1
 90
        0
176
     1
290
     0
176
     1
 90
        1
176
     1
 40
0.0
176
     1
 90
        0
176
     1
290
     0
176
     1
290
     1
176
     1
290
     1
176
     1
290
     0
176
     1
290
     0
176
     1
290
     0
176
     1
290
     0
176
     1
290
     0
176
     1
290
     0
176
     1
 90
       50
176
     1
 40
0.0
176
     1
 40
1.0
176
     1
 90
        0
176
     1
 62
    18
420
        0
176
     1
 90
       50
176
     1
 90
        3
176
     1
 62
     5
420
      255
176
     1
290
     0
176
     1
 90
       50
176
     1
 90
       50
176
     1
 90
       50
176
     1
290
     0
176
     1
 90
       50
176
     1
 62
   256
176
     0
 40
1.0
176
     0
 90
        2
176
     1
  1
strokes_ogs.tif
176
     1
290
     0
176
     1
 40
1.0
176
     1
 40
1.0
176
     1
  0
VISUALSTYLE
  5
10034
102
{ACAD_REACTORS
330
1001D
102
}
330
1001D
100
AcDbVisualStyle
  2
OverhangOff
 70
    21
177
     3
291
     1
 70
    58
 90
        2
176
     0
 90
        2
176
     0
 90
        0
176
     0
 90
        0
176
     0
 40
0.6
176
     0
 40
30.0
176
     0
 62
     7
420
 16777215
176
     0
 90
        1
176
     0
 90
        4
176
     0
 62
     7
176
     0
 62
   257
176
     0
 90
        1
176
     0
 90
        1
176
     0
 40
1.0
176
     0
 90
        9
176
     2
 62
     7
176
     0
 40
1.0
176
     0
 90
        1
176
     0
 90
        6
176
     0
 90
        2
176
     0
 62
     7
176
     0
 90
        5
176
     0
 90
        0
176
     0
 90
        0
176
     0
290
     0
176
     0
 90
        1
176
     0
 40
0.0
176
     0
 90
        0
176
     0
290
     0
176
     1
290
     1
176
     1
290
     1
176
     1
290
     0
176
     1
290
     0
176
     1
290
     0
176
     1
290
     0
176
     1
290
     0
176
     1
290
     0
176
     1
 90
       50
176
     0
 40
0.0
176
     0
 40
1.0
176
     0
 90
        0
176
     0
 62
    18
420
        0
176
     0
 90
       50
176
     0
 90
        3
176
     0
 62
     5
420
      255
176
     0
290
     0
176
     1
 90
       50
176
     0
 90
       50
176
     0
 90
       50
176
     0
290
     0
176
     1
 90
       50
176
     0
 62
   256
176
     0
 40
1.0
176
     0
 90
        2
176
     0
  1
strokes_ogs.tif
176
     0
290
     0
176
     1
 40
1.0
176
     0
 40
1.0
176
     0
  0
VISUALSTYLE
  5
10027
102
{ACAD_REACTORS
330
1001D
102
}
330
1001D
100
AcDbVisualStyle
  2
Realistic
 70
     8
177
     3
291
     0
 70
    58
 90
        2
176
     1
 90
        3
176
     1
 90
        0
176
     1
 90
        2
176
     1
 40
0.6
176
     1
 40
30.0
176
     1
 62
     7
420
 16777215
176
     1
 90
        0
176
     1
 90
        0
176
     1
 62
     7
176
     1
 62
   257
176
     1
 90
        1
176
     1
 90
        1
176
     1
 40
1.0
176
     1
 90
        8
176
     1
 62
   257
176
     1
 40
1.0
176
     1
 90
        1
176
     1
 90
        6
176
     1
 90
        2
176
     1
 62
     7
176
     1
 90
        3
176
     1
 90
        0
176
     1
 90
        0
176
     1
290
     0
176
     1
 90
       13
176
     1
 40
0.0
176
     1
 90
        0
176
     1
290
     0
176
     1
290
     1
176
     1
290
     1
176
     1
290
     0
176
     1
290
     0
176
     1
290
     0
176
     1
290
     0
176
     1
290
     0
176
     1
290
     0
176
     1
 90
       50
176
     1
 40
0.0
176
     1
 40
1.0
176
     1
 90
        0
176
     1
 62
    18
420
        0
176
     1
 90
       50
176
     1
 90
        3
176
     1
 62
     5
420
      255
176
     1
290
     0
176
     1
 90
       50
176
     1
 90
       50
176
     1
 90
       50
176
     1
290
     0
176
     1
 90
       50
176
     1
 62
   256
176
     0
 40
1.0
176
     0
 90
        2
176
     1
  1
strokes_ogs.tif
176
     1
290
     0
176
     1
 40
1.0
176
     1
 40
1.0
176
     1
  0
VISUALSTYLE
  5
10032
102
{ACAD_REACTORS
330
1001D
102
}
330
1001D
100
AcDbVisualStyle
  2
Shaded
 70
    27
177
     3
291
     0
 70
    58
 90
        2
176
     1
 90
        2
176
     1
 90
        1
176
     1
 90
        2
176
     1
 40
0.6
176
     1
 40
30.0
176
     1
 62
     7
420
 16777215
176
     1
 90
        0
176
     1
 90
        4
176
     1
 62
     7
176
     1
 62
   257
176
     1
 90
        1
176
     1
 90
        1
176
     1
 40
1.0
176
     1
 90
        8
176
     1
 62
   257
176
     1
 40
1.0
176
     1
 90
        1
176
     1
 90
        6
176
     1
 90
        2
176
     1
 62
     8
420
  7895160
176
     1
 90
        3
176
     1
 90
        0
176
     1
 90
        0
176
     1
290
     0
176
     1
 90
        5
176
     1
 40
0.0
176
     1
 90
        0
176
     1
290
     0
176
     1
290
     1
176
     1
290
     1
176
     1
290
     0
176
     1
290
     0
176
     1
290
     0
176
     1
290
     0
176
     1
290
     0
176
     1
290
     0
176
     1
 90
       50
176
     1
 40
0.0
176
     1
 40
1.0
176
     1
 90
        0
176
     1
 62
    18
420
        0
176
     1
 90
       50
176
     1
 90
        3
176
     1
 62
     5
420
      255
176
     1
290
     0
176
     1
 90
       50
176
     1
 90
       50
176
     1
 90
       50
176
     1
290
     0
176
     1
 90
       50
176
     1
 62
   256
176
     0
 40
1.0
176
     0
 90
        2
176
     1
  1
strokes_ogs.tif
176
     1
290
     0
176
     1
 40
1.0
176
     1
 40
1.0
176
     1
  0
VISUALSTYLE
  5
10031
102
{ACAD_REACTORS
330
1001D
102
}
330
1001D
100
AcDbVisualStyle
  2
Shaded with edges
 70
    26
177
     3
291
     0
 70
    58
 90
        2
176
     1
 90
        2
176
     1
 90
        1
176
     1
 90
        2
176
     1
 40
0.6
176
     1
 40
30.0
176
     1
 62
     7
420
 16777215
176
     1
 90
        1
176
     1
 90
        2
176
     1
 62
     7
176
     1
 62
   257
176
     1
 90
        2
176
     1
 90
        1
176
     1
 40
1.0
176
     1
 90
        8
176
     1
 62
   257
176
     1
 40
1.0
176
     1
 90
        1
176
     1
 90
        6
176
     1
 90
        2
176
     1
 62
     7
176
     1
 90
        3
176
     1
 90
        0
176
     1
 90
        0
176
     1
290
     0
176
     1
 90
        5
176
     1
 40
0.0
176
     1
 90
        0
176
     1
290
     0
176
     1
290
     1
176
     1
290
     1
176
     1
290
     0
176
     1
290
     0
176
     1
290
     0
176
     1
290
     0
176
     1
290
     0
176
     1
290
     0
176
     1
 90
       50
176
     1
 40
0.0
176
     1
 40
1.0
176
     1
 90
        0
176
     1
 62
    18
420
        0
176
     1
 90
       50
176
     1
 90
        3
176
     1
 62
     5
420
      255
176
     1
290
     0
176
     1
 90
       50
176
     1
 90
       50
176
     1
 90
       50
176
     1
290
     0
176
     1
 90
       50
176
     1
 62
   256
176
     0
 40
1.0
176
     0
 90
        2
176
     1
  1
strokes_ogs.tif
176
     1
290
     0
176
     1
 40
1.0
176
     1
 40
1.0
176
     1
  0
VISUALSTYLE
  5
1002E
102
{ACAD_REACTORS
330
1001D
102
}
330
1001D
100
AcDbVisualStyle
  2
Shades of Gray
 70
    23
177
     3
291
     0
 70
    58
 90
        2
176
     1
 90
        2
176
     1
 90
        3
176
     1
 90
        0
176
     1
 40
0.6
176
     1
 40
30.0
176
     1
 62
     7
420
 16777215
176
     1
 90
        2
176
     1
 90
        2
176
     1
 62
     7
176
     1
 62
     7
176
     1
 90
        1
176
     1
 90
        1
176
     1
 40
40.0
176
     1
 90
        8
176
     1
 62
     7
176
     1
 40
1.0
176
     1
 90
        1
176
     1
 90
        6
176
     1
 90
        2
176
     1
 62
     7
176
     1
 90
        3
176
     1
 90
        0
176
     1
 90
        0
176
     1
290
     0
176
     1
 90
        1
176
     1
 40
0.0
176
     1
 90
        0
176
     1
290
     0
176
     1
290
     1
176
     1
290
     1
176
     1
290
     0
176
     1
290
     0
176
     1
290
     0
176
     1
290
     0
176
     1
290
     0
176
     1
290
     0
176
     1
 90
       50
176
     1
 40
0.0
176
     1
 40
1.0
176
     1
 90
        0
176
     1
 62
    18
420
        0
176
     1
 90
       50
176
     1
 90
        3
176
     1
 62
     5
420
      255
176
     1
290
     0
176
     1
 90
       50
176
     1
 90
       50
176
     1
 90
       50
176
     1
290
     0
176
     1
 90
       50
176
     1
 62
   256
176
     0
 40
1.0
176
     0
 90
        2
176
     1
  1
strokes_ogs.tif
176
     1
290
     0
176
     1
 40
1.0
176
     1
 40
1.0
176
     1
  0
VISUALSTYLE
  5
1002F
102
{ACAD_REACTORS
330
1001D
102
}
330
1001D
100
AcDbVisualStyle
  2
Sketchy
 70
    24
177
     3
291
     0
 70
    58
 90
        1
176
     1
 90
        2
176
     1
 90
        2
176
     1
 90
        0
176
     1
 40
0.6
176
     1
 40
30.0
176
     1
 62
     7
420
 16777215
176
     1
 90
        2
176
     1
 90
        2
176
     1
 62
     7
176
     1
 62
     7
176
     1
 90
        1
176
     1
 90
        1
176
     1
 40
40.0
176
     1
 90
       11
176
     1
 62
     7
176
     1
 40
1.0
176
     1
 90
        1
176
     1
 90
        6
176
     1
 90
        2
176
     1
 62
     7
176
     1
 90
        6
176
     1
 90
        0
176
     1
 90
        0
176
     1
290
     0
176
     1
 90
        1
176
     1
 40
0.0
176
     1
 90
        0
176
     1
290
     0
176
     1
290
     1
176
     1
290
     1
176
     1
290
     0
176
     1
290
     0
176
     1
290
     0
176
     1
290
     0
176
     1
290
     0
176
     1
290
     0
176
     1
 90
       50
176
     1
 40
0.0
176
     1
 40
1.0
176
     1
 90
        0
176
     1
 62
    18
420
        0
176
     1
 90
       50
176
     1
 90
        3
176
     1
 62
     5
420
      255
176
     1
290
     0
176
     1
 90
       50
176
     1
 90
       50
176
     1
 90
       50
176
     1
290
     0
176
     1
 90
       50
176
     1
 62
   256
176
     0
 40
1.0
176
     0
 90
        2
176
     1
  1
strokes_ogs.tif
176
     1
290
     0
176
     1
 40
1.0
176
     1
 40
1.0
176
     1
  0
VISUALSTYLE
  5
1002A
102
{ACAD_REACTORS
330
1001D
102
}
330
1001D
100
AcDbVisualStyle
  2
Thicken
 70
    13
177
     3
291
     1
 70
    58
 90
        2
176
     1
 90
        2
176
     1
 90
        0
176
     1
 90
        0
176
     1
 40
0.6
176
     1
 40
30.0
176
     1
 62
     7
420
 16777215
176
     1
 90
        1
176
     1
 90
        4
176
     1
 62
     7
176
     1
 62
   257
176
     1
 90
        1
176
     1
 90
        1
176
     1
 40
1.0
176
     1
 90
       12
176
     1
 62
     7
176
     1
 40
1.0
176
     1
 90
        1
176
     1
 90
        6
176
     1
 90
        2
176
     1
 62
     7
176
     1
 90
        5
176
     1
 90
        0
176
     1
 90
        0
176
     1
290
     0
176
     1
 90
        1
176
     1
 40
0.0
176
     1
 90
        0
176
     1
290
     0
176
     1
290
     1
176
     1
290
     1
176
     1
290
     0
176
     1
290
     0
176
     1
290
     0
176
     1
290
     0
176
     1
290
     0
176
     1
290
     0
176
     1
 90
       50
176
     1
 40
0.0
176
     1
 40
1.0
176
     1
 90
        0
176
     1
 62
    18
420
        0
176
     1
 90
       50
176
     1
 90
        3
176
     1
 62
     5
420
      255
176
     1
290
     0
176
     1
 90
       50
176
     1
 90
       50
176
     1
 90
       50
176
     1
290
     0
176
     1
 90
       50
176
     1
 62
   256
176
     0
 40
1.0
176
     0
 90
        2
176
     1
  1
strokes_ogs.tif
176
     1
290
     0
176
     1
 40
1.0
176
     1
 40
1.0
176
     1
  0
VISUALSTYLE
  5
10024
102
{ACAD_REACTORS
330
1001D
102
}
330
1001D
100
AcDbVisualStyle
  2
Wireframe
 70
     5
177
     3
291
     0
 70
    58
 90
        0
176
     1
 90
        2
176
     1
 90
        0
176
     1
 90
        0
176
     1
 40
0.6
176
     1
 40
30.0
176
     1
 62
     7
420
 16777215
176
     1
 90
        1
176
     1
 90
        4
176
     1
 62
     7
176
     1
 62
   257
176
     1
 90
        1
176
     1
 90
        1
176
     1
 40
1.0
176
     1
 90
        0
176
     1
 62
   257
176
     1
 40
1.0
176
     1
 90
        1
176
     1
 90
        6
176
     1
 90
        2
176
     1
 62
     7
176
     1
 90
        3
176
     1
 90
        0
176
     1
 90
        0
176
     1
290
     0
176
     1
 90
        1
176
     1
 40
0.0
176
     1
 90
        0
176
     1
290
     0
176
     1
290
     1
176
     1
290
     1
176
     1
290
     0
176
     1
290
     0
176
     1
290
     0
176
     1
290
     0
176
     1
290
     0
176
     1
290
     0
176
     1
 90
       50
176
     1
 40
0.0
176
     1
 40
1.0
176
     1
 90
        0
176
     1
 62
    18
420
        0
176
     1
 90
       50
176
     1
 90
        3
176
     1
 62
     5
420
      255
176
     1
290
     0
176
     1
 90
       50
176
     1
 90
       50
176
     1
 90
       50
176
     1
290
     0
176
     1
 90
       50
176
     1
 62
   256
176
     0
 40
1.0
176
     0
 90
        2
176
     1
  1
strokes_ogs.tif
176
     1
290
     0
176
     1
 40
1.0
176
     1
 40
1.0
176
     1
  0
VISUALSTYLE
  5
10030
102
{ACAD_REACTORS
330
1001D
102
}
330
1001D
100
AcDbVisualStyle
  2
X-Ray
 70
    25
177
     3
291
     0
 70
    58
 90
        2
176
     1
 90
        2
176
     1
 90
        1
176
     1
 90
        1
176
     1
 40
0.5
176
     1
 40
30.0
176
     1
 62
     7
420
 16777215
176
     1
 90
        1
176
     1
 90
        0
176
     1
 62
     7
176
     1
 62
   257
176
     1
 90
        1
176
     1
 90
        1
176
     1
 40
1.0
176
     1
 90
        8
176
     1
 62
     7
176
     1
 40
1.0
176
     1
 90
        1
176
     1
 90
        6
176
     1
 90
        2
176
     1
 62
     7
176
     1
 90
        3
176
     1
 90
        0
176
     1
 90
        0
176
     1
290
     0
176
     1
 90
       13
176
     1
 40
0.0
176
     1
 90
        0
176
     1
290
     0
176
     1
290
     1
176
     1
290
     1
176
     1
290
     0
176
     1
290
     0
176
     1
290
     0
176
     1
290
     0
176
     1
290
     0
176
     1
290
     0
176
     1
 90
       50
176
     1
 40
0.0
176
     1
 40
1.0
176
     1
 90
        0
176
     1
 62
    18
420
        0
176
     1
 90
       50
176
     1
 90
        3
176
     1
 62
     5
420
      255
176
     1
290
     0
176
     1
 90
       50
176
     1
 90
       50
176
     1
 90
       50
176
     1
290
     0
176
     1
 90
       50
176
     1
 62
   256
176
     0
 40
1.0
176
     0
 90
        2
176
     1
  1
strokes_ogs.tif
176
     1
290
     0
176
     1
 40
1.0
176
     1
 40
1.0
176
     1
  0
DICTIONARYVAR
  5
10063
102
{ACAD_REACTORS
330
1005D
102
}
330
1005D
100
DictionaryVariables
280
     0
  1
1:1
  0
DICTIONARYVAR
  5
1005F
102
{ACAD_REACTORS
330
1005D
102
}
330
1005D
100
DictionaryVariables
280
     0
  1
STANDARD
  0
DICTIONARYVAR
  5
1005E
102
{ACAD_REACTORS
330
1005D
102
}
330
1005D
100
DictionaryVariables
280
     0
  1
STANDARD
  0
DICTIONARYVAR
  5
10060
102
{ACAD_REACTORS
330
1005D
102
}
330
1005D
100
DictionaryVariables
280
     0
  1
Imperial24
  0
DICTIONARYVAR
  5
10061
102
{ACAD_REACTORS
330
1005D
102
}
330
1005D
100
DictionaryVariables
280
     0
  1
Imperial24
  0
DICTIONARYVAR
  5
10065
102
{ACAD_REACTORS
330
1005D
102
}
330
1005D
100
DictionaryVariables
280
     0
  1
1
  0
DICTIONARYVAR
  5
10066
102
{ACAD_REACTORS
330
1005D
102
}
330
1005D
100
DictionaryVariables
280
     0
  1
15
  0
DICTIONARYVAR
  5
10064
102
{ACAD_REACTORS
330
1005D
102
}
330
1005D
100
DictionaryVariables
280
     0
  1
0
  0
DICTIONARYVAR
  5
10062
102
{ACAD_REACTORS
330
1005D
102
}
330
1005D
100
DictionaryVariables
280
     0
  1
0
  0
DICTIONARY
  5
1000E
330
1000D
100
AcDbDictionary
280
     1
281
     1
  3
BUMPTILE
360
10010
  3
DIFFUSETILE
360
1000F
  3
OPACITYTILE
360
10013
  3
REFLECTIONTILE
360
10012
  3
REFRACTIONTILE
360
10014
  3
SPECULARTILE
360
10011
  0
DICTIONARY
  5
10006
330
10005
100
AcDbDictionary
280
     1
281
     1
  3
BUMPTILE
360
10008
  3
DIFFUSETILE
360
10007
  3
OPACITYTILE
360
1000B
  3
REFLECTIONTILE
360
1000A
  3
REFRACTIONTILE
360
1000C
  3
SPECULARTILE
360
10009
  0
DICTIONARY
  5
10016
330
10015
100
AcDbDictionary
280
     1
281
     1
  3
BUMPTILE
360
10018
  3
DIFFUSETILE
360
10017
  3
OPACITYTILE
360
1001B
  3
REFLECTIONTILE
360
1001A
  3
REFRACTIONTILE
360
1001C
  3
SPECULARTILE
360
10019
  0
DICTIONARY
  5
10067
330
10039
100
AcDbDictionary
280
     1
281
     1
  3
ACAD_ROUNDTRIP_2008_TABLESTYLE_CELLSTYLEMAP
360
10068
  0
XRECORD
  5
10010
102
{ACAD_REACTORS
330
1000E
102
}
330
1000E
100
AcDbXrecord
280
     1
270
     1
271
     1
  0
XRECORD
  5
1000F
102
{ACAD_REACTORS
330
1000E
102
}
330
1000E
100
AcDbXrecord
280
     1
270
     1
271
     1
  0
XRECORD
  5
10013
102
{ACAD_REACTORS
330
1000E
102
}
330
1000E
100
AcDbXrecord
280
     1
270
     1
271
     1
  0
XRECORD
  5
10012
102
{ACAD_REACTORS
330
1000E
102
}
330
1000E
100
AcDbXrecord
280
     1
270
     1
271
     1
  0
XRECORD
  5
10014
102
{ACAD_REACTORS
330
1000E
102
}
330
1000E
100
AcDbXrecord
280
     1
270
     1
271
     1
  0
XRECORD
  5
10011
102
{ACAD_REACTORS
330
1000E
102
}
330
1000E
100
AcDbXrecord
280
     1
270
     1
271
     1
  0
XRECORD
  5
10008
102
{ACAD_REACTORS
330
10006
102
}
330
10006
100
AcDbXrecord
280
     1
270
     1
271
     1
  0
XRECORD
  5
10007
102
{ACAD_REACTORS
330
10006
102
}
330
10006
100
AcDbXrecord
280
     1
270
     1
271
     1
  0
XRECORD
  5
1000B
102
{ACAD_REACTORS
330
10006
102
}
330
10006
100
AcDbXrecord
280
     1
270
     1
271
     1
  0
XRECORD
  5
1000A
102
{ACAD_REACTORS
330
10006
102
}
330
10006
100
AcDbXrecord
280
     1
270
     1
271
     1
  0
XRECORD
  5
1000C
102
{ACAD_REACTORS
330
10006
102
}
330
10006
100
AcDbXrecord
280
     1
270
     1
271
     1
  0
XRECORD
  5
10009
102
{ACAD_REACTORS
330
10006
102
}
330
10006
100
AcDbXrecord
280
     1
270
     1
271
     1
  0
XRECORD
  5
10018
102
{ACAD_REACTORS
330
10016
102
}
330
10016
100
AcDbXrecord
280
     1
270
     1
271
     1
  0
XRECORD
  5
10017
102
{ACAD_REACTORS
330
10016
102
}
330
10016
100
AcDbXrecord
280
     1
270
     1
271
     1
  0
XRECORD
  5
1001B
102
{ACAD_REACTORS
330
10016
102
}
330
10016
100
AcDbXrecord
280
     1
270
     1
271
     1
  0
XRECORD
  5
1001A
102
{ACAD_REACTORS
330
10016
102
}
330
10016
100
AcDbXrecord
280
     1
270
     1
271
     1
  0
XRECORD
  5
1001C
102
{ACAD_REACTORS
330
10016
102
}
330
10016
100
AcDbXrecord
280
     1
270
     1
271
     1
  0
XRECORD
  5
10019
102
{ACAD_REACTORS
330
10016
102
}
330
10016
100
AcDbXrecord
280
     1
270
     1
271
     1
  0
CELLSTYLEMAP
  5
10068
102
{ACAD_REACTORS
330
10067
102
}
330
10067
100
AcDbCellStyleMap
 90
        3
300
CELLSTYLE
  1
TABLEFORMAT_BEGIN
 90
        5
170
     1
 91
        0
 92
    32768
 62
   257
 93
        1
300
CONTENTFORMAT
  1
CONTENTFORMAT_BEGIN
 90
        0
 91
        0
 92
      512
 93
        0
300

 40
0.0
140
1.0
 94
        5
 62
     0
340
11
144
0.25
309
CONTENTFORMAT_END
171
     0
 94
        0
309
TABLEFORMAT_END
  1
CELLSTYLE_BEGIN
 90
        1
 91
        1
300
_TITLE
309
CELLSTYLE_END
300
CELLSTYLE
  1
TABLEFORMAT_BEGIN
 90
        5
170
     1
 91
        0
 92
        0
 62
   257
 93
        1
300
CONTENTFORMAT
  1
CONTENTFORMAT_BEGIN
 90
        0
 91
        0
 92
      512
 93
        0
300

 40
0.0
140
1.0
 94
        5
 62
     0
340
11
144
0.18
309
CONTENTFORMAT_END
171
     0
 94
        0
309
TABLEFORMAT_END
  1
CELLSTYLE_BEGIN
 90
        2
 91
        1
300
_HEADER
309
CELLSTYLE_END
300
CELLSTYLE
  1
TABLEFORMAT_BEGIN
 90
        5
170
     1
 91
        0
 92
        0
 62
   257
 93
        1
300
CONTENTFORMAT
  1
CONTENTFORMAT_BEGIN
 90
        0
 91
        0
 92
      512
 93
        0
300

 40
0.0
140
1.0
 94
        2
 62
     0
340
11
144
0.18
309
CONTENTFORMAT_END
171
     0
 94
        0
309
TABLEFORMAT_END
  1
CELLSTYLE_BEGIN
 90
        3
 91
        2
300
_DATA
309
CELLSTYLE_END
  0
ENDSEC
  0
EOF
