0
SECTION
2
HEADER
9
$INSUNITS
70
4
9
$ACADVER
1
AC1014
9
$HANDSEED
5
FFFF
0
ENDSEC
0
SECTION
2
TABLES
0
TABLE
2
VPORT
5
8
100
AcDbSymbolTable
0
ENDTAB
0
TABLE
2
LTYPE
5
5
100
AcDbSymbolTable
0
LTYPE
5
14
100
AcDbSymbolTableRecord
100
AcDbLinetypeTableRecord
2
BYBLOCK
70
0
0
LTYPE
5
15
100
AcDbSymbolTableRecord
100
AcDbLinetypeTableRecord
2
BYLAYER
70
0
0
ENDTAB
0
TABLE
2
LAYER
5
2
100
AcDbSymbolTable
70
2
0
LAYER
5
50
100
AcDbSymbolTableRecord
100
AcDbLayerTableRecord
2
0
70
0
6
CONTINUOUS
0
ENDTAB
0
TABLE
2
STYLE
5
3
100
AcDbSymbolTable
70
1
0
STYLE
5
11
100
AcDbSymbolTableRecord
100
AcDbTextStyleTableRecord
2
STANDARD
70
0
0
ENDTAB
0
TABLE
2
VIEW
5
6
100
AcDbSymbolTable
70
0
0
ENDTAB
0
TABLE
2
UCS
5
7
100
AcDbSymbolTable
70
0
0
ENDTAB
0
TABLE
2
APPID
5
9
100
AcDbSymbolTable
70
2
0
APPID
5
12
100
AcDbSymbolTableRecord
100
AcDbRegAppTableRecord
2
ACAD
70
0
0
ENDTAB
0
TABLE
2
DIMSTYLE
5
A
100
AcDbSymbolTable
70
1
0
ENDTAB
0
TABLE
2
BLOCK_RECORD
5
1
100
AcDbSymbolTable
70
1
0
BLOCK_RECORD
5
1F
100
AcDbSymbolTableRecord
100
AcDbBlockTableRecord
2
*MODEL_SPACE
0
BLOCK_RECORD
5
1B
100
AcDbSymbolTableRecord
100
AcDbBlockTableRecord
2
*PAPER_SPACE
0
ENDTAB
0
ENDSEC
0
SECTION
2
BLOCKS
0
BLOCK
5
20
100
AcDbEntity
100
AcDbBlockBegin
2
*MODEL_SPACE
0
ENDBLK
5
21
100
AcDbEntity
100
AcDbBlockEnd
0
BLOCK
5
1C
100
AcDbEntity
100
AcDbBlockBegin
2
*PAPER_SPACE
0
ENDBLK
5
1D
100
AcDbEntity
100
AcDbBlockEnd
0
ENDSEC
0
SECTION
2
ENTITIES
0
LINE
5
100
100
AcDbEntity
8
0
100
AcDbLine
10
-114.42907286228294
20
57.029352373816735
30
0
11
22.670927137744208
21
57.029352373816607
31
0
0
LINE
5
101
100
AcDbEntity
8
0
100
AcDbLine
10
22.670927137720625
20
30.029352373816206
30
0
11
-114.42907286230653
21
30.029352373816213
31
0
0
LINE
5
102
100
AcDbEntity
8
0
100
AcDbLine
10
-45.879072862269368
20
57.029352373816657
30
0
11
-45.879072862292951
21
30.029352373816216
31
0
0
LINE
5
103
100
AcDbEntity
8
0
100
AcDbLine
10
-45.879072862268885
20
-6.0999857525401646
30
0
11
-45.879072862269368
21
57.029352373816657
31
0
0
LINE
5
104
100
AcDbEntity
8
0
100
AcDbLine
10
-117.42907286228302
20
51.029352373816735
30
0
11
-114.42907286228302
21
51.029352373816756
31
0
0
LINE
5
105
100
AcDbEntity
8
0
100
AcDbLine
10
-114.42907286228321
20
47.879352373816602
30
0
11
-117.42907286228322
21
47.879352373816744
31
0
0
LINE
5
106
100
AcDbEntity
8
0
100
AcDbLine
10
-117.42907286228322
20
47.879352373816744
30
0
11
-117.42907286228302
21
51.029352373816735
31
0
0
LINE
5
107
100
AcDbEntity
8
0
100
AcDbLine
10
-106.92907286228348
20
44.879352373816261
30
0
11
-106.92907286228346
21
42.179352373816243
31
0
0
LINE
5
108
100
AcDbEntity
8
0
100
AcDbLine
10
-106.92907286228346
20
42.179352373816243
30
0
11
-114.42907286228346
21
42.179352373816243
31
0
0
LINE
5
109
100
AcDbEntity
8
0
100
AcDbLine
10
-114.42907286228335
20
44.879352373816594
30
0
11
-106.92907286228348
21
44.879352373816261
31
0
0
LINE
5
110
100
AcDbEntity
8
0
100
AcDbLine
10
-117.42907286230721
20
36.029352373816259
30
0
11
-117.42907286230719
21
39.179352373816258
31
0
0
LINE
5
111
100
AcDbEntity
8
0
100
AcDbLine
10
-114.42907286230721
20
36.029352373816216
30
0
11
-117.42907286230721
21
36.029352373816259
31
0
0
LINE
5
112
100
AcDbEntity
8
0
100
AcDbLine
10
-117.42907286230719
20
39.179352373816258
30
0
11
-114.42907286228359
21
39.179352373816251
31
0
0
LWPOLYLINE
5
113
100
AcDbEntity
8
0
100
AcDbPolyline
90
4
70
1
43
0.0
10
-93.429072862276143
20
39.029352373765647
10
-93.429072862276129
20
36.179352373765866
10
-90.579072862276107
20
36.179352373765724
10
-90.579072862276149
20
39.029352373765704
0
LWPOLYLINE
5
114
100
AcDbEntity
8
0
100
AcDbPolyline
90
4
70
1
43
0.0
10
-93.429072862276143
20
50.879352373816566
10
-93.429072862273017
20
48.029352373816387
10
-90.579072862276149
20
48.029352373815996
10
-90.579072862276149
20
50.879352373815998
0
LINE
5
115
100
AcDbEntity
8
0
100
AcDbLine
10
-114.42907286228335
20
44.879352373816594
30
0
11
-114.42907286228321
21
47.879352373816602
31
0
0
LINE
5
116
100
AcDbEntity
8
0
100
AcDbLine
10
-114.42907286230653
20
30.029352373816213
30
0
11
-114.42907286230721
21
36.029352373816216
31
0
0
LINE
5
117
100
AcDbEntity
8
0
100
AcDbLine
10
-117.42907286228314
20
49.454352373816739
30
0
11
46.018335187547038
21
49.454352373812227
31
0
0
LINE
5
118
100
AcDbEntity
8
0
100
AcDbLine
10
-117.42907286230719
20
37.604352373816255
30
0
11
49.76193901450533
21
37.604352373501236
31
0
0
LINE
5
119
100
AcDbEntity
8
0
100
AcDbLine
10
-114.42907286228359
20
39.179352373816251
30
0
11
-114.42907286228346
21
42.179352373816243
31
0
0
LINE
5
120
100
AcDbEntity
8
0
100
AcDbLine
10
-114.42907286228335
20
44.879352373816594
30
0
11
-114.42907286228321
21
47.879352373816602
31
0
0
LINE
5
121
100
AcDbEntity
8
0
100
AcDbLine
10
-114.42907286228294
20
57.029352373816735
30
0
11
-114.42907286228302
21
51.029352373816756
31
0
0
LINE
5
122
100
AcDbEntity
8
0
100
AcDbLine
10
-90.579072862276149
20
49.454352373815965
30
0
11
-93.42907286227458
21
49.454352373816477
31
0
0
LINE
5
123
100
AcDbEntity
8
0
100
AcDbLine
10
-90.579072862276121
20
37.604352373765714
30
0
11
-93.429072862276143
21
37.604352373765757
31
0
0
LWPOLYLINE
5
124
100
AcDbEntity
8
0
100
AcDbPolyline
90
4
70
1
43
0.0
10
-78.879072862276146
20
50.879352373815777
10
-81.729072862276141
20
50.879352373815756
10
-81.729072862276141
20
48.02935237381579
10
-78.879072862276203
20
48.029352373815769
0
LWPOLYLINE
5
125
100
AcDbEntity
8
0
100
AcDbPolyline
90
4
70
1
43
0.0
10
-78.879072862276146
20
39.029352373747273
10
-81.729072862276141
20
39.029352373748949
10
-81.729072862276141
20
36.179352373748998
10
-78.879072862276047
20
36.179352373747271
0
LINE
5
126
100
AcDbEntity
8
0
100
AcDbLine
10
-78.879072862276175
20
49.454352373815752
30
0
11
-81.729072862276141
21
49.454352373815752
31
0
0
LINE
5
127
100
AcDbEntity
8
0
100
AcDbLine
10
-78.879072862276104
20
37.604352373747275
30
0
11
-81.729072862276141
21
37.604352373748974
31
0
0
LWPOLYLINE
5
128
100
AcDbEntity
8
0
100
AcDbPolyline
90
4
70
1
43
0.0
10
-12.879072862261749
20
48.029352373815868
10
-12.87907286226182
20
50.87935237381587
10
-10.029072862261824
20
50.879352373815863
10
-10.029072862261819
20
48.029352373815883
0
LWPOLYLINE
5
129
100
AcDbEntity
8
0
100
AcDbPolyline
90
4
70
1
43
0.0
10
-12.879072862262364
20
36.179352373747776
10
-12.879072862262305
20
39.029352373747777
10
-10.029072862261788
20
39.02935237374907
10
-10.029072862261764
20
36.179352373749118
0
LINE
5
130
100
AcDbEntity
8
0
100
AcDbLine
10
22.670927137745124
20
39.179352373817295
30
0
11
22.670927137744954
21
42.179352373817295
31
0
0
LINE
5
131
100
AcDbEntity
8
0
100
AcDbLine
10
22.670927137744808
20
44.879352373817625
30
0
11
22.670927137744627
21
47.879352373817632
31
0
0
LINE
5
132
100
AcDbEntity
8
0
100
AcDbLine
10
25.6709271377688
20
36.029352373817346
30
0
11
25.670927137768729
21
39.179352373817345
31
0
0
LWPOLYLINE
5
133
100
AcDbEntity
8
0
100
AcDbPolyline
90
4
70
1
43
0.0
10
-1.1790728622618207
20
48.029352373816117
10
-1.1790728622618294
20
50.879352373816133
10
1.6709271377375403
20
50.879352373817284
10
1.6709271377344226
20
48.029352373817105
0
LINE
5
134
100
AcDbEntity
8
0
100
AcDbLine
10
22.670927137768196
20
30.029352373817257
30
0
11
22.670927137768793
21
36.029352373817261
31
0
0
LINE
5
135
100
AcDbEntity
8
0
100
AcDbLine
10
15.170927137744954
20
42.179352373817181
30
0
11
22.670927137744954
21
42.179352373817295
31
0
0
LWPOLYLINE
5
136
100
AcDbEntity
8
0
100
AcDbPolyline
90
4
70
1
43
0.0
10
-1.1790728622618019
20
36.179352373765866
10
-1.1790728622617863
20
39.029352373765867
10
1.6709271377377104
20
39.029352373766372
10
1.6709271377377104
20
36.179352373766051
0
LINE
5
137
100
AcDbEntity
8
0
100
AcDbLine
10
25.670927137744375
20
51.029352373817822
30
0
11
22.670927137744378
21
51.029352373817801
31
0
0
LINE
5
138
100
AcDbEntity
8
0
100
AcDbLine
10
15.170927137744933
20
44.879352373817184
30
0
11
15.170927137744954
21
42.179352373817181
31
0
0
LINE
5
139
100
AcDbEntity
8
0
100
AcDbLine
10
22.670927137744808
20
44.879352373817625
30
0
11
22.670927137744627
21
47.879352373817632
31
0
0
LINE
5
140
100
AcDbEntity
8
0
100
AcDbLine
10
25.670927137768729
20
39.179352373817345
30
0
11
22.670927137745124
21
39.179352373817295
31
0
0
LINE
5
141
100
AcDbEntity
8
0
100
AcDbLine
10
22.670927137744627
20
47.879352373817632
30
0
11
25.670927137744627
21
47.879352373817824
31
0
0
LINE
5
142
100
AcDbEntity
8
0
100
AcDbLine
10
25.670927137744627
20
47.879352373817824
30
0
11
25.670927137744375
21
51.029352373817822
31
0
0
LINE
5
143
100
AcDbEntity
8
0
100
AcDbLine
10
22.670927137744808
20
44.879352373817625
30
0
11
15.170927137744933
21
44.879352373817184
31
0
0
LINE
5
144
100
AcDbEntity
8
0
100
AcDbLine
10
-12.879072862262337
20
37.604352373747361
30
0
11
-10.029072862261783
21
37.604352373749094
31
0
0
LINE
5
145
100
AcDbEntity
8
0
100
AcDbLine
10
22.670927137744215
20
57.029352373817787
30
0
11
22.670927137744378
21
51.029352373817801
31
0
0
LINE
5
146
100
AcDbEntity
8
0
100
AcDbLine
10
22.670927137768793
20
36.029352373817261
30
0
11
25.6709271377688
21
36.029352373817346
31
0
0
LINE
5
147
100
AcDbEntity
8
0
100
AcDbLine
10
-51.879072862276026
20
57.029352373816664
30
0
11
-51.879072862276118
21
48.029352373816671
31
0
0
LINE
5
148
100
AcDbEntity
8
0
100
AcDbLine
10
-51.879072862269588
20
46.529352373816678
30
0
11
-51.879072862289703
21
37.529352373816685
31
0
0
LINE
5
149
100
AcDbEntity
8
0
100
AcDbLine
10
-51.879072862289107
20
36.029352373816685
30
0
11
-51.8790728622945
21
27.029352373816682
31
0
0
LINE
5
150
100
AcDbEntity
8
0
100
AcDbLine
10
-50.379072862276118
20
54.029352373816678
30
0
11
-50.379072862276111
21
45.0293523738167
31
0
0
LINE
5
151
100
AcDbEntity
8
0
100
AcDbLine
10
-50.379072862276104
20
43.529352373816707
30
0
11
-50.379072862276082
21
34.529352373816707
31
0
0
LINE
5
152
100
AcDbEntity
8
0
100
AcDbLine
10
-50.379072862276082
20
33.029352373816721
30
0
11
-50.379072862276075
21
24.029352373816725
31
0
0
LINE
5
153
100
AcDbEntity
8
0
100
AcDbLine
10
-48.879072862276026
20
57.029352373816664
30
0
11
-48.879072862276118
21
48.029352373816671
31
0
0
LINE
5
154
100
AcDbEntity
8
0
100
AcDbLine
10
-47.379072862276118
20
54.029352373816678
30
0
11
-47.379072862276111
21
45.0293523738167
31
0
0
LINE
5
155
100
AcDbEntity
8
0
100
AcDbLine
10
-48.879072862269588
20
46.529352373816678
30
0
11
-48.879072862289703
21
37.529352373816685
31
0
0
LINE
5
156
100
AcDbEntity
8
0
100
AcDbLine
10
-47.379072862276104
20
43.529352373816707
30
0
11
-47.379072862276089
21
34.529352373816707
31
0
0
LINE
5
157
100
AcDbEntity
8
0
100
AcDbLine
10
-48.879072862289107
20
36.029352373816685
30
0
11
-48.8790728622945
21
27.029352373816682
31
0
0
LINE
5
158
100
AcDbEntity
8
0
100
AcDbLine
10
-47.379072862276089
20
33.029352373816721
30
0
11
-47.379072862276075
21
24.029352373816725
31
0
0
LINE
5
159
100
AcDbEntity
8
0
100
AcDbLine
10
-51.879072862276026
20
57.029352373816664
30
0
11
-48.879072862276026
21
57.029352373816664
31
0
0
LINE
5
160
100
AcDbEntity
8
0
100
AcDbLine
10
-50.379072862276018
20
57.029352373816664
30
0
11
-50.379072862269531
21
28.331397643827213
31
0
0
LINE
5
161
100
AcDbEntity
8
0
100
AcDbLine
10
-54.879072862276146
20
57.029352373816693
30
0
11
-54.879072862276104
21
48.029352373816671
31
0
0
LINE
5
162
100
AcDbEntity
8
0
100
AcDbLine
10
-53.379072862276118
20
54.029352373816678
30
0
11
-53.379072862276111
21
45.0293523738167
31
0
0
LINE
5
163
100
AcDbEntity
8
0
100
AcDbLine
10
-54.879072862269581
20
46.529352373816678
30
0
11
-54.879072862287885
21
37.529352373816685
31
0
0
LINE
5
164
100
AcDbEntity
8
0
100
AcDbLine
10
-53.379072862276104
20
43.529352373816707
30
0
11
-53.379072862276082
21
34.529352373816707
31
0
0
LINE
5
165
100
AcDbEntity
8
0
100
AcDbLine
10
-54.879072862289107
20
36.029352373816685
30
0
11
-54.8790728622945
21
27.029352373816682
31
0
0
LINE
5
166
100
AcDbEntity
8
0
100
AcDbLine
10
-53.379072862276082
20
33.029352373816721
30
0
11
-53.379072862276075
21
24.029352373816725
31
0
0
LINE
5
167
100
AcDbEntity
8
0
100
AcDbLine
10
-57.879072862276189
20
57.029352373816693
30
0
11
-57.879072862275869
21
48.029352373816678
31
0
0
LINE
5
168
100
AcDbEntity
8
0
100
AcDbLine
10
-56.379072862276118
20
54.029352373816678
30
0
11
-56.379072862276118
21
45.0293523738167
31
0
0
LINE
5
169
100
AcDbEntity
8
0
100
AcDbLine
10
-57.879072862269581
20
46.529352373816678
30
0
11
-57.879072862287877
21
37.529352373816685
31
0
0
LINE
5
170
100
AcDbEntity
8
0
100
AcDbLine
10
-56.379072862276097
20
43.529352373816707
30
0
11
-56.379072862276082
21
34.529352373816707
31
0
0
LINE
5
171
100
AcDbEntity
8
0
100
AcDbLine
10
-57.879072862289107
20
36.029352373816685
30
0
11
-57.879072862294507
21
27.029352373816682
31
0
0
LINE
5
172
100
AcDbEntity
8
0
100
AcDbLine
10
-56.379072862276082
20
33.029352373816721
30
0
11
-56.379072862276082
21
24.029352373816725
31
0
0
LINE
5
173
100
AcDbEntity
8
0
100
AcDbLine
10
-33.87907286226185
20
57.029352373816792
30
0
11
-33.879072862261836
21
48.029352373816756
31
0
0
LINE
5
174
100
AcDbEntity
8
0
100
AcDbLine
10
-35.379072862261857
20
54.029352373816728
30
0
11
-35.379072862261836
21
45.029352373816742
31
0
0
LINE
5
175
100
AcDbEntity
8
0
100
AcDbLine
10
-36.879072862261857
20
57.029352373816771
30
0
11
-36.879072862261843
21
48.029352373816742
31
0
0
LINE
5
176
100
AcDbEntity
8
0
100
AcDbLine
10
-38.379072862261857
20
54.029352373816721
30
0
11
-38.379072862261843
21
45.029352373816735
31
0
0
LINE
5
177
100
AcDbEntity
8
0
100
AcDbLine
10
-39.879072862261857
20
57.0293523738167
30
0
11
-39.879072862261836
21
48.029352373816721
31
0
0
LINE
5
178
100
AcDbEntity
8
0
100
AcDbLine
10
-42.879072862261857
20
57.029352373816693
30
0
11
-42.879072862261836
21
48.029352373816714
31
0
0
LINE
5
179
100
AcDbEntity
8
0
100
AcDbLine
10
-41.37907286226185
20
54.029352373816721
30
0
11
-41.379072862261843
21
45.029352373816714
31
0
0
LINE
5
180
100
AcDbEntity
8
0
100
AcDbLine
10
-44.37907286226185
20
54.0293523738167
30
0
11
-44.379072862261843
21
45.029352373816707
31
0
0
LINE
5
181
100
AcDbEntity
8
0
100
AcDbLine
10
-42.879072862268544
20
46.529352373816721
30
0
11
-42.87907286225736
21
37.529352373816721
31
0
0
LINE
5
182
100
AcDbEntity
8
0
100
AcDbLine
10
-39.879072862268387
20
46.529352373816728
30
0
11
-39.879072862257431
21
37.529352373816735
31
0
0
LINE
5
183
100
AcDbEntity
8
0
100
AcDbLine
10
-36.879072862261843
20
46.529352373816728
30
0
11
-36.879072862257367
21
37.529352373816714
31
0
0
LINE
5
184
100
AcDbEntity
8
0
100
AcDbLine
10
-33.879072862261843
20
46.529352373816749
30
0
11
-33.879072862257239
21
37.529352373816721
31
0
0
LINE
5
185
100
AcDbEntity
8
0
100
AcDbLine
10
-35.379072862261843
20
43.529352373816735
30
0
11
-35.379072862261836
21
34.529352373816742
31
0
0
LINE
5
186
100
AcDbEntity
8
0
100
AcDbLine
10
-36.879072862248812
20
36.029352373816714
30
0
11
-36.879072862243383
21
27.029352373816714
31
0
0
LINE
5
187
100
AcDbEntity
8
0
100
AcDbLine
10
-35.379072862261822
20
33.029352373816721
30
0
11
-35.3790728622618
21
24.029352373816742
31
0
0
LINE
5
188
100
AcDbEntity
8
0
100
AcDbLine
10
-33.879072862248812
20
36.029352373816728
30
0
11
-33.879072862243376
21
27.029352373816721
31
0
0
LINE
5
189
100
AcDbEntity
8
0
100
AcDbLine
10
-38.379072862261822
20
33.029352373816707
30
0
11
-38.379072862261808
21
24.029352373816732
31
0
0
LINE
5
190
100
AcDbEntity
8
0
100
AcDbLine
10
-39.879072862248812
20
36.029352373816735
30
0
11
-39.879072862243383
21
27.029352373816735
31
0
0
LINE
5
191
100
AcDbEntity
8
0
100
AcDbLine
10
-38.379072862261843
20
43.529352373816728
30
0
11
-38.379072862261829
21
34.529352373816728
31
0
0
LINE
5
192
100
AcDbEntity
8
0
100
AcDbLine
10
-41.379072862261836
20
43.529352373816714
30
0
11
-41.379072862261836
21
34.529352373816721
31
0
0
LINE
5
193
100
AcDbEntity
8
0
100
AcDbLine
10
-44.379072862261836
20
43.529352373816707
30
0
11
-44.379072862261836
21
34.529352373816707
31
0
0
LINE
5
194
100
AcDbEntity
8
0
100
AcDbLine
10
-42.879072862248805
20
36.029352373816728
30
0
11
-42.879072862243383
21
27.029352373816728
31
0
0
LINE
5
195
100
AcDbEntity
8
0
100
AcDbLine
10
-41.379072862261815
20
33.029352373816693
30
0
11
-41.379072862261808
21
24.029352373816732
31
0
0
LINE
5
196
100
AcDbEntity
8
0
100
AcDbLine
10
-44.379072862261815
20
33.029352373816693
30
0
11
-44.379072862261808
21
24.029352373816725
31
0
0
LINE
5
197
100
AcDbEntity
8
0
100
AcDbLine
10
-45.879072862276146
20
57.029352374307258
30
0
11
-45.879072862276125
21
48.029352374307251
31
0
0
LINE
5
198
100
AcDbEntity
8
0
100
AcDbLine
10
-45.879072862269453
20
36.029352374307265
30
0
11
-45.879072862269453
21
27.029352374307251
31
0
0
LINE
5
199
100
AcDbEntity
8
0
100
AcDbLine
10
-45.879072862269467
20
46.529352374307251
30
0
11
-45.879072862269467
21
37.529352374307258
31
0
0
LINE
5
200
100
AcDbEntity
8
0
100
AcDbLine
10
-60.879072862276153
20
57.029352373816664
30
0
11
-60.879072862276125
21
48.029352374307251
31
0
0
LINE
5
201
100
AcDbEntity
8
0
100
AcDbLine
10
-59.37907286226956
20
54.029352374307216
30
0
11
-59.379072862269553
21
45.029352374307223
31
0
0
LINE
5
202
100
AcDbEntity
8
0
100
AcDbLine
10
-60.879072862269467
20
46.529352374307251
30
0
11
-60.879072862269467
21
37.529352374307258
31
0
0
LINE
5
203
100
AcDbEntity
8
0
100
AcDbLine
10
-59.379072862269531
20
43.529352374307223
30
0
11
-59.379072862269524
21
34.52935237430723
31
0
0
LINE
5
204
100
AcDbEntity
8
0
100
AcDbLine
10
-60.879072862269453
20
36.029352374307265
30
0
11
-60.879072862269453
21
27.029352374307251
31
0
0
LINE
5
205
100
AcDbEntity
8
0
100
AcDbLine
10
-59.379072862269524
20
33.02935237430723
30
0
11
-59.37907286226951
21
24.029352374307248
31
0
0
LINE
5
206
100
AcDbEntity
8
0
100
AcDbLine
10
-32.379072862268401
20
54.029352374307258
30
0
11
-32.379072862268401
21
45.029352374307258
31
0
0
LINE
5
207
100
AcDbEntity
8
0
100
AcDbLine
10
-30.879072862268497
20
46.529352374307265
30
0
11
-30.879072862268458
21
37.529352374307294
31
0
0
LINE
5
208
100
AcDbEntity
8
0
100
AcDbLine
10
-30.879072862261875
20
57.029352374307294
30
0
11
-30.879072862261854
21
48.029352374307294
31
0
0
LINE
5
209
100
AcDbEntity
8
0
100
AcDbLine
10
-32.379072862268387
20
43.529352374307265
30
0
11
-32.379072862268366
21
34.529352374307265
31
0
0
LINE
5
210
100
AcDbEntity
8
0
100
AcDbLine
10
-30.879072862268462
20
36.02935237430728
30
0
11
-30.879072862268437
21
27.02935237430729
31
0
0
LINE
5
211
100
AcDbEntity
8
0
100
AcDbLine
10
-32.379072862268394
20
33.029352374307251
30
0
11
-32.379072862268366
21
24.029352374307283
31
0
0
ENDSEC
0
SECTION
2
OBJECTS
0
DICTIONARY
5
C
100
AcDbDictionary
3
ACAD_GROUP
350
D
3
ACAD_MLINESTYLE
350
17
0
DICTIONARY
5
D
100
AcDbDictionary
0
DICTIONARY
5
1A
330
C
100
AcDbDictionary
0
DICTIONARY
5
17
100
AcDbDictionary
0
ENDSEC
0
EOF
