  0
SECTION
  2
BLOCKS
  0
ENDSEC
  0
SECTION
  2
ENTITIES
  0
LINE
  8
0
 10
140
 20
280
 11
0
 21
280
  0
LINE
  8
0
 10
0
 20
280
 11
0
 21
0
  0
LINE
  8
0
 10
0
 20
0
 11
140
 21
0
  0
LINE
  8
0
 10
140
 20
0
 11
140
 21
280
  0
LINE
  8
0
 10
9.90018
 20
268.413
 11
9.80072
 21
268.423
  0
LINE
  8
0
 10
9.80072
 20
268.423
 11
9.70207
 21
268.438
  0
LINE
  8
0
 10
9.70207
 20
268.438
 11
9.60458
 21
268.46
  0
LINE
  8
0
 10
9.60458
 20
268.46
 11
9.50867
 21
268.488
  0
LINE
  8
0
 10
9.50867
 20
268.488
 11
9.41469
 21
268.522
  0
LINE
  8
0
 10
9.41469
 20
268.522
 11
9.32301
 21
268.561
  0
LINE
  8
0
 10
9.32301
 20
268.561
 11
9.23402
 21
268.607
  0
LINE
  8
0
 10
9.23402
 20
268.607
 11
9.14804
 21
268.658
  0
LINE
  8
0
 10
9.14804
 20
268.658
 11
9.06543
 21
268.714
  0
LINE
  8
0
 10
9.06543
 20
268.714
 11
8.9865
 21
268.775
  0
LINE
  8
0
 10
8.9865
 20
268.775
 11
8.91158
 21
268.841
  0
LINE
  8
0
 10
8.91158
 20
268.841
 11
8.84094
 21
268.912
  0
LINE
  8
0
 10
8.84094
 20
268.912
 11
8.77489
 21
268.986
  0
LINE
  8
0
 10
8.77489
 20
268.986
 11
8.71367
 21
269.065
  0
LINE
  8
0
 10
8.71367
 20
269.065
 11
8.65753
 21
269.148
  0
LINE
  8
0
 10
8.65753
 20
269.148
 11
8.60667
 21
269.234
  0
LINE
  8
0
 10
8.60667
 20
269.234
 11
8.56133
 21
269.323
  0
LINE
  8
0
 10
8.56133
 20
269.323
 11
8.52167
 21
269.415
  0
LINE
  8
0
 10
8.52167
 20
269.415
 11
8.48782
 21
269.509
  0
LINE
  8
0
 10
8.48782
 20
269.509
 11
8.45996
 21
269.605
  0
LINE
  8
0
 10
8.45996
 20
269.605
 11
8.43817
 21
269.702
  0
LINE
  8
0
 10
8.43817
 20
269.702
 11
8.42255
 21
269.801
  0
LINE
  8
0
 10
8.42255
 20
269.801
 11
8.41315
 21
269.9
  0
LINE
  8
0
 10
8.41315
 20
269.9
 11
8.41
 21
270
  0
LINE
  8
0
 10
8.41
 20
270
 11
8.41315
 21
270.1
  0
LINE
  8
0
 10
8.41315
 20
270.1
 11
8.42255
 21
270.199
  0
LINE
  8
0
 10
8.42255
 20
270.199
 11
8.43817
 21
270.298
  0
LINE
  8
0
 10
8.43817
 20
270.298
 11
8.45996
 21
270.395
  0
LINE
  8
0
 10
8.45996
 20
270.395
 11
8.48782
 21
270.491
  0
LINE
  8
0
 10
8.48782
 20
270.491
 11
8.52167
 21
270.585
  0
LINE
  8
0
 10
8.52167
 20
270.585
 11
8.56133
 21
270.677
  0
LINE
  8
0
 10
8.56133
 20
270.677
 11
8.60667
 21
270.766
  0
LINE
  8
0
 10
8.60667
 20
270.766
 11
8.65753
 21
270.852
  0
LINE
  8
0
 10
8.65753
 20
270.852
 11
8.71367
 21
270.935
  0
LINE
  8
0
 10
8.71367
 20
270.935
 11
8.77489
 21
271.014
  0
LINE
  8
0
 10
8.77489
 20
271.014
 11
8.84094
 21
271.088
  0
LINE
  8
0
 10
8.84094
 20
271.088
 11
8.91158
 21
271.159
  0
LINE
  8
0
 10
8.91158
 20
271.159
 11
8.9865
 21
271.225
  0
LINE
  8
0
 10
8.9865
 20
271.225
 11
9.06543
 21
271.286
  0
LINE
  8
0
 10
9.06543
 20
271.286
 11
9.14804
 21
271.342
  0
LINE
  8
0
 10
9.14804
 20
271.342
 11
9.23402
 21
271.393
  0
LINE
  8
0
 10
9.23402
 20
271.393
 11
9.32301
 21
271.439
  0
LINE
  8
0
 10
9.32301
 20
271.439
 11
9.41469
 21
271.478
  0
LINE
  8
0
 10
9.41469
 20
271.478
 11
9.50867
 21
271.512
  0
LINE
  8
0
 10
9.50867
 20
271.512
 11
9.60458
 21
271.54
  0
LINE
  8
0
 10
9.60458
 20
271.54
 11
9.70207
 21
271.562
  0
LINE
  8
0
 10
9.70207
 20
271.562
 11
9.80072
 21
271.577
  0
LINE
  8
0
 10
9.80072
 20
271.577
 11
9.90018
 21
271.587
  0
LINE
  8
0
 10
9.90018
 20
271.587
 11
10
 21
271.59
  0
LINE
  8
0
 10
10
 20
271.59
 11
10.0998
 21
271.587
  0
LINE
  8
0
 10
10.0998
 20
271.587
 11
10.1993
 21
271.577
  0
LINE
  8
0
 10
10.1993
 20
271.577
 11
10.2979
 21
271.562
  0
LINE
  8
0
 10
10.2979
 20
271.562
 11
10.3954
 21
271.54
  0
LINE
  8
0
 10
10.3954
 20
271.54
 11
10.4913
 21
271.512
  0
LINE
  8
0
 10
10.4913
 20
271.512
 11
10.5853
 21
271.478
  0
LINE
  8
0
 10
10.5853
 20
271.478
 11
10.677
 21
271.439
  0
LINE
  8
0
 10
10.677
 20
271.439
 11
10.766
 21
271.393
  0
LINE
  8
0
 10
10.766
 20
271.393
 11
10.852
 21
271.342
  0
LINE
  8
0
 10
10.852
 20
271.342
 11
10.9346
 21
271.286
  0
LINE
  8
0
 10
10.9346
 20
271.286
 11
11.0135
 21
271.225
  0
LINE
  8
0
 10
11.0135
 20
271.225
 11
11.0884
 21
271.159
  0
LINE
  8
0
 10
11.0884
 20
271.159
 11
11.1591
 21
271.088
  0
LINE
  8
0
 10
11.1591
 20
271.088
 11
11.2251
 21
271.014
  0
LINE
  8
0
 10
11.2251
 20
271.014
 11
11.2863
 21
270.935
  0
LINE
  8
0
 10
11.2863
 20
270.935
 11
11.3425
 21
270.852
  0
LINE
  8
0
 10
11.3425
 20
270.852
 11
11.3933
 21
270.766
  0
LINE
  8
0
 10
11.3933
 20
270.766
 11
11.4387
 21
270.677
  0
LINE
  8
0
 10
11.4387
 20
270.677
 11
11.4783
 21
270.585
  0
LINE
  8
0
 10
11.4783
 20
270.585
 11
11.5122
 21
270.491
  0
LINE
  8
0
 10
11.5122
 20
270.491
 11
11.54
 21
270.395
  0
LINE
  8
0
 10
11.54
 20
270.395
 11
11.5618
 21
270.298
  0
LINE
  8
0
 10
11.5618
 20
270.298
 11
11.5775
 21
270.199
  0
LINE
  8
0
 10
11.5775
 20
270.199
 11
11.5869
 21
270.1
  0
LINE
  8
0
 10
11.5869
 20
270.1
 11
11.59
 21
270
  0
LINE
  8
0
 10
11.59
 20
270
 11
11.5869
 21
269.9
  0
LINE
  8
0
 10
11.5869
 20
269.9
 11
11.5775
 21
269.801
  0
LINE
  8
0
 10
11.5775
 20
269.801
 11
11.5618
 21
269.702
  0
LINE
  8
0
 10
11.5618
 20
269.702
 11
11.54
 21
269.605
  0
LINE
  8
0
 10
11.54
 20
269.605
 11
11.5122
 21
269.509
  0
LINE
  8
0
 10
11.5122
 20
269.509
 11
11.4783
 21
269.415
  0
LINE
  8
0
 10
11.4783
 20
269.415
 11
11.4387
 21
269.323
  0
LINE
  8
0
 10
11.4387
 20
269.323
 11
11.3933
 21
269.234
  0
LINE
  8
0
 10
11.3933
 20
269.234
 11
11.3425
 21
269.148
  0
LINE
  8
0
 10
11.3425
 20
269.148
 11
11.2863
 21
269.065
  0
LINE
  8
0
 10
11.2863
 20
269.065
 11
11.2251
 21
268.986
  0
LINE
  8
0
 10
11.2251
 20
268.986
 11
11.1591
 21
268.912
  0
LINE
  8
0
 10
11.1591
 20
268.912
 11
11.0884
 21
268.841
  0
LINE
  8
0
 10
11.0884
 20
268.841
 11
11.0135
 21
268.775
  0
LINE
  8
0
 10
11.0135
 20
268.775
 11
10.9346
 21
268.714
  0
LINE
  8
0
 10
10.9346
 20
268.714
 11
10.852
 21
268.658
  0
LINE
  8
0
 10
10.852
 20
268.658
 11
10.766
 21
268.607
  0
LINE
  8
0
 10
10.766
 20
268.607
 11
10.677
 21
268.561
  0
LINE
  8
0
 10
10.677
 20
268.561
 11
10.5853
 21
268.522
  0
LINE
  8
0
 10
10.5853
 20
268.522
 11
10.4913
 21
268.488
  0
LINE
  8
0
 10
10.4913
 20
268.488
 11
10.3954
 21
268.46
  0
LINE
  8
0
 10
10.3954
 20
268.46
 11
10.2979
 21
268.438
  0
LINE
  8
0
 10
10.2979
 20
268.438
 11
10.1993
 21
268.423
  0
LINE
  8
0
 10
10.1993
 20
268.423
 11
10.0998
 21
268.413
  0
LINE
  8
0
 10
10.0998
 20
268.413
 11
10
 21
268.41
  0
LINE
  8
0
 10
10
 20
268.41
 11
9.90018
 21
268.413
  0
LINE
  8
0
 10
129.9
 20
268.413
 11
129.801
 21
268.423
  0
LINE
  8
0
 10
129.801
 20
268.423
 11
129.702
 21
268.438
  0
LINE
  8
0
 10
129.702
 20
268.438
 11
129.605
 21
268.46
  0
LINE
  8
0
 10
129.605
 20
268.46
 11
129.509
 21
268.488
  0
LINE
  8
0
 10
129.509
 20
268.488
 11
129.415
 21
268.522
  0
LINE
  8
0
 10
129.415
 20
268.522
 11
129.323
 21
268.561
  0
LINE
  8
0
 10
129.323
 20
268.561
 11
129.234
 21
268.607
  0
LINE
  8
0
 10
129.234
 20
268.607
 11
129.148
 21
268.658
  0
LINE
  8
0
 10
129.148
 20
268.658
 11
129.065
 21
268.714
  0
LINE
  8
0
 10
129.065
 20
268.714
 11
128.986
 21
268.775
  0
LINE
  8
0
 10
128.986
 20
268.775
 11
128.912
 21
268.841
  0
LINE
  8
0
 10
128.912
 20
268.841
 11
128.841
 21
268.912
  0
LINE
  8
0
 10
128.841
 20
268.912
 11
128.775
 21
268.986
  0
LINE
  8
0
 10
128.775
 20
268.986
 11
128.714
 21
269.065
  0
LINE
  8
0
 10
128.714
 20
269.065
 11
128.658
 21
269.148
  0
LINE
  8
0
 10
128.658
 20
269.148
 11
128.607
 21
269.234
  0
LINE
  8
0
 10
128.607
 20
269.234
 11
128.561
 21
269.323
  0
LINE
  8
0
 10
128.561
 20
269.323
 11
128.522
 21
269.415
  0
LINE
  8
0
 10
128.522
 20
269.415
 11
128.488
 21
269.509
  0
LINE
  8
0
 10
128.488
 20
269.509
 11
128.46
 21
269.605
  0
LINE
  8
0
 10
128.46
 20
269.605
 11
128.438
 21
269.702
  0
LINE
  8
0
 10
128.438
 20
269.702
 11
128.423
 21
269.801
  0
LINE
  8
0
 10
128.423
 20
269.801
 11
128.413
 21
269.9
  0
LINE
  8
0
 10
128.413
 20
269.9
 11
128.41
 21
270
  0
LINE
  8
0
 10
128.41
 20
270
 11
128.413
 21
270.1
  0
LINE
  8
0
 10
128.413
 20
270.1
 11
128.423
 21
270.199
  0
LINE
  8
0
 10
128.423
 20
270.199
 11
128.438
 21
270.298
  0
LINE
  8
0
 10
128.438
 20
270.298
 11
128.46
 21
270.395
  0
LINE
  8
0
 10
128.46
 20
270.395
 11
128.488
 21
270.491
  0
LINE
  8
0
 10
128.488
 20
270.491
 11
128.522
 21
270.585
  0
LINE
  8
0
 10
128.522
 20
270.585
 11
128.561
 21
270.677
  0
LINE
  8
0
 10
128.561
 20
270.677
 11
128.607
 21
270.766
  0
LINE
  8
0
 10
128.607
 20
270.766
 11
128.658
 21
270.852
  0
LINE
  8
0
 10
128.658
 20
270.852
 11
128.714
 21
270.935
  0
LINE
  8
0
 10
128.714
 20
270.935
 11
128.775
 21
271.014
  0
LINE
  8
0
 10
128.775
 20
271.014
 11
128.841
 21
271.088
  0
LINE
  8
0
 10
128.841
 20
271.088
 11
128.912
 21
271.159
  0
LINE
  8
0
 10
128.912
 20
271.159
 11
128.986
 21
271.225
  0
LINE
  8
0
 10
128.986
 20
271.225
 11
129.065
 21
271.286
  0
LINE
  8
0
 10
129.065
 20
271.286
 11
129.148
 21
271.342
  0
LINE
  8
0
 10
129.148
 20
271.342
 11
129.234
 21
271.393
  0
LINE
  8
0
 10
129.234
 20
271.393
 11
129.323
 21
271.439
  0
LINE
  8
0
 10
129.323
 20
271.439
 11
129.415
 21
271.478
  0
LINE
  8
0
 10
129.415
 20
271.478
 11
129.509
 21
271.512
  0
LINE
  8
0
 10
129.509
 20
271.512
 11
129.605
 21
271.54
  0
LINE
  8
0
 10
129.605
 20
271.54
 11
129.702
 21
271.562
  0
LINE
  8
0
 10
129.702
 20
271.562
 11
129.801
 21
271.577
  0
LINE
  8
0
 10
129.801
 20
271.577
 11
129.9
 21
271.587
  0
LINE
  8
0
 10
129.9
 20
271.587
 11
130
 21
271.59
  0
LINE
  8
0
 10
130
 20
271.59
 11
130.1
 21
271.587
  0
LINE
  8
0
 10
130.1
 20
271.587
 11
130.199
 21
271.577
  0
LINE
  8
0
 10
130.199
 20
271.577
 11
130.298
 21
271.562
  0
LINE
  8
0
 10
130.298
 20
271.562
 11
130.395
 21
271.54
  0
LINE
  8
0
 10
130.395
 20
271.54
 11
130.491
 21
271.512
  0
LINE
  8
0
 10
130.491
 20
271.512
 11
130.585
 21
271.478
  0
LINE
  8
0
 10
130.585
 20
271.478
 11
130.677
 21
271.439
  0
LINE
  8
0
 10
130.677
 20
271.439
 11
130.766
 21
271.393
  0
LINE
  8
0
 10
130.766
 20
271.393
 11
130.852
 21
271.342
  0
LINE
  8
0
 10
130.852
 20
271.342
 11
130.935
 21
271.286
  0
LINE
  8
0
 10
130.935
 20
271.286
 11
131.014
 21
271.225
  0
LINE
  8
0
 10
131.014
 20
271.225
 11
131.088
 21
271.159
  0
LINE
  8
0
 10
131.088
 20
271.159
 11
131.159
 21
271.088
  0
LINE
  8
0
 10
131.159
 20
271.088
 11
131.225
 21
271.014
  0
LINE
  8
0
 10
131.225
 20
271.014
 11
131.286
 21
270.935
  0
LINE
  8
0
 10
131.286
 20
270.935
 11
131.342
 21
270.852
  0
LINE
  8
0
 10
131.342
 20
270.852
 11
131.393
 21
270.766
  0
LINE
  8
0
 10
131.393
 20
270.766
 11
131.439
 21
270.677
  0
LINE
  8
0
 10
131.439
 20
270.677
 11
131.478
 21
270.585
  0
LINE
  8
0
 10
131.478
 20
270.585
 11
131.512
 21
270.491
  0
LINE
  8
0
 10
131.512
 20
270.491
 11
131.54
 21
270.395
  0
LINE
  8
0
 10
131.54
 20
270.395
 11
131.562
 21
270.298
  0
LINE
  8
0
 10
131.562
 20
270.298
 11
131.577
 21
270.199
  0
LINE
  8
0
 10
131.577
 20
270.199
 11
131.587
 21
270.1
  0
LINE
  8
0
 10
131.587
 20
270.1
 11
131.59
 21
270
  0
LINE
  8
0
 10
131.59
 20
270
 11
131.587
 21
269.9
  0
LINE
  8
0
 10
131.587
 20
269.9
 11
131.577
 21
269.801
  0
LINE
  8
0
 10
131.577
 20
269.801
 11
131.562
 21
269.702
  0
LINE
  8
0
 10
131.562
 20
269.702
 11
131.54
 21
269.605
  0
LINE
  8
0
 10
131.54
 20
269.605
 11
131.512
 21
269.509
  0
LINE
  8
0
 10
131.512
 20
269.509
 11
131.478
 21
269.415
  0
LINE
  8
0
 10
131.478
 20
269.415
 11
131.439
 21
269.323
  0
LINE
  8
0
 10
131.439
 20
269.323
 11
131.393
 21
269.234
  0
LINE
  8
0
 10
131.393
 20
269.234
 11
131.342
 21
269.148
  0
LINE
  8
0
 10
131.342
 20
269.148
 11
131.286
 21
269.065
  0
LINE
  8
0
 10
131.286
 20
269.065
 11
131.225
 21
268.986
  0
LINE
  8
0
 10
131.225
 20
268.986
 11
131.159
 21
268.912
  0
LINE
  8
0
 10
131.159
 20
268.912
 11
131.088
 21
268.841
  0
LINE
  8
0
 10
131.088
 20
268.841
 11
131.014
 21
268.775
  0
LINE
  8
0
 10
131.014
 20
268.775
 11
130.935
 21
268.714
  0
LINE
  8
0
 10
130.935
 20
268.714
 11
130.852
 21
268.658
  0
LINE
  8
0
 10
130.852
 20
268.658
 11
130.766
 21
268.607
  0
LINE
  8
0
 10
130.766
 20
268.607
 11
130.677
 21
268.561
  0
LINE
  8
0
 10
130.677
 20
268.561
 11
130.585
 21
268.522
  0
LINE
  8
0
 10
130.585
 20
268.522
 11
130.491
 21
268.488
  0
LINE
  8
0
 10
130.491
 20
268.488
 11
130.395
 21
268.46
  0
LINE
  8
0
 10
130.395
 20
268.46
 11
130.298
 21
268.438
  0
LINE
  8
0
 10
130.298
 20
268.438
 11
130.199
 21
268.423
  0
LINE
  8
0
 10
130.199
 20
268.423
 11
130.1
 21
268.413
  0
LINE
  8
0
 10
130.1
 20
268.413
 11
130
 21
268.41
  0
LINE
  8
0
 10
130
 20
268.41
 11
129.9
 21
268.413
  0
LINE
  8
0
 10
63.4002
 20
233.413
 11
63.3007
 21
233.423
  0
LINE
  8
0
 10
63.3007
 20
233.423
 11
63.2021
 21
233.438
  0
LINE
  8
0
 10
63.2021
 20
233.438
 11
63.1046
 21
233.46
  0
LINE
  8
0
 10
63.1046
 20
233.46
 11
63.0087
 21
233.488
  0
LINE
  8
0
 10
63.0087
 20
233.488
 11
62.9147
 21
233.522
  0
LINE
  8
0
 10
62.9147
 20
233.522
 11
62.823
 21
233.561
  0
LINE
  8
0
 10
62.823
 20
233.561
 11
62.734
 21
233.607
  0
LINE
  8
0
 10
62.734
 20
233.607
 11
62.648
 21
233.658
  0
LINE
  8
0
 10
62.648
 20
233.658
 11
62.5654
 21
233.714
  0
LINE
  8
0
 10
62.5654
 20
233.714
 11
62.4865
 21
233.775
  0
LINE
  8
0
 10
62.4865
 20
233.775
 11
62.4116
 21
233.841
  0
LINE
  8
0
 10
62.4116
 20
233.841
 11
62.3409
 21
233.912
  0
LINE
  8
0
 10
62.3409
 20
233.912
 11
62.2749
 21
233.986
  0
LINE
  8
0
 10
62.2749
 20
233.986
 11
62.2137
 21
234.065
  0
LINE
  8
0
 10
62.2137
 20
234.065
 11
62.1575
 21
234.148
  0
LINE
  8
0
 10
62.1575
 20
234.148
 11
62.1067
 21
234.234
  0
LINE
  8
0
 10
62.1067
 20
234.234
 11
62.0613
 21
234.323
  0
LINE
  8
0
 10
62.0613
 20
234.323
 11
62.0217
 21
234.415
  0
LINE
  8
0
 10
62.0217
 20
234.415
 11
61.9878
 21
234.509
  0
LINE
  8
0
 10
61.9878
 20
234.509
 11
61.96
 21
234.605
  0
LINE
  8
0
 10
61.96
 20
234.605
 11
61.9382
 21
234.702
  0
LINE
  8
0
 10
61.9382
 20
234.702
 11
61.9225
 21
234.801
  0
LINE
  8
0
 10
61.9225
 20
234.801
 11
61.9131
 21
234.9
  0
LINE
  8
0
 10
61.9131
 20
234.9
 11
61.91
 21
235
  0
LINE
  8
0
 10
61.91
 20
235
 11
61.9131
 21
235.1
  0
LINE
  8
0
 10
61.9131
 20
235.1
 11
61.9225
 21
235.199
  0
LINE
  8
0
 10
61.9225
 20
235.199
 11
61.9382
 21
235.298
  0
LINE
  8
0
 10
61.9382
 20
235.298
 11
61.96
 21
235.395
  0
LINE
  8
0
 10
61.96
 20
235.395
 11
61.9878
 21
235.491
  0
LINE
  8
0
 10
61.9878
 20
235.491
 11
62.0217
 21
235.585
  0
LINE
  8
0
 10
62.0217
 20
235.585
 11
62.0613
 21
235.677
  0
LINE
  8
0
 10
62.0613
 20
235.677
 11
62.1067
 21
235.766
  0
LINE
  8
0
 10
62.1067
 20
235.766
 11
62.1575
 21
235.852
  0
LINE
  8
0
 10
62.1575
 20
235.852
 11
62.2137
 21
235.935
  0
LINE
  8
0
 10
62.2137
 20
235.935
 11
62.2749
 21
236.014
  0
LINE
  8
0
 10
62.2749
 20
236.014
 11
62.3409
 21
236.088
  0
LINE
  8
0
 10
62.3409
 20
236.088
 11
62.4116
 21
236.159
  0
LINE
  8
0
 10
62.4116
 20
236.159
 11
62.4865
 21
236.225
  0
LINE
  8
0
 10
62.4865
 20
236.225
 11
62.5654
 21
236.286
  0
LINE
  8
0
 10
62.5654
 20
236.286
 11
62.648
 21
236.342
  0
LINE
  8
0
 10
62.648
 20
236.342
 11
62.734
 21
236.393
  0
LINE
  8
0
 10
62.734
 20
236.393
 11
62.823
 21
236.439
  0
LINE
  8
0
 10
62.823
 20
236.439
 11
62.9147
 21
236.478
  0
LINE
  8
0
 10
62.9147
 20
236.478
 11
63.0087
 21
236.512
  0
LINE
  8
0
 10
63.0087
 20
236.512
 11
63.1046
 21
236.54
  0
LINE
  8
0
 10
63.1046
 20
236.54
 11
63.2021
 21
236.562
  0
LINE
  8
0
 10
63.2021
 20
236.562
 11
63.3007
 21
236.577
  0
LINE
  8
0
 10
63.3007
 20
236.577
 11
63.4002
 21
236.587
  0
LINE
  8
0
 10
63.4002
 20
236.587
 11
63.5
 21
236.59
  0
LINE
  8
0
 10
63.5
 20
236.59
 11
63.5998
 21
236.587
  0
LINE
  8
0
 10
63.5998
 20
236.587
 11
63.6993
 21
236.577
  0
LINE
  8
0
 10
63.6993
 20
236.577
 11
63.7979
 21
236.562
  0
LINE
  8
0
 10
63.7979
 20
236.562
 11
63.8954
 21
236.54
  0
LINE
  8
0
 10
63.8954
 20
236.54
 11
63.9913
 21
236.512
  0
LINE
  8
0
 10
63.9913
 20
236.512
 11
64.0853
 21
236.478
  0
LINE
  8
0
 10
64.0853
 20
236.478
 11
64.177
 21
236.439
  0
LINE
  8
0
 10
64.177
 20
236.439
 11
64.266
 21
236.393
  0
LINE
  8
0
 10
64.266
 20
236.393
 11
64.352
 21
236.342
  0
LINE
  8
0
 10
64.352
 20
236.342
 11
64.4346
 21
236.286
  0
LINE
  8
0
 10
64.4346
 20
236.286
 11
64.5135
 21
236.225
  0
LINE
  8
0
 10
64.5135
 20
236.225
 11
64.5884
 21
236.159
  0
LINE
  8
0
 10
64.5884
 20
236.159
 11
64.6591
 21
236.088
  0
LINE
  8
0
 10
64.6591
 20
236.088
 11
64.7251
 21
236.014
  0
LINE
  8
0
 10
64.7251
 20
236.014
 11
64.7863
 21
235.935
  0
LINE
  8
0
 10
64.7863
 20
235.935
 11
64.8425
 21
235.852
  0
LINE
  8
0
 10
64.8425
 20
235.852
 11
64.8933
 21
235.766
  0
LINE
  8
0
 10
64.8933
 20
235.766
 11
64.9387
 21
235.677
  0
LINE
  8
0
 10
64.9387
 20
235.677
 11
64.9783
 21
235.585
  0
LINE
  8
0
 10
64.9783
 20
235.585
 11
65.0122
 21
235.491
  0
LINE
  8
0
 10
65.0122
 20
235.491
 11
65.04
 21
235.395
  0
LINE
  8
0
 10
65.04
 20
235.395
 11
65.0618
 21
235.298
  0
LINE
  8
0
 10
65.0618
 20
235.298
 11
65.0775
 21
235.199
  0
LINE
  8
0
 10
65.0775
 20
235.199
 11
65.0869
 21
235.1
  0
LINE
  8
0
 10
65.0869
 20
235.1
 11
65.09
 21
235
  0
LINE
  8
0
 10
65.09
 20
235
 11
65.0869
 21
234.9
  0
LINE
  8
0
 10
65.0869
 20
234.9
 11
65.0775
 21
234.801
  0
LINE
  8
0
 10
65.0775
 20
234.801
 11
65.0618
 21
234.702
  0
LINE
  8
0
 10
65.0618
 20
234.702
 11
65.04
 21
234.605
  0
LINE
  8
0
 10
65.04
 20
234.605
 11
65.0122
 21
234.509
  0
LINE
  8
0
 10
65.0122
 20
234.509
 11
64.9783
 21
234.415
  0
LINE
  8
0
 10
64.9783
 20
234.415
 11
64.9387
 21
234.323
  0
LINE
  8
0
 10
64.9387
 20
234.323
 11
64.8933
 21
234.234
  0
LINE
  8
0
 10
64.8933
 20
234.234
 11
64.8425
 21
234.148
  0
LINE
  8
0
 10
64.8425
 20
234.148
 11
64.7863
 21
234.065
  0
LINE
  8
0
 10
64.7863
 20
234.065
 11
64.7251
 21
233.986
  0
LINE
  8
0
 10
64.7251
 20
233.986
 11
64.6591
 21
233.912
  0
LINE
  8
0
 10
64.6591
 20
233.912
 11
64.5884
 21
233.841
  0
LINE
  8
0
 10
64.5884
 20
233.841
 11
64.5135
 21
233.775
  0
LINE
  8
0
 10
64.5135
 20
233.775
 11
64.4346
 21
233.714
  0
LINE
  8
0
 10
64.4346
 20
233.714
 11
64.352
 21
233.658
  0
LINE
  8
0
 10
64.352
 20
233.658
 11
64.266
 21
233.607
  0
LINE
  8
0
 10
64.266
 20
233.607
 11
64.177
 21
233.561
  0
LINE
  8
0
 10
64.177
 20
233.561
 11
64.0853
 21
233.522
  0
LINE
  8
0
 10
64.0853
 20
233.522
 11
63.9913
 21
233.488
  0
LINE
  8
0
 10
63.9913
 20
233.488
 11
63.8954
 21
233.46
  0
LINE
  8
0
 10
63.8954
 20
233.46
 11
63.7979
 21
233.438
  0
LINE
  8
0
 10
63.7979
 20
233.438
 11
63.6993
 21
233.423
  0
LINE
  8
0
 10
63.6993
 20
233.423
 11
63.5998
 21
233.413
  0
LINE
  8
0
 10
63.5998
 20
233.413
 11
63.5
 21
233.41
  0
LINE
  8
0
 10
63.5
 20
233.41
 11
63.4002
 21
233.413
  0
LINE
  8
0
 10
105.9
 20
233.413
 11
105.801
 21
233.423
  0
LINE
  8
0
 10
105.801
 20
233.423
 11
105.702
 21
233.438
  0
LINE
  8
0
 10
105.702
 20
233.438
 11
105.605
 21
233.46
  0
LINE
  8
0
 10
105.605
 20
233.46
 11
105.509
 21
233.488
  0
LINE
  8
0
 10
105.509
 20
233.488
 11
105.415
 21
233.522
  0
LINE
  8
0
 10
105.415
 20
233.522
 11
105.323
 21
233.561
  0
LINE
  8
0
 10
105.323
 20
233.561
 11
105.234
 21
233.607
  0
LINE
  8
0
 10
105.234
 20
233.607
 11
105.148
 21
233.658
  0
LINE
  8
0
 10
105.148
 20
233.658
 11
105.065
 21
233.714
  0
LINE
  8
0
 10
105.065
 20
233.714
 11
104.986
 21
233.775
  0
LINE
  8
0
 10
104.986
 20
233.775
 11
104.912
 21
233.841
  0
LINE
  8
0
 10
104.912
 20
233.841
 11
104.841
 21
233.912
  0
LINE
  8
0
 10
104.841
 20
233.912
 11
104.775
 21
233.986
  0
LINE
  8
0
 10
104.775
 20
233.986
 11
104.714
 21
234.065
  0
LINE
  8
0
 10
104.714
 20
234.065
 11
104.658
 21
234.148
  0
LINE
  8
0
 10
104.658
 20
234.148
 11
104.607
 21
234.234
  0
LINE
  8
0
 10
104.607
 20
234.234
 11
104.561
 21
234.323
  0
LINE
  8
0
 10
104.561
 20
234.323
 11
104.522
 21
234.415
  0
LINE
  8
0
 10
104.522
 20
234.415
 11
104.488
 21
234.509
  0
LINE
  8
0
 10
104.488
 20
234.509
 11
104.46
 21
234.605
  0
LINE
  8
0
 10
104.46
 20
234.605
 11
104.438
 21
234.702
  0
LINE
  8
0
 10
104.438
 20
234.702
 11
104.423
 21
234.801
  0
LINE
  8
0
 10
104.423
 20
234.801
 11
104.413
 21
234.9
  0
LINE
  8
0
 10
104.413
 20
234.9
 11
104.41
 21
235
  0
LINE
  8
0
 10
104.41
 20
235
 11
104.413
 21
235.1
  0
LINE
  8
0
 10
104.413
 20
235.1
 11
104.423
 21
235.199
  0
LINE
  8
0
 10
104.423
 20
235.199
 11
104.438
 21
235.298
  0
LINE
  8
0
 10
104.438
 20
235.298
 11
104.46
 21
235.395
  0
LINE
  8
0
 10
104.46
 20
235.395
 11
104.488
 21
235.491
  0
LINE
  8
0
 10
104.488
 20
235.491
 11
104.522
 21
235.585
  0
LINE
  8
0
 10
104.522
 20
235.585
 11
104.561
 21
235.677
  0
LINE
  8
0
 10
104.561
 20
235.677
 11
104.607
 21
235.766
  0
LINE
  8
0
 10
104.607
 20
235.766
 11
104.658
 21
235.852
  0
LINE
  8
0
 10
104.658
 20
235.852
 11
104.714
 21
235.935
  0
LINE
  8
0
 10
104.714
 20
235.935
 11
104.775
 21
236.014
  0
LINE
  8
0
 10
104.775
 20
236.014
 11
104.841
 21
236.088
  0
LINE
  8
0
 10
104.841
 20
236.088
 11
104.912
 21
236.159
  0
LINE
  8
0
 10
104.912
 20
236.159
 11
104.986
 21
236.225
  0
LINE
  8
0
 10
104.986
 20
236.225
 11
105.065
 21
236.286
  0
LINE
  8
0
 10
105.065
 20
236.286
 11
105.148
 21
236.342
  0
LINE
  8
0
 10
105.148
 20
236.342
 11
105.234
 21
236.393
  0
LINE
  8
0
 10
105.234
 20
236.393
 11
105.323
 21
236.439
  0
LINE
  8
0
 10
105.323
 20
236.439
 11
105.415
 21
236.478
  0
LINE
  8
0
 10
105.415
 20
236.478
 11
105.509
 21
236.512
  0
LINE
  8
0
 10
105.509
 20
236.512
 11
105.605
 21
236.54
  0
LINE
  8
0
 10
105.605
 20
236.54
 11
105.702
 21
236.562
  0
LINE
  8
0
 10
105.702
 20
236.562
 11
105.801
 21
236.577
  0
LINE
  8
0
 10
105.801
 20
236.577
 11
105.9
 21
236.587
  0
LINE
  8
0
 10
105.9
 20
236.587
 11
106
 21
236.59
  0
LINE
  8
0
 10
106
 20
236.59
 11
106.1
 21
236.587
  0
LINE
  8
0
 10
106.1
 20
236.587
 11
106.199
 21
236.577
  0
LINE
  8
0
 10
106.199
 20
236.577
 11
106.298
 21
236.562
  0
LINE
  8
0
 10
106.298
 20
236.562
 11
106.395
 21
236.54
  0
LINE
  8
0
 10
106.395
 20
236.54
 11
106.491
 21
236.512
  0
LINE
  8
0
 10
106.491
 20
236.512
 11
106.585
 21
236.478
  0
LINE
  8
0
 10
106.585
 20
236.478
 11
106.677
 21
236.439
  0
LINE
  8
0
 10
106.677
 20
236.439
 11
106.766
 21
236.393
  0
LINE
  8
0
 10
106.766
 20
236.393
 11
106.852
 21
236.342
  0
LINE
  8
0
 10
106.852
 20
236.342
 11
106.935
 21
236.286
  0
LINE
  8
0
 10
106.935
 20
236.286
 11
107.014
 21
236.225
  0
LINE
  8
0
 10
107.014
 20
236.225
 11
107.088
 21
236.159
  0
LINE
  8
0
 10
107.088
 20
236.159
 11
107.159
 21
236.088
  0
LINE
  8
0
 10
107.159
 20
236.088
 11
107.225
 21
236.014
  0
LINE
  8
0
 10
107.225
 20
236.014
 11
107.286
 21
235.935
  0
LINE
  8
0
 10
107.286
 20
235.935
 11
107.342
 21
235.852
  0
LINE
  8
0
 10
107.342
 20
235.852
 11
107.393
 21
235.766
  0
LINE
  8
0
 10
107.393
 20
235.766
 11
107.439
 21
235.677
  0
LINE
  8
0
 10
107.439
 20
235.677
 11
107.478
 21
235.585
  0
LINE
  8
0
 10
107.478
 20
235.585
 11
107.512
 21
235.491
  0
LINE
  8
0
 10
107.512
 20
235.491
 11
107.54
 21
235.395
  0
LINE
  8
0
 10
107.54
 20
235.395
 11
107.562
 21
235.298
  0
LINE
  8
0
 10
107.562
 20
235.298
 11
107.577
 21
235.199
  0
LINE
  8
0
 10
107.577
 20
235.199
 11
107.587
 21
235.1
  0
LINE
  8
0
 10
107.587
 20
235.1
 11
107.59
 21
235
  0
LINE
  8
0
 10
107.59
 20
235
 11
107.587
 21
234.9
  0
LINE
  8
0
 10
107.587
 20
234.9
 11
107.577
 21
234.801
  0
LINE
  8
0
 10
107.577
 20
234.801
 11
107.562
 21
234.702
  0
LINE
  8
0
 10
107.562
 20
234.702
 11
107.54
 21
234.605
  0
LINE
  8
0
 10
107.54
 20
234.605
 11
107.512
 21
234.509
  0
LINE
  8
0
 10
107.512
 20
234.509
 11
107.478
 21
234.415
  0
LINE
  8
0
 10
107.478
 20
234.415
 11
107.439
 21
234.323
  0
LINE
  8
0
 10
107.439
 20
234.323
 11
107.393
 21
234.234
  0
LINE
  8
0
 10
107.393
 20
234.234
 11
107.342
 21
234.148
  0
LINE
  8
0
 10
107.342
 20
234.148
 11
107.286
 21
234.065
  0
LINE
  8
0
 10
107.286
 20
234.065
 11
107.225
 21
233.986
  0
LINE
  8
0
 10
107.225
 20
233.986
 11
107.159
 21
233.912
  0
LINE
  8
0
 10
107.159
 20
233.912
 11
107.088
 21
233.841
  0
LINE
  8
0
 10
107.088
 20
233.841
 11
107.014
 21
233.775
  0
LINE
  8
0
 10
107.014
 20
233.775
 11
106.935
 21
233.714
  0
LINE
  8
0
 10
106.935
 20
233.714
 11
106.852
 21
233.658
  0
LINE
  8
0
 10
106.852
 20
233.658
 11
106.766
 21
233.607
  0
LINE
  8
0
 10
106.766
 20
233.607
 11
106.677
 21
233.561
  0
LINE
  8
0
 10
106.677
 20
233.561
 11
106.585
 21
233.522
  0
LINE
  8
0
 10
106.585
 20
233.522
 11
106.491
 21
233.488
  0
LINE
  8
0
 10
106.491
 20
233.488
 11
106.395
 21
233.46
  0
LINE
  8
0
 10
106.395
 20
233.46
 11
106.298
 21
233.438
  0
LINE
  8
0
 10
106.298
 20
233.438
 11
106.199
 21
233.423
  0
LINE
  8
0
 10
106.199
 20
233.423
 11
106.1
 21
233.413
  0
LINE
  8
0
 10
106.1
 20
233.413
 11
106
 21
233.41
  0
LINE
  8
0
 10
106
 20
233.41
 11
105.9
 21
233.413
  0
LINE
  8
0
 10
42.4002
 20
153.413
 11
42.3007
 21
153.423
  0
LINE
  8
0
 10
42.3007
 20
153.423
 11
42.2021
 21
153.438
  0
LINE
  8
0
 10
42.2021
 20
153.438
 11
42.1046
 21
153.46
  0
LINE
  8
0
 10
42.1046
 20
153.46
 11
42.0087
 21
153.488
  0
LINE
  8
0
 10
42.0087
 20
153.488
 11
41.9147
 21
153.522
  0
LINE
  8
0
 10
41.9147
 20
153.522
 11
41.823
 21
153.561
  0
LINE
  8
0
 10
41.823
 20
153.561
 11
41.734
 21
153.607
  0
LINE
  8
0
 10
41.734
 20
153.607
 11
41.648
 21
153.658
  0
LINE
  8
0
 10
41.648
 20
153.658
 11
41.5654
 21
153.714
  0
LINE
  8
0
 10
41.5654
 20
153.714
 11
41.4865
 21
153.775
  0
LINE
  8
0
 10
41.4865
 20
153.775
 11
41.4116
 21
153.841
  0
LINE
  8
0
 10
41.4116
 20
153.841
 11
41.3409
 21
153.912
  0
LINE
  8
0
 10
41.3409
 20
153.912
 11
41.2749
 21
153.986
  0
LINE
  8
0
 10
41.2749
 20
153.986
 11
41.2137
 21
154.065
  0
LINE
  8
0
 10
41.2137
 20
154.065
 11
41.1575
 21
154.148
  0
LINE
  8
0
 10
41.1575
 20
154.148
 11
41.1067
 21
154.234
  0
LINE
  8
0
 10
41.1067
 20
154.234
 11
41.0613
 21
154.323
  0
LINE
  8
0
 10
41.0613
 20
154.323
 11
41.0217
 21
154.415
  0
LINE
  8
0
 10
41.0217
 20
154.415
 11
40.9878
 21
154.509
  0
LINE
  8
0
 10
40.9878
 20
154.509
 11
40.96
 21
154.605
  0
LINE
  8
0
 10
40.96
 20
154.605
 11
40.9382
 21
154.702
  0
LINE
  8
0
 10
40.9382
 20
154.702
 11
40.9225
 21
154.801
  0
LINE
  8
0
 10
40.9225
 20
154.801
 11
40.9131
 21
154.9
  0
LINE
  8
0
 10
40.9131
 20
154.9
 11
40.91
 21
155
  0
LINE
  8
0
 10
40.91
 20
155
 11
40.9131
 21
155.1
  0
LINE
  8
0
 10
40.9131
 20
155.1
 11
40.9225
 21
155.199
  0
LINE
  8
0
 10
40.9225
 20
155.199
 11
40.9382
 21
155.298
  0
LINE
  8
0
 10
40.9382
 20
155.298
 11
40.96
 21
155.395
  0
LINE
  8
0
 10
40.96
 20
155.395
 11
40.9878
 21
155.491
  0
LINE
  8
0
 10
40.9878
 20
155.491
 11
41.0217
 21
155.585
  0
LINE
  8
0
 10
41.0217
 20
155.585
 11
41.0613
 21
155.677
  0
LINE
  8
0
 10
41.0613
 20
155.677
 11
41.1067
 21
155.766
  0
LINE
  8
0
 10
41.1067
 20
155.766
 11
41.1575
 21
155.852
  0
LINE
  8
0
 10
41.1575
 20
155.852
 11
41.2137
 21
155.935
  0
LINE
  8
0
 10
41.2137
 20
155.935
 11
41.2749
 21
156.014
  0
LINE
  8
0
 10
41.2749
 20
156.014
 11
41.3409
 21
156.088
  0
LINE
  8
0
 10
41.3409
 20
156.088
 11
41.4116
 21
156.159
  0
LINE
  8
0
 10
41.4116
 20
156.159
 11
41.4865
 21
156.225
  0
LINE
  8
0
 10
41.4865
 20
156.225
 11
41.5654
 21
156.286
  0
LINE
  8
0
 10
41.5654
 20
156.286
 11
41.648
 21
156.342
  0
LINE
  8
0
 10
41.648
 20
156.342
 11
41.734
 21
156.393
  0
LINE
  8
0
 10
41.734
 20
156.393
 11
41.823
 21
156.439
  0
LINE
  8
0
 10
41.823
 20
156.439
 11
41.9147
 21
156.478
  0
LINE
  8
0
 10
41.9147
 20
156.478
 11
42.0087
 21
156.512
  0
LINE
  8
0
 10
42.0087
 20
156.512
 11
42.1046
 21
156.54
  0
LINE
  8
0
 10
42.1046
 20
156.54
 11
42.2021
 21
156.562
  0
LINE
  8
0
 10
42.2021
 20
156.562
 11
42.3007
 21
156.577
  0
LINE
  8
0
 10
42.3007
 20
156.577
 11
42.4002
 21
156.587
  0
LINE
  8
0
 10
42.4002
 20
156.587
 11
42.5
 21
156.59
  0
LINE
  8
0
 10
42.5
 20
156.59
 11
42.5998
 21
156.587
  0
LINE
  8
0
 10
42.5998
 20
156.587
 11
42.6993
 21
156.577
  0
LINE
  8
0
 10
42.6993
 20
156.577
 11
42.7979
 21
156.562
  0
LINE
  8
0
 10
42.7979
 20
156.562
 11
42.8954
 21
156.54
  0
LINE
  8
0
 10
42.8954
 20
156.54
 11
42.9913
 21
156.512
  0
LINE
  8
0
 10
42.9913
 20
156.512
 11
43.0853
 21
156.478
  0
LINE
  8
0
 10
43.0853
 20
156.478
 11
43.177
 21
156.439
  0
LINE
  8
0
 10
43.177
 20
156.439
 11
43.266
 21
156.393
  0
LINE
  8
0
 10
43.266
 20
156.393
 11
43.352
 21
156.342
  0
LINE
  8
0
 10
43.352
 20
156.342
 11
43.4346
 21
156.286
  0
LINE
  8
0
 10
43.4346
 20
156.286
 11
43.5135
 21
156.225
  0
LINE
  8
0
 10
43.5135
 20
156.225
 11
43.5884
 21
156.159
  0
LINE
  8
0
 10
43.5884
 20
156.159
 11
43.6591
 21
156.088
  0
LINE
  8
0
 10
43.6591
 20
156.088
 11
43.7251
 21
156.014
  0
LINE
  8
0
 10
43.7251
 20
156.014
 11
43.7863
 21
155.935
  0
LINE
  8
0
 10
43.7863
 20
155.935
 11
43.8425
 21
155.852
  0
LINE
  8
0
 10
43.8425
 20
155.852
 11
43.8933
 21
155.766
  0
LINE
  8
0
 10
43.8933
 20
155.766
 11
43.9387
 21
155.677
  0
LINE
  8
0
 10
43.9387
 20
155.677
 11
43.9783
 21
155.585
  0
LINE
  8
0
 10
43.9783
 20
155.585
 11
44.0122
 21
155.491
  0
LINE
  8
0
 10
44.0122
 20
155.491
 11
44.04
 21
155.395
  0
LINE
  8
0
 10
44.04
 20
155.395
 11
44.0618
 21
155.298
  0
LINE
  8
0
 10
44.0618
 20
155.298
 11
44.0775
 21
155.199
  0
LINE
  8
0
 10
44.0775
 20
155.199
 11
44.0869
 21
155.1
  0
LINE
  8
0
 10
44.0869
 20
155.1
 11
44.09
 21
155
  0
LINE
  8
0
 10
44.09
 20
155
 11
44.0869
 21
154.9
  0
LINE
  8
0
 10
44.0869
 20
154.9
 11
44.0775
 21
154.801
  0
LINE
  8
0
 10
44.0775
 20
154.801
 11
44.0618
 21
154.702
  0
LINE
  8
0
 10
44.0618
 20
154.702
 11
44.04
 21
154.605
  0
LINE
  8
0
 10
44.04
 20
154.605
 11
44.0122
 21
154.509
  0
LINE
  8
0
 10
44.0122
 20
154.509
 11
43.9783
 21
154.415
  0
LINE
  8
0
 10
43.9783
 20
154.415
 11
43.9387
 21
154.323
  0
LINE
  8
0
 10
43.9387
 20
154.323
 11
43.8933
 21
154.234
  0
LINE
  8
0
 10
43.8933
 20
154.234
 11
43.8425
 21
154.148
  0
LINE
  8
0
 10
43.8425
 20
154.148
 11
43.7863
 21
154.065
  0
LINE
  8
0
 10
43.7863
 20
154.065
 11
43.7251
 21
153.986
  0
LINE
  8
0
 10
43.7251
 20
153.986
 11
43.6591
 21
153.912
  0
LINE
  8
0
 10
43.6591
 20
153.912
 11
43.5884
 21
153.841
  0
LINE
  8
0
 10
43.5884
 20
153.841
 11
43.5135
 21
153.775
  0
LINE
  8
0
 10
43.5135
 20
153.775
 11
43.4346
 21
153.714
  0
LINE
  8
0
 10
43.4346
 20
153.714
 11
43.352
 21
153.658
  0
LINE
  8
0
 10
43.352
 20
153.658
 11
43.266
 21
153.607
  0
LINE
  8
0
 10
43.266
 20
153.607
 11
43.177
 21
153.561
  0
LINE
  8
0
 10
43.177
 20
153.561
 11
43.0853
 21
153.522
  0
LINE
  8
0
 10
43.0853
 20
153.522
 11
42.9913
 21
153.488
  0
LINE
  8
0
 10
42.9913
 20
153.488
 11
42.8954
 21
153.46
  0
LINE
  8
0
 10
42.8954
 20
153.46
 11
42.7979
 21
153.438
  0
LINE
  8
0
 10
42.7979
 20
153.438
 11
42.6993
 21
153.423
  0
LINE
  8
0
 10
42.6993
 20
153.423
 11
42.5998
 21
153.413
  0
LINE
  8
0
 10
42.5998
 20
153.413
 11
42.5
 21
153.41
  0
LINE
  8
0
 10
42.5
 20
153.41
 11
42.4002
 21
153.413
  0
LINE
  8
0
 10
97.4002
 20
153.413
 11
97.3007
 21
153.423
  0
LINE
  8
0
 10
97.3007
 20
153.423
 11
97.2021
 21
153.438
  0
LINE
  8
0
 10
97.2021
 20
153.438
 11
97.1046
 21
153.46
  0
LINE
  8
0
 10
97.1046
 20
153.46
 11
97.0087
 21
153.488
  0
LINE
  8
0
 10
97.0087
 20
153.488
 11
96.9147
 21
153.522
  0
LINE
  8
0
 10
96.9147
 20
153.522
 11
96.823
 21
153.561
  0
LINE
  8
0
 10
96.823
 20
153.561
 11
96.734
 21
153.607
  0
LINE
  8
0
 10
96.734
 20
153.607
 11
96.648
 21
153.658
  0
LINE
  8
0
 10
96.648
 20
153.658
 11
96.5654
 21
153.714
  0
LINE
  8
0
 10
96.5654
 20
153.714
 11
96.4865
 21
153.775
  0
LINE
  8
0
 10
96.4865
 20
153.775
 11
96.4116
 21
153.841
  0
LINE
  8
0
 10
96.4116
 20
153.841
 11
96.3409
 21
153.912
  0
LINE
  8
0
 10
96.3409
 20
153.912
 11
96.2749
 21
153.986
  0
LINE
  8
0
 10
96.2749
 20
153.986
 11
96.2137
 21
154.065
  0
LINE
  8
0
 10
96.2137
 20
154.065
 11
96.1575
 21
154.148
  0
LINE
  8
0
 10
96.1575
 20
154.148
 11
96.1067
 21
154.234
  0
LINE
  8
0
 10
96.1067
 20
154.234
 11
96.0613
 21
154.323
  0
LINE
  8
0
 10
96.0613
 20
154.323
 11
96.0217
 21
154.415
  0
LINE
  8
0
 10
96.0217
 20
154.415
 11
95.9878
 21
154.509
  0
LINE
  8
0
 10
95.9878
 20
154.509
 11
95.9599
 21
154.605
  0
LINE
  8
0
 10
95.9599
 20
154.605
 11
95.9382
 21
154.702
  0
LINE
  8
0
 10
95.9382
 20
154.702
 11
95.9225
 21
154.801
  0
LINE
  8
0
 10
95.9225
 20
154.801
 11
95.9131
 21
154.9
  0
LINE
  8
0
 10
95.9131
 20
154.9
 11
95.91
 21
155
  0
LINE
  8
0
 10
95.91
 20
155
 11
95.9131
 21
155.1
  0
LINE
  8
0
 10
95.9131
 20
155.1
 11
95.9225
 21
155.199
  0
LINE
  8
0
 10
95.9225
 20
155.199
 11
95.9382
 21
155.298
  0
LINE
  8
0
 10
95.9382
 20
155.298
 11
95.9599
 21
155.395
  0
LINE
  8
0
 10
95.9599
 20
155.395
 11
95.9878
 21
155.491
  0
LINE
  8
0
 10
95.9878
 20
155.491
 11
96.0217
 21
155.585
  0
LINE
  8
0
 10
96.0217
 20
155.585
 11
96.0613
 21
155.677
  0
LINE
  8
0
 10
96.0613
 20
155.677
 11
96.1067
 21
155.766
  0
LINE
  8
0
 10
96.1067
 20
155.766
 11
96.1575
 21
155.852
  0
LINE
  8
0
 10
96.1575
 20
155.852
 11
96.2137
 21
155.935
  0
LINE
  8
0
 10
96.2137
 20
155.935
 11
96.2749
 21
156.014
  0
LINE
  8
0
 10
96.2749
 20
156.014
 11
96.3409
 21
156.088
  0
LINE
  8
0
 10
96.3409
 20
156.088
 11
96.4116
 21
156.159
  0
LINE
  8
0
 10
96.4116
 20
156.159
 11
96.4865
 21
156.225
  0
LINE
  8
0
 10
96.4865
 20
156.225
 11
96.5654
 21
156.286
  0
LINE
  8
0
 10
96.5654
 20
156.286
 11
96.648
 21
156.342
  0
LINE
  8
0
 10
96.648
 20
156.342
 11
96.734
 21
156.393
  0
LINE
  8
0
 10
96.734
 20
156.393
 11
96.823
 21
156.439
  0
LINE
  8
0
 10
96.823
 20
156.439
 11
96.9147
 21
156.478
  0
LINE
  8
0
 10
96.9147
 20
156.478
 11
97.0087
 21
156.512
  0
LINE
  8
0
 10
97.0087
 20
156.512
 11
97.1046
 21
156.54
  0
LINE
  8
0
 10
97.1046
 20
156.54
 11
97.2021
 21
156.562
  0
LINE
  8
0
 10
97.2021
 20
156.562
 11
97.3007
 21
156.577
  0
LINE
  8
0
 10
97.3007
 20
156.577
 11
97.4002
 21
156.587
  0
LINE
  8
0
 10
97.4002
 20
156.587
 11
97.5
 21
156.59
  0
LINE
  8
0
 10
97.5
 20
156.59
 11
97.5998
 21
156.587
  0
LINE
  8
0
 10
97.5998
 20
156.587
 11
97.6993
 21
156.577
  0
LINE
  8
0
 10
97.6993
 20
156.577
 11
97.7979
 21
156.562
  0
LINE
  8
0
 10
97.7979
 20
156.562
 11
97.8954
 21
156.54
  0
LINE
  8
0
 10
97.8954
 20
156.54
 11
97.9913
 21
156.512
  0
LINE
  8
0
 10
97.9913
 20
156.512
 11
98.0853
 21
156.478
  0
LINE
  8
0
 10
98.0853
 20
156.478
 11
98.177
 21
156.439
  0
LINE
  8
0
 10
98.177
 20
156.439
 11
98.266
 21
156.393
  0
LINE
  8
0
 10
98.266
 20
156.393
 11
98.352
 21
156.342
  0
LINE
  8
0
 10
98.352
 20
156.342
 11
98.4346
 21
156.286
  0
LINE
  8
0
 10
98.4346
 20
156.286
 11
98.5135
 21
156.225
  0
LINE
  8
0
 10
98.5135
 20
156.225
 11
98.5884
 21
156.159
  0
LINE
  8
0
 10
98.5884
 20
156.159
 11
98.6591
 21
156.088
  0
LINE
  8
0
 10
98.6591
 20
156.088
 11
98.7251
 21
156.014
  0
LINE
  8
0
 10
98.7251
 20
156.014
 11
98.7863
 21
155.935
  0
LINE
  8
0
 10
98.7863
 20
155.935
 11
98.8425
 21
155.852
  0
LINE
  8
0
 10
98.8425
 20
155.852
 11
98.8933
 21
155.766
  0
LINE
  8
0
 10
98.8933
 20
155.766
 11
98.9387
 21
155.677
  0
LINE
  8
0
 10
98.9387
 20
155.677
 11
98.9783
 21
155.585
  0
LINE
  8
0
 10
98.9783
 20
155.585
 11
99.0122
 21
155.491
  0
LINE
  8
0
 10
99.0122
 20
155.491
 11
99.04
 21
155.395
  0
LINE
  8
0
 10
99.04
 20
155.395
 11
99.0618
 21
155.298
  0
LINE
  8
0
 10
99.0618
 20
155.298
 11
99.0775
 21
155.199
  0
LINE
  8
0
 10
99.0775
 20
155.199
 11
99.0869
 21
155.1
  0
LINE
  8
0
 10
99.0869
 20
155.1
 11
99.09
 21
155
  0
LINE
  8
0
 10
99.09
 20
155
 11
99.0869
 21
154.9
  0
LINE
  8
0
 10
99.0869
 20
154.9
 11
99.0775
 21
154.801
  0
LINE
  8
0
 10
99.0775
 20
154.801
 11
99.0618
 21
154.702
  0
LINE
  8
0
 10
99.0618
 20
154.702
 11
99.04
 21
154.605
  0
LINE
  8
0
 10
99.04
 20
154.605
 11
99.0122
 21
154.509
  0
LINE
  8
0
 10
99.0122
 20
154.509
 11
98.9783
 21
154.415
  0
LINE
  8
0
 10
98.9783
 20
154.415
 11
98.9387
 21
154.323
  0
LINE
  8
0
 10
98.9387
 20
154.323
 11
98.8933
 21
154.234
  0
LINE
  8
0
 10
98.8933
 20
154.234
 11
98.8425
 21
154.148
  0
LINE
  8
0
 10
98.8425
 20
154.148
 11
98.7863
 21
154.065
  0
LINE
  8
0
 10
98.7863
 20
154.065
 11
98.7251
 21
153.986
  0
LINE
  8
0
 10
98.7251
 20
153.986
 11
98.6591
 21
153.912
  0
LINE
  8
0
 10
98.6591
 20
153.912
 11
98.5884
 21
153.841
  0
LINE
  8
0
 10
98.5884
 20
153.841
 11
98.5135
 21
153.775
  0
LINE
  8
0
 10
98.5135
 20
153.775
 11
98.4346
 21
153.714
  0
LINE
  8
0
 10
98.4346
 20
153.714
 11
98.352
 21
153.658
  0
LINE
  8
0
 10
98.352
 20
153.658
 11
98.266
 21
153.607
  0
LINE
  8
0
 10
98.266
 20
153.607
 11
98.177
 21
153.561
  0
LINE
  8
0
 10
98.177
 20
153.561
 11
98.0853
 21
153.522
  0
LINE
  8
0
 10
98.0853
 20
153.522
 11
97.9913
 21
153.488
  0
LINE
  8
0
 10
97.9913
 20
153.488
 11
97.8954
 21
153.46
  0
LINE
  8
0
 10
97.8954
 20
153.46
 11
97.7979
 21
153.438
  0
LINE
  8
0
 10
97.7979
 20
153.438
 11
97.6993
 21
153.423
  0
LINE
  8
0
 10
97.6993
 20
153.423
 11
97.5998
 21
153.413
  0
LINE
  8
0
 10
97.5998
 20
153.413
 11
97.5
 21
153.41
  0
LINE
  8
0
 10
97.5
 20
153.41
 11
97.4002
 21
153.413
  0
LINE
  8
0
 10
9.90018
 20
8.41315
 11
9.80072
 21
8.42255
  0
LINE
  8
0
 10
9.80072
 20
8.42255
 11
9.70207
 21
8.43817
  0
LINE
  8
0
 10
9.70207
 20
8.43817
 11
9.60458
 21
8.45996
  0
LINE
  8
0
 10
9.60458
 20
8.45996
 11
9.50867
 21
8.48782
  0
LINE
  8
0
 10
9.50867
 20
8.48782
 11
9.41469
 21
8.52167
  0
LINE
  8
0
 10
9.41469
 20
8.52167
 11
9.32301
 21
8.56133
  0
LINE
  8
0
 10
9.32301
 20
8.56133
 11
9.23402
 21
8.60667
  0
LINE
  8
0
 10
9.23402
 20
8.60667
 11
9.14804
 21
8.65753
  0
LINE
  8
0
 10
9.14804
 20
8.65753
 11
9.06543
 21
8.71367
  0
LINE
  8
0
 10
9.06543
 20
8.71367
 11
8.9865
 21
8.77489
  0
LINE
  8
0
 10
8.9865
 20
8.77489
 11
8.91158
 21
8.84094
  0
LINE
  8
0
 10
8.91158
 20
8.84094
 11
8.84094
 21
8.91158
  0
LINE
  8
0
 10
8.84094
 20
8.91158
 11
8.77489
 21
8.9865
  0
LINE
  8
0
 10
8.77489
 20
8.9865
 11
8.71367
 21
9.06543
  0
LINE
  8
0
 10
8.71367
 20
9.06543
 11
8.65753
 21
9.14804
  0
LINE
  8
0
 10
8.65753
 20
9.14804
 11
8.60667
 21
9.23402
  0
LINE
  8
0
 10
8.60667
 20
9.23402
 11
8.56133
 21
9.32301
  0
LINE
  8
0
 10
8.56133
 20
9.32301
 11
8.52167
 21
9.41469
  0
LINE
  8
0
 10
8.52167
 20
9.41469
 11
8.48782
 21
9.50867
  0
LINE
  8
0
 10
8.48782
 20
9.50867
 11
8.45996
 21
9.60458
  0
LINE
  8
0
 10
8.45996
 20
9.60458
 11
8.43817
 21
9.70207
  0
LINE
  8
0
 10
8.43817
 20
9.70207
 11
8.42255
 21
9.80072
  0
LINE
  8
0
 10
8.42255
 20
9.80072
 11
8.41315
 21
9.90018
  0
LINE
  8
0
 10
8.41315
 20
9.90018
 11
8.41
 21
10
  0
LINE
  8
0
 10
8.41
 20
10
 11
8.41315
 21
10.0998
  0
LINE
  8
0
 10
8.41315
 20
10.0998
 11
8.42255
 21
10.1993
  0
LINE
  8
0
 10
8.42255
 20
10.1993
 11
8.43817
 21
10.2979
  0
LINE
  8
0
 10
8.43817
 20
10.2979
 11
8.45996
 21
10.3954
  0
LINE
  8
0
 10
8.45996
 20
10.3954
 11
8.48782
 21
10.4913
  0
LINE
  8
0
 10
8.48782
 20
10.4913
 11
8.52167
 21
10.5853
  0
LINE
  8
0
 10
8.52167
 20
10.5853
 11
8.56133
 21
10.677
  0
LINE
  8
0
 10
8.56133
 20
10.677
 11
8.60667
 21
10.766
  0
LINE
  8
0
 10
8.60667
 20
10.766
 11
8.65753
 21
10.852
  0
LINE
  8
0
 10
8.65753
 20
10.852
 11
8.71367
 21
10.9346
  0
LINE
  8
0
 10
8.71367
 20
10.9346
 11
8.77489
 21
11.0135
  0
LINE
  8
0
 10
8.77489
 20
11.0135
 11
8.84094
 21
11.0884
  0
LINE
  8
0
 10
8.84094
 20
11.0884
 11
8.91158
 21
11.1591
  0
LINE
  8
0
 10
8.91158
 20
11.1591
 11
8.9865
 21
11.2251
  0
LINE
  8
0
 10
8.9865
 20
11.2251
 11
9.06543
 21
11.2863
  0
LINE
  8
0
 10
9.06543
 20
11.2863
 11
9.14804
 21
11.3425
  0
LINE
  8
0
 10
9.14804
 20
11.3425
 11
9.23402
 21
11.3933
  0
LINE
  8
0
 10
9.23402
 20
11.3933
 11
9.32301
 21
11.4387
  0
LINE
  8
0
 10
9.32301
 20
11.4387
 11
9.41469
 21
11.4783
  0
LINE
  8
0
 10
9.41469
 20
11.4783
 11
9.50867
 21
11.5122
  0
LINE
  8
0
 10
9.50867
 20
11.5122
 11
9.60458
 21
11.54
  0
LINE
  8
0
 10
9.60458
 20
11.54
 11
9.70207
 21
11.5618
  0
LINE
  8
0
 10
9.70207
 20
11.5618
 11
9.80072
 21
11.5775
  0
LINE
  8
0
 10
9.80072
 20
11.5775
 11
9.90018
 21
11.5869
  0
LINE
  8
0
 10
9.90018
 20
11.5869
 11
10
 21
11.59
  0
LINE
  8
0
 10
10
 20
11.59
 11
10.0998
 21
11.5869
  0
LINE
  8
0
 10
10.0998
 20
11.5869
 11
10.1993
 21
11.5775
  0
LINE
  8
0
 10
10.1993
 20
11.5775
 11
10.2979
 21
11.5618
  0
LINE
  8
0
 10
10.2979
 20
11.5618
 11
10.3954
 21
11.54
  0
LINE
  8
0
 10
10.3954
 20
11.54
 11
10.4913
 21
11.5122
  0
LINE
  8
0
 10
10.4913
 20
11.5122
 11
10.5853
 21
11.4783
  0
LINE
  8
0
 10
10.5853
 20
11.4783
 11
10.677
 21
11.4387
  0
LINE
  8
0
 10
10.677
 20
11.4387
 11
10.766
 21
11.3933
  0
LINE
  8
0
 10
10.766
 20
11.3933
 11
10.852
 21
11.3425
  0
LINE
  8
0
 10
10.852
 20
11.3425
 11
10.9346
 21
11.2863
  0
LINE
  8
0
 10
10.9346
 20
11.2863
 11
11.0135
 21
11.2251
  0
LINE
  8
0
 10
11.0135
 20
11.2251
 11
11.0884
 21
11.1591
  0
LINE
  8
0
 10
11.0884
 20
11.1591
 11
11.1591
 21
11.0884
  0
LINE
  8
0
 10
11.1591
 20
11.0884
 11
11.2251
 21
11.0135
  0
LINE
  8
0
 10
11.2251
 20
11.0135
 11
11.2863
 21
10.9346
  0
LINE
  8
0
 10
11.2863
 20
10.9346
 11
11.3425
 21
10.852
  0
LINE
  8
0
 10
11.3425
 20
10.852
 11
11.3933
 21
10.766
  0
LINE
  8
0
 10
11.3933
 20
10.766
 11
11.4387
 21
10.677
  0
LINE
  8
0
 10
11.4387
 20
10.677
 11
11.4783
 21
10.5853
  0
LINE
  8
0
 10
11.4783
 20
10.5853
 11
11.5122
 21
10.4913
  0
LINE
  8
0
 10
11.5122
 20
10.4913
 11
11.54
 21
10.3954
  0
LINE
  8
0
 10
11.54
 20
10.3954
 11
11.5618
 21
10.2979
  0
LINE
  8
0
 10
11.5618
 20
10.2979
 11
11.5775
 21
10.1993
  0
LINE
  8
0
 10
11.5775
 20
10.1993
 11
11.5869
 21
10.0998
  0
LINE
  8
0
 10
11.5869
 20
10.0998
 11
11.59
 21
10
  0
LINE
  8
0
 10
11.59
 20
10
 11
11.5869
 21
9.90018
  0
LINE
  8
0
 10
11.5869
 20
9.90018
 11
11.5775
 21
9.80072
  0
LINE
  8
0
 10
11.5775
 20
9.80072
 11
11.5618
 21
9.70207
  0
LINE
  8
0
 10
11.5618
 20
9.70207
 11
11.54
 21
9.60458
  0
LINE
  8
0
 10
11.54
 20
9.60458
 11
11.5122
 21
9.50867
  0
LINE
  8
0
 10
11.5122
 20
9.50867
 11
11.4783
 21
9.41469
  0
LINE
  8
0
 10
11.4783
 20
9.41469
 11
11.4387
 21
9.32301
  0
LINE
  8
0
 10
11.4387
 20
9.32301
 11
11.3933
 21
9.23402
  0
LINE
  8
0
 10
11.3933
 20
9.23402
 11
11.3425
 21
9.14804
  0
LINE
  8
0
 10
11.3425
 20
9.14804
 11
11.2863
 21
9.06543
  0
LINE
  8
0
 10
11.2863
 20
9.06543
 11
11.2251
 21
8.9865
  0
LINE
  8
0
 10
11.2251
 20
8.9865
 11
11.1591
 21
8.91158
  0
LINE
  8
0
 10
11.1591
 20
8.91158
 11
11.0884
 21
8.84094
  0
LINE
  8
0
 10
11.0884
 20
8.84094
 11
11.0135
 21
8.77489
  0
LINE
  8
0
 10
11.0135
 20
8.77489
 11
10.9346
 21
8.71367
  0
LINE
  8
0
 10
10.9346
 20
8.71367
 11
10.852
 21
8.65753
  0
LINE
  8
0
 10
10.852
 20
8.65753
 11
10.766
 21
8.60667
  0
LINE
  8
0
 10
10.766
 20
8.60667
 11
10.677
 21
8.56133
  0
LINE
  8
0
 10
10.677
 20
8.56133
 11
10.5853
 21
8.52167
  0
LINE
  8
0
 10
10.5853
 20
8.52167
 11
10.4913
 21
8.48782
  0
LINE
  8
0
 10
10.4913
 20
8.48782
 11
10.3954
 21
8.45996
  0
LINE
  8
0
 10
10.3954
 20
8.45996
 11
10.2979
 21
8.43817
  0
LINE
  8
0
 10
10.2979
 20
8.43817
 11
10.1993
 21
8.42255
  0
LINE
  8
0
 10
10.1993
 20
8.42255
 11
10.0998
 21
8.41315
  0
LINE
  8
0
 10
10.0998
 20
8.41315
 11
10
 21
8.41
  0
LINE
  8
0
 10
10
 20
8.41
 11
9.90018
 21
8.41315
  0
LINE
  8
0
 10
129.9
 20
8.41315
 11
129.801
 21
8.42255
  0
LINE
  8
0
 10
129.801
 20
8.42255
 11
129.702
 21
8.43817
  0
LINE
  8
0
 10
129.702
 20
8.43817
 11
129.605
 21
8.45996
  0
LINE
  8
0
 10
129.605
 20
8.45996
 11
129.509
 21
8.48782
  0
LINE
  8
0
 10
129.509
 20
8.48782
 11
129.415
 21
8.52167
  0
LINE
  8
0
 10
129.415
 20
8.52167
 11
129.323
 21
8.56133
  0
LINE
  8
0
 10
129.323
 20
8.56133
 11
129.234
 21
8.60667
  0
LINE
  8
0
 10
129.234
 20
8.60667
 11
129.148
 21
8.65753
  0
LINE
  8
0
 10
129.148
 20
8.65753
 11
129.065
 21
8.71367
  0
LINE
  8
0
 10
129.065
 20
8.71367
 11
128.986
 21
8.77489
  0
LINE
  8
0
 10
128.986
 20
8.77489
 11
128.912
 21
8.84094
  0
LINE
  8
0
 10
128.912
 20
8.84094
 11
128.841
 21
8.91158
  0
LINE
  8
0
 10
128.841
 20
8.91158
 11
128.775
 21
8.9865
  0
LINE
  8
0
 10
128.775
 20
8.9865
 11
128.714
 21
9.06543
  0
LINE
  8
0
 10
128.714
 20
9.06543
 11
128.658
 21
9.14804
  0
LINE
  8
0
 10
128.658
 20
9.14804
 11
128.607
 21
9.23402
  0
LINE
  8
0
 10
128.607
 20
9.23402
 11
128.561
 21
9.32301
  0
LINE
  8
0
 10
128.561
 20
9.32301
 11
128.522
 21
9.41469
  0
LINE
  8
0
 10
128.522
 20
9.41469
 11
128.488
 21
9.50867
  0
LINE
  8
0
 10
128.488
 20
9.50867
 11
128.46
 21
9.60458
  0
LINE
  8
0
 10
128.46
 20
9.60458
 11
128.438
 21
9.70207
  0
LINE
  8
0
 10
128.438
 20
9.70207
 11
128.423
 21
9.80072
  0
LINE
  8
0
 10
128.423
 20
9.80072
 11
128.413
 21
9.90018
  0
LINE
  8
0
 10
128.413
 20
9.90018
 11
128.41
 21
10
  0
LINE
  8
0
 10
128.41
 20
10
 11
128.413
 21
10.0998
  0
LINE
  8
0
 10
128.413
 20
10.0998
 11
128.423
 21
10.1993
  0
LINE
  8
0
 10
128.423
 20
10.1993
 11
128.438
 21
10.2979
  0
LINE
  8
0
 10
128.438
 20
10.2979
 11
128.46
 21
10.3954
  0
LINE
  8
0
 10
128.46
 20
10.3954
 11
128.488
 21
10.4913
  0
LINE
  8
0
 10
128.488
 20
10.4913
 11
128.522
 21
10.5853
  0
LINE
  8
0
 10
128.522
 20
10.5853
 11
128.561
 21
10.677
  0
LINE
  8
0
 10
128.561
 20
10.677
 11
128.607
 21
10.766
  0
LINE
  8
0
 10
128.607
 20
10.766
 11
128.658
 21
10.852
  0
LINE
  8
0
 10
128.658
 20
10.852
 11
128.714
 21
10.9346
  0
LINE
  8
0
 10
128.714
 20
10.9346
 11
128.775
 21
11.0135
  0
LINE
  8
0
 10
128.775
 20
11.0135
 11
128.841
 21
11.0884
  0
LINE
  8
0
 10
128.841
 20
11.0884
 11
128.912
 21
11.1591
  0
LINE
  8
0
 10
128.912
 20
11.1591
 11
128.986
 21
11.2251
  0
LINE
  8
0
 10
128.986
 20
11.2251
 11
129.065
 21
11.2863
  0
LINE
  8
0
 10
129.065
 20
11.2863
 11
129.148
 21
11.3425
  0
LINE
  8
0
 10
129.148
 20
11.3425
 11
129.234
 21
11.3933
  0
LINE
  8
0
 10
129.234
 20
11.3933
 11
129.323
 21
11.4387
  0
LINE
  8
0
 10
129.323
 20
11.4387
 11
129.415
 21
11.4783
  0
LINE
  8
0
 10
129.415
 20
11.4783
 11
129.509
 21
11.5122
  0
LINE
  8
0
 10
129.509
 20
11.5122
 11
129.605
 21
11.54
  0
LINE
  8
0
 10
129.605
 20
11.54
 11
129.702
 21
11.5618
  0
LINE
  8
0
 10
129.702
 20
11.5618
 11
129.801
 21
11.5775
  0
LINE
  8
0
 10
129.801
 20
11.5775
 11
129.9
 21
11.5869
  0
LINE
  8
0
 10
129.9
 20
11.5869
 11
130
 21
11.59
  0
LINE
  8
0
 10
130
 20
11.59
 11
130.1
 21
11.5869
  0
LINE
  8
0
 10
130.1
 20
11.5869
 11
130.199
 21
11.5775
  0
LINE
  8
0
 10
130.199
 20
11.5775
 11
130.298
 21
11.5618
  0
LINE
  8
0
 10
130.298
 20
11.5618
 11
130.395
 21
11.54
  0
LINE
  8
0
 10
130.395
 20
11.54
 11
130.491
 21
11.5122
  0
LINE
  8
0
 10
130.491
 20
11.5122
 11
130.585
 21
11.4783
  0
LINE
  8
0
 10
130.585
 20
11.4783
 11
130.677
 21
11.4387
  0
LINE
  8
0
 10
130.677
 20
11.4387
 11
130.766
 21
11.3933
  0
LINE
  8
0
 10
130.766
 20
11.3933
 11
130.852
 21
11.3425
  0
LINE
  8
0
 10
130.852
 20
11.3425
 11
130.935
 21
11.2863
  0
LINE
  8
0
 10
130.935
 20
11.2863
 11
131.014
 21
11.2251
  0
LINE
  8
0
 10
131.014
 20
11.2251
 11
131.088
 21
11.1591
  0
LINE
  8
0
 10
131.088
 20
11.1591
 11
131.159
 21
11.0884
  0
LINE
  8
0
 10
131.159
 20
11.0884
 11
131.225
 21
11.0135
  0
LINE
  8
0
 10
131.225
 20
11.0135
 11
131.286
 21
10.9346
  0
LINE
  8
0
 10
131.286
 20
10.9346
 11
131.342
 21
10.852
  0
LINE
  8
0
 10
131.342
 20
10.852
 11
131.393
 21
10.766
  0
LINE
  8
0
 10
131.393
 20
10.766
 11
131.439
 21
10.677
  0
LINE
  8
0
 10
131.439
 20
10.677
 11
131.478
 21
10.5853
  0
LINE
  8
0
 10
131.478
 20
10.5853
 11
131.512
 21
10.4913
  0
LINE
  8
0
 10
131.512
 20
10.4913
 11
131.54
 21
10.3954
  0
LINE
  8
0
 10
131.54
 20
10.3954
 11
131.562
 21
10.2979
  0
LINE
  8
0
 10
131.562
 20
10.2979
 11
131.577
 21
10.1993
  0
LINE
  8
0
 10
131.577
 20
10.1993
 11
131.587
 21
10.0998
  0
LINE
  8
0
 10
131.587
 20
10.0998
 11
131.59
 21
10
  0
LINE
  8
0
 10
131.59
 20
10
 11
131.587
 21
9.90018
  0
LINE
  8
0
 10
131.587
 20
9.90018
 11
131.577
 21
9.80072
  0
LINE
  8
0
 10
131.577
 20
9.80072
 11
131.562
 21
9.70207
  0
LINE
  8
0
 10
131.562
 20
9.70207
 11
131.54
 21
9.60458
  0
LINE
  8
0
 10
131.54
 20
9.60458
 11
131.512
 21
9.50867
  0
LINE
  8
0
 10
131.512
 20
9.50867
 11
131.478
 21
9.41469
  0
LINE
  8
0
 10
131.478
 20
9.41469
 11
131.439
 21
9.32301
  0
LINE
  8
0
 10
131.439
 20
9.32301
 11
131.393
 21
9.23402
  0
LINE
  8
0
 10
131.393
 20
9.23402
 11
131.342
 21
9.14804
  0
LINE
  8
0
 10
131.342
 20
9.14804
 11
131.286
 21
9.06543
  0
LINE
  8
0
 10
131.286
 20
9.06543
 11
131.225
 21
8.9865
  0
LINE
  8
0
 10
131.225
 20
8.9865
 11
131.159
 21
8.91158
  0
LINE
  8
0
 10
131.159
 20
8.91158
 11
131.088
 21
8.84094
  0
LINE
  8
0
 10
131.088
 20
8.84094
 11
131.014
 21
8.77489
  0
LINE
  8
0
 10
131.014
 20
8.77489
 11
130.935
 21
8.71367
  0
LINE
  8
0
 10
130.935
 20
8.71367
 11
130.852
 21
8.65753
  0
LINE
  8
0
 10
130.852
 20
8.65753
 11
130.766
 21
8.60667
  0
LINE
  8
0
 10
130.766
 20
8.60667
 11
130.677
 21
8.56133
  0
LINE
  8
0
 10
130.677
 20
8.56133
 11
130.585
 21
8.52167
  0
LINE
  8
0
 10
130.585
 20
8.52167
 11
130.491
 21
8.48782
  0
LINE
  8
0
 10
130.491
 20
8.48782
 11
130.395
 21
8.45996
  0
LINE
  8
0
 10
130.395
 20
8.45996
 11
130.298
 21
8.43817
  0
LINE
  8
0
 10
130.298
 20
8.43817
 11
130.199
 21
8.42255
  0
LINE
  8
0
 10
130.199
 20
8.42255
 11
130.1
 21
8.41315
  0
LINE
  8
0
 10
130.1
 20
8.41315
 11
130
 21
8.41
  0
LINE
  8
0
 10
130
 20
8.41
 11
129.9
 21
8.41315
  0
LINE
  8
0
 10
42.4002
 20
8.41315
 11
42.3007
 21
8.42255
  0
LINE
  8
0
 10
42.3007
 20
8.42255
 11
42.2021
 21
8.43817
  0
LINE
  8
0
 10
42.2021
 20
8.43817
 11
42.1046
 21
8.45996
  0
LINE
  8
0
 10
42.1046
 20
8.45996
 11
42.0087
 21
8.48782
  0
LINE
  8
0
 10
42.0087
 20
8.48782
 11
41.9147
 21
8.52167
  0
LINE
  8
0
 10
41.9147
 20
8.52167
 11
41.823
 21
8.56133
  0
LINE
  8
0
 10
41.823
 20
8.56133
 11
41.734
 21
8.60667
  0
LINE
  8
0
 10
41.734
 20
8.60667
 11
41.648
 21
8.65753
  0
LINE
  8
0
 10
41.648
 20
8.65753
 11
41.5654
 21
8.71367
  0
LINE
  8
0
 10
41.5654
 20
8.71367
 11
41.4865
 21
8.77489
  0
LINE
  8
0
 10
41.4865
 20
8.77489
 11
41.4116
 21
8.84094
  0
LINE
  8
0
 10
41.4116
 20
8.84094
 11
41.3409
 21
8.91158
  0
LINE
  8
0
 10
41.3409
 20
8.91158
 11
41.2749
 21
8.9865
  0
LINE
  8
0
 10
41.2749
 20
8.9865
 11
41.2137
 21
9.06543
  0
LINE
  8
0
 10
41.2137
 20
9.06543
 11
41.1575
 21
9.14804
  0
LINE
  8
0
 10
41.1575
 20
9.14804
 11
41.1067
 21
9.23402
  0
LINE
  8
0
 10
41.1067
 20
9.23402
 11
41.0613
 21
9.32301
  0
LINE
  8
0
 10
41.0613
 20
9.32301
 11
41.0217
 21
9.41469
  0
LINE
  8
0
 10
41.0217
 20
9.41469
 11
40.9878
 21
9.50867
  0
LINE
  8
0
 10
40.9878
 20
9.50867
 11
40.96
 21
9.60458
  0
LINE
  8
0
 10
40.96
 20
9.60458
 11
40.9382
 21
9.70207
  0
LINE
  8
0
 10
40.9382
 20
9.70207
 11
40.9225
 21
9.80072
  0
LINE
  8
0
 10
40.9225
 20
9.80072
 11
40.9131
 21
9.90018
  0
LINE
  8
0
 10
40.9131
 20
9.90018
 11
40.91
 21
10
  0
LINE
  8
0
 10
40.91
 20
10
 11
40.9131
 21
10.0998
  0
LINE
  8
0
 10
40.9131
 20
10.0998
 11
40.9225
 21
10.1993
  0
LINE
  8
0
 10
40.9225
 20
10.1993
 11
40.9382
 21
10.2979
  0
LINE
  8
0
 10
40.9382
 20
10.2979
 11
40.96
 21
10.3954
  0
LINE
  8
0
 10
40.96
 20
10.3954
 11
40.9878
 21
10.4913
  0
LINE
  8
0
 10
40.9878
 20
10.4913
 11
41.0217
 21
10.5853
  0
LINE
  8
0
 10
41.0217
 20
10.5853
 11
41.0613
 21
10.677
  0
LINE
  8
0
 10
41.0613
 20
10.677
 11
41.1067
 21
10.766
  0
LINE
  8
0
 10
41.1067
 20
10.766
 11
41.1575
 21
10.852
  0
LINE
  8
0
 10
41.1575
 20
10.852
 11
41.2137
 21
10.9346
  0
LINE
  8
0
 10
41.2137
 20
10.9346
 11
41.2749
 21
11.0135
  0
LINE
  8
0
 10
41.2749
 20
11.0135
 11
41.3409
 21
11.0884
  0
LINE
  8
0
 10
41.3409
 20
11.0884
 11
41.4116
 21
11.1591
  0
LINE
  8
0
 10
41.4116
 20
11.1591
 11
41.4865
 21
11.2251
  0
LINE
  8
0
 10
41.4865
 20
11.2251
 11
41.5654
 21
11.2863
  0
LINE
  8
0
 10
41.5654
 20
11.2863
 11
41.648
 21
11.3425
  0
LINE
  8
0
 10
41.648
 20
11.3425
 11
41.734
 21
11.3933
  0
LINE
  8
0
 10
41.734
 20
11.3933
 11
41.823
 21
11.4387
  0
LINE
  8
0
 10
41.823
 20
11.4387
 11
41.9147
 21
11.4783
  0
LINE
  8
0
 10
41.9147
 20
11.4783
 11
42.0087
 21
11.5122
  0
LINE
  8
0
 10
42.0087
 20
11.5122
 11
42.1046
 21
11.54
  0
LINE
  8
0
 10
42.1046
 20
11.54
 11
42.2021
 21
11.5618
  0
LINE
  8
0
 10
42.2021
 20
11.5618
 11
42.3007
 21
11.5775
  0
LINE
  8
0
 10
42.3007
 20
11.5775
 11
42.4002
 21
11.5869
  0
LINE
  8
0
 10
42.4002
 20
11.5869
 11
42.5
 21
11.59
  0
LINE
  8
0
 10
42.5
 20
11.59
 11
42.5998
 21
11.5869
  0
LINE
  8
0
 10
42.5998
 20
11.5869
 11
42.6993
 21
11.5775
  0
LINE
  8
0
 10
42.6993
 20
11.5775
 11
42.7979
 21
11.5618
  0
LINE
  8
0
 10
42.7979
 20
11.5618
 11
42.8954
 21
11.54
  0
LINE
  8
0
 10
42.8954
 20
11.54
 11
42.9913
 21
11.5122
  0
LINE
  8
0
 10
42.9913
 20
11.5122
 11
43.0853
 21
11.4783
  0
LINE
  8
0
 10
43.0853
 20
11.4783
 11
43.177
 21
11.4387
  0
LINE
  8
0
 10
43.177
 20
11.4387
 11
43.266
 21
11.3933
  0
LINE
  8
0
 10
43.266
 20
11.3933
 11
43.352
 21
11.3425
  0
LINE
  8
0
 10
43.352
 20
11.3425
 11
43.4346
 21
11.2863
  0
LINE
  8
0
 10
43.4346
 20
11.2863
 11
43.5135
 21
11.2251
  0
LINE
  8
0
 10
43.5135
 20
11.2251
 11
43.5884
 21
11.1591
  0
LINE
  8
0
 10
43.5884
 20
11.1591
 11
43.6591
 21
11.0884
  0
LINE
  8
0
 10
43.6591
 20
11.0884
 11
43.7251
 21
11.0135
  0
LINE
  8
0
 10
43.7251
 20
11.0135
 11
43.7863
 21
10.9346
  0
LINE
  8
0
 10
43.7863
 20
10.9346
 11
43.8425
 21
10.852
  0
LINE
  8
0
 10
43.8425
 20
10.852
 11
43.8933
 21
10.766
  0
LINE
  8
0
 10
43.8933
 20
10.766
 11
43.9387
 21
10.677
  0
LINE
  8
0
 10
43.9387
 20
10.677
 11
43.9783
 21
10.5853
  0
LINE
  8
0
 10
43.9783
 20
10.5853
 11
44.0122
 21
10.4913
  0
LINE
  8
0
 10
44.0122
 20
10.4913
 11
44.04
 21
10.3954
  0
LINE
  8
0
 10
44.04
 20
10.3954
 11
44.0618
 21
10.2979
  0
LINE
  8
0
 10
44.0618
 20
10.2979
 11
44.0775
 21
10.1993
  0
LINE
  8
0
 10
44.0775
 20
10.1993
 11
44.0869
 21
10.0998
  0
LINE
  8
0
 10
44.0869
 20
10.0998
 11
44.09
 21
10
  0
LINE
  8
0
 10
44.09
 20
10
 11
44.0869
 21
9.90018
  0
LINE
  8
0
 10
44.0869
 20
9.90018
 11
44.0775
 21
9.80072
  0
LINE
  8
0
 10
44.0775
 20
9.80072
 11
44.0618
 21
9.70207
  0
LINE
  8
0
 10
44.0618
 20
9.70207
 11
44.04
 21
9.60458
  0
LINE
  8
0
 10
44.04
 20
9.60458
 11
44.0122
 21
9.50867
  0
LINE
  8
0
 10
44.0122
 20
9.50867
 11
43.9783
 21
9.41469
  0
LINE
  8
0
 10
43.9783
 20
9.41469
 11
43.9387
 21
9.32301
  0
LINE
  8
0
 10
43.9387
 20
9.32301
 11
43.8933
 21
9.23402
  0
LINE
  8
0
 10
43.8933
 20
9.23402
 11
43.8425
 21
9.14804
  0
LINE
  8
0
 10
43.8425
 20
9.14804
 11
43.7863
 21
9.06543
  0
LINE
  8
0
 10
43.7863
 20
9.06543
 11
43.7251
 21
8.9865
  0
LINE
  8
0
 10
43.7251
 20
8.9865
 11
43.6591
 21
8.91158
  0
LINE
  8
0
 10
43.6591
 20
8.91158
 11
43.5884
 21
8.84094
  0
LINE
  8
0
 10
43.5884
 20
8.84094
 11
43.5135
 21
8.77489
  0
LINE
  8
0
 10
43.5135
 20
8.77489
 11
43.4346
 21
8.71367
  0
LINE
  8
0
 10
43.4346
 20
8.71367
 11
43.352
 21
8.65753
  0
LINE
  8
0
 10
43.352
 20
8.65753
 11
43.266
 21
8.60667
  0
LINE
  8
0
 10
43.266
 20
8.60667
 11
43.177
 21
8.56133
  0
LINE
  8
0
 10
43.177
 20
8.56133
 11
43.0853
 21
8.52167
  0
LINE
  8
0
 10
43.0853
 20
8.52167
 11
42.9913
 21
8.48782
  0
LINE
  8
0
 10
42.9913
 20
8.48782
 11
42.8954
 21
8.45996
  0
LINE
  8
0
 10
42.8954
 20
8.45996
 11
42.7979
 21
8.43817
  0
LINE
  8
0
 10
42.7979
 20
8.43817
 11
42.6993
 21
8.42255
  0
LINE
  8
0
 10
42.6993
 20
8.42255
 11
42.5998
 21
8.41315
  0
LINE
  8
0
 10
42.5998
 20
8.41315
 11
42.5
 21
8.41
  0
LINE
  8
0
 10
42.5
 20
8.41
 11
42.4002
 21
8.41315
  0
LINE
  8
0
 10
97.4002
 20
8.41315
 11
97.3007
 21
8.42255
  0
LINE
  8
0
 10
97.3007
 20
8.42255
 11
97.2021
 21
8.43817
  0
LINE
  8
0
 10
97.2021
 20
8.43817
 11
97.1046
 21
8.45996
  0
LINE
  8
0
 10
97.1046
 20
8.45996
 11
97.0087
 21
8.48782
  0
LINE
  8
0
 10
97.0087
 20
8.48782
 11
96.9147
 21
8.52167
  0
LINE
  8
0
 10
96.9147
 20
8.52167
 11
96.823
 21
8.56133
  0
LINE
  8
0
 10
96.823
 20
8.56133
 11
96.734
 21
8.60667
  0
LINE
  8
0
 10
96.734
 20
8.60667
 11
96.648
 21
8.65753
  0
LINE
  8
0
 10
96.648
 20
8.65753
 11
96.5654
 21
8.71367
  0
LINE
  8
0
 10
96.5654
 20
8.71367
 11
96.4865
 21
8.77489
  0
LINE
  8
0
 10
96.4865
 20
8.77489
 11
96.4116
 21
8.84094
  0
LINE
  8
0
 10
96.4116
 20
8.84094
 11
96.3409
 21
8.91158
  0
LINE
  8
0
 10
96.3409
 20
8.91158
 11
96.2749
 21
8.9865
  0
LINE
  8
0
 10
96.2749
 20
8.9865
 11
96.2137
 21
9.06543
  0
LINE
  8
0
 10
96.2137
 20
9.06543
 11
96.1575
 21
9.14804
  0
LINE
  8
0
 10
96.1575
 20
9.14804
 11
96.1067
 21
9.23402
  0
LINE
  8
0
 10
96.1067
 20
9.23402
 11
96.0613
 21
9.32301
  0
LINE
  8
0
 10
96.0613
 20
9.32301
 11
96.0217
 21
9.41469
  0
LINE
  8
0
 10
96.0217
 20
9.41469
 11
95.9878
 21
9.50867
  0
LINE
  8
0
 10
95.9878
 20
9.50867
 11
95.9599
 21
9.60458
  0
LINE
  8
0
 10
95.9599
 20
9.60458
 11
95.9382
 21
9.70207
  0
LINE
  8
0
 10
95.9382
 20
9.70207
 11
95.9225
 21
9.80072
  0
LINE
  8
0
 10
95.9225
 20
9.80072
 11
95.9131
 21
9.90018
  0
LINE
  8
0
 10
95.9131
 20
9.90018
 11
95.91
 21
10
  0
LINE
  8
0
 10
95.91
 20
10
 11
95.9131
 21
10.0998
  0
LINE
  8
0
 10
95.9131
 20
10.0998
 11
95.9225
 21
10.1993
  0
LINE
  8
0
 10
95.9225
 20
10.1993
 11
95.9382
 21
10.2979
  0
LINE
  8
0
 10
95.9382
 20
10.2979
 11
95.9599
 21
10.3954
  0
LINE
  8
0
 10
95.9599
 20
10.3954
 11
95.9878
 21
10.4913
  0
LINE
  8
0
 10
95.9878
 20
10.4913
 11
96.0217
 21
10.5853
  0
LINE
  8
0
 10
96.0217
 20
10.5853
 11
96.0613
 21
10.677
  0
LINE
  8
0
 10
96.0613
 20
10.677
 11
96.1067
 21
10.766
  0
LINE
  8
0
 10
96.1067
 20
10.766
 11
96.1575
 21
10.852
  0
LINE
  8
0
 10
96.1575
 20
10.852
 11
96.2137
 21
10.9346
  0
LINE
  8
0
 10
96.2137
 20
10.9346
 11
96.2749
 21
11.0135
  0
LINE
  8
0
 10
96.2749
 20
11.0135
 11
96.3409
 21
11.0884
  0
LINE
  8
0
 10
96.3409
 20
11.0884
 11
96.4116
 21
11.1591
  0
LINE
  8
0
 10
96.4116
 20
11.1591
 11
96.4865
 21
11.2251
  0
LINE
  8
0
 10
96.4865
 20
11.2251
 11
96.5654
 21
11.2863
  0
LINE
  8
0
 10
96.5654
 20
11.2863
 11
96.648
 21
11.3425
  0
LINE
  8
0
 10
96.648
 20
11.3425
 11
96.734
 21
11.3933
  0
LINE
  8
0
 10
96.734
 20
11.3933
 11
96.823
 21
11.4387
  0
LINE
  8
0
 10
96.823
 20
11.4387
 11
96.9147
 21
11.4783
  0
LINE
  8
0
 10
96.9147
 20
11.4783
 11
97.0087
 21
11.5122
  0
LINE
  8
0
 10
97.0087
 20
11.5122
 11
97.1046
 21
11.54
  0
LINE
  8
0
 10
97.1046
 20
11.54
 11
97.2021
 21
11.5618
  0
LINE
  8
0
 10
97.2021
 20
11.5618
 11
97.3007
 21
11.5775
  0
LINE
  8
0
 10
97.3007
 20
11.5775
 11
97.4002
 21
11.5869
  0
LINE
  8
0
 10
97.4002
 20
11.5869
 11
97.5
 21
11.59
  0
LINE
  8
0
 10
97.5
 20
11.59
 11
97.5998
 21
11.5869
  0
LINE
  8
0
 10
97.5998
 20
11.5869
 11
97.6993
 21
11.5775
  0
LINE
  8
0
 10
97.6993
 20
11.5775
 11
97.7979
 21
11.5618
  0
LINE
  8
0
 10
97.7979
 20
11.5618
 11
97.8954
 21
11.54
  0
LINE
  8
0
 10
97.8954
 20
11.54
 11
97.9913
 21
11.5122
  0
LINE
  8
0
 10
97.9913
 20
11.5122
 11
98.0853
 21
11.4783
  0
LINE
  8
0
 10
98.0853
 20
11.4783
 11
98.177
 21
11.4387
  0
LINE
  8
0
 10
98.177
 20
11.4387
 11
98.266
 21
11.3933
  0
LINE
  8
0
 10
98.266
 20
11.3933
 11
98.352
 21
11.3425
  0
LINE
  8
0
 10
98.352
 20
11.3425
 11
98.4346
 21
11.2863
  0
LINE
  8
0
 10
98.4346
 20
11.2863
 11
98.5135
 21
11.2251
  0
LINE
  8
0
 10
98.5135
 20
11.2251
 11
98.5884
 21
11.1591
  0
LINE
  8
0
 10
98.5884
 20
11.1591
 11
98.6591
 21
11.0884
  0
LINE
  8
0
 10
98.6591
 20
11.0884
 11
98.7251
 21
11.0135
  0
LINE
  8
0
 10
98.7251
 20
11.0135
 11
98.7863
 21
10.9346
  0
LINE
  8
0
 10
98.7863
 20
10.9346
 11
98.8425
 21
10.852
  0
LINE
  8
0
 10
98.8425
 20
10.852
 11
98.8933
 21
10.766
  0
LINE
  8
0
 10
98.8933
 20
10.766
 11
98.9387
 21
10.677
  0
LINE
  8
0
 10
98.9387
 20
10.677
 11
98.9783
 21
10.5853
  0
LINE
  8
0
 10
98.9783
 20
10.5853
 11
99.0122
 21
10.4913
  0
LINE
  8
0
 10
99.0122
 20
10.4913
 11
99.04
 21
10.3954
  0
LINE
  8
0
 10
99.04
 20
10.3954
 11
99.0618
 21
10.2979
  0
LINE
  8
0
 10
99.0618
 20
10.2979
 11
99.0775
 21
10.1993
  0
LINE
  8
0
 10
99.0775
 20
10.1993
 11
99.0869
 21
10.0998
  0
LINE
  8
0
 10
99.0869
 20
10.0998
 11
99.09
 21
10
  0
LINE
  8
0
 10
99.09
 20
10
 11
99.0869
 21
9.90018
  0
LINE
  8
0
 10
99.0869
 20
9.90018
 11
99.0775
 21
9.80072
  0
LINE
  8
0
 10
99.0775
 20
9.80072
 11
99.0618
 21
9.70207
  0
LINE
  8
0
 10
99.0618
 20
9.70207
 11
99.04
 21
9.60458
  0
LINE
  8
0
 10
99.04
 20
9.60458
 11
99.0122
 21
9.50867
  0
LINE
  8
0
 10
99.0122
 20
9.50867
 11
98.9783
 21
9.41469
  0
LINE
  8
0
 10
98.9783
 20
9.41469
 11
98.9387
 21
9.32301
  0
LINE
  8
0
 10
98.9387
 20
9.32301
 11
98.8933
 21
9.23402
  0
LINE
  8
0
 10
98.8933
 20
9.23402
 11
98.8425
 21
9.14804
  0
LINE
  8
0
 10
98.8425
 20
9.14804
 11
98.7863
 21
9.06543
  0
LINE
  8
0
 10
98.7863
 20
9.06543
 11
98.7251
 21
8.9865
  0
LINE
  8
0
 10
98.7251
 20
8.9865
 11
98.6591
 21
8.91158
  0
LINE
  8
0
 10
98.6591
 20
8.91158
 11
98.5884
 21
8.84094
  0
LINE
  8
0
 10
98.5884
 20
8.84094
 11
98.5135
 21
8.77489
  0
LINE
  8
0
 10
98.5135
 20
8.77489
 11
98.4346
 21
8.71367
  0
LINE
  8
0
 10
98.4346
 20
8.71367
 11
98.352
 21
8.65753
  0
LINE
  8
0
 10
98.352
 20
8.65753
 11
98.266
 21
8.60667
  0
LINE
  8
0
 10
98.266
 20
8.60667
 11
98.177
 21
8.56133
  0
LINE
  8
0
 10
98.177
 20
8.56133
 11
98.0853
 21
8.52167
  0
LINE
  8
0
 10
98.0853
 20
8.52167
 11
97.9913
 21
8.48782
  0
LINE
  8
0
 10
97.9913
 20
8.48782
 11
97.8954
 21
8.45996
  0
LINE
  8
0
 10
97.8954
 20
8.45996
 11
97.7979
 21
8.43817
  0
LINE
  8
0
 10
97.7979
 20
8.43817
 11
97.6993
 21
8.42255
  0
LINE
  8
0
 10
97.6993
 20
8.42255
 11
97.5998
 21
8.41315
  0
LINE
  8
0
 10
97.5998
 20
8.41315
 11
97.5
 21
8.41
  0
LINE
  8
0
 10
97.5
 20
8.41
 11
97.4002
 21
8.41315
  0
ENDSEC
  0
SECTION
  2
OBJECTS
  0
DICTIONARY
  0
ENDSEC
  0
EOF
