  0
SECTION
  2
HEADER
  9
$ACADVER
  1
AC1014
  9
$HANDSEED
  5
FFFF
  9
$MEASUREMENT
 70
     1
  0
ENDSEC
  0
SECTION
  2
TABLES
  0
TABLE
  2
VPORT
  5
8
330
0
100
AcDbSymbolTable
 70
     4
  0
VPORT
  5
2E
330
8
100
AcDbSymbolTableRecord
100
AcDbViewportTableRecord
  2
*ACTIVE
 70
     0
 10
0.0
 20
0.0
 11
1.0
 21
1.0
 12
210.0
 22
148.5
 13
0.0
 23
0.0
 14
10.0
 24
10.0
 15
10.0
 25
10.0
 16
0.0
 26
0.0
 36
1.0
 17
0.0
 27
0.0
 37
0.0
 40
341.0
 41
1.24
 42
50.0
 43
0.0
 44
0.0
 50
0.0
 51
0.0
 71
     0
 72
   100
 73
     1
 74
     3
 75
     0
 76
     0
 77
     0
 78
     0
  0
ENDTAB
  0
TABLE
  2
LTYPE
  5
5
330
0
100
AcDbSymbolTable
 70
     1
  0
LTYPE
  5
14
330
5
100
AcDbSymbolTableRecord
100
AcDbLinetypeTableRecord
  2
BYBLOCK
 70
     0
  3

 72
    65
 73
     0
 40
0.0
  0
LTYPE
  5
15
330
5
100
AcDbSymbolTableRecord
100
AcDbLinetypeTableRecord
  2
BYLAYER
 70
     0
  3

 72
    65
 73
     0
 40
0.0
  0
LTYPE
  5
16
330
5
100
AcDbSymbolTableRecord
100
AcDbLinetypeTableRecord
  2
CONTINUOUS
 70
     0
  3
Solid line
 72
    65
 73
     0
 40
0.0
  0
ENDTAB
  0
TABLE
  2
LAYER
  5
2
100
AcDbSymbolTable
 70
1
  0
LAYER
  5
50
100
AcDbSymbolTableRecord
100
AcDbLayerTableRecord
  2
0
 70
0
  6
CONTINUOUS
  0
ENDTAB
  0
TABLE
  2
STYLE
  5
3
330
0
100
AcDbSymbolTable
 70
     1
  0
STYLE
  5
11
330
3
100
AcDbSymbolTableRecord
100
AcDbTextStyleTableRecord
  2
STANDARD
 70
     0
 40
0.0
 41
1.0
 50
0.0
 71
     0
 42
2.5
  3
txt
  4

  0
ENDTAB
  0
TABLE
  2
VIEW
  5
6
330
0
100
AcDbSymbolTable
 70
     0
  0
ENDTAB
  0
TABLE
  2
UCS
  5
7
330
0
100
AcDbSymbolTable
 70
     0
  0
ENDTAB
  0
TABLE
  2
APPID
  5
9
330
0
100
AcDbSymbolTable
 70
     2
  0
APPID
  5
12
330
9
100
AcDbSymbolTableRecord
100
AcDbRegAppTableRecord
  2
ACAD
 70
     0
  0
ENDTAB
  0
TABLE
  2
DIMSTYLE
  5
A
330
0
100
AcDbSymbolTable
 70
     1
  0
DIMSTYLE
105
27
330
A
100
AcDbSymbolTableRecord
100
AcDbDimStyleTableRecord
  2
ISO-25
 70
     0
  3

  4

  5

  6

  7

 40
1.0
 41
2.5
 42
0.625
 43
3.75
 44
1.25
 45
0.0
 46
0.0
 47
0.0
 48
0.0
140
2.5
141
2.5
142
0.0
143
0.03937007874016
144
1.0
145
0.0
146
1.0
147
0.625
 71
     0
 72
     0
 73
     0
 74
     0
 75
     0
 76
     0
 77
     1
 78
     8
170
     0
171
     3
172
     1
173
     0
174
     0
175
     0
176
     0
177
     0
178
     0
270
     2
271
     2
272
     2
273
     2
274
     3
340
11
275
     0
280
     0
281
     0
282
     0
283
     0
284
     8
285
     0
286
     0
287
     3
288
     0
  0
ENDTAB
  0
TABLE
  2
BLOCK_RECORD
  5
1
330
0
100
AcDbSymbolTable
 70
     1
  0
BLOCK_RECORD
  5
1F
330
1
100
AcDbSymbolTableRecord
100
AcDbBlockTableRecord
  2
*MODEL_SPACE
  0
BLOCK_RECORD
  5
1B
330
1
100
AcDbSymbolTableRecord
100
AcDbBlockTableRecord
  2
*PAPER_SPACE
  0
ENDTAB
  0
ENDSEC
  0
SECTION
  2
BLOCKS
  0
BLOCK
  5
20
330
1F
100
AcDbEntity
  8
0
100
AcDbBlockBegin
  2
*MODEL_SPACE
 70
     0
 10
0.0
 20
0.0
 30
0.0
  3
*MODEL_SPACE
  1

  0
ENDBLK
  5
21
330
1F
100
AcDbEntity
  8
0
100
AcDbBlockEnd
  0
BLOCK
  5
1C
330
1B
100
AcDbEntity
 67
     1
  8
0
100
AcDbBlockBegin
  2
*PAPER_SPACE
  1

  0
ENDBLK
  5
1D
330
1B
100
AcDbEntity
 67
     1
  8
0
100
AcDbBlockEnd
  0
ENDSEC
  0
SECTION
  2
ENTITIES
  0
SPLINE
  5
100
100
AcDbEntity
  8
0
 62
7
100
AcDbSpline
 70
8
 71
3
 72
8
 73
4
 74
0
 40
0
 40
0
 40
0
 40
0
 40
1
 40
1
 40
1
 40
1
 10
14.173228
 20
70.866142
 30
0.0
 10
9.109622
 20
70.866142
 30
0.0
 10
4.430656
 20
73.567544
 30
0.0
 10
1.898853
 20
77.952756
 30
0.0
  0
SPLINE
  5
101
100
AcDbEntity
  8
0
 62
7
100
AcDbSpline
 70
8
 71
3
 72
8
 73
4
 74
0
 40
0
 40
0
 40
0
 40
0
 40
1
 40
1
 40
1
 40
1
 10
1.898853
 20
77.952756
 30
0.0
 10
-0.632951
 20
82.337968
 30
0.0
 10
-0.632951
 20
87.740772
 30
0.0
 10
1.898853
 20
92.125984
 30
0.0
  0
SPLINE
  5
102
100
AcDbEntity
  8
0
 62
7
100
AcDbSpline
 70
8
 71
3
 72
8
 73
4
 74
0
 40
0
 40
0
 40
0
 40
0
 40
1
 40
1
 40
1
 40
1
 10
1.898853
 20
92.125984
 30
0.0
 10
4.430656
 20
96.511196
 30
0.0
 10
9.109622
 20
99.212598
 30
0.0
 10
14.173228
 20
99.212598
 30
0.0
  0
LWPOLYLINE
  5
103
100
AcDbEntity
  8
0
 62
7
100
AcDbPolyline
 90
2
 70
0
 10
14.173228
 20
-0.000000
 30
0.0
 10
14.173228
 20
70.866142
 30
0.0
  0
SPLINE
  5
104
100
AcDbEntity
  8
0
 62
7
100
AcDbSpline
 70
8
 71
3
 72
8
 73
4
 74
0
 40
0
 40
0
 40
0
 40
0
 40
1
 40
1
 40
1
 40
1
 10
85.039370
 20
99.212598
 30
0.0
 10
90.102977
 20
99.212598
 30
0.0
 10
94.781942
 20
96.511196
 30
0.0
 10
97.313746
 20
92.125984
 30
0.0
  0
SPLINE
  5
105
100
AcDbEntity
  8
0
 62
7
100
AcDbSpline
 70
8
 71
3
 72
8
 73
4
 74
0
 40
0
 40
0
 40
0
 40
0
 40
1
 40
1
 40
1
 40
1
 10
97.313746
 20
92.125984
 30
0.0
 10
99.845549
 20
87.740772
 30
0.0
 10
99.845549
 20
82.337968
 30
0.0
 10
97.313746
 20
77.952756
 30
0.0
  0
SPLINE
  5
106
100
AcDbEntity
  8
0
 62
7
100
AcDbSpline
 70
8
 71
3
 72
8
 73
4
 74
0
 40
0
 40
0
 40
0
 40
0
 40
1
 40
1
 40
1
 40
1
 10
97.313746
 20
77.952756
 30
0.0
 10
94.781942
 20
73.567544
 30
0.0
 10
90.102977
 20
70.866142
 30
0.0
 10
85.039370
 20
70.866142
 30
0.0
  0
LWPOLYLINE
  5
107
100
AcDbEntity
  8
0
 62
7
100
AcDbPolyline
 90
2
 70
0
 10
14.173228
 20
99.212598
 30
0.0
 10
85.039370
 20
99.212598
 30
0.0
  0
LWPOLYLINE
  5
108
100
AcDbEntity
  8
0
 62
7
100
AcDbPolyline
 90
4
 70
0
 10
85.039370
 20
70.866142
 30
0.0
 10
85.039370
 20
-0.000000
 30
0.0
 10
14.173228
 20
-0.000000
 30
0.0
 10
14.173228
 20
-0.000000
 30
0.0
  0
LWPOLYLINE
  5
109
100
AcDbEntity
  8
0
 62
7
100
AcDbPolyline
 90
60
 70
1
 10
34.015748
 20
65.196850
 30
0.0
 10
34.015748
 20
65.196850
 30
0.0
 10
33.709269
 20
65.163617
 30
0.0
 10
33.406384
 20
65.064305
 30
0.0
 10
33.110643
 20
64.900083
 30
0.0
 10
32.825511
 20
64.672869
 30
0.0
 10
32.554335
 20
64.385334
 30
0.0
 10
32.300294
 20
64.040842
 30
0.0
 10
32.066365
 20
63.643439
 30
0.0
 10
31.855289
 20
63.197782
 30
0.0
 10
31.669543
 20
62.709092
 30
0.0
 10
31.511305
 20
62.183103
 30
0.0
 10
31.382427
 20
61.625979
 30
0.0
 10
31.284425
 20
61.044256
 30
0.0
 10
31.218446
 20
60.444748
 30
0.0
 10
31.185261
 20
59.834489
 30
0.0
 10
31.185261
 20
59.220629
 30
0.0
 10
31.218446
 20
58.610370
 30
0.0
 10
31.284425
 20
58.010862
 30
0.0
 10
31.382427
 20
57.429139
 30
0.0
 10
31.511305
 20
56.872015
 30
0.0
 10
31.669543
 20
56.346026
 30
0.0
 10
31.855289
 20
55.857339
 30
0.0
 10
32.066365
 20
55.411679
 30
0.0
 10
32.300294
 20
55.014276
 30
0.0
 10
32.554335
 20
54.669787
 30
0.0
 10
32.825511
 20
54.382249
 30
0.0
 10
33.110643
 20
54.155038
 30
0.0
 10
33.406384
 20
53.990813
 30
0.0
 10
33.709269
 20
53.891501
 30
0.0
 10
34.015748
 20
53.858268
 30
0.0
 10
34.322227
 20
53.891501
 30
0.0
 10
34.625115
 20
53.990813
 30
0.0
 10
34.920856
 20
54.155038
 30
0.0
 10
35.205985
 20
54.382249
 30
0.0
 10
35.477161
 20
54.669787
 30
0.0
 10
35.731202
 20
55.014276
 30
0.0
 10
35.965134
 20
55.411679
 30
0.0
 10
36.176207
 20
55.857339
 30
0.0
 10
36.361953
 20
56.346026
 30
0.0
 10
36.520191
 20
56.872015
 30
0.0
 10
36.649069
 20
57.429139
 30
0.0
 10
36.747071
 20
58.010862
 30
0.0
 10
36.813053
 20
58.610370
 30
0.0
 10
36.846238
 20
59.220629
 30
0.0
 10
36.846238
 20
59.834489
 30
0.0
 10
36.813053
 20
60.444748
 30
0.0
 10
36.747071
 20
61.044256
 30
0.0
 10
36.649069
 20
61.625979
 30
0.0
 10
36.520191
 20
62.183103
 30
0.0
 10
36.361953
 20
62.709092
 30
0.0
 10
36.176207
 20
63.197782
 30
0.0
 10
35.965134
 20
63.643439
 30
0.0
 10
35.731202
 20
64.040842
 30
0.0
 10
35.477161
 20
64.385334
 30
0.0
 10
35.205985
 20
64.672869
 30
0.0
 10
34.920856
 20
64.900083
 30
0.0
 10
34.625115
 20
65.064305
 30
0.0
 10
34.322227
 20
65.163617
 30
0.0
 10
34.015748
 20
65.196850
 30
0.0
  0
SPLINE
  5
10a
100
AcDbEntity
  8
0
 62
7
100
AcDbSpline
 70
8
 71
3
 72
8
 73
4
 74
0
 40
0
 40
0
 40
0
 40
0
 40
1
 40
1
 40
1
 40
1
 10
25.511811
 20
34.015748
 30
0.0
 10
25.511811
 20
33.003027
 30
0.0
 10
26.052091
 20
32.067234
 30
0.0
 10
26.929134
 20
31.560873
 30
0.0
  0
SPLINE
  5
10b
100
AcDbEntity
  8
0
 62
7
100
AcDbSpline
 70
8
 71
3
 72
8
 73
4
 74
0
 40
0
 40
0
 40
0
 40
0
 40
1
 40
1
 40
1
 40
1
 10
26.929134
 20
31.560873
 30
0.0
 10
27.806176
 20
31.054512
 30
0.0
 10
28.886737
 20
31.054512
 30
0.0
 10
29.763780
 20
31.560873
 30
0.0
  0
SPLINE
  5
10c
100
AcDbEntity
  8
0
 62
7
100
AcDbSpline
 70
8
 71
3
 72
8
 73
4
 74
0
 40
0
 40
0
 40
0
 40
0
 40
1
 40
1
 40
1
 40
1
 10
29.763780
 20
31.560873
 30
0.0
 10
30.640822
 20
32.067234
 30
0.0
 10
31.181102
 20
33.003027
 30
0.0
 10
31.181102
 20
34.015748
 30
0.0
  0
SPLINE
  5
10d
100
AcDbEntity
  8
0
 62
7
100
AcDbSpline
 70
8
 71
3
 72
8
 73
4
 74
0
 40
0
 40
0
 40
0
 40
0
 40
1
 40
1
 40
1
 40
1
 10
31.181102
 20
34.015748
 30
0.0
 10
31.181102
 20
35.028469
 30
0.0
 10
30.640822
 20
35.964263
 30
0.0
 10
29.763780
 20
36.470623
 30
0.0
  0
SPLINE
  5
10e
100
AcDbEntity
  8
0
 62
7
100
AcDbSpline
 70
8
 71
3
 72
8
 73
4
 74
0
 40
0
 40
0
 40
0
 40
0
 40
1
 40
1
 40
1
 40
1
 10
29.763780
 20
36.470623
 30
0.0
 10
28.886737
 20
36.976984
 30
0.0
 10
27.806176
 20
36.976984
 30
0.0
 10
26.929134
 20
36.470623
 30
0.0
  0
SPLINE
  5
10f
100
AcDbEntity
  8
0
 62
7
100
AcDbSpline
 70
8
 71
3
 72
8
 73
4
 74
0
 40
0
 40
0
 40
0
 40
0
 40
1
 40
1
 40
1
 40
1
 10
26.929134
 20
36.470623
 30
0.0
 10
26.052091
 20
35.964263
 30
0.0
 10
25.511811
 20
35.028469
 30
0.0
 10
25.511811
 20
34.015748
 30
0.0
  0
LWPOLYLINE
  5
110
100
AcDbEntity
  8
0
 62
7
100
AcDbPolyline
 90
60
 70
1
 10
65.200635
 20
65.196850
 30
0.0
 10
65.200635
 20
65.196850
 30
0.0
 10
64.894564
 20
65.163662
 30
0.0
 10
64.592082
 20
65.064481
 30
0.0
 10
64.296734
 20
64.900471
 30
0.0
 10
64.011983
 20
64.673558
 30
0.0
 10
63.741169
 20
64.386397
 30
0.0
 10
63.487466
 20
64.042362
 30
0.0
 10
63.253848
 20
63.645480
 30
0.0
 10
63.043055
 20
63.200407
 30
0.0
 10
62.857556
 20
62.712360
 30
0.0
 10
62.699530
 20
62.187060
 30
0.0
 10
62.570826
 20
61.630671
 30
0.0
 10
62.472951
 20
61.049710
 30
0.0
 10
62.407060
 20
60.450990
 30
0.0
 10
62.373920
 20
59.841530
 30
0.0
 10
62.373920
 20
59.228478
 30
0.0
 10
62.407060
 20
58.619021
 30
0.0
 10
62.472951
 20
58.020301
 30
0.0
 10
62.570826
 20
57.439338
 30
0.0
 10
62.699530
 20
56.882948
 30
0.0
 10
62.857556
 20
56.357649
 30
0.0
 10
63.043055
 20
55.869602
 30
0.0
 10
63.253848
 20
55.424529
 30
0.0
 10
63.487466
 20
55.027647
 30
0.0
 10
63.741169
 20
54.683612
 30
0.0
 10
64.011983
 20
54.396451
 30
0.0
 10
64.296734
 20
54.169537
 30
0.0
 10
64.592082
 20
54.005528
 30
0.0
 10
64.894564
 20
53.906349
 30
0.0
 10
65.200635
 20
53.873158
 30
0.0
 10
65.506703
 20
53.906349
 30
0.0
 10
65.809185
 20
54.005528
 30
0.0
 10
66.104532
 20
54.169537
 30
0.0
 10
66.389284
 20
54.396451
 30
0.0
 10
66.660097
 20
54.683612
 30
0.0
 10
66.913801
 20
55.027647
 30
0.0
 10
67.147418
 20
55.424529
 30
0.0
 10
67.358211
 20
55.869602
 30
0.0
 10
67.543710
 20
56.357649
 30
0.0
 10
67.701739
 20
56.882948
 30
0.0
 10
67.830443
 20
57.439338
 30
0.0
 10
67.928315
 20
58.020301
 30
0.0
 10
67.994206
 20
58.619021
 30
0.0
 10
68.027349
 20
59.228478
 30
0.0
 10
68.027349
 20
59.841530
 30
0.0
 10
67.994206
 20
60.450990
 30
0.0
 10
67.928315
 20
61.049710
 30
0.0
 10
67.830443
 20
61.630671
 30
0.0
 10
67.701739
 20
62.187060
 30
0.0
 10
67.543710
 20
62.712360
 30
0.0
 10
67.358211
 20
63.200407
 30
0.0
 10
67.147418
 20
63.645480
 30
0.0
 10
66.913801
 20
64.042362
 30
0.0
 10
66.660097
 20
64.386397
 30
0.0
 10
66.389284
 20
64.673558
 30
0.0
 10
66.104532
 20
64.900471
 30
0.0
 10
65.809185
 20
65.064481
 30
0.0
 10
65.506703
 20
65.163662
 30
0.0
 10
65.200635
 20
65.196850
 30
0.0
  0
SPLINE
  5
111
100
AcDbEntity
  8
0
 62
7
100
AcDbSpline
 70
8
 71
3
 72
8
 73
4
 74
0
 40
0
 40
0
 40
0
 40
0
 40
1
 40
1
 40
1
 40
1
 10
68.031496
 20
34.015748
 30
0.0
 10
68.031496
 20
33.003027
 30
0.0
 10
68.571776
 20
32.067234
 30
0.0
 10
69.448819
 20
31.560873
 30
0.0
  0
SPLINE
  5
112
100
AcDbEntity
  8
0
 62
7
100
AcDbSpline
 70
8
 71
3
 72
8
 73
4
 74
0
 40
0
 40
0
 40
0
 40
0
 40
1
 40
1
 40
1
 40
1
 10
69.448819
 20
31.560873
 30
0.0
 10
70.325861
 20
31.054512
 30
0.0
 10
71.406422
 20
31.054512
 30
0.0
 10
72.283465
 20
31.560873
 30
0.0
  0
SPLINE
  5
113
100
AcDbEntity
  8
0
 62
7
100
AcDbSpline
 70
8
 71
3
 72
8
 73
4
 74
0
 40
0
 40
0
 40
0
 40
0
 40
1
 40
1
 40
1
 40
1
 10
72.283465
 20
31.560873
 30
0.0
 10
73.160507
 20
32.067234
 30
0.0
 10
73.700787
 20
33.003027
 30
0.0
 10
73.700787
 20
34.015748
 30
0.0
  0
SPLINE
  5
114
100
AcDbEntity
  8
0
 62
7
100
AcDbSpline
 70
8
 71
3
 72
8
 73
4
 74
0
 40
0
 40
0
 40
0
 40
0
 40
1
 40
1
 40
1
 40
1
 10
73.700787
 20
34.015748
 30
0.0
 10
73.700787
 20
35.028469
 30
0.0
 10
73.160507
 20
35.964263
 30
0.0
 10
72.283465
 20
36.470623
 30
0.0
  0
SPLINE
  5
115
100
AcDbEntity
  8
0
 62
7
100
AcDbSpline
 70
8
 71
3
 72
8
 73
4
 74
0
 40
0
 40
0
 40
0
 40
0
 40
1
 40
1
 40
1
 40
1
 10
72.283465
 20
36.470623
 30
0.0
 10
71.406422
 20
36.976984
 30
0.0
 10
70.325861
 20
36.976984
 30
0.0
 10
69.448819
 20
36.470623
 30
0.0
  0
SPLINE
  5
116
100
AcDbEntity
  8
0
 62
7
100
AcDbSpline
 70
8
 71
3
 72
8
 73
4
 74
0
 40
0
 40
0
 40
0
 40
0
 40
1
 40
1
 40
1
 40
1
 10
69.448819
 20
36.470623
 30
0.0
 10
68.571776
 20
35.964263
 30
0.0
 10
68.031496
 20
35.028469
 30
0.0
 10
68.031496
 20
34.015748
 30
0.0
  0
LWPOLYLINE
  5
117
100
AcDbEntity
  8
0
 62
7
100
AcDbPolyline
 90
1
 70
1
 10
25.511811
 20
34.015748
 30
0.0
  0
LWPOLYLINE
  5
118
100
AcDbEntity
  8
0
 62
7
100
AcDbPolyline
 90
1
 70
1
 10
68.031496
 20
34.015748
 30
0.0
  0
LWPOLYLINE
  5
119
100
AcDbEntity
  8
0
 62
7
100
AcDbPolyline
 90
134
 70
1
 10
65.196850
 20
19.842520
 30
0.0
 10
65.196850
 20
19.842520
 30
0.0
 10
64.555651
 20
19.458907
 30
0.0
 10
63.957509
 20
19.103216
 30
0.0
 10
63.398015
 20
18.772634
 30
0.0
 10
62.873331
 20
18.464703
 30
0.0
 10
62.380106
 20
18.177293
 30
0.0
 10
61.915402
 20
17.908526
 30
0.0
 10
61.476630
 20
17.656750
 30
0.0
 10
61.061496
 20
17.420513
 30
0.0
 10
60.667974
 20
17.198515
 30
0.0
 10
60.294246
 20
16.989608
 30
0.0
 10
59.938696
 20
16.792761
 30
0.0
 10
59.599871
 20
16.607058
 30
0.0
 10
59.276466
 20
16.431667
 30
0.0
 10
58.967303
 20
16.265846
 30
0.0
 10
58.387538
 20
15.960288
 30
0.0
 10
57.853179
 20
15.685724
 30
0.0
 10
57.358077
 20
15.438305
 30
0.0
 10
56.897090
 20
15.214833
 30
0.0
 10
56.465867
 20
15.012612
 30
0.0
 10
56.060705
 20
14.829381
 30
0.0
 10
55.678428
 20
14.663208
 30
0.0
 10
55.316282
 20
14.512450
 30
0.0
 10
54.971878
 20
14.375701
 30
0.0
 10
54.643122
 20
14.251754
 30
0.0
 10
54.328158
 20
14.139556
 30
0.0
 10
53.733212
 20
13.946933
 30
0.0
 10
53.175798
 20
13.791977
 30
0.0
 10
52.646686
 20
13.670308
 30
0.0
 10
52.138037
 20
13.578684
 30
0.0
 10
51.643003
 20
13.514786
 30
0.0
 10
51.155371
 20
13.477048
 30
0.0
 10
50.669291
 20
13.464567
 30
0.0
 10
50.179054
 20
13.477048
 30
0.0
 10
49.678841
 20
13.514786
 30
0.0
 10
49.162507
 20
13.578684
 30
0.0
 10
48.623318
 20
13.670308
 30
0.0
 10
48.053648
 20
13.791977
 30
0.0
 10
47.444584
 20
13.946933
 30
0.0
 10
47.122024
 20
14.038209
 30
0.0
 10
46.785430
 20
14.139556
 30
0.0
 10
46.433066
 20
14.251754
 30
0.0
 10
46.062992
 20
14.375701
 30
0.0
 10
45.673007
 20
14.512450
 30
0.0
 10
45.260612
 20
14.663208
 30
0.0
 10
44.822940
 20
14.829381
 30
0.0
 10
44.356700
 20
15.012612
 30
0.0
 10
43.858071
 20
15.214833
 30
0.0
 10
43.322593
 20
15.438305
 30
0.0
 10
42.745020
 20
15.685724
 30
0.0
 10
42.119138
 20
15.960288
 30
0.0
 10
41.785815
 20
16.108923
 30
0.0
 10
41.437519
 20
16.265846
 30
0.0
 10
41.073083
 20
16.431667
 30
0.0
 10
40.691214
 20
16.607058
 30
0.0
 10
40.290489
 20
16.792761
 30
0.0
 10
39.869325
 20
16.989608
 30
0.0
 10
39.425961
 20
17.198515
 30
0.0
 10
38.958437
 20
17.420513
 30
0.0
 10
38.464560
 20
17.656750
 30
0.0
 10
37.941863
 20
17.908526
 30
0.0
 10
37.387568
 20
18.177293
 30
0.0
 10
36.798540
 20
18.464703
 30
0.0
 10
36.171213
 20
18.772634
 30
0.0
 10
35.501525
 20
19.103216
 30
0.0
 10
34.784821
 20
19.458907
 30
0.0
 10
34.015748
 20
19.842520
 30
0.0
 10
34.966517
 20
21.744057
 30
0.0
 10
34.966517
 20
21.744057
 30
0.0
 10
35.734326
 20
21.361005
 30
0.0
 10
36.452563
 20
21.004381
 30
0.0
 10
37.124294
 20
20.672578
 30
0.0
 10
37.752582
 20
20.363981
 30
0.0
 10
38.340488
 20
20.076982
 30
0.0
 10
38.891072
 20
19.809961
 30
0.0
 10
39.407403
 20
19.561314
 30
0.0
 10
39.892538
 20
19.329423
 30
0.0
 10
40.349543
 20
19.112681
 30
0.0
 10
40.781477
 20
18.909471
 30
0.0
 10
41.191407
 20
18.718183
 30
0.0
 10
41.582390
 20
18.537208
 30
0.0
 10
41.957229
 20
18.365068
 30
0.0
 10
42.316308
 20
18.201566
 30
0.0
 10
42.988997
 20
17.899537
 30
0.0
 10
43.605190
 20
17.628647
 30
0.0
 10
44.169837
 20
17.386305
 30
0.0
 10
44.687894
 20
17.169922
 30
0.0
 10
45.164313
 20
16.976903
 30
0.0
 10
45.604043
 20
16.804661
 30
0.0
 10
46.012042
 20
16.650607
 30
0.0
 10
46.393260
 20
16.512146
 30
0.0
 10
46.752650
 20
16.386690
 30
0.0
 10
47.093927
 20
16.272082
 30
0.0
 10
47.417165
 20
16.167883
 30
0.0
 10
47.723403
 20
16.073728
 30
0.0
 10
48.013778
 20
15.989219
 30
0.0
 10
48.551457
 20
15.847571
 30
0.0
 10
49.039248
 20
15.739804
 30
0.0
 10
49.486198
 20
15.662778
 30
0.0
 10
49.901357
 20
15.613350
 30
0.0
 10
50.293772
 20
15.588380
 30
0.0
 10
50.672489
 20
15.584729
 30
0.0
 10
51.424370
 20
15.629097
 30
0.0
 10
51.810245
 20
15.676169
 30
0.0
 10
52.213289
 20
15.745819
 30
0.0
 10
52.643781
 20
15.843373
 30
0.0
 10
53.111999
 20
15.974167
 30
0.0
 10
53.628219
 20
16.143525
 30
0.0
 10
53.907540
 20
16.244331
 30
0.0
 10
54.202717
 20
16.356779
 30
0.0
 10
54.515030
 20
16.481534
 30
0.0
 10
54.845708
 20
16.619270
 30
0.0
 10
55.196620
 20
16.771428
 30
0.0
 10
55.571885
 20
16.940707
 30
0.0
 10
55.975881
 20
17.129900
 30
0.0
 10
56.412998
 20
17.341804
 30
0.0
 10
56.887614
 20
17.579211
 30
0.0
 10
57.404112
 20
17.844922
 30
0.0
 10
57.966877
 20
18.141729
 30
0.0
 10
58.578999
 20
18.471600
 30
0.0
 10
58.906049
 20
18.650514
 30
0.0
 10
59.249979
 20
18.840594
 30
0.0
 10
59.612981
 20
19.043240
 30
0.0
 10
59.997246
 20
19.259850
 30
0.0
 10
60.404967
 20
19.491826
 30
0.0
 10
60.838333
 20
19.740566
 30
0.0
 10
61.299536
 20
20.007471
 30
0.0
 10
61.790766
 20
20.293940
 30
0.0
 10
62.314217
 20
20.601374
 30
0.0
 10
62.872081
 20
20.931174
 30
0.0
 10
63.466577
 20
21.284756
 30
0.0
 10
64.103040
 20
21.665537
 30
0.0
 10
65.196850
 20
19.842520
 30
0.0
  0
LWPOLYLINE
  5
11a
100
AcDbEntity
  8
0
 62
7
100
AcDbPolyline
 90
7
 70
1
 10
42.519685
 20
36.850394
 30
0.0
 10
48.188976
 20
56.692913
 30
0.0
 10
50.233161
 20
56.108860
 30
0.0
 10
45.338168
 20
38.976378
 30
0.0
 10
51.023622
 20
38.976378
 30
0.0
 10
51.023622
 20
36.850394
 30
0.0
 10
42.519685
 20
36.850394
 30
0.0
  0
LWPOLYLINE
  5
11b
100
AcDbEntity
  8
0
 62
7
100
AcDbPolyline
 90
7
 70
1
 10
29.849754
 20
69.362844
 30
0.0
 10
28.346457
 20
70.866142
 30
0.0
 10
34.015748
 20
76.535433
 30
0.0
 10
39.847051
 20
70.704133
 30
0.0
 10
38.343753
 20
69.200836
 30
0.0
 10
34.015748
 20
73.528838
 30
0.0
 10
29.849754
 20
69.362844
 30
0.0
  0
LWPOLYLINE
  5
11c
100
AcDbEntity
  8
0
 62
7
100
AcDbPolyline
 90
7
 70
1
 10
61.034641
 20
69.362844
 30
0.0
 10
59.531340
 20
70.866142
 30
0.0
 10
65.200635
 20
76.535433
 30
0.0
 10
71.031934
 20
70.704133
 30
0.0
 10
69.528637
 20
69.200836
 30
0.0
 10
65.200635
 20
73.528838
 30
0.0
 10
61.034641
 20
69.362844
 30
0.0
  0
ENDSEC
  0
SECTION
  2
OBJECTS
  0
DICTIONARY
  5
C
330
0
100
AcDbDictionary
  3
ACAD_GROUP
350
D
  3
ACAD_MLINESTYLE
350
17
  0
DICTIONARY
  5
D
330
C
100
AcDbDictionary
  0
DICTIONARY
  5
1A
330
C
100
AcDbDictionary
  0
DICTIONARY
  5
17
330
C
100
AcDbDictionary
  3
STANDARD
350
18
  0
DICTIONARY
  5
19
330
C
100
AcDbDictionary
  0
ENDSEC
  0
EOF
