  0
SECTION
  2
HEADER
  9
$ACADVER
  1
AC1024
  9
$ACADMAINTVER
 70
     6
  9
$DWGCODEPAGE
  3
UNDEFINED
  9
$INSBASE
 10
0.0
 20
0.0
 30
0.0
  9
$EXTMIN
 10
1.000000000000000E+20
 20
1.000000000000000E+20
 30
1.000000000000000E+20
  9
$EXTMAX
 10
-1.000000000000000E+20
 20
-1.000000000000000E+20
 30
-1.000000000000000E+20
  9
$LIMMIN
 10
0.0
 20
0.0
  9
$LIMMAX
 10
12.0
 20
9.0
  9
$ORTHOMODE
 70
     0
  9
$REGENMODE
 70
     1
  9
$FILLMODE
 70
     1
  9
$QTEXTMODE
 70
     0
  9
$MIRRTEXT
 70
     1
  9
$LTSCALE
 40
1.0
  9
$ATTMODE
 70
     1
  9
$TEXTSIZE
 40
0.2
  9
$TRACEWID
 40
0.05
  9
$TEXTSTYLE
  7
Standard
  9
$CLAYER
  8
0
  9
$CELTYPE
  6
ByLayer
  9
$CECOLOR
 62
   256
  9
$CELTSCALE
 40
1.0
  9
$DISPSILH
 70
     0
  9
$DIMSCALE
 40
1.0
  9
$DIMASZ
 40
0.18
  9
$DIMEXO
 40
0.0625
  9
$DIMDLI
 40
0.38
  9
$DIMRND
 40
0.0
  9
$DIMDLE
 40
0.0
  9
$DIMEXE
 40
0.18
  9
$DIMTP
 40
0.0
  9
$DIMTM
 40
0.0
  9
$DIMTXT
 40
0.18
  9
$DIMCEN
 40
0.09
  9
$DIMTSZ
 40
0.0
  9
$DIMTOL
 70
     0
  9
$DIMLIM
 70
     0
  9
$DIMTIH
 70
     1
  9
$DIMTOH
 70
     1
  9
$DIMSE1
 70
     0
  9
$DIMSE2
 70
     0
  9
$DIMTAD
 70
     0
  9
$DIMZIN
 70
     0
  9
$DIMBLK
  1

  9
$DIMASO
 70
     1
  9
$DIMSHO
 70
     1
  9
$DIMPOST
  1

  9
$DIMAPOST
  1

  9
$DIMALT
 70
     0
  9
$DIMALTD
 70
     2
  9
$DIMALTF
 40
25.4
  9
$DIMLFAC
 40
1.0
  9
$DIMTOFL
 70
     0
  9
$DIMTVP
 40
0.0
  9
$DIMTIX
 70
     0
  9
$DIMSOXD
 70
     0
  9
$DIMSAH
 70
     0
  9
$DIMBLK1
  1

  9
$DIMBLK2
  1

  9
$DIMSTYLE
  2
Standard
  9
$DIMCLRD
 70
     0
  9
$DIMCLRE
 70
     0
  9
$DIMCLRT
 70
     0
  9
$DIMTFAC
 40
1.0
  9
$DIMGAP
 40
0.09
  9
$DIMJUST
 70
     0
  9
$DIMSD1
 70
     0
  9
$DIMSD2
 70
     0
  9
$DIMTOLJ
 70
     1
  9
$DIMTZIN
 70
     0
  9
$DIMALTZ
 70
     0
  9
$DIMALTTZ
 70
     0
  9
$DIMUPT
 70
     0
  9
$DIMDEC
 70
     4
  9
$DIMTDEC
 70
     4
  9
$DIMALTU
 70
     2
  9
$DIMALTTD
 70
     2
  9
$DIMTXSTY
  7
Standard
  9
$DIMAUNIT
 70
     0
  9
$DIMADEC
 70
     0
  9
$DIMALTRND
 40
0.0
  9
$DIMAZIN
 70
     0
  9
$DIMDSEP
 70
    46
  9
$DIMATFIT
 70
     3
  9
$DIMFRAC
 70
     0
  9
$DIMLDRBLK
  1

  9
$DIMLUNIT
 70
     2
  9
$DIMLWD
 70
    -2
  9
$DIMLWE
 70
    -2
  9
$DIMTMOVE
 70
     0
  9
$DIMFXL
 40
1.0
  9
$DIMFXLON
 70
     0
  9
$DIMJOGANG
 40
0.7853981633974483
  9
$DIMTFILL
 70
     0
  9
$DIMTFILLCLR
 70
     0
  9
$DIMARCSYM
 70
     0
  9
$DIMLTYPE
  6

  9
$DIMLTEX1
  6

  9
$DIMLTEX2
  6

  9
$DIMTXTDIRECTION
 70
     0
  9
$LUNITS
 70
     2
  9
$LUPREC
 70
     4
  9
$SKETCHINC
 40
0.1
  9
$FILLETRAD
 40
0.5
  9
$AUNITS
 70
     0
  9
$AUPREC
 70
     0
  9
$MENU
  1
.
  9
$ELEVATION
 40
0.0
  9
$PELEVATION
 40
0.0
  9
$THICKNESS
 40
0.0
  9
$LIMCHECK
 70
     0
  9
$CHAMFERA
 40
0.5
  9
$CHAMFERB
 40
0.5
  9
$CHAMFERC
 40
1.0
  9
$CHAMFERD
 40
0.0
  9
$SKPOLY
 70
     0
  9
$TDCREATE
 40
2459035.557766204
  9
$TDUCREATE
 40
2459035.182766204
  9
$TDUPDATE
 40
2459035.557766204
  9
$TDUUPDATE
 40
2459035.182766204
  9
$TDINDWG
 40
0.0000000116
  9
$TDUSRTIMER
 40
0.0000000116
  9
$USRTIMER
 70
     1
  9
$ANGBASE
 50
0.0
  9
$ANGDIR
 70
     0
  9
$PDMODE
 70
     0
  9
$PDSIZE
 40
0.0
  9
$PLINEWID
 40
0.0
  9
$SPLFRAME
 70
     0
  9
$SPLINETYPE
 70
     6
  9
$SPLINESEGS
 70
     8
  9
$HANDSEED
  5
20E
  9
$SURFTAB1
 70
     6
  9
$SURFTAB2
 70
     6
  9
$SURFTYPE
 70
     6
  9
$SURFU
 70
     6
  9
$SURFV
 70
     6
  9
$UCSBASE
  2

  9
$UCSNAME
  2

  9
$UCSORG
 10
0.0
 20
0.0
 30
0.0
  9
$UCSXDIR
 10
1.0
 20
0.0
 30
0.0
  9
$UCSYDIR
 10
0.0
 20
1.0
 30
0.0
  9
$UCSORTHOREF
  2

  9
$UCSORTHOVIEW
 70
     0
  9
$UCSORGTOP
 10
0.0
 20
0.0
 30
0.0
  9
$UCSORGBOTTOM
 10
0.0
 20
0.0
 30
0.0
  9
$UCSORGLEFT
 10
0.0
 20
0.0
 30
0.0
  9
$UCSORGRIGHT
 10
0.0
 20
0.0
 30
0.0
  9
$UCSORGFRONT
 10
0.0
 20
0.0
 30
0.0
  9
$UCSORGBACK
 10
0.0
 20
0.0
 30
0.0
  9
$PUCSBASE
  2

  9
$PUCSNAME
  2

  9
$PUCSORG
 10
0.0
 20
0.0
 30
0.0
  9
$PUCSXDIR
 10
1.0
 20
0.0
 30
0.0
  9
$PUCSYDIR
 10
0.0
 20
1.0
 30
0.0
  9
$PUCSORTHOREF
  2

  9
$PUCSORTHOVIEW
 70
     0
  9
$PUCSORGTOP
 10
0.0
 20
0.0
 30
0.0
  9
$PUCSORGBOTTOM
 10
0.0
 20
0.0
 30
0.0
  9
$PUCSORGLEFT
 10
0.0
 20
0.0
 30
0.0
  9
$PUCSORGRIGHT
 10
0.0
 20
0.0
 30
0.0
  9
$PUCSORGFRONT
 10
0.0
 20
0.0
 30
0.0
  9
$PUCSORGBACK
 10
0.0
 20
0.0
 30
0.0
  9
$USERI1
 70
     0
  9
$USERI2
 70
     0
  9
$USERI3
 70
     0
  9
$USERI4
 70
     0
  9
$USERI5
 70
     0
  9
$USERR1
 40
0.0
  9
$USERR2
 40
0.0
  9
$USERR3
 40
0.0
  9
$USERR4
 40
0.0
  9
$USERR5
 40
0.0
  9
$WORLDVIEW
 70
     1
  9
$SHADEDGE
 70
     3
  9
$SHADEDIF
 70
    70
  9
$TILEMODE
 70
     1
  9
$MAXACTVP
 70
    64
  9
$PINSBASE
 10
0.0
 20
0.0
 30
0.0
  9
$PLIMCHECK
 70
     0
  9
$PEXTMIN
 10
1.000000000000000E+20
 20
1.000000000000000E+20
 30
1.000000000000000E+20
  9
$PEXTMAX
 10
-1.000000000000000E+20
 20
-1.000000000000000E+20
 30
-1.000000000000000E+20
  9
$PLIMMIN
 10
0.0
 20
0.0
  9
$PLIMMAX
 10
12.0
 20
9.0
  9
$UNITMODE
 70
     0
  9
$VISRETAIN
 70
     1
  9
$PLINEGEN
 70
     0
  9
$PSLTSCALE
 70
     1
  9
$TREEDEPTH
 70
  3020
  9
$CMLSTYLE
  2
Standard
  9
$CMLJUST
 70
     0
  9
$CMLSCALE
 40
1.0
  9
$PROXYGRAPHICS
 70
     1
  9
$MEASUREMENT
 70
     0
  9
$CELWEIGHT
370
    -1
  9
$ENDCAPS
280
     0
  9
$JOINSTYLE
280
     0
  9
$LWDISPLAY
290
     1
  9
$INSUNITS
 70
     4
  9
$HYPERLINKBASE
  1

  9
$STYLESHEET
  1

  9
$XEDIT
290
     1
  9
$CEPSNTYPE
380
     0
  9
$PSTYLEMODE
290
     1
  9
$FINGERPRINTGUID
  2
{28A9E7A4-6813-6BD8-9112-6C65C18D586A}
  9
$VERSIONGUID
  2
{FAEB1C32-E019-11D5-929B-00C0DF256EC4}
  9
$EXTNAMES
290
     1
  9
$PSVPSCALE
 40
0.0
  9
$OLESTARTUP
290
     0
  9
$SORTENTS
280
   127
  9
$INDEXCTL
280
     0
  9
$HIDETEXT
280
     1
  9
$XCLIPFRAME
280
     2
  9
$HALOGAP
280
     0
  9
$OBSCOLOR
 70
   257
  9
$OBSLTYPE
280
     0
  9
$INTERSECTIONDISPLAY
280
     0
  9
$INTERSECTIONCOLOR
 70
   257
  9
$DIMASSOC
280
     2
  9
$PROJECTNAME
  1

  9
$CAMERADISPLAY
290
     0
  9
$LENSLENGTH
 40
50.0
  9
$CAMERAHEIGHT
 40
0.0
  9
$STEPSPERSEC
 40
2.0
  9
$STEPSIZE
 40
6.0
  9
$3DDWFPREC
 40
2.0
  9
$PSOLWIDTH
 40
0.25
  9
$PSOLHEIGHT
 40
4.0
  9
$LOFTANG1
 40
1.570796326794897
  9
$LOFTANG2
 40
1.570796326794897
  9
$LOFTMAG1
 40
0.0
  9
$LOFTMAG2
 40
0.0
  9
$LOFTPARAM
 70
     7
  9
$LOFTNORMALS
280
     1
  9
$LATITUDE
 40
37.795
  9
$LONGITUDE
 40
-122.394
  9
$NORTHDIRECTION
 40
0.0
  9
$TIMEZONE
 70
 -8000
  9
$LIGHTGLYPHDISPLAY
280
     1
  9
$TILEMODELIGHTSYNCH
280
     1
  9
$CMATERIAL
347
3C
  9
$SOLIDHIST
280
     1
  9
$SHOWHIST
280
     1
  9
$DWFFRAME
280
     2
  9
$DGNFRAME
280
     2
  9
$REALWORLDSCALE
290
     1
  9
$INTERFERECOLOR
 62
   256
  9
$CSHADOW
280
     0
  9
$SHADOWPLANELOCATION
 40
0.0
  0
ENDSEC
  0
SECTION
  2
CLASSES
  0
CLASS
  1
ACDBDICTIONARYWDFLT
  2
AcDbDictionaryWithDefault
  3
ObjectDBX Classes
 90
        0
 91
        4
280
     0
281
     0
  0
CLASS
  1
VISUALSTYLE
  2
AcDbVisualStyle
  3
ObjectDBX Classes
 90
     4095
 91
        4
280
     0
281
     0
  0
CLASS
  1
MATERIAL
  2
AcDbMaterial
  3
ObjectDBX Classes
 90
     1153
 91
        4
280
     0
281
     0
  0
CLASS
  1
SUN
  2
AcDbSun
  3
SCENEOE
 90
     1024
 91
        4
280
     0
281
     0
  0
ENDSEC
  0
SECTION
  2
TABLES
  0
TABLE
  2
VPORT
  5
8
330
0
100
AcDbSymbolTable
 70
     1
  0
VPORT
  5
29
330
8
100
AcDbSymbolTableRecord
100
AcDbViewportTableRecord
  2
*Active
 70
     0
 10
0.0
 20
0.0
 11
1.0
 21
1.0
 12
0.0
 22
0.0
 13
0.0
 23
0.0
 14
0.5
 24
0.5
 15
0.5
 25
0.5
 16
0.0
 26
0.0
 36
1.0
 17
99.9999999750055
 27
62.49999998437202
 37
0.0
 40
299.9999999249998
 41
2.0
 42
50.0
 43
0.0
 44
0.0
 50
0.0
 51
0.0
 71
     0
 72
   100
 73
     1
 74
     3
 75
     0
 76
     0
 77
     0
 78
     0
281
     0
 65
     1
110
0.0
120
0.0
130
0.0
111
1.0
121
0.0
131
0.0
112
0.0
122
1.0
132
0.0
 79
     0
146
0.0
 60
     3
 61
     5
292
     1
282
     1
141
0.0
142
0.0
 63
   250
361
3F
  0
ENDTAB
  0
TABLE
  2
LTYPE
  5
5
330
0
100
AcDbSymbolTable
 70
     1
  0
LTYPE
  5
14
330
5
100
AcDbSymbolTableRecord
100
AcDbLinetypeTableRecord
  2
ByBlock
 70
     0
  3

 72
    65
 73
     0
 40
0.0
  0
LTYPE
  5
15
330
5
100
AcDbSymbolTableRecord
100
AcDbLinetypeTableRecord
  2
ByLayer
 70
     0
  3

 72
    65
 73
     0
 40
0.0
  0
LTYPE
  5
16
330
5
100
AcDbSymbolTableRecord
100
AcDbLinetypeTableRecord
  2
Continuous
 70
     0
  3
Solid line
 72
    65
 73
     0
 40
0.0
  0
ENDTAB
  0
TABLE
  2
LAYER
  5
2
330
0
100
AcDbSymbolTable
 70
     1
  0
LAYER
  5
10
330
2
100
AcDbSymbolTableRecord
100
AcDbLayerTableRecord
  2
0
 70
     0
 62
     7
  6
Continuous
370
    -3
390
F
347
3E
  0
ENDTAB
  0
TABLE
  2
STYLE
  5
3
330
0
100
AcDbSymbolTable
 70
     1
  0
STYLE
  5
11
330
3
100
AcDbSymbolTableRecord
100
AcDbTextStyleTableRecord
  2
Standard
 70
     0
 40
0.0
 41
1.0
 50
0.0
 71
     0
 42
0.2
  3
txt
  4

  0
ENDTAB
  0
TABLE
  2
VIEW
  5
6
330
0
100
AcDbSymbolTable
 70
     0
  0
ENDTAB
  0
TABLE
  2
UCS
  5
7
330
0
100
AcDbSymbolTable
 70
     0
  0
ENDTAB
  0
TABLE
  2
APPID
  5
9
330
0
100
AcDbSymbolTable
 70
     1
  0
APPID
  5
12
330
9
100
AcDbSymbolTableRecord
100
AcDbRegAppTableRecord
  2
ACAD
 70
     0
  0
ENDTAB
  0
TABLE
  2
DIMSTYLE
  5
A
330
0
100
AcDbSymbolTable
 70
     1
100
AcDbDimStyleTable
  0
DIMSTYLE
105
27
330
A
100
AcDbSymbolTableRecord
100
AcDbDimStyleTableRecord
  2
Standard
 70
     0
178
     0
340
11
  0
ENDTAB
  0
TABLE
  2
BLOCK_RECORD
  5
1
330
0
100
AcDbSymbolTable
 70
     5
  0
BLOCK_RECORD
  5
1F
330
1
100
AcDbSymbolTableRecord
100
AcDbBlockTableRecord
  2
*Model_Space
340
22
 70
     0
280
     1
281
     0
  0
BLOCK_RECORD
  5
1B
330
1
100
AcDbSymbolTableRecord
100
AcDbBlockTableRecord
  2
*Paper_Space
340
1E
 70
     0
280
     1
281
     0
  0
BLOCK_RECORD
  5
23
330
1
100
AcDbSymbolTableRecord
100
AcDbBlockTableRecord
  2
*Paper_Space0
340
26
 70
     0
280
     1
281
     0
  0
BLOCK_RECORD
  5
40
330
1
100
AcDbSymbolTableRecord
100
AcDbBlockTableRecord
  2
block 2
340
0
102
{BLKREFS
331
41
102
}
 70
     0
280
     1
281
     0
  0
BLOCK_RECORD
  5
99
330
1
100
AcDbSymbolTableRecord
100
AcDbBlockTableRecord
  2
block 3
340
0
102
{BLKREFS
331
9A
102
}
 70
     0
280
     1
281
     0
  0
BLOCK_RECORD
  5
10A
330
1
100
AcDbSymbolTableRecord
100
AcDbBlockTableRecord
  2
block 4
340
0
102
{BLKREFS
331
10B
102
}
 70
     0
280
     1
281
     0
  0
BLOCK_RECORD
  5
189
330
1
100
AcDbSymbolTableRecord
100
AcDbBlockTableRecord
  2
block 5
340
0
102
{BLKREFS
331
18A
102
}
 70
     0
280
     1
281
     0
  0
ENDTAB
  0
ENDSEC
  0
SECTION
  2
BLOCKS
  0
BLOCK
  5
20
330
1F
100
AcDbEntity
  8
0
100
AcDbBlockBegin
  2
*Model_Space
 70
     0
 10
0.0
 20
0.0
 30
0.0
  3
*Model_Space
  1

  0
ENDBLK
  5
21
330
1F
100
AcDbEntity
  8
0
100
AcDbBlockEnd
  0
BLOCK
  5
1C
330
1B
100
AcDbEntity
 67
     1
  8
0
100
AcDbBlockBegin
  2
*Paper_Space
 70
     0
 10
0.0
 20
0.0
 30
0.0
  3
*Paper_Space
  1

  0
ENDBLK
  5
1D
330
1B
100
AcDbEntity
 67
     1
  8
0
100
AcDbBlockEnd
  0
BLOCK
  5
24
330
23
100
AcDbEntity
  8
0
100
AcDbBlockBegin
  2
*Paper_Space0
 70
     0
 10
0.0
 20
0.0
 30
0.0
  3
*Paper_Space0
  1

  0
ENDBLK
  5
25
330
23
100
AcDbEntity
  8
0
100
AcDbBlockEnd
  0
BLOCK
  5
42
330
40
100
AcDbEntity
  8
0
100
AcDbBlockBegin
  2
block 2
 70
     0
 10
0.0
 20
0.0
 30
0.0
  3
block 2
  1

  0
POLYLINE
  5
44
330
40
100
AcDbEntity
  8
0
 62
     7
420
 16777215
370
     9
100
AcDb2dPolyline
 66
     1
 10
0.0
 20
0.0
 30
0.0
  0
VERTEX
  5
45
330
44
100
AcDbEntity
  8
0
 62
     7
420
 16777215
370
     9
100
AcDbVertex
100
AcDb2dVertex
 10
65.87534127195677
 20
85.18627367200668
 30
0.0
  0
VERTEX
  5
46
330
44
100
AcDbEntity
  8
0
 62
     7
420
 16777215
370
     9
100
AcDbVertex
100
AcDb2dVertex
 10
43.18034247224184
 20
85.18627367200668
 30
0.0
  0
VERTEX
  5
47
330
44
100
AcDbEntity
  8
0
 62
     7
420
 16777215
370
     9
100
AcDbVertex
100
AcDb2dVertex
 10
43.18034247224184
 20
81.27531903740709
 30
0.0
  0
VERTEX
  5
48
330
44
100
AcDbEntity
  8
0
 62
     7
420
 16777215
370
     9
100
AcDbVertex
100
AcDb2dVertex
 10
43.0866164722417
 20
81.18159303740727
 30
0.0
  0
VERTEX
  5
49
330
44
100
AcDbEntity
  8
0
 62
     7
420
 16777215
370
     9
100
AcDbVertex
100
AcDb2dVertex
 10
22.21906841195697
 20
81.18159303740727
 30
0.0
  0
VERTEX
  5
4A
330
44
100
AcDbEntity
  8
0
 62
     7
420
 16777215
370
     9
100
AcDbVertex
100
AcDb2dVertex
 10
22.12534241195683
 20
81.27531903740709
 30
0.0
  0
VERTEX
  5
4B
330
44
100
AcDbEntity
  8
0
 62
     7
420
 16777215
370
     9
100
AcDbVertex
100
AcDb2dVertex
 10
22.12534241195683
 20
85.18627367200668
 30
0.0
  0
VERTEX
  5
4C
330
44
100
AcDbEntity
  8
0
 62
     7
420
 16777215
370
     9
100
AcDbVertex
100
AcDb2dVertex
 10
-0.5696589277585059
 20
85.18627367200668
 30
0.0
  0
VERTEX
  5
4D
330
44
100
AcDbEntity
  8
0
 62
     7
420
 16777215
370
     9
100
AcDbVertex
100
AcDb2dVertex
 10
-0.5696589277585059
 20
81.27531903740709
 30
0.0
  0
VERTEX
  5
4E
330
44
100
AcDbEntity
  8
0
 62
     7
420
 16777215
370
     9
100
AcDbVertex
100
AcDb2dVertex
 10
-0.6633849277583271
 20
81.18159303740727
 30
0.0
  0
VERTEX
  5
4F
330
44
100
AcDbEntity
  8
0
 62
     7
420
 16777215
370
     9
100
AcDbVertex
100
AcDb2dVertex
 10
-21.53093298804306
 20
81.18159303740727
 30
0.0
  0
VERTEX
  5
50
330
44
100
AcDbEntity
  8
0
 62
     7
420
 16777215
370
     9
100
AcDbVertex
100
AcDb2dVertex
 10
-21.6246589880432
 20
81.27531903740709
 30
0.0
  0
VERTEX
  5
51
330
44
100
AcDbEntity
  8
0
 62
     7
420
 16777215
370
     9
100
AcDbVertex
100
AcDb2dVertex
 10
-21.6246589880432
 20
85.18627367200668
 30
0.0
  0
VERTEX
  5
52
330
44
100
AcDbEntity
  8
0
 62
     7
420
 16777215
370
     9
100
AcDbVertex
100
AcDb2dVertex
 10
-44.31965778775844
 20
85.18627367200668
 30
0.0
  0
VERTEX
  5
53
330
44
100
AcDbEntity
  8
0
 62
     7
420
 16777215
370
     9
100
AcDbVertex
100
AcDb2dVertex
 10
-44.31965778775844
 20
81.27531903740709
 30
0.0
  0
VERTEX
  5
54
330
44
100
AcDbEntity
  8
0
 62
     7
420
 16777215
370
     9
100
AcDbVertex
100
AcDb2dVertex
 10
-44.41338378775826
 20
81.18159303740727
 30
0.0
  0
VERTEX
  5
55
330
44
100
AcDbEntity
  8
0
 62
     7
420
 16777215
370
     9
100
AcDbVertex
100
AcDb2dVertex
 10
-65.280931848043
 20
81.18159303740727
 30
0.0
  0
VERTEX
  5
56
330
44
100
AcDbEntity
  8
0
 62
     7
420
 16777215
370
     9
100
AcDbVertex
100
AcDb2dVertex
 10
-65.37465784804314
 20
81.27531903740709
 30
0.0
  0
VERTEX
  5
57
330
44
100
AcDbEntity
  8
0
 62
     7
420
 16777215
370
     9
100
AcDbVertex
100
AcDb2dVertex
 10
-65.37465784804314
 20
85.18627367200668
 30
0.0
  0
VERTEX
  5
58
330
44
100
AcDbEntity
  8
0
 62
     7
420
 16777215
370
     9
100
AcDbVertex
100
AcDb2dVertex
 10
-88.06965918775848
 20
85.18627367200668
 30
0.0
  0
VERTEX
  5
59
330
44
100
AcDbEntity
  8
0
 62
     7
420
 16777215
370
     9
100
AcDbVertex
100
AcDb2dVertex
 10
-88.06965918775848
 20
81.27531903740709
 30
0.0
  0
VERTEX
  5
5A
330
44
100
AcDbEntity
  8
0
 62
     7
420
 16777215
370
     9
100
AcDbVertex
100
AcDb2dVertex
 10
-88.1633851877583
 20
81.18159303740727
 30
0.0
  0
VERTEX
  5
5B
330
44
100
AcDbEntity
  8
0
 62
     7
420
 16777215
370
     9
100
AcDbVertex
100
AcDb2dVertex
 10
-109.030933248043
 20
81.18159303740727
 30
0.0
  0
VERTEX
  5
5C
330
44
100
AcDbEntity
  8
0
 62
     7
420
 16777215
370
     9
100
AcDbVertex
100
AcDb2dVertex
 10
-109.1246592480432
 20
81.27531903740709
 30
0.0
  0
VERTEX
  5
5D
330
44
100
AcDbEntity
  8
0
 62
     7
420
 16777215
370
     9
100
AcDbVertex
100
AcDb2dVertex
 10
-109.1246592480432
 20
85.18627367200668
 30
0.0
  0
VERTEX
  5
5E
330
44
100
AcDbEntity
  8
0
 62
     7
420
 16777215
370
     9
100
AcDbVertex
100
AcDb2dVertex
 10
-131.8196580477584
 20
85.18627367200668
 30
0.0
  0
VERTEX
  5
5F
330
44
100
AcDbEntity
  8
0
 62
     7
420
 16777215
370
     9
100
AcDbVertex
100
AcDb2dVertex
 10
-131.8196580477584
 20
81.27531903740709
 30
0.0
  0
VERTEX
  5
60
330
44
100
AcDbEntity
  8
0
 62
     7
420
 16777215
370
     9
100
AcDbVertex
100
AcDb2dVertex
 10
-131.9133840477582
 20
81.18159303740727
 30
0.0
  0
VERTEX
  5
61
330
44
100
AcDbEntity
  8
0
 62
     7
420
 16777215
370
     9
100
AcDbVertex
100
AcDb2dVertex
 10
-152.7809321080436
 20
81.18159303740727
 30
0.0
  0
VERTEX
  5
62
330
44
100
AcDbEntity
  8
0
 62
     7
420
 16777215
370
     9
100
AcDbVertex
100
AcDb2dVertex
 10
-152.8746581080434
 20
81.27531903740709
 30
0.0
  0
VERTEX
  5
63
330
44
100
AcDbEntity
  8
0
 62
     7
420
 16777215
370
     9
100
AcDbVertex
100
AcDb2dVertex
 10
-152.8746581080434
 20
85.18627367200668
 30
0.0
  0
VERTEX
  5
64
330
44
100
AcDbEntity
  8
0
 62
     7
420
 16777215
370
     9
100
AcDbVertex
100
AcDb2dVertex
 10
-175.5696594477585
 20
85.18627367200668
 30
0.0
  0
VERTEX
  5
65
330
44
100
AcDbEntity
  8
0
 62
     7
420
 16777215
370
     9
100
AcDbVertex
100
AcDb2dVertex
 10
-175.5696594477585
 20
81.27531903740709
 30
0.0
  0
VERTEX
  5
66
330
44
100
AcDbEntity
  8
0
 62
     7
420
 16777215
370
     9
100
AcDbVertex
100
AcDb2dVertex
 10
-175.6633854477583
 20
81.18159303740727
 30
0.0
  0
VERTEX
  5
67
330
44
100
AcDbEntity
  8
0
 62
     7
420
 16777215
370
     9
100
AcDbVertex
100
AcDb2dVertex
 10
-197.5504325078657
 20
81.18159303740727
 30
0.0
  0
VERTEX
  5
68
330
44
100
AcDbEntity
  8
0
 62
     7
420
 16777215
370
     9
100
AcDbVertex
100
AcDb2dVertex
 10
-197.6441585078659
 20
81.27531903740709
 30
0.0
  0
VERTEX
  5
69
330
44
100
AcDbEntity
  8
0
 62
     7
420
 16777215
370
     9
100
AcDbVertex
100
AcDb2dVertex
 10
-197.6441585078659
 20
91.96674779200629
 30
0.0
  0
VERTEX
  5
6A
330
44
100
AcDbEntity
  8
0
 62
     7
420
 16777215
370
     9
100
AcDbVertex
100
AcDb2dVertex
 10
-197.5504325078657
 20
92.06047379200676
 30
0.0
  0
VERTEX
  5
6B
330
44
100
AcDbEntity
  8
0
 62
     7
420
 16777215
370
     9
100
AcDbVertex
100
AcDb2dVertex
 10
-193.6441583476162
 20
92.06047379200676
 30
0.0
  0
VERTEX
  5
6C
330
44
100
AcDbEntity
  8
0
 62
     7
420
 16777215
370
     9
100
AcDbVertex
100
AcDb2dVertex
 10
-193.6441583476162
 20
113.6154725920068
 30
0.0
  0
VERTEX
  5
6D
330
44
100
AcDbEntity
  8
0
 62
     7
420
 16777215
370
     9
100
AcDbVertex
100
AcDb2dVertex
 10
-197.5504325078657
 20
113.6154725920064
 30
0.0
  0
VERTEX
  5
6E
330
44
100
AcDbEntity
  8
0
 62
     7
420
 16777215
370
     9
100
AcDbVertex
100
AcDb2dVertex
 10
-197.6441585078659
 20
113.7091985920069
 30
0.0
  0
VERTEX
  5
6F
330
44
100
AcDbEntity
  8
0
 62
     7
420
 16777215
370
     9
100
AcDbVertex
100
AcDb2dVertex
 10
-197.6441585078659
 20
125.3959468720065
 30
0.0
  0
VERTEX
  5
70
330
44
100
AcDbEntity
  8
0
 62
     7
420
 16777215
370
     9
100
AcDbVertex
100
AcDb2dVertex
 10
-197.5504325078657
 20
125.4896728720066
 30
0.0
  0
VERTEX
  5
71
330
44
100
AcDbEntity
  8
0
 62
     7
420
 16777215
370
     9
100
AcDbVertex
100
AcDb2dVertex
 10
-143.6441585088657
 20
125.4896728720066
 30
0.0
  0
VERTEX
  5
72
330
44
100
AcDbEntity
  8
0
 62
     7
420
 16777215
370
     9
100
AcDbVertex
100
AcDb2dVertex
 10
-143.6441585088657
 20
115.4896728720066
 30
0.0
  0
VERTEX
  5
73
330
44
100
AcDbEntity
  8
0
 62
     7
420
 16777215
370
     9
100
AcDbVertex
100
AcDb2dVertex
 10
216.6698408511344
 20
115.4896728720066
 30
0.0
  0
VERTEX
  5
74
330
44
100
AcDbEntity
  8
0
 62
     7
420
 16777215
370
     9
100
AcDbVertex
100
AcDb2dVertex
 10
216.6698408511344
 20
125.4896728720066
 30
0.0
  0
VERTEX
  5
75
330
44
100
AcDbEntity
  8
0
 62
     7
420
 16777215
370
     9
100
AcDbVertex
100
AcDb2dVertex
 10
262.3881148521817
 20
125.4896728720066
 30
0.0
  0
VERTEX
  5
76
330
44
100
AcDbEntity
  8
0
 62
     7
420
 16777215
370
     9
100
AcDbVertex
100
AcDb2dVertex
 10
262.4818408521815
 20
125.3959468720065
 30
0.0
  0
VERTEX
  5
77
330
44
100
AcDbEntity
  8
0
 62
     7
420
 16777215
370
     9
100
AcDbVertex
100
AcDb2dVertex
 10
262.4818408521815
 20
113.7091985920069
 30
0.0
  0
VERTEX
  5
78
330
44
100
AcDbEntity
  8
0
 62
     7
420
 16777215
370
     9
100
AcDbVertex
100
AcDb2dVertex
 10
262.3881148521817
 20
113.6154725920068
 30
0.0
  0
VERTEX
  5
79
330
44
100
AcDbEntity
  8
0
 62
     7
420
 16777215
370
     9
100
AcDbVertex
100
AcDb2dVertex
 10
258.4818406919318
 20
113.6154725920064
 30
0.0
  0
VERTEX
  5
7A
330
44
100
AcDbEntity
  8
0
 62
     7
420
 16777215
370
     9
100
AcDbVertex
100
AcDb2dVertex
 10
258.4818406919311
 20
92.06047379200676
 30
0.0
  0
VERTEX
  5
7B
330
44
100
AcDbEntity
  8
0
 62
     7
420
 16777215
370
     9
100
AcDbVertex
100
AcDb2dVertex
 10
262.3881148521817
 20
92.06047379200676
 30
0.0
  0
VERTEX
  5
7C
330
44
100
AcDbEntity
  8
0
 62
     7
420
 16777215
370
     9
100
AcDbVertex
100
AcDb2dVertex
 10
262.4818408521815
 20
91.96674779200629
 30
0.0
  0
VERTEX
  5
7D
330
44
100
AcDbEntity
  8
0
 62
     7
420
 16777215
370
     9
100
AcDbVertex
100
AcDb2dVertex
 10
262.4818408521815
 20
81.27531903740709
 30
0.0
  0
VERTEX
  5
7E
330
44
100
AcDbEntity
  8
0
 62
     7
420
 16777215
370
     9
100
AcDbVertex
100
AcDb2dVertex
 10
262.3881148521817
 20
81.18159303740727
 30
0.0
  0
VERTEX
  5
7F
330
44
100
AcDbEntity
  8
0
 62
     7
420
 16777215
370
     9
100
AcDbVertex
100
AcDb2dVertex
 10
240.9640677919578
 20
81.18159303740727
 30
0.0
  0
VERTEX
  5
80
330
44
100
AcDbEntity
  8
0
 62
     7
420
 16777215
370
     9
100
AcDbVertex
100
AcDb2dVertex
 10
240.870341791958
 20
81.27531903740709
 30
0.0
  0
VERTEX
  5
81
330
44
100
AcDbEntity
  8
0
 62
     7
420
 16777215
370
     9
100
AcDbVertex
100
AcDb2dVertex
 10
240.870341791958
 20
85.18627367200668
 30
0.0
  0
VERTEX
  5
82
330
44
100
AcDbEntity
  8
0
 62
     7
420
 16777215
370
     9
100
AcDbVertex
100
AcDb2dVertex
 10
218.1803404522414
 20
85.18627367200668
 30
0.0
  0
VERTEX
  5
83
330
44
100
AcDbEntity
  8
0
 62
     7
420
 16777215
370
     9
100
AcDbVertex
100
AcDb2dVertex
 10
218.180340452242
 20
81.27531903740709
 30
0.0
  0
VERTEX
  5
84
330
44
100
AcDbEntity
  8
0
 62
     7
420
 16777215
370
     9
100
AcDbVertex
100
AcDb2dVertex
 10
218.0866144522415
 20
81.18159303740727
 30
0.0
  0
VERTEX
  5
85
330
44
100
AcDbEntity
  8
0
 62
     7
420
 16777215
370
     9
100
AcDbVertex
100
AcDb2dVertex
 10
197.2190663919565
 20
81.18159303740727
 30
0.0
  0
VERTEX
  5
86
330
44
100
AcDbEntity
  8
0
 62
     7
420
 16777215
370
     9
100
AcDbVertex
100
AcDb2dVertex
 10
197.1253403919567
 20
81.27531903740709
 30
0.0
  0
VERTEX
  5
87
330
44
100
AcDbEntity
  8
0
 62
     7
420
 16777215
370
     9
100
AcDbVertex
100
AcDb2dVertex
 10
197.1253403919567
 20
85.18627367200668
 30
0.0
  0
VERTEX
  5
88
330
44
100
AcDbEntity
  8
0
 62
     7
420
 16777215
370
     9
100
AcDbVertex
100
AcDb2dVertex
 10
174.4303415922414
 20
85.18627367200668
 30
0.0
  0
VERTEX
  5
89
330
44
100
AcDbEntity
  8
0
 62
     7
420
 16777215
370
     9
100
AcDbVertex
100
AcDb2dVertex
 10
174.4303415922414
 20
81.27531903740709
 30
0.0
  0
VERTEX
  5
8A
330
44
100
AcDbEntity
  8
0
 62
     7
420
 16777215
370
     9
100
AcDbVertex
100
AcDb2dVertex
 10
174.3366155922416
 20
81.18159303740727
 30
0.0
  0
VERTEX
  5
8B
330
44
100
AcDbEntity
  8
0
 62
     7
420
 16777215
370
     9
100
AcDbVertex
100
AcDb2dVertex
 10
153.4690675319566
 20
81.18159303740727
 30
0.0
  0
VERTEX
  5
8C
330
44
100
AcDbEntity
  8
0
 62
     7
420
 16777215
370
     9
100
AcDbVertex
100
AcDb2dVertex
 10
153.3753415319567
 20
81.27531903740709
 30
0.0
  0
VERTEX
  5
8D
330
44
100
AcDbEntity
  8
0
 62
     7
420
 16777215
370
     9
100
AcDbVertex
100
AcDb2dVertex
 10
153.3753415319567
 20
85.18627367200668
 30
0.0
  0
VERTEX
  5
8E
330
44
100
AcDbEntity
  8
0
 62
     7
420
 16777215
370
     9
100
AcDbVertex
100
AcDb2dVertex
 10
130.6803427322415
 20
85.18627367200668
 30
0.0
  0
VERTEX
  5
8F
330
44
100
AcDbEntity
  8
0
 62
     7
420
 16777215
370
     9
100
AcDbVertex
100
AcDb2dVertex
 10
130.6803427322415
 20
81.27531903740709
 30
0.0
  0
VERTEX
  5
90
330
44
100
AcDbEntity
  8
0
 62
     7
420
 16777215
370
     9
100
AcDbVertex
100
AcDb2dVertex
 10
130.5866167322417
 20
81.18159303740727
 30
0.0
  0
VERTEX
  5
91
330
44
100
AcDbEntity
  8
0
 62
     7
420
 16777215
370
     9
100
AcDbVertex
100
AcDb2dVertex
 10
109.7190661319565
 20
81.18159303740727
 30
0.0
  0
VERTEX
  5
92
330
44
100
AcDbEntity
  8
0
 62
     7
420
 16777215
370
     9
100
AcDbVertex
100
AcDb2dVertex
 10
109.6253426719568
 20
81.27531903740709
 30
0.0
  0
VERTEX
  5
93
330
44
100
AcDbEntity
  8
0
 62
     7
420
 16777215
370
     9
100
AcDbVertex
100
AcDb2dVertex
 10
109.6253426719568
 20
85.18627367200668
 30
0.0
  0
VERTEX
  5
94
330
44
100
AcDbEntity
  8
0
 62
     7
420
 16777215
370
     9
100
AcDbVertex
100
AcDb2dVertex
 10
86.93034133224147
 20
85.18627367200668
 30
0.0
  0
VERTEX
  5
95
330
44
100
AcDbEntity
  8
0
 62
     7
420
 16777215
370
     9
100
AcDbVertex
100
AcDb2dVertex
 10
86.93034133224147
 20
81.27531903740709
 30
0.0
  0
VERTEX
  5
96
330
44
100
AcDbEntity
  8
0
 62
     7
420
 16777215
370
     9
100
AcDbVertex
100
AcDb2dVertex
 10
86.83661533224196
 20
81.18159303740727
 30
0.0
  0
VERTEX
  5
97
330
44
100
AcDbEntity
  8
0
 62
     7
420
 16777215
370
     9
100
AcDbVertex
100
AcDb2dVertex
 10
65.87534127195677
 20
81.18159303740727
 30
0.0
  0
SEQEND
  5
98
330
44
100
AcDbEntity
  8
0
 62
     7
420
 16777215
370
     9
  0
ENDBLK
  5
43
330
40
100
AcDbEntity
  8
0
100
AcDbBlockEnd
  0
BLOCK
  5
9B
330
99
100
AcDbEntity
  8
0
100
AcDbBlockBegin
  2
block 3
 70
     0
 10
0.0
 20
0.0
 30
0.0
  3
block 3
  1

  0
POLYLINE
  5
9D
330
99
100
AcDbEntity
  8
0
 62
     7
420
 16777215
370
     9
100
AcDb2dPolyline
 66
     1
 10
0.0
 20
0.0
 30
0.0
  0
VERTEX
  5
9E
330
9D
100
AcDbEntity
  8
0
 62
     7
420
 16777215
370
     9
100
AcDbVertex
100
AcDb2dVertex
 10
224.2164998350078
 20
136.1089752348265
 30
0.0
  0
VERTEX
  5
9F
330
9D
100
AcDbEntity
  8
0
 62
     7
420
 16777215
370
     9
100
AcDbVertex
100
AcDb2dVertex
 10
224.122773835008
 20
136.0152492348267
 30
0.0
  0
VERTEX
  5
A0
330
9D
100
AcDbEntity
  8
0
 62
     7
420
 16777215
370
     9
100
AcDbVertex
100
AcDb2dVertex
 10
203.255225774723
 20
136.0152492348267
 30
0.0
  0
VERTEX
  5
A1
330
9D
100
AcDbEntity
  8
0
 62
     7
420
 16777215
370
     9
100
AcDbVertex
100
AcDb2dVertex
 10
203.1614997747231
 20
136.1089752348265
 30
0.0
  0
VERTEX
  5
A2
330
9D
100
AcDbEntity
  8
0
 62
     7
420
 16777215
370
     9
100
AcDbVertex
100
AcDb2dVertex
 10
203.1614997747225
 20
140.0152493950767
 30
0.0
  0
VERTEX
  5
A3
330
9D
100
AcDbEntity
  8
0
 62
     7
420
 16777215
370
     9
100
AcDbVertex
100
AcDb2dVertex
 10
180.4665009750079
 20
140.0152493950767
 30
0.0
  0
VERTEX
  5
A4
330
9D
100
AcDbEntity
  8
0
 62
     7
420
 16777215
370
     9
100
AcDbVertex
100
AcDb2dVertex
 10
180.4665009750079
 20
136.1089752348265
 30
0.0
  0
VERTEX
  5
A5
330
9D
100
AcDbEntity
  8
0
 62
     7
420
 16777215
370
     9
100
AcDbVertex
100
AcDb2dVertex
 10
180.3727749750081
 20
136.0152492348267
 30
0.0
  0
VERTEX
  5
A6
330
9D
100
AcDbEntity
  8
0
 62
     7
420
 16777215
370
     9
100
AcDbVertex
100
AcDb2dVertex
 10
159.5052243747223
 20
136.0152492348267
 30
0.0
  0
VERTEX
  5
A7
330
9D
100
AcDbEntity
  8
0
 62
     7
420
 16777215
370
     9
100
AcDbVertex
100
AcDb2dVertex
 10
159.4115009147226
 20
136.1089752348265
 30
0.0
  0
VERTEX
  5
A8
330
9D
100
AcDbEntity
  8
0
 62
     7
420
 16777215
370
     9
100
AcDbVertex
100
AcDb2dVertex
 10
159.4115009147226
 20
140.0152493950767
 30
0.0
  0
VERTEX
  5
A9
330
9D
100
AcDbEntity
  8
0
 62
     7
420
 16777215
370
     9
100
AcDbVertex
100
AcDb2dVertex
 10
136.7164995750079
 20
140.0152493950767
 30
0.0
  0
VERTEX
  5
AA
330
9D
100
AcDbEntity
  8
0
 62
     7
420
 16777215
370
     9
100
AcDbVertex
100
AcDb2dVertex
 10
136.7164995750079
 20
136.1089752348265
 30
0.0
  0
VERTEX
  5
AB
330
9D
100
AcDbEntity
  8
0
 62
     7
420
 16777215
370
     9
100
AcDbVertex
100
AcDb2dVertex
 10
136.622773575008
 20
136.0152492348267
 30
0.0
  0
VERTEX
  5
AC
330
9D
100
AcDbEntity
  8
0
 62
     7
420
 16777215
370
     9
100
AcDbVertex
100
AcDb2dVertex
 10
115.755225514723
 20
136.0152492348267
 30
0.0
  0
VERTEX
  5
AD
330
9D
100
AcDbEntity
  8
0
 62
     7
420
 16777215
370
     9
100
AcDbVertex
100
AcDb2dVertex
 10
115.6614995147232
 20
136.1089752348265
 30
0.0
  0
VERTEX
  5
AE
330
9D
100
AcDbEntity
  8
0
 62
     7
420
 16777215
370
     9
100
AcDbVertex
100
AcDb2dVertex
 10
115.6614995147225
 20
140.0152493950767
 30
0.0
  0
VERTEX
  5
AF
330
9D
100
AcDbEntity
  8
0
 62
     7
420
 16777215
370
     9
100
AcDbVertex
100
AcDb2dVertex
 10
92.9665007150076
 20
140.0152493950767
 30
0.0
  0
VERTEX
  5
B0
330
9D
100
AcDbEntity
  8
0
 62
     7
420
 16777215
370
     9
100
AcDbVertex
100
AcDb2dVertex
 10
92.9665007150076
 20
136.1089752348265
 30
0.0
  0
VERTEX
  5
B1
330
9D
100
AcDbEntity
  8
0
 62
     7
420
 16777215
370
     9
100
AcDbVertex
100
AcDb2dVertex
 10
92.87277471500778
 20
136.0152492348267
 30
0.0
  0
VERTEX
  5
B2
330
9D
100
AcDbEntity
  8
0
 62
     7
420
 16777215
370
     9
100
AcDbVertex
100
AcDb2dVertex
 10
72.0052266547224
 20
136.0152492348267
 30
0.0
  0
VERTEX
  5
B3
330
9D
100
AcDbEntity
  8
0
 62
     7
420
 16777215
370
     9
100
AcDbVertex
100
AcDb2dVertex
 10
71.91150065472226
 20
136.1089752348265
 30
0.0
  0
VERTEX
  5
B4
330
9D
100
AcDbEntity
  8
0
 62
     7
420
 16777215
370
     9
100
AcDbVertex
100
AcDb2dVertex
 10
71.91150065472226
 20
140.0152493950767
 30
0.0
  0
VERTEX
  5
B5
330
9D
100
AcDbEntity
  8
0
 62
     7
420
 16777215
370
     9
100
AcDbVertex
100
AcDb2dVertex
 10
49.21649931500757
 20
140.0152493950767
 30
0.0
  0
VERTEX
  5
B6
330
9D
100
AcDbEntity
  8
0
 62
     7
420
 16777215
370
     9
100
AcDbVertex
100
AcDb2dVertex
 10
49.21649931500757
 20
136.1089752348265
 30
0.0
  0
VERTEX
  5
B7
330
9D
100
AcDbEntity
  8
0
 62
     7
420
 16777215
370
     9
100
AcDbVertex
100
AcDb2dVertex
 10
49.12277331500743
 20
136.0152492348267
 30
0.0
  0
VERTEX
  5
B8
330
9D
100
AcDbEntity
  8
0
 62
     7
420
 16777215
370
     9
100
AcDbVertex
100
AcDb2dVertex
 10
28.25522525472238
 20
136.0152492348267
 30
0.0
  0
VERTEX
  5
B9
330
9D
100
AcDbEntity
  8
0
 62
     7
420
 16777215
370
     9
100
AcDbVertex
100
AcDb2dVertex
 10
28.16149925472224
 20
136.1089752348265
 30
0.0
  0
VERTEX
  5
BA
330
9D
100
AcDbEntity
  8
0
 62
     7
420
 16777215
370
     9
100
AcDbVertex
100
AcDb2dVertex
 10
28.16149925472224
 20
140.0152493950767
 30
0.0
  0
VERTEX
  5
BB
330
9D
100
AcDbEntity
  8
0
 62
     7
420
 16777215
370
     9
100
AcDbVertex
100
AcDb2dVertex
 10
5.466500455007634
 20
140.0152493950767
 30
0.0
  0
VERTEX
  5
BC
330
9D
100
AcDbEntity
  8
0
 62
     7
420
 16777215
370
     9
100
AcDbVertex
100
AcDb2dVertex
 10
5.466500455007634
 20
136.1089752348265
 30
0.0
  0
VERTEX
  5
BD
330
9D
100
AcDbEntity
  8
0
 62
     7
420
 16777215
370
     9
100
AcDbVertex
100
AcDb2dVertex
 10
5.372774455007492
 20
136.0152492348267
 30
0.0
  0
VERTEX
  5
BE
330
9D
100
AcDbEntity
  8
0
 62
     7
420
 16777215
370
     9
100
AcDbVertex
100
AcDb2dVertex
 10
-15.49477360527756
 20
136.0152492348267
 30
0.0
  0
VERTEX
  5
BF
330
9D
100
AcDbEntity
  8
0
 62
     7
420
 16777215
370
     9
100
AcDbVertex
100
AcDb2dVertex
 10
-15.5884996052777
 20
136.1089752348265
 30
0.0
  0
VERTEX
  5
C0
330
9D
100
AcDbEntity
  8
0
 62
     7
420
 16777215
370
     9
100
AcDbVertex
100
AcDb2dVertex
 10
-15.5884996052777
 20
140.0152493950767
 30
0.0
  0
VERTEX
  5
C1
330
9D
100
AcDbEntity
  8
0
 62
     7
420
 16777215
370
     9
100
AcDbVertex
100
AcDb2dVertex
 10
-38.2835009449924
 20
140.0152493950767
 30
0.0
  0
VERTEX
  5
C2
330
9D
100
AcDbEntity
  8
0
 62
     7
420
 16777215
370
     9
100
AcDbVertex
100
AcDb2dVertex
 10
-38.2835009449924
 20
136.1089752348265
 30
0.0
  0
VERTEX
  5
C3
330
9D
100
AcDbEntity
  8
0
 62
     7
420
 16777215
370
     9
100
AcDbVertex
100
AcDb2dVertex
 10
-38.37722694499254
 20
136.0152492348267
 30
0.0
  0
VERTEX
  5
C4
330
9D
100
AcDbEntity
  8
0
 62
     7
420
 16777215
370
     9
100
AcDbVertex
100
AcDb2dVertex
 10
-59.24477500527759
 20
136.0152492348267
 30
0.0
  0
VERTEX
  5
C5
330
9D
100
AcDbEntity
  8
0
 62
     7
420
 16777215
370
     9
100
AcDbVertex
100
AcDb2dVertex
 10
-59.33850100527741
 20
136.1089752348265
 30
0.0
  0
VERTEX
  5
C6
330
9D
100
AcDbEntity
  8
0
 62
     7
420
 16777215
370
     9
100
AcDbVertex
100
AcDb2dVertex
 10
-59.33850100527773
 20
140.0152493950767
 30
0.0
  0
VERTEX
  5
C7
330
9D
100
AcDbEntity
  8
0
 62
     7
420
 16777215
370
     9
100
AcDbVertex
100
AcDb2dVertex
 10
-82.03349980499266
 20
140.0152493950767
 30
0.0
  0
VERTEX
  5
C8
330
9D
100
AcDbEntity
  8
0
 62
     7
420
 16777215
370
     9
100
AcDbVertex
100
AcDb2dVertex
 10
-82.03349980499233
 20
136.1089752348265
 30
0.0
  0
VERTEX
  5
C9
330
9D
100
AcDbEntity
  8
0
 62
     7
420
 16777215
370
     9
100
AcDbVertex
100
AcDb2dVertex
 10
-82.12722580499248
 20
136.0152492348267
 30
0.0
  0
VERTEX
  5
CA
330
9D
100
AcDbEntity
  8
0
 62
     7
420
 16777215
370
     9
100
AcDbVertex
100
AcDb2dVertex
 10
-102.9947738652778
 20
136.0152492348267
 30
0.0
  0
VERTEX
  5
CB
330
9D
100
AcDbEntity
  8
0
 62
     7
420
 16777215
370
     9
100
AcDbVertex
100
AcDb2dVertex
 10
-103.0884998652777
 20
136.1089752348265
 30
0.0
  0
VERTEX
  5
CC
330
9D
100
AcDbEntity
  8
0
 62
     7
420
 16777215
370
     9
100
AcDbVertex
100
AcDb2dVertex
 10
-103.0884998652777
 20
140.0152493950767
 30
0.0
  0
VERTEX
  5
CD
330
9D
100
AcDbEntity
  8
0
 62
     7
420
 16777215
370
     9
100
AcDbVertex
100
AcDb2dVertex
 10
-125.7835012049927
 20
140.0152493950767
 30
0.0
  0
VERTEX
  5
CE
330
9D
100
AcDbEntity
  8
0
 62
     7
420
 16777215
370
     9
100
AcDbVertex
100
AcDb2dVertex
 10
-125.7835012049927
 20
136.1089752348265
 30
0.0
  0
VERTEX
  5
CF
330
9D
100
AcDbEntity
  8
0
 62
     7
420
 16777215
370
     9
100
AcDbVertex
100
AcDb2dVertex
 10
-125.8772272049925
 20
136.0152492348267
 30
0.0
  0
VERTEX
  5
D0
330
9D
100
AcDbEntity
  8
0
 62
     7
420
 16777215
370
     9
100
AcDbVertex
100
AcDb2dVertex
 10
-146.7447752652779
 20
136.0152492348267
 30
0.0
  0
VERTEX
  5
D1
330
9D
100
AcDbEntity
  8
0
 62
     7
420
 16777215
370
     9
100
AcDbVertex
100
AcDb2dVertex
 10
-146.8385012652777
 20
136.1089752348265
 30
0.0
  0
VERTEX
  5
D2
330
9D
100
AcDbEntity
  8
0
 62
     7
420
 16777215
370
     9
100
AcDbVertex
100
AcDb2dVertex
 10
-146.8385012652777
 20
140.0152493950767
 30
0.0
  0
VERTEX
  5
D3
330
9D
100
AcDbEntity
  8
0
 62
     7
420
 16777215
370
     9
100
AcDbVertex
100
AcDb2dVertex
 10
-169.5335000649929
 20
140.0152493950767
 30
0.0
  0
VERTEX
  5
D4
330
9D
100
AcDbEntity
  8
0
 62
     7
420
 16777215
370
     9
100
AcDbVertex
100
AcDb2dVertex
 10
-169.5335000649929
 20
136.1089752348265
 30
0.0
  0
VERTEX
  5
D5
330
9D
100
AcDbEntity
  8
0
 62
     7
420
 16777215
370
     9
100
AcDbVertex
100
AcDb2dVertex
 10
-169.6272260649921
 20
136.0152492348267
 30
0.0
  0
VERTEX
  5
D6
330
9D
100
AcDbEntity
  8
0
 62
     7
420
 16777215
370
     9
100
AcDbVertex
100
AcDb2dVertex
 10
-189.239874805198
 20
136.0152492348267
 30
0.0
  0
VERTEX
  5
D7
330
9D
100
AcDbEntity
  8
0
 62
     7
420
 16777215
370
     9
100
AcDbVertex
100
AcDb2dVertex
 10
-189.3336008051978
 20
136.1089752348265
 30
0.0
  0
VERTEX
  5
D8
330
9D
100
AcDbEntity
  8
0
 62
     7
420
 16777215
370
     9
100
AcDbVertex
100
AcDb2dVertex
 10
-189.3336008051978
 20
146.5694501550768
 30
0.0
  0
VERTEX
  5
D9
330
9D
100
AcDbEntity
  8
0
 62
     7
420
 16777215
370
     9
100
AcDbVertex
100
AcDb2dVertex
 10
-193.2398749654481
 20
146.5694501550768
 30
0.0
  0
VERTEX
  5
DA
330
9D
100
AcDbEntity
  8
0
 62
     7
420
 16777215
370
     9
100
AcDbVertex
100
AcDb2dVertex
 10
-193.3336009654485
 20
146.6631761550767
 30
0.0
  0
VERTEX
  5
DB
330
9D
100
AcDbEntity
  8
0
 62
     7
420
 16777215
370
     9
100
AcDbVertex
100
AcDb2dVertex
 10
-193.3336009654485
 20
167.0307242154865
 30
0.0
  0
VERTEX
  5
DC
330
9D
100
AcDbEntity
  8
0
 62
     7
420
 16777215
370
     9
100
AcDbVertex
100
AcDb2dVertex
 10
-193.2398749654481
 20
167.1244502154863
 30
0.0
  0
VERTEX
  5
DD
330
9D
100
AcDbEntity
  8
0
 62
     7
420
 16777215
370
     9
100
AcDbVertex
100
AcDb2dVertex
 10
-189.3117816772841
 20
167.1244502154863
 30
0.0
  0
VERTEX
  5
DE
330
9D
100
AcDbEntity
  8
0
 62
     7
420
 16777215
370
     9
100
AcDbVertex
100
AcDb2dVertex
 10
-189.3004072520436
 20
204.2244882429426
 30
0.0
  0
VERTEX
  5
DF
330
9D
100
AcDbEntity
  8
0
 62
     7
420
 16777215
370
     9
100
AcDbVertex
100
AcDb2dVertex
 10
-189.2067162572468
 20
204.3182492350766
 30
0.0
  0
VERTEX
  5
E0
330
9D
100
AcDbEntity
  8
0
 62
     7
420
 16777215
370
     9
100
AcDbVertex
100
AcDb2dVertex
 10
310.8740081624502
 20
204.3182492350766
 30
0.0
  0
VERTEX
  5
E1
330
9D
100
AcDbEntity
  8
0
 62
     7
420
 16777215
370
     9
100
AcDbVertex
100
AcDb2dVertex
 10
310.967600774802
 20
204.2243900369912
 30
0.0
  0
VERTEX
  5
E2
330
9D
100
AcDbEntity
  8
0
 62
     7
420
 16777215
370
     9
100
AcDbVertex
100
AcDb2dVertex
 10
310.967600774802
 20
167.1244502154863
 30
0.0
  0
VERTEX
  5
E3
330
9D
100
AcDbEntity
  8
0
 62
     7
420
 16777215
370
     9
100
AcDbVertex
100
AcDb2dVertex
 10
314.8738749350519
 20
167.1244502154863
 30
0.0
  0
VERTEX
  5
E4
330
9D
100
AcDbEntity
  8
0
 62
     7
420
 16777215
370
     9
100
AcDbVertex
100
AcDb2dVertex
 10
314.9676009350524
 20
167.0307242154865
 30
0.0
  0
VERTEX
  5
E5
330
9D
100
AcDbEntity
  8
0
 62
     7
420
 16777215
370
     9
100
AcDbVertex
100
AcDb2dVertex
 10
314.9676009350524
 20
146.6631761550767
 30
0.0
  0
VERTEX
  5
E6
330
9D
100
AcDbEntity
  8
0
 62
     7
420
 16777215
370
     9
100
AcDbVertex
100
AcDb2dVertex
 10
314.8738749350519
 20
146.5694501550768
 30
0.0
  0
VERTEX
  5
E7
330
9D
100
AcDbEntity
  8
0
 62
     7
420
 16777215
370
     9
100
AcDbVertex
100
AcDb2dVertex
 10
310.967600774802
 20
146.5694501550768
 30
0.0
  0
VERTEX
  5
E8
330
9D
100
AcDbEntity
  8
0
 62
     7
420
 16777215
370
     9
100
AcDbVertex
100
AcDb2dVertex
 10
310.967600774802
 20
136.1089752348265
 30
0.0
  0
VERTEX
  5
E9
330
9D
100
AcDbEntity
  8
0
 62
     7
420
 16777215
370
     9
100
AcDbVertex
100
AcDb2dVertex
 10
310.8738747748015
 20
136.0152492348267
 30
0.0
  0
VERTEX
  5
EA
330
9D
100
AcDbEntity
  8
0
 62
     7
420
 16777215
370
     9
100
AcDbVertex
100
AcDb2dVertex
 10
290.7552260347229
 20
136.0152492348267
 30
0.0
  0
VERTEX
  5
EB
330
9D
100
AcDbEntity
  8
0
 62
     7
420
 16777215
370
     9
100
AcDbVertex
100
AcDb2dVertex
 10
290.6615000347225
 20
136.1089752348265
 30
0.0
  0
VERTEX
  5
EC
330
9D
100
AcDbEntity
  8
0
 62
     7
420
 16777215
370
     9
100
AcDbVertex
100
AcDb2dVertex
 10
290.6615000347225
 20
140.0152493950767
 30
0.0
  0
VERTEX
  5
ED
330
9D
100
AcDbEntity
  8
0
 62
     7
420
 16777215
370
     9
100
AcDbVertex
100
AcDb2dVertex
 10
267.9664986950078
 20
140.0152493950767
 30
0.0
  0
VERTEX
  5
EE
330
9D
100
AcDbEntity
  8
0
 62
     7
420
 16777215
370
     9
100
AcDbVertex
100
AcDb2dVertex
 10
267.9664986950078
 20
136.1089752348265
 30
0.0
  0
VERTEX
  5
EF
330
9D
100
AcDbEntity
  8
0
 62
     7
420
 16777215
370
     9
100
AcDbVertex
100
AcDb2dVertex
 10
267.8727726950079
 20
136.0152492348267
 30
0.0
  0
VERTEX
  5
F0
330
9D
100
AcDbEntity
  8
0
 62
     7
420
 16777215
370
     9
100
AcDbVertex
100
AcDb2dVertex
 10
247.0052246347229
 20
136.0152492348267
 30
0.0
  0
VERTEX
  5
F1
330
9D
100
AcDbEntity
  8
0
 62
     7
420
 16777215
370
     9
100
AcDbVertex
100
AcDb2dVertex
 10
246.9114986347224
 20
136.1089752348265
 30
0.0
  0
VERTEX
  5
F2
330
9D
100
AcDbEntity
  8
0
 62
     7
420
 16777215
370
     9
100
AcDbVertex
100
AcDb2dVertex
 10
246.9114986347231
 20
140.0152493950767
 30
0.0
  0
VERTEX
  5
F3
330
9D
100
AcDbEntity
  8
0
 62
     7
420
 16777215
370
     9
100
AcDbVertex
100
AcDb2dVertex
 10
224.2164998350078
 20
140.0152493950767
 30
0.0
  0
VERTEX
  5
F4
330
9D
100
AcDbEntity
  8
0
 62
     7
420
 16777215
370
     9
100
AcDbVertex
100
AcDb2dVertex
 10
224.2164998350078
 20
136.1089752348265
 30
0.0
  0
SEQEND
  5
F5
330
9D
100
AcDbEntity
  8
0
 62
     7
420
 16777215
370
     9
  0
ENDBLK
  5
9C
330
99
100
AcDbEntity
  8
0
100
AcDbBlockEnd
  0
BLOCK
  5
10C
330
10A
100
AcDbEntity
  8
0
100
AcDbBlockBegin
  2
block 4
 70
     0
 10
0.0
 20
0.0
 30
0.0
  3
block 4
  1

  0
POLYLINE
  5
10E
330
10A
100
AcDbEntity
  8
0
 62
     7
420
 16777215
370
     9
100
AcDb2dPolyline
 66
     1
 10
0.0
 20
0.0
 30
0.0
  0
VERTEX
  5
10F
330
10E
100
AcDbEntity
  8
0
 62
     7
420
 16777215
370
     9
100
AcDbVertex
100
AcDb2dVertex
 10
65.87534127195741
 20
-55.88247010642522
 30
0.0
  0
VERTEX
  5
110
330
10E
100
AcDbEntity
  8
0
 62
     7
420
 16777215
370
     9
100
AcDbVertex
100
AcDb2dVertex
 10
43.18034247224184
 20
-55.88247010642522
 30
0.0
  0
VERTEX
  5
111
330
10E
100
AcDbEntity
  8
0
 62
     7
420
 16777215
370
     9
100
AcDbVertex
100
AcDb2dVertex
 10
43.18034247224184
 20
-59.79342474102417
 30
0.0
  0
VERTEX
  5
112
330
10E
100
AcDbEntity
  8
0
 62
     7
420
 16777215
370
     9
100
AcDbVertex
100
AcDb2dVertex
 10
43.08661647224234
 20
-59.88715074102399
 30
0.0
  0
VERTEX
  5
113
330
10E
100
AcDbEntity
  8
0
 62
     7
420
 16777215
370
     9
100
AcDbVertex
100
AcDb2dVertex
 10
22.21906841195729
 20
-59.88715074102399
 30
0.0
  0
VERTEX
  5
114
330
10E
100
AcDbEntity
  8
0
 62
     7
420
 16777215
370
     9
100
AcDbVertex
100
AcDb2dVertex
 10
22.12534241195715
 20
-59.79342474102417
 30
0.0
  0
VERTEX
  5
115
330
10E
100
AcDbEntity
  8
0
 62
     7
420
 16777215
370
     9
100
AcDbVertex
100
AcDb2dVertex
 10
22.12534241195715
 20
-55.88247010642522
 30
0.0
  0
VERTEX
  5
116
330
10E
100
AcDbEntity
  8
0
 62
     7
420
 16777215
370
     9
100
AcDbVertex
100
AcDb2dVertex
 10
-0.569658927758185
 20
-55.88247010642522
 30
0.0
  0
VERTEX
  5
117
330
10E
100
AcDbEntity
  8
0
 62
     7
420
 16777215
370
     9
100
AcDbVertex
100
AcDb2dVertex
 10
-0.569658927758185
 20
-59.79342474102417
 30
0.0
  0
VERTEX
  5
118
330
10E
100
AcDbEntity
  8
0
 62
     7
420
 16777215
370
     9
100
AcDbVertex
100
AcDb2dVertex
 10
-0.6633849277580063
 20
-59.88715074102399
 30
0.0
  0
VERTEX
  5
119
330
10E
100
AcDbEntity
  8
0
 62
     7
420
 16777215
370
     9
100
AcDbVertex
100
AcDb2dVertex
 10
-21.53093298804274
 20
-59.88715074102399
 30
0.0
  0
VERTEX
  5
11A
330
10E
100
AcDbEntity
  8
0
 62
     7
420
 16777215
370
     9
100
AcDbVertex
100
AcDb2dVertex
 10
-21.62465898804288
 20
-59.79342474102417
 30
0.0
  0
VERTEX
  5
11B
330
10E
100
AcDbEntity
  8
0
 62
     7
420
 16777215
370
     9
100
AcDbVertex
100
AcDb2dVertex
 10
-21.62465898804288
 20
-55.88247010642522
 30
0.0
  0
VERTEX
  5
11C
330
10E
100
AcDbEntity
  8
0
 62
     7
420
 16777215
370
     9
100
AcDbVertex
100
AcDb2dVertex
 10
-44.31965778775812
 20
-55.88247010642522
 30
0.0
  0
VERTEX
  5
11D
330
10E
100
AcDbEntity
  8
0
 62
     7
420
 16777215
370
     9
100
AcDbVertex
100
AcDb2dVertex
 10
-44.31965778775812
 20
-59.79342474102417
 30
0.0
  0
VERTEX
  5
11E
330
10E
100
AcDbEntity
  8
0
 62
     7
420
 16777215
370
     9
100
AcDbVertex
100
AcDb2dVertex
 10
-44.41338378775794
 20
-59.88715074102399
 30
0.0
  0
VERTEX
  5
11F
330
10E
100
AcDbEntity
  8
0
 62
     7
420
 16777215
370
     9
100
AcDbVertex
100
AcDb2dVertex
 10
-65.28093184804267
 20
-59.88715074102399
 30
0.0
  0
VERTEX
  5
120
330
10E
100
AcDbEntity
  8
0
 62
     7
420
 16777215
370
     9
100
AcDbVertex
100
AcDb2dVertex
 10
-65.37465784804282
 20
-59.79342474102417
 30
0.0
  0
VERTEX
  5
121
330
10E
100
AcDbEntity
  8
0
 62
     7
420
 16777215
370
     9
100
AcDbVertex
100
AcDb2dVertex
 10
-65.37465784804282
 20
-55.88247010642522
 30
0.0
  0
VERTEX
  5
122
330
10E
100
AcDbEntity
  8
0
 62
     7
420
 16777215
370
     9
100
AcDbVertex
100
AcDb2dVertex
 10
-88.06965918775815
 20
-55.88247010642522
 30
0.0
  0
VERTEX
  5
123
330
10E
100
AcDbEntity
  8
0
 62
     7
420
 16777215
370
     9
100
AcDbVertex
100
AcDb2dVertex
 10
-88.06965918775815
 20
-59.79342474102417
 30
0.0
  0
VERTEX
  5
124
330
10E
100
AcDbEntity
  8
0
 62
     7
420
 16777215
370
     9
100
AcDbVertex
100
AcDb2dVertex
 10
-88.16338518775797
 20
-59.88715074102399
 30
0.0
  0
VERTEX
  5
125
330
10E
100
AcDbEntity
  8
0
 62
     7
420
 16777215
370
     9
100
AcDbVertex
100
AcDb2dVertex
 10
-109.0309332480427
 20
-59.88715074102399
 30
0.0
  0
VERTEX
  5
126
330
10E
100
AcDbEntity
  8
0
 62
     7
420
 16777215
370
     9
100
AcDbVertex
100
AcDb2dVertex
 10
-109.1246592480428
 20
-59.79342474102417
 30
0.0
  0
VERTEX
  5
127
330
10E
100
AcDbEntity
  8
0
 62
     7
420
 16777215
370
     9
100
AcDbVertex
100
AcDb2dVertex
 10
-109.1246592480428
 20
-55.88247010642522
 30
0.0
  0
VERTEX
  5
128
330
10E
100
AcDbEntity
  8
0
 62
     7
420
 16777215
370
     9
100
AcDbVertex
100
AcDb2dVertex
 10
-131.8196580477581
 20
-55.88247010642522
 30
0.0
  0
VERTEX
  5
129
330
10E
100
AcDbEntity
  8
0
 62
     7
420
 16777215
370
     9
100
AcDbVertex
100
AcDb2dVertex
 10
-131.8196580477581
 20
-59.79342474102417
 30
0.0
  0
VERTEX
  5
12A
330
10E
100
AcDbEntity
  8
0
 62
     7
420
 16777215
370
     9
100
AcDbVertex
100
AcDb2dVertex
 10
-131.9133840477579
 20
-59.88715074102399
 30
0.0
  0
VERTEX
  5
12B
330
10E
100
AcDbEntity
  8
0
 62
     7
420
 16777215
370
     9
100
AcDbVertex
100
AcDb2dVertex
 10
-152.7809321080433
 20
-59.88715074102399
 30
0.0
  0
VERTEX
  5
12C
330
10E
100
AcDbEntity
  8
0
 62
     7
420
 16777215
370
     9
100
AcDbVertex
100
AcDb2dVertex
 10
-152.8746581080431
 20
-59.79342474102417
 30
0.0
  0
VERTEX
  5
12D
330
10E
100
AcDbEntity
  8
0
 62
     7
420
 16777215
370
     9
100
AcDbVertex
100
AcDb2dVertex
 10
-152.8746581080431
 20
-55.88247010642522
 30
0.0
  0
VERTEX
  5
12E
330
10E
100
AcDbEntity
  8
0
 62
     7
420
 16777215
370
     9
100
AcDbVertex
100
AcDb2dVertex
 10
-175.5696594477581
 20
-55.88247010642522
 30
0.0
  0
VERTEX
  5
12F
330
10E
100
AcDbEntity
  8
0
 62
     7
420
 16777215
370
     9
100
AcDbVertex
100
AcDb2dVertex
 10
-175.5696594477581
 20
-59.79342474102417
 30
0.0
  0
VERTEX
  5
130
330
10E
100
AcDbEntity
  8
0
 62
     7
420
 16777215
370
     9
100
AcDbVertex
100
AcDb2dVertex
 10
-175.6633854477579
 20
-59.88715074102399
 30
0.0
  0
VERTEX
  5
131
330
10E
100
AcDbEntity
  8
0
 62
     7
420
 16777215
370
     9
100
AcDbVertex
100
AcDb2dVertex
 10
-197.5504325078654
 20
-59.88715074102399
 30
0.0
  0
VERTEX
  5
132
330
10E
100
AcDbEntity
  8
0
 62
     7
420
 16777215
370
     9
100
AcDbVertex
100
AcDb2dVertex
 10
-197.6441585078656
 20
-59.79342474102417
 30
0.0
  0
VERTEX
  5
133
330
10E
100
AcDbEntity
  8
0
 62
     7
420
 16777215
370
     9
100
AcDbVertex
100
AcDb2dVertex
 10
-197.6441585078656
 20
-49.10199598642496
 30
0.0
  0
VERTEX
  5
134
330
10E
100
AcDbEntity
  8
0
 62
     7
420
 16777215
370
     9
100
AcDbVertex
100
AcDb2dVertex
 10
-197.5504325078654
 20
-49.00826998642514
 30
0.0
  0
VERTEX
  5
135
330
10E
100
AcDbEntity
  8
0
 62
     7
420
 16777215
370
     9
100
AcDbVertex
100
AcDb2dVertex
 10
-193.6441583476162
 20
-49.00826998642514
 30
0.0
  0
VERTEX
  5
136
330
10E
100
AcDbEntity
  8
0
 62
     7
420
 16777215
370
     9
100
AcDbVertex
100
AcDb2dVertex
 10
-193.6441583476162
 20
-27.45327118642483
 30
0.0
  0
VERTEX
  5
137
330
10E
100
AcDbEntity
  8
0
 62
     7
420
 16777215
370
     9
100
AcDbVertex
100
AcDb2dVertex
 10
-197.5504325078654
 20
-27.45327118642547
 30
0.0
  0
VERTEX
  5
138
330
10E
100
AcDbEntity
  8
0
 62
     7
420
 16777215
370
     9
100
AcDbVertex
100
AcDb2dVertex
 10
-197.6441585078656
 20
-27.35954518642436
 30
0.0
  0
VERTEX
  5
139
330
10E
100
AcDbEntity
  8
0
 62
     7
420
 16777215
370
     9
100
AcDbVertex
100
AcDb2dVertex
 10
-197.6441585078656
 20
-15.67279690642508
 30
0.0
  0
VERTEX
  5
13A
330
10E
100
AcDbEntity
  8
0
 62
     7
420
 16777215
370
     9
100
AcDbVertex
100
AcDb2dVertex
 10
-197.5504325078654
 20
-15.57907090642462
 30
0.0
  0
VERTEX
  5
13B
330
10E
100
AcDbEntity
  8
0
 62
     7
420
 16777215
370
     9
100
AcDbVertex
100
AcDb2dVertex
 10
-143.6441585088654
 20
-15.57907090642462
 30
0.0
  0
VERTEX
  5
13C
330
10E
100
AcDbEntity
  8
0
 62
     7
420
 16777215
370
     9
100
AcDbVertex
100
AcDb2dVertex
 10
-143.6441585088654
 20
-25.57907090642497
 30
0.0
  0
VERTEX
  5
13D
330
10E
100
AcDbEntity
  8
0
 62
     7
420
 16777215
370
     9
100
AcDbVertex
100
AcDb2dVertex
 10
216.669840851135
 20
-25.57907090642497
 30
0.0
  0
VERTEX
  5
13E
330
10E
100
AcDbEntity
  8
0
 62
     7
420
 16777215
370
     9
100
AcDbVertex
100
AcDb2dVertex
 10
216.669840851135
 20
-15.57907090642462
 30
0.0
  0
VERTEX
  5
13F
330
10E
100
AcDbEntity
  8
0
 62
     7
420
 16777215
370
     9
100
AcDbVertex
100
AcDb2dVertex
 10
262.3881148521823
 20
-15.57907090642462
 30
0.0
  0
VERTEX
  5
140
330
10E
100
AcDbEntity
  8
0
 62
     7
420
 16777215
370
     9
100
AcDbVertex
100
AcDb2dVertex
 10
262.4818408521821
 20
-15.67279690642508
 30
0.0
  0
VERTEX
  5
141
330
10E
100
AcDbEntity
  8
0
 62
     7
420
 16777215
370
     9
100
AcDbVertex
100
AcDb2dVertex
 10
262.4818408521821
 20
-27.35954518642436
 30
0.0
  0
VERTEX
  5
142
330
10E
100
AcDbEntity
  8
0
 62
     7
420
 16777215
370
     9
100
AcDbVertex
100
AcDb2dVertex
 10
262.3881148521823
 20
-27.45327118642483
 30
0.0
  0
VERTEX
  5
143
330
10E
100
AcDbEntity
  8
0
 62
     7
420
 16777215
370
     9
100
AcDbVertex
100
AcDb2dVertex
 10
258.4818406919318
 20
-27.45327118642547
 30
0.0
  0
VERTEX
  5
144
330
10E
100
AcDbEntity
  8
0
 62
     7
420
 16777215
370
     9
100
AcDbVertex
100
AcDb2dVertex
 10
258.4818406919318
 20
-49.00826998642514
 30
0.0
  0
VERTEX
  5
145
330
10E
100
AcDbEntity
  8
0
 62
     7
420
 16777215
370
     9
100
AcDbVertex
100
AcDb2dVertex
 10
262.3881148521823
 20
-49.00826998642514
 30
0.0
  0
VERTEX
  5
146
330
10E
100
AcDbEntity
  8
0
 62
     7
420
 16777215
370
     9
100
AcDbVertex
100
AcDb2dVertex
 10
262.4818408521821
 20
-49.10199598642496
 30
0.0
  0
VERTEX
  5
147
330
10E
100
AcDbEntity
  8
0
 62
     7
420
 16777215
370
     9
100
AcDbVertex
100
AcDb2dVertex
 10
262.4818408521821
 20
-59.79342474102417
 30
0.0
  0
VERTEX
  5
148
330
10E
100
AcDbEntity
  8
0
 62
     7
420
 16777215
370
     9
100
AcDbVertex
100
AcDb2dVertex
 10
262.3881148521823
 20
-59.88715074102399
 30
0.0
  0
VERTEX
  5
149
330
10E
100
AcDbEntity
  8
0
 62
     7
420
 16777215
370
     9
100
AcDbVertex
100
AcDb2dVertex
 10
240.9640677919578
 20
-59.88715074102399
 30
0.0
  0
VERTEX
  5
14A
330
10E
100
AcDbEntity
  8
0
 62
     7
420
 16777215
370
     9
100
AcDbVertex
100
AcDb2dVertex
 10
240.870341791958
 20
-59.79342474102417
 30
0.0
  0
VERTEX
  5
14B
330
10E
100
AcDbEntity
  8
0
 62
     7
420
 16777215
370
     9
100
AcDbVertex
100
AcDb2dVertex
 10
240.870341791958
 20
-55.88247010642522
 30
0.0
  0
VERTEX
  5
14C
330
10E
100
AcDbEntity
  8
0
 62
     7
420
 16777215
370
     9
100
AcDbVertex
100
AcDb2dVertex
 10
218.1803404522414
 20
-55.88247010642522
 30
0.0
  0
VERTEX
  5
14D
330
10E
100
AcDbEntity
  8
0
 62
     7
420
 16777215
370
     9
100
AcDbVertex
100
AcDb2dVertex
 10
218.1803404522427
 20
-59.79342474102417
 30
0.0
  0
VERTEX
  5
14E
330
10E
100
AcDbEntity
  8
0
 62
     7
420
 16777215
370
     9
100
AcDbVertex
100
AcDb2dVertex
 10
218.0866144522415
 20
-59.88715074102399
 30
0.0
  0
VERTEX
  5
14F
330
10E
100
AcDbEntity
  8
0
 62
     7
420
 16777215
370
     9
100
AcDbVertex
100
AcDb2dVertex
 10
197.2190663919565
 20
-59.88715074102399
 30
0.0
  0
VERTEX
  5
150
330
10E
100
AcDbEntity
  8
0
 62
     7
420
 16777215
370
     9
100
AcDbVertex
100
AcDb2dVertex
 10
197.1253403919567
 20
-59.79342474102417
 30
0.0
  0
VERTEX
  5
151
330
10E
100
AcDbEntity
  8
0
 62
     7
420
 16777215
370
     9
100
AcDbVertex
100
AcDb2dVertex
 10
197.1253403919567
 20
-55.88247010642522
 30
0.0
  0
VERTEX
  5
152
330
10E
100
AcDbEntity
  8
0
 62
     7
420
 16777215
370
     9
100
AcDbVertex
100
AcDb2dVertex
 10
174.4303415922421
 20
-55.88247010642522
 30
0.0
  0
VERTEX
  5
153
330
10E
100
AcDbEntity
  8
0
 62
     7
420
 16777215
370
     9
100
AcDbVertex
100
AcDb2dVertex
 10
174.4303415922421
 20
-59.79342474102417
 30
0.0
  0
VERTEX
  5
154
330
10E
100
AcDbEntity
  8
0
 62
     7
420
 16777215
370
     9
100
AcDbVertex
100
AcDb2dVertex
 10
174.3366155922423
 20
-59.88715074102399
 30
0.0
  0
VERTEX
  5
155
330
10E
100
AcDbEntity
  8
0
 62
     7
420
 16777215
370
     9
100
AcDbVertex
100
AcDb2dVertex
 10
153.4690675319572
 20
-59.88715074102399
 30
0.0
  0
VERTEX
  5
156
330
10E
100
AcDbEntity
  8
0
 62
     7
420
 16777215
370
     9
100
AcDbVertex
100
AcDb2dVertex
 10
153.3753415319574
 20
-59.79342474102417
 30
0.0
  0
VERTEX
  5
157
330
10E
100
AcDbEntity
  8
0
 62
     7
420
 16777215
370
     9
100
AcDbVertex
100
AcDb2dVertex
 10
153.3753415319574
 20
-55.88247010642522
 30
0.0
  0
VERTEX
  5
158
330
10E
100
AcDbEntity
  8
0
 62
     7
420
 16777215
370
     9
100
AcDbVertex
100
AcDb2dVertex
 10
130.6803427322415
 20
-55.88247010642522
 30
0.0
  0
VERTEX
  5
159
330
10E
100
AcDbEntity
  8
0
 62
     7
420
 16777215
370
     9
100
AcDbVertex
100
AcDb2dVertex
 10
130.6803427322415
 20
-59.79342474102417
 30
0.0
  0
VERTEX
  5
15A
330
10E
100
AcDbEntity
  8
0
 62
     7
420
 16777215
370
     9
100
AcDbVertex
100
AcDb2dVertex
 10
130.5866167322417
 20
-59.88715074102399
 30
0.0
  0
VERTEX
  5
15B
330
10E
100
AcDbEntity
  8
0
 62
     7
420
 16777215
370
     9
100
AcDbVertex
100
AcDb2dVertex
 10
109.7190661319565
 20
-59.88715074102399
 30
0.0
  0
VERTEX
  5
15C
330
10E
100
AcDbEntity
  8
0
 62
     7
420
 16777215
370
     9
100
AcDbVertex
100
AcDb2dVertex
 10
109.6253426719568
 20
-59.79342474102417
 30
0.0
  0
VERTEX
  5
15D
330
10E
100
AcDbEntity
  8
0
 62
     7
420
 16777215
370
     9
100
AcDbVertex
100
AcDb2dVertex
 10
109.6253426719568
 20
-55.88247010642522
 30
0.0
  0
VERTEX
  5
15E
330
10E
100
AcDbEntity
  8
0
 62
     7
420
 16777215
370
     9
100
AcDbVertex
100
AcDb2dVertex
 10
86.93034133224178
 20
-55.88247010642522
 30
0.0
  0
VERTEX
  5
15F
330
10E
100
AcDbEntity
  8
0
 62
     7
420
 16777215
370
     9
100
AcDbVertex
100
AcDb2dVertex
 10
86.93034133224178
 20
-59.79342474102417
 30
0.0
  0
VERTEX
  5
160
330
10E
100
AcDbEntity
  8
0
 62
     7
420
 16777215
370
     9
100
AcDbVertex
100
AcDb2dVertex
 10
86.83661533224229
 20
-59.88715074102399
 30
0.0
  0
VERTEX
  5
161
330
10E
100
AcDbEntity
  8
0
 62
     7
420
 16777215
370
     9
100
AcDbVertex
100
AcDb2dVertex
 10
65.87534127195741
 20
-59.88715074102399
 30
0.0
  0
SEQEND
  5
162
330
10E
100
AcDbEntity
  8
0
 62
     7
420
 16777215
370
     9
  0
ENDBLK
  5
10D
330
10A
100
AcDbEntity
  8
0
100
AcDbBlockEnd
  0
BLOCK
  5
18B
330
189
100
AcDbEntity
  8
0
100
AcDbBlockBegin
  2
block 5
 70
     0
 10
0.0
 20
0.0
 30
0.0
  3
block 5
  1

  0
POLYLINE
  5
18D
330
189
100
AcDbEntity
  8
0
 62
     7
420
 16777215
370
     9
100
AcDb2dPolyline
 66
     1
 10
0.0
 20
0.0
 30
0.0
  0
VERTEX
  5
18E
330
18D
100
AcDbEntity
  8
0
 62
     7
420
 16777215
370
     9
100
AcDbVertex
100
AcDb2dVertex
 10
224.2164998350085
 20
-1.256512934634011
 30
0.0
  0
VERTEX
  5
18F
330
18D
100
AcDbEntity
  8
0
 62
     7
420
 16777215
370
     9
100
AcDbVertex
100
AcDb2dVertex
 10
224.1227738350086
 20
-1.350238934633832
 30
0.0
  0
VERTEX
  5
190
330
18D
100
AcDbEntity
  8
0
 62
     7
420
 16777215
370
     9
100
AcDbVertex
100
AcDb2dVertex
 10
203.2552257747236
 20
-1.350238934633832
 30
0.0
  0
VERTEX
  5
191
330
18D
100
AcDbEntity
  8
0
 62
     7
420
 16777215
370
     9
100
AcDbVertex
100
AcDb2dVertex
 10
203.1614997747238
 20
-1.256512934634011
 30
0.0
  0
VERTEX
  5
192
330
18D
100
AcDbEntity
  8
0
 62
     7
420
 16777215
370
     9
100
AcDbVertex
100
AcDb2dVertex
 10
203.1614997747225
 20
2.649761225615885
 30
0.0
  0
VERTEX
  5
193
330
18D
100
AcDbEntity
  8
0
 62
     7
420
 16777215
370
     9
100
AcDbVertex
100
AcDb2dVertex
 10
180.4665009750079
 20
2.649761225615885
 30
0.0
  0
VERTEX
  5
194
330
18D
100
AcDbEntity
  8
0
 62
     7
420
 16777215
370
     9
100
AcDbVertex
100
AcDb2dVertex
 10
180.4665009750079
 20
-1.256512934634011
 30
0.0
  0
VERTEX
  5
195
330
18D
100
AcDbEntity
  8
0
 62
     7
420
 16777215
370
     9
100
AcDbVertex
100
AcDb2dVertex
 10
180.3727749750081
 20
-1.350238934633832
 30
0.0
  0
VERTEX
  5
196
330
18D
100
AcDbEntity
  8
0
 62
     7
420
 16777215
370
     9
100
AcDbVertex
100
AcDb2dVertex
 10
159.5052243747229
 20
-1.350238934633832
 30
0.0
  0
VERTEX
  5
197
330
18D
100
AcDbEntity
  8
0
 62
     7
420
 16777215
370
     9
100
AcDbVertex
100
AcDb2dVertex
 10
159.4115009147232
 20
-1.256512934634011
 30
0.0
  0
VERTEX
  5
198
330
18D
100
AcDbEntity
  8
0
 62
     7
420
 16777215
370
     9
100
AcDbVertex
100
AcDb2dVertex
 10
159.4115009147232
 20
2.649761225615885
 30
0.0
  0
VERTEX
  5
199
330
18D
100
AcDbEntity
  8
0
 62
     7
420
 16777215
370
     9
100
AcDbVertex
100
AcDb2dVertex
 10
136.7164995750085
 20
2.649761225615885
 30
0.0
  0
VERTEX
  5
19A
330
18D
100
AcDbEntity
  8
0
 62
     7
420
 16777215
370
     9
100
AcDbVertex
100
AcDb2dVertex
 10
136.7164995750085
 20
-1.256512934634011
 30
0.0
  0
VERTEX
  5
19B
330
18D
100
AcDbEntity
  8
0
 62
     7
420
 16777215
370
     9
100
AcDbVertex
100
AcDb2dVertex
 10
136.6227735750087
 20
-1.350238934633832
 30
0.0
  0
VERTEX
  5
19C
330
18D
100
AcDbEntity
  8
0
 62
     7
420
 16777215
370
     9
100
AcDbVertex
100
AcDb2dVertex
 10
115.7552255147236
 20
-1.350238934633832
 30
0.0
  0
VERTEX
  5
19D
330
18D
100
AcDbEntity
  8
0
 62
     7
420
 16777215
370
     9
100
AcDbVertex
100
AcDb2dVertex
 10
115.6614995147238
 20
-1.256512934634011
 30
0.0
  0
VERTEX
  5
19E
330
18D
100
AcDbEntity
  8
0
 62
     7
420
 16777215
370
     9
100
AcDbVertex
100
AcDb2dVertex
 10
115.6614995147225
 20
2.649761225615885
 30
0.0
  0
VERTEX
  5
19F
330
18D
100
AcDbEntity
  8
0
 62
     7
420
 16777215
370
     9
100
AcDbVertex
100
AcDb2dVertex
 10
92.96650071500792
 20
2.649761225615885
 30
0.0
  0
VERTEX
  5
1A0
330
18D
100
AcDbEntity
  8
0
 62
     7
420
 16777215
370
     9
100
AcDbVertex
100
AcDb2dVertex
 10
92.96650071500792
 20
-1.256512934634011
 30
0.0
  0
VERTEX
  5
1A1
330
18D
100
AcDbEntity
  8
0
 62
     7
420
 16777215
370
     9
100
AcDbVertex
100
AcDb2dVertex
 10
92.8727747150081
 20
-1.350238934633832
 30
0.0
  0
VERTEX
  5
1A2
330
18D
100
AcDbEntity
  8
0
 62
     7
420
 16777215
370
     9
100
AcDbVertex
100
AcDb2dVertex
 10
72.0052266547224
 20
-1.350238934633832
 30
0.0
  0
VERTEX
  5
1A3
330
18D
100
AcDbEntity
  8
0
 62
     7
420
 16777215
370
     9
100
AcDbVertex
100
AcDb2dVertex
 10
71.91150065472259
 20
-1.256512934634011
 30
0.0
  0
VERTEX
  5
1A4
330
18D
100
AcDbEntity
  8
0
 62
     7
420
 16777215
370
     9
100
AcDbVertex
100
AcDb2dVertex
 10
71.91150065472259
 20
2.649761225615885
 30
0.0
  0
VERTEX
  5
1A5
330
18D
100
AcDbEntity
  8
0
 62
     7
420
 16777215
370
     9
100
AcDbVertex
100
AcDb2dVertex
 10
49.21649931500789
 20
2.649761225615885
 30
0.0
  0
VERTEX
  5
1A6
330
18D
100
AcDbEntity
  8
0
 62
     7
420
 16777215
370
     9
100
AcDbVertex
100
AcDb2dVertex
 10
49.21649931500789
 20
-1.256512934634011
 30
0.0
  0
VERTEX
  5
1A7
330
18D
100
AcDbEntity
  8
0
 62
     7
420
 16777215
370
     9
100
AcDbVertex
100
AcDb2dVertex
 10
49.12277331500776
 20
-1.350238934633832
 30
0.0
  0
VERTEX
  5
1A8
330
18D
100
AcDbEntity
  8
0
 62
     7
420
 16777215
370
     9
100
AcDbVertex
100
AcDb2dVertex
 10
28.2552252547227
 20
-1.350238934633832
 30
0.0
  0
VERTEX
  5
1A9
330
18D
100
AcDbEntity
  8
0
 62
     7
420
 16777215
370
     9
100
AcDbVertex
100
AcDb2dVertex
 10
28.16149925472256
 20
-1.256512934634011
 30
0.0
  0
VERTEX
  5
1AA
330
18D
100
AcDbEntity
  8
0
 62
     7
420
 16777215
370
     9
100
AcDbVertex
100
AcDb2dVertex
 10
28.16149925472256
 20
2.649761225615885
 30
0.0
  0
VERTEX
  5
1AB
330
18D
100
AcDbEntity
  8
0
 62
     7
420
 16777215
370
     9
100
AcDbVertex
100
AcDb2dVertex
 10
5.466500455007955
 20
2.649761225615885
 30
0.0
  0
VERTEX
  5
1AC
330
18D
100
AcDbEntity
  8
0
 62
     7
420
 16777215
370
     9
100
AcDbVertex
100
AcDb2dVertex
 10
5.466500455007955
 20
-1.256512934634011
 30
0.0
  0
VERTEX
  5
1AD
330
18D
100
AcDbEntity
  8
0
 62
     7
420
 16777215
370
     9
100
AcDbVertex
100
AcDb2dVertex
 10
5.372774455007812
 20
-1.350238934633832
 30
0.0
  0
VERTEX
  5
1AE
330
18D
100
AcDbEntity
  8
0
 62
     7
420
 16777215
370
     9
100
AcDbVertex
100
AcDb2dVertex
 10
-15.49477360527724
 20
-1.350238934633832
 30
0.0
  0
VERTEX
  5
1AF
330
18D
100
AcDbEntity
  8
0
 62
     7
420
 16777215
370
     9
100
AcDbVertex
100
AcDb2dVertex
 10
-15.58849960527738
 20
-1.256512934634011
 30
0.0
  0
VERTEX
  5
1B0
330
18D
100
AcDbEntity
  8
0
 62
     7
420
 16777215
370
     9
100
AcDbVertex
100
AcDb2dVertex
 10
-15.58849960527738
 20
2.649761225615885
 30
0.0
  0
VERTEX
  5
1B1
330
18D
100
AcDbEntity
  8
0
 62
     7
420
 16777215
370
     9
100
AcDbVertex
100
AcDb2dVertex
 10
-38.28350094499207
 20
2.649761225615885
 30
0.0
  0
VERTEX
  5
1B2
330
18D
100
AcDbEntity
  8
0
 62
     7
420
 16777215
370
     9
100
AcDbVertex
100
AcDb2dVertex
 10
-38.28350094499207
 20
-1.256512934634011
 30
0.0
  0
VERTEX
  5
1B3
330
18D
100
AcDbEntity
  8
0
 62
     7
420
 16777215
370
     9
100
AcDbVertex
100
AcDb2dVertex
 10
-38.37722694499254
 20
-1.350238934633832
 30
0.0
  0
VERTEX
  5
1B4
330
18D
100
AcDbEntity
  8
0
 62
     7
420
 16777215
370
     9
100
AcDbVertex
100
AcDb2dVertex
 10
-59.24477500527727
 20
-1.350238934633832
 30
0.0
  0
VERTEX
  5
1B5
330
18D
100
AcDbEntity
  8
0
 62
     7
420
 16777215
370
     9
100
AcDbVertex
100
AcDb2dVertex
 10
-59.33850100527709
 20
-1.256512934634011
 30
0.0
  0
VERTEX
  5
1B6
330
18D
100
AcDbEntity
  8
0
 62
     7
420
 16777215
370
     9
100
AcDbVertex
100
AcDb2dVertex
 10
-59.33850100527741
 20
2.649761225615885
 30
0.0
  0
VERTEX
  5
1B7
330
18D
100
AcDbEntity
  8
0
 62
     7
420
 16777215
370
     9
100
AcDbVertex
100
AcDb2dVertex
 10
-82.03349980499233
 20
2.649761225615885
 30
0.0
  0
VERTEX
  5
1B8
330
18D
100
AcDbEntity
  8
0
 62
     7
420
 16777215
370
     9
100
AcDbVertex
100
AcDb2dVertex
 10
-82.03349980499202
 20
-1.256512934634011
 30
0.0
  0
VERTEX
  5
1B9
330
18D
100
AcDbEntity
  8
0
 62
     7
420
 16777215
370
     9
100
AcDbVertex
100
AcDb2dVertex
 10
-82.12722580499215
 20
-1.350238934633832
 30
0.0
  0
VERTEX
  5
1BA
330
18D
100
AcDbEntity
  8
0
 62
     7
420
 16777215
370
     9
100
AcDbVertex
100
AcDb2dVertex
 10
-102.9947738652775
 20
-1.350238934633832
 30
0.0
  0
VERTEX
  5
1BB
330
18D
100
AcDbEntity
  8
0
 62
     7
420
 16777215
370
     9
100
AcDbVertex
100
AcDb2dVertex
 10
-103.0884998652773
 20
-1.256512934634011
 30
0.0
  0
VERTEX
  5
1BC
330
18D
100
AcDbEntity
  8
0
 62
     7
420
 16777215
370
     9
100
AcDbVertex
100
AcDb2dVertex
 10
-103.0884998652773
 20
2.649761225615885
 30
0.0
  0
VERTEX
  5
1BD
330
18D
100
AcDbEntity
  8
0
 62
     7
420
 16777215
370
     9
100
AcDbVertex
100
AcDb2dVertex
 10
-125.7835012049924
 20
2.649761225615885
 30
0.0
  0
VERTEX
  5
1BE
330
18D
100
AcDbEntity
  8
0
 62
     7
420
 16777215
370
     9
100
AcDbVertex
100
AcDb2dVertex
 10
-125.7835012049924
 20
-1.256512934634011
 30
0.0
  0
VERTEX
  5
1BF
330
18D
100
AcDbEntity
  8
0
 62
     7
420
 16777215
370
     9
100
AcDbVertex
100
AcDb2dVertex
 10
-125.8772272049922
 20
-1.350238934633832
 30
0.0
  0
VERTEX
  5
1C0
330
18D
100
AcDbEntity
  8
0
 62
     7
420
 16777215
370
     9
100
AcDbVertex
100
AcDb2dVertex
 10
-146.7447752652776
 20
-1.350238934633832
 30
0.0
  0
VERTEX
  5
1C1
330
18D
100
AcDbEntity
  8
0
 62
     7
420
 16777215
370
     9
100
AcDbVertex
100
AcDb2dVertex
 10
-146.8385012652774
 20
-1.256512934634011
 30
0.0
  0
VERTEX
  5
1C2
330
18D
100
AcDbEntity
  8
0
 62
     7
420
 16777215
370
     9
100
AcDbVertex
100
AcDb2dVertex
 10
-146.8385012652774
 20
2.649761225615885
 30
0.0
  0
VERTEX
  5
1C3
330
18D
100
AcDbEntity
  8
0
 62
     7
420
 16777215
370
     9
100
AcDbVertex
100
AcDb2dVertex
 10
-169.5335000649926
 20
2.649761225615885
 30
0.0
  0
VERTEX
  5
1C4
330
18D
100
AcDbEntity
  8
0
 62
     7
420
 16777215
370
     9
100
AcDbVertex
100
AcDb2dVertex
 10
-169.5335000649926
 20
-1.256512934634011
 30
0.0
  0
VERTEX
  5
1C5
330
18D
100
AcDbEntity
  8
0
 62
     7
420
 16777215
370
     9
100
AcDbVertex
100
AcDb2dVertex
 10
-169.6272260649918
 20
-1.350238934633832
 30
0.0
  0
VERTEX
  5
1C6
330
18D
100
AcDbEntity
  8
0
 62
     7
420
 16777215
370
     9
100
AcDbVertex
100
AcDb2dVertex
 10
-189.2398748051977
 20
-1.350238934633832
 30
0.0
  0
VERTEX
  5
1C7
330
18D
100
AcDbEntity
  8
0
 62
     7
420
 16777215
370
     9
100
AcDbVertex
100
AcDb2dVertex
 10
-189.3336008051978
 20
-1.256512934634011
 30
0.0
  0
VERTEX
  5
1C8
330
18D
100
AcDbEntity
  8
0
 62
     7
420
 16777215
370
     9
100
AcDbVertex
100
AcDb2dVertex
 10
-189.3336008051978
 20
9.203961985616026
 30
0.0
  0
VERTEX
  5
1C9
330
18D
100
AcDbEntity
  8
0
 62
     7
420
 16777215
370
     9
100
AcDbVertex
100
AcDb2dVertex
 10
-193.2398749654477
 20
9.203961985616026
 30
0.0
  0
VERTEX
  5
1CA
330
18D
100
AcDbEntity
  8
0
 62
     7
420
 16777215
370
     9
100
AcDbVertex
100
AcDb2dVertex
 10
-193.3336009654485
 20
9.297687985615847
 30
0.0
  0
VERTEX
  5
1CB
330
18D
100
AcDbEntity
  8
0
 62
     7
420
 16777215
370
     9
100
AcDbVertex
100
AcDb2dVertex
 10
-193.3336009654485
 20
29.66523604602633
 30
0.0
  0
VERTEX
  5
1CC
330
18D
100
AcDbEntity
  8
0
 62
     7
420
 16777215
370
     9
100
AcDbVertex
100
AcDb2dVertex
 10
-193.2398749654477
 20
29.75896204602616
 30
0.0
  0
VERTEX
  5
1CD
330
18D
100
AcDbEntity
  8
0
 62
     7
420
 16777215
370
     9
100
AcDbVertex
100
AcDb2dVertex
 10
-189.3117816772838
 20
29.75896204602616
 30
0.0
  0
VERTEX
  5
1CE
330
18D
100
AcDbEntity
  8
0
 62
     7
420
 16777215
370
     9
100
AcDbVertex
100
AcDb2dVertex
 10
-189.3004072520433
 20
66.85900007348216
 30
0.0
  0
VERTEX
  5
1CF
330
18D
100
AcDbEntity
  8
0
 62
     7
420
 16777215
370
     9
100
AcDbVertex
100
AcDb2dVertex
 10
-189.2067162572465
 20
66.95276106561616
 30
0.0
  0
VERTEX
  5
1D0
330
18D
100
AcDbEntity
  8
0
 62
     7
420
 16777215
370
     9
100
AcDbVertex
100
AcDb2dVertex
 10
310.8740081624508
 20
66.95276106561616
 30
0.0
  0
VERTEX
  5
1D1
330
18D
100
AcDbEntity
  8
0
 62
     7
420
 16777215
370
     9
100
AcDbVertex
100
AcDb2dVertex
 10
310.967600774802
 20
66.85890186753069
 30
0.0
  0
VERTEX
  5
1D2
330
18D
100
AcDbEntity
  8
0
 62
     7
420
 16777215
370
     9
100
AcDbVertex
100
AcDb2dVertex
 10
310.967600774802
 20
29.75896204602616
 30
0.0
  0
VERTEX
  5
1D3
330
18D
100
AcDbEntity
  8
0
 62
     7
420
 16777215
370
     9
100
AcDbVertex
100
AcDb2dVertex
 10
314.8738749350525
 20
29.75896204602616
 30
0.0
  0
VERTEX
  5
1D4
330
18D
100
AcDbEntity
  8
0
 62
     7
420
 16777215
370
     9
100
AcDbVertex
100
AcDb2dVertex
 10
314.9676009350524
 20
29.66523604602633
 30
0.0
  0
VERTEX
  5
1D5
330
18D
100
AcDbEntity
  8
0
 62
     7
420
 16777215
370
     9
100
AcDbVertex
100
AcDb2dVertex
 10
314.9676009350524
 20
9.297687985615847
 30
0.0
  0
VERTEX
  5
1D6
330
18D
100
AcDbEntity
  8
0
 62
     7
420
 16777215
370
     9
100
AcDbVertex
100
AcDb2dVertex
 10
314.8738749350525
 20
9.203961985616026
 30
0.0
  0
VERTEX
  5
1D7
330
18D
100
AcDbEntity
  8
0
 62
     7
420
 16777215
370
     9
100
AcDbVertex
100
AcDb2dVertex
 10
310.967600774802
 20
9.203961985616026
 30
0.0
  0
VERTEX
  5
1D8
330
18D
100
AcDbEntity
  8
0
 62
     7
420
 16777215
370
     9
100
AcDbVertex
100
AcDb2dVertex
 10
310.967600774802
 20
-1.256512934634011
 30
0.0
  0
VERTEX
  5
1D9
330
18D
100
AcDbEntity
  8
0
 62
     7
420
 16777215
370
     9
100
AcDbVertex
100
AcDb2dVertex
 10
310.8738747748022
 20
-1.350238934633832
 30
0.0
  0
VERTEX
  5
1DA
330
18D
100
AcDbEntity
  8
0
 62
     7
420
 16777215
370
     9
100
AcDbVertex
100
AcDb2dVertex
 10
290.7552260347236
 20
-1.350238934633832
 30
0.0
  0
VERTEX
  5
1DB
330
18D
100
AcDbEntity
  8
0
 62
     7
420
 16777215
370
     9
100
AcDbVertex
100
AcDb2dVertex
 10
290.6615000347225
 20
-1.256512934634011
 30
0.0
  0
VERTEX
  5
1DC
330
18D
100
AcDbEntity
  8
0
 62
     7
420
 16777215
370
     9
100
AcDbVertex
100
AcDb2dVertex
 10
290.6615000347225
 20
2.649761225615885
 30
0.0
  0
VERTEX
  5
1DD
330
18D
100
AcDbEntity
  8
0
 62
     7
420
 16777215
370
     9
100
AcDbVertex
100
AcDb2dVertex
 10
267.9664986950078
 20
2.649761225615885
 30
0.0
  0
VERTEX
  5
1DE
330
18D
100
AcDbEntity
  8
0
 62
     7
420
 16777215
370
     9
100
AcDbVertex
100
AcDb2dVertex
 10
267.9664986950078
 20
-1.256512934634011
 30
0.0
  0
VERTEX
  5
1DF
330
18D
100
AcDbEntity
  8
0
 62
     7
420
 16777215
370
     9
100
AcDbVertex
100
AcDb2dVertex
 10
267.8727726950079
 20
-1.350238934633832
 30
0.0
  0
VERTEX
  5
1E0
330
18D
100
AcDbEntity
  8
0
 62
     7
420
 16777215
370
     9
100
AcDbVertex
100
AcDb2dVertex
 10
247.0052246347229
 20
-1.350238934633832
 30
0.0
  0
VERTEX
  5
1E1
330
18D
100
AcDbEntity
  8
0
 62
     7
420
 16777215
370
     9
100
AcDbVertex
100
AcDb2dVertex
 10
246.9114986347231
 20
-1.256512934634011
 30
0.0
  0
VERTEX
  5
1E2
330
18D
100
AcDbEntity
  8
0
 62
     7
420
 16777215
370
     9
100
AcDbVertex
100
AcDb2dVertex
 10
246.9114986347231
 20
2.649761225615885
 30
0.0
  0
VERTEX
  5
1E3
330
18D
100
AcDbEntity
  8
0
 62
     7
420
 16777215
370
     9
100
AcDbVertex
100
AcDb2dVertex
 10
224.2164998350085
 20
2.649761225615885
 30
0.0
  0
VERTEX
  5
1E4
330
18D
100
AcDbEntity
  8
0
 62
     7
420
 16777215
370
     9
100
AcDbVertex
100
AcDb2dVertex
 10
224.2164998350085
 20
-1.256512934634011
 30
0.0
  0
SEQEND
  5
1E5
330
18D
100
AcDbEntity
  8
0
 62
     7
420
 16777215
370
     9
  0
ENDBLK
  5
18C
330
189
100
AcDbEntity
  8
0
100
AcDbBlockEnd
  0
ENDSEC
  0
SECTION
  2
ENTITIES
  0
INSERT
  5
41
330
1F
100
AcDbEntity
  8
0
100
AcDbBlockReference
  2
block 2
 10
0.0
 20
0.0
 30
0.0
  0
INSERT
  5
9A
330
1F
100
AcDbEntity
  8
0
100
AcDbBlockReference
  2
block 3
 10
0.0
 20
0.0
 30
0.0
  0
POLYLINE
  5
F6
330
1F
100
AcDbEntity
  8
0
 62
     7
420
 16777215
370
     9
100
AcDb2dPolyline
 66
     1
 10
0.0
 20
0.0
 30
0.0
  0
VERTEX
  5
F7
330
F6
100
AcDbEntity
  8
0
 62
     7
420
 16777215
370
     9
100
AcDbVertex
100
AcDb2dVertex
 10
218.1803404522414
 20
85.18627367200668
 30
0.0
  0
VERTEX
  5
F8
330
F6
100
AcDbEntity
  8
0
 62
     7
420
 16777215
370
     9
100
AcDbVertex
100
AcDb2dVertex
 10
240.870341791958
 20
85.18627367200668
 30
0.0
  0
SEQEND
  5
F9
330
F6
100
AcDbEntity
  8
0
 62
     7
420
 16777215
370
     9
  0
POLYLINE
  5
FA
330
1F
100
AcDbEntity
  8
0
 62
     7
420
 16777215
370
     9
100
AcDb2dPolyline
 66
     1
 10
0.0
 20
0.0
 30
0.0
  0
VERTEX
  5
FB
330
FA
100
AcDbEntity
  8
0
 62
     7
420
 16777215
370
     9
100
AcDbVertex
100
AcDb2dVertex
 10
-197.6441585078659
 20
83.10226151488848
 30
0.0
  0
VERTEX
  5
1F8
330
FA
100
AcDbEntity
  8
0
100
AcDbVertex
100
AcDb2dVertex
 10
-197.6441585078659
 20
83.10226151488848
 30
0.0
  0
SEQEND
  5
FC
330
FA
100
AcDbEntity
  8
0
 62
     7
420
 16777215
370
     9
  0
POLYLINE
  5
FD
330
1F
100
AcDbEntity
  8
0
 62
     7
420
 16777215
370
     9
100
AcDb2dPolyline
 66
     1
 10
0.0
 20
0.0
 30
0.0
  0
VERTEX
  5
FE
330
FD
100
AcDbEntity
  8
0
 62
     7
420
 16777215
370
     9
100
AcDbVertex
100
AcDb2dVertex
 10
-175.5696594477585
 20
83.17102582007443
 30
0.0
  0
VERTEX
  5
1F9
330
FD
100
AcDbEntity
  8
0
100
AcDbVertex
100
AcDb2dVertex
 10
-175.5696594477585
 20
83.17102582007443
 30
0.0
  0
SEQEND
  5
FF
330
FD
100
AcDbEntity
  8
0
 62
     7
420
 16777215
370
     9
  0
POLYLINE
  5
100
330
1F
100
AcDbEntity
  8
0
 62
     7
420
 16777215
370
     9
100
AcDb2dPolyline
 66
     1
 10
0.0
 20
0.0
 30
0.0
  0
VERTEX
  5
101
330
100
100
AcDbEntity
  8
0
 62
     7
420
 16777215
370
     9
100
AcDbVertex
100
AcDb2dVertex
 10
65.96906727195692
 20
81.18159303740727
 30
0.0
  0
VERTEX
  5
1FA
330
100
100
AcDbEntity
  8
0
100
AcDbVertex
100
AcDb2dVertex
 10
65.96906727195692
 20
81.18159303740727
 30
0.0
  0
SEQEND
  5
102
330
100
100
AcDbEntity
  8
0
 62
     7
420
 16777215
370
     9
  0
POLYLINE
  5
103
330
1F
100
AcDbEntity
  8
0
 62
     7
420
 16777215
370
     9
100
AcDb2dPolyline
 66
     1
 10
0.0
 20
0.0
 30
0.0
  0
VERTEX
  5
104
330
103
100
AcDbEntity
  8
0
 62
     7
420
 16777215
370
     9
100
AcDbVertex
100
AcDb2dVertex
 10
65.87534127195677
 20
85.18627367200668
 30
0.0
  0
VERTEX
  5
1FB
330
103
100
AcDbEntity
  8
0
100
AcDbVertex
100
AcDb2dVertex
 10
65.87534127195677
 20
85.18627367200668
 30
0.0
  0
SEQEND
  5
105
330
103
100
AcDbEntity
  8
0
 62
     7
420
 16777215
370
     9
  0
POLYLINE
  5
106
330
1F
100
AcDbEntity
  8
0
 62
     7
420
 16777215
370
     9
100
AcDb2dPolyline
 66
     1
 10
0.0
 20
0.0
 30
0.0
  0
VERTEX
  5
107
330
106
100
AcDbEntity
  8
0
 62
     7
420
 16777215
370
     9
100
AcDbVertex
100
AcDb2dVertex
 10
65.87534127195677
 20
85.18627367200668
 30
0.0
  0
VERTEX
  5
108
330
106
100
AcDbEntity
  8
0
 62
     7
420
 16777215
370
     9
100
AcDbVertex
100
AcDb2dVertex
 10
65.87534127195677
 20
81.18159303740727
 30
0.0
  0
SEQEND
  5
109
330
106
100
AcDbEntity
  8
0
 62
     7
420
 16777215
370
     9
  0
INSERT
  5
10B
330
1F
100
AcDbEntity
  8
0
100
AcDbBlockReference
  2
block 4
 10
0.0
 20
0.0
 30
0.0
  0
POLYLINE
  5
163
330
1F
100
AcDbEntity
  8
0
 62
     7
420
 16777215
370
     9
100
AcDb2dPolyline
 66
     1
 10
0.0
 20
0.0
 30
0.0
  0
VERTEX
  5
164
330
163
100
AcDbEntity
  8
0
 62
     7
420
 16777215
370
     9
100
AcDbVertex
100
AcDb2dVertex
 10
218.1803404522414
 20
-55.88247010642522
 30
0.0
  0
VERTEX
  5
165
330
163
100
AcDbEntity
  8
0
 62
     7
420
 16777215
370
     9
100
AcDbVertex
100
AcDb2dVertex
 10
240.870341791958
 20
-55.88247010642522
 30
0.0
  0
SEQEND
  5
166
330
163
100
AcDbEntity
  8
0
 62
     7
420
 16777215
370
     9
  0
POLYLINE
  5
167
330
1F
100
AcDbEntity
  8
0
 62
     7
420
 16777215
370
     9
100
AcDb2dPolyline
 66
     1
 10
0.0
 20
0.0
 30
0.0
  0
VERTEX
  5
168
330
167
100
AcDbEntity
  8
0
 62
     7
420
 16777215
370
     9
100
AcDbVertex
100
AcDb2dVertex
 10
-197.6441585078656
 20
-57.9664822635431
 30
0.0
  0
VERTEX
  5
1FC
330
167
100
AcDbEntity
  8
0
100
AcDbVertex
100
AcDb2dVertex
 10
-197.6441585078656
 20
-57.9664822635431
 30
0.0
  0
SEQEND
  5
169
330
167
100
AcDbEntity
  8
0
 62
     7
420
 16777215
370
     9
  0
POLYLINE
  5
16A
330
1F
100
AcDbEntity
  8
0
 62
     7
420
 16777215
370
     9
100
AcDb2dPolyline
 66
     1
 10
0.0
 20
0.0
 30
0.0
  0
VERTEX
  5
16B
330
16A
100
AcDbEntity
  8
0
 62
     7
420
 16777215
370
     9
100
AcDbVertex
100
AcDb2dVertex
 10
-175.5696594477581
 20
-57.89771795835747
 30
0.0
  0
VERTEX
  5
1FD
330
16A
100
AcDbEntity
  8
0
100
AcDbVertex
100
AcDb2dVertex
 10
-175.5696594477581
 20
-57.89771795835747
 30
0.0
  0
SEQEND
  5
16C
330
16A
100
AcDbEntity
  8
0
 62
     7
420
 16777215
370
     9
  0
POLYLINE
  5
16D
330
1F
100
AcDbEntity
  8
0
 62
     7
420
 16777215
370
     9
100
AcDb2dPolyline
 66
     1
 10
0.0
 20
0.0
 30
0.0
  0
VERTEX
  5
16E
330
16D
100
AcDbEntity
  8
0
 62
     7
420
 16777215
370
     9
100
AcDbVertex
100
AcDb2dVertex
 10
65.96906727195723
 20
-59.88715074102399
 30
0.0
  0
VERTEX
  5
1FE
330
16D
100
AcDbEntity
  8
0
100
AcDbVertex
100
AcDb2dVertex
 10
65.96906727195723
 20
-59.88715074102399
 30
0.0
  0
SEQEND
  5
16F
330
16D
100
AcDbEntity
  8
0
 62
     7
420
 16777215
370
     9
  0
POLYLINE
  5
170
330
1F
100
AcDbEntity
  8
0
 62
     7
420
 16777215
370
     9
100
AcDb2dPolyline
 66
     1
 10
0.0
 20
0.0
 30
0.0
  0
VERTEX
  5
171
330
170
100
AcDbEntity
  8
0
 62
     7
420
 16777215
370
     9
100
AcDbVertex
100
AcDb2dVertex
 10
65.87534127195741
 20
-55.88247010642522
 30
0.0
  0
VERTEX
  5
1FF
330
170
100
AcDbEntity
  8
0
100
AcDbVertex
100
AcDb2dVertex
 10
65.87534127195741
 20
-55.88247010642522
 30
0.0
  0
SEQEND
  5
172
330
170
100
AcDbEntity
  8
0
 62
     7
420
 16777215
370
     9
  0
POLYLINE
  5
173
330
1F
100
AcDbEntity
  8
0
 62
     7
420
 16777215
370
     9
100
AcDb2dPolyline
 66
     1
 10
0.0
 20
0.0
 30
0.0
  0
VERTEX
  5
174
330
173
100
AcDbEntity
  8
0
 62
     7
420
 16777215
370
     9
100
AcDbVertex
100
AcDb2dVertex
 10
65.87534127195741
 20
-55.88247010642522
 30
0.0
  0
VERTEX
  5
175
330
173
100
AcDbEntity
  8
0
 62
     7
420
 16777215
370
     9
100
AcDbVertex
100
AcDb2dVertex
 10
65.87534127195741
 20
-59.88715074102399
 30
0.0
  0
SEQEND
  5
176
330
173
100
AcDbEntity
  8
0
 62
     7
420
 16777215
370
     9
  0
POLYLINE
  5
177
330
1F
100
AcDbEntity
  8
0
 62
     7
420
 16777215
370
     9
100
AcDb2dPolyline
 66
     1
 10
0.0
 20
0.0
 30
0.0
  0
VERTEX
  5
178
330
177
100
AcDbEntity
  8
0
 62
     7
420
 16777215
370
     9
100
AcDbVertex
100
AcDb2dVertex
 10
-169.3505000650387
 20
137.7081808164582
 30
0.0
  0
VERTEX
  5
200
330
177
100
AcDbEntity
  8
0
100
AcDbVertex
100
AcDb2dVertex
 10
-169.3505000650387
 20
137.7081808164582
 30
0.0
  0
SEQEND
  5
179
330
177
100
AcDbEntity
  8
0
 62
     7
420
 16777215
370
     9
  0
POLYLINE
  5
17A
330
1F
100
AcDbEntity
  8
0
 62
     7
420
 16777215
370
     9
100
AcDb2dPolyline
 66
     1
 10
0.0
 20
0.0
 30
0.0
  0
VERTEX
  5
17B
330
17A
100
AcDbEntity
  8
0
 62
     7
420
 16777215
370
     9
100
AcDbVertex
100
AcDb2dVertex
 10
-189.1506008052439
 20
137.7081808164582
 30
0.0
  0
VERTEX
  5
201
330
17A
100
AcDbEntity
  8
0
100
AcDbVertex
100
AcDb2dVertex
 10
-189.1506008052439
 20
137.7081808164582
 30
0.0
  0
SEQEND
  5
17C
330
17A
100
AcDbEntity
  8
0
 62
     7
420
 16777215
370
     9
  0
POLYLINE
  5
17D
330
1F
100
AcDbEntity
  8
0
 62
     7
420
 16777215
370
     9
100
AcDb2dPolyline
 66
     1
 10
0.0
 20
0.0
 30
0.0
  0
VERTEX
  5
17E
330
17D
100
AcDbEntity
  8
0
 62
     7
420
 16777215
370
     9
100
AcDbVertex
100
AcDb2dVertex
 10
-146.8385012652777
 20
137.7081808164582
 30
0.0
  0
VERTEX
  5
202
330
17D
100
AcDbEntity
  8
0
100
AcDbVertex
100
AcDb2dVertex
 10
-146.8385012652777
 20
137.7081808164582
 30
0.0
  0
SEQEND
  5
17F
330
17D
100
AcDbEntity
  8
0
 62
     7
420
 16777215
370
     9
  0
POLYLINE
  5
180
330
1F
100
AcDbEntity
  8
0
 62
     7
420
 16777215
370
     9
100
AcDb2dPolyline
 66
     1
 10
0.0
 20
0.0
 30
0.0
  0
VERTEX
  5
181
330
180
100
AcDbEntity
  8
0
 62
     7
420
 16777215
370
     9
100
AcDbVertex
100
AcDb2dVertex
 10
-169.3505000650387
 20
137.7081808164582
 30
0.0
  0
VERTEX
  5
203
330
180
100
AcDbEntity
  8
0
100
AcDbVertex
100
AcDb2dVertex
 10
-169.3505000650387
 20
137.7081808164582
 30
0.0
  0
SEQEND
  5
182
330
180
100
AcDbEntity
  8
0
 62
     7
420
 16777215
370
     9
  0
POLYLINE
  5
183
330
1F
100
AcDbEntity
  8
0
 62
     7
420
 16777215
370
     9
100
AcDb2dPolyline
 66
     1
 10
0.0
 20
0.0
 30
0.0
  0
VERTEX
  5
184
330
183
100
AcDbEntity
  8
0
 62
     7
420
 16777215
370
     9
100
AcDbVertex
100
AcDb2dVertex
 10
-15.5884996052777
 20
138.155479691585
 30
0.0
  0
VERTEX
  5
204
330
183
100
AcDbEntity
  8
0
100
AcDbVertex
100
AcDb2dVertex
 10
-15.5884996052777
 20
138.155479691585
 30
0.0
  0
SEQEND
  5
185
330
183
100
AcDbEntity
  8
0
 62
     7
420
 16777215
370
     9
  0
POLYLINE
  5
186
330
1F
100
AcDbEntity
  8
0
 62
     7
420
 16777215
370
     9
100
AcDb2dPolyline
 66
     1
 10
0.0
 20
0.0
 30
0.0
  0
VERTEX
  5
187
330
186
100
AcDbEntity
  8
0
 62
     7
420
 16777215
370
     9
100
AcDbVertex
100
AcDb2dVertex
 10
-38.10050094503813
 20
138.155479691585
 30
0.0
  0
VERTEX
  5
205
330
186
100
AcDbEntity
  8
0
100
AcDbVertex
100
AcDb2dVertex
 10
-38.10050094503813
 20
138.155479691585
 30
0.0
  0
SEQEND
  5
188
330
186
100
AcDbEntity
  8
0
 62
     7
420
 16777215
370
     9
  0
INSERT
  5
18A
330
1F
100
AcDbEntity
  8
0
100
AcDbBlockReference
  2
block 5
 10
0.0
 20
0.0
 30
0.0
  0
POLYLINE
  5
1E6
330
1F
100
AcDbEntity
  8
0
 62
     7
420
 16777215
370
     9
100
AcDb2dPolyline
 66
     1
 10
0.0
 20
0.0
 30
0.0
  0
VERTEX
  5
1E7
330
1E6
100
AcDbEntity
  8
0
 62
     7
420
 16777215
370
     9
100
AcDbVertex
100
AcDb2dVertex
 10
-169.3505000650383
 20
0.3426926469977098
 30
0.0
  0
VERTEX
  5
206
330
1E6
100
AcDbEntity
  8
0
100
AcDbVertex
100
AcDb2dVertex
 10
-169.3505000650383
 20
0.3426926469977098
 30
0.0
  0
SEQEND
  5
1E8
330
1E6
100
AcDbEntity
  8
0
 62
     7
420
 16777215
370
     9
  0
POLYLINE
  5
1E9
330
1F
100
AcDbEntity
  8
0
 62
     7
420
 16777215
370
     9
100
AcDb2dPolyline
 66
     1
 10
0.0
 20
0.0
 30
0.0
  0
VERTEX
  5
1EA
330
1E9
100
AcDbEntity
  8
0
 62
     7
420
 16777215
370
     9
100
AcDbVertex
100
AcDb2dVertex
 10
-189.1506008052436
 20
0.3426926469977098
 30
0.0
  0
VERTEX
  5
207
330
1E9
100
AcDbEntity
  8
0
100
AcDbVertex
100
AcDb2dVertex
 10
-189.1506008052436
 20
0.3426926469977098
 30
0.0
  0
SEQEND
  5
1EB
330
1E9
100
AcDbEntity
  8
0
 62
     7
420
 16777215
370
     9
  0
POLYLINE
  5
1EC
330
1F
100
AcDbEntity
  8
0
 62
     7
420
 16777215
370
     9
100
AcDb2dPolyline
 66
     1
 10
0.0
 20
0.0
 30
0.0
  0
VERTEX
  5
1ED
330
1EC
100
AcDbEntity
  8
0
 62
     7
420
 16777215
370
     9
100
AcDbVertex
100
AcDb2dVertex
 10
-146.8385012652774
 20
0.3426926469977098
 30
0.0
  0
VERTEX
  5
208
330
1EC
100
AcDbEntity
  8
0
100
AcDbVertex
100
AcDb2dVertex
 10
-146.8385012652774
 20
0.3426926469977098
 30
0.0
  0
SEQEND
  5
1EE
330
1EC
100
AcDbEntity
  8
0
 62
     7
420
 16777215
370
     9
  0
POLYLINE
  5
1EF
330
1F
100
AcDbEntity
  8
0
 62
     7
420
 16777215
370
     9
100
AcDb2dPolyline
 66
     1
 10
0.0
 20
0.0
 30
0.0
  0
VERTEX
  5
1F0
330
1EF
100
AcDbEntity
  8
0
 62
     7
420
 16777215
370
     9
100
AcDbVertex
100
AcDb2dVertex
 10
-169.3505000650383
 20
0.3426926469977098
 30
0.0
  0
VERTEX
  5
209
330
1EF
100
AcDbEntity
  8
0
100
AcDbVertex
100
AcDb2dVertex
 10
-169.3505000650383
 20
0.3426926469977098
 30
0.0
  0
SEQEND
  5
1F1
330
1EF
100
AcDbEntity
  8
0
 62
     7
420
 16777215
370
     9
  0
POLYLINE
  5
1F2
330
1F
100
AcDbEntity
  8
0
 62
     7
420
 16777215
370
     9
100
AcDb2dPolyline
 66
     1
 10
0.0
 20
0.0
 30
0.0
  0
VERTEX
  5
1F3
330
1F2
100
AcDbEntity
  8
0
 62
     7
420
 16777215
370
     9
100
AcDbVertex
100
AcDb2dVertex
 10
-15.58849960527738
 20
0.7899915221244747
 30
0.0
  0
VERTEX
  5
20A
330
1F2
100
AcDbEntity
  8
0
100
AcDbVertex
100
AcDb2dVertex
 10
-15.58849960527738
 20
0.7899915221244747
 30
0.0
  0
SEQEND
  5
1F4
330
1F2
100
AcDbEntity
  8
0
 62
     7
420
 16777215
370
     9
  0
POLYLINE
  5
1F5
330
1F
100
AcDbEntity
  8
0
 62
     7
420
 16777215
370
     9
100
AcDb2dPolyline
 66
     1
 10
0.0
 20
0.0
 30
0.0
  0
VERTEX
  5
1F6
330
1F5
100
AcDbEntity
  8
0
 62
     7
420
 16777215
370
     9
100
AcDbVertex
100
AcDb2dVertex
 10
-38.10050094503781
 20
0.7899915221244747
 30
0.0
  0
VERTEX
  5
20B
330
1F5
100
AcDbEntity
  8
0
100
AcDbVertex
100
AcDb2dVertex
 10
-38.10050094503781
 20
0.7899915221244747
 30
0.0
  0
SEQEND
  5
1F7
330
1F5
100
AcDbEntity
  8
0
 62
     7
420
 16777215
370
     9
  0
ENDSEC
  0
SECTION
  2
OBJECTS
  0
DICTIONARY
  5
C
330
0
100
AcDbDictionary
281
     1
  3
ACAD_GROUP
350
D
  3
ACAD_LAYOUT
350
1A
  3
ACAD_MATERIAL
350
3B
  3
ACAD_MLEADERSTYLE
350
20D
  3
ACAD_MLINESTYLE
350
17
  3
ACAD_PLOTSETTINGS
350
19
  3
ACAD_PLOTSTYLENAME
350
E
  3
ACAD_TABLESTYLE
350
20C
  3
ACAD_VISUALSTYLE
350
2A
  0
SUN
  5
3F
330
29
100
AcDbSun
 90
        1
290
     0
 63
     7
421
 16777215
 40
1.0
291
     1
 91
  2455826
 92
 54000000
292
     0
 70
     2
 71
   256
280
     1
  0
DICTIONARY
  5
D
102
{ACAD_REACTORS
330
C
102
}
330
C
100
AcDbDictionary
281
     1
  0
DICTIONARY
  5
1A
102
{ACAD_REACTORS
330
C
102
}
330
C
100
AcDbDictionary
281
     1
  3
Layout1
350
1E
  3
Layout2
350
26
  3
Model
350
22
  0
DICTIONARY
  5
3B
102
{ACAD_REACTORS
330
C
102
}
330
C
100
AcDbDictionary
281
     1
  3
ByBlock
350
3D
  3
ByLayer
350
3C
  3
Global
350
3E
  0
DICTIONARY
  5
20D
102
{ACAD_REACTORS
330
C
102
}
330
C
100
AcDbDictionary
281
     1
  0
DICTIONARY
  5
17
102
{ACAD_REACTORS
330
C
102
}
330
C
100
AcDbDictionary
281
     1
  3
Standard
350
18
  0
DICTIONARY
  5
19
102
{ACAD_REACTORS
330
C
102
}
330
C
100
AcDbDictionary
281
     1
  0
ACDBDICTIONARYWDFLT
  5
E
102
{ACAD_REACTORS
330
C
102
}
330
C
100
AcDbDictionary
281
     1
  3
Normal
350
F
100
AcDbDictionaryWithDefault
340
F
  0
DICTIONARY
  5
20C
102
{ACAD_REACTORS
330
C
102
}
330
C
100
AcDbDictionary
281
     1
  0
DICTIONARY
  5
2A
102
{ACAD_REACTORS
330
C
102
}
330
C
100
AcDbDictionary
281
     1
  3
2dWireframe
350
2F
  3
3D Hidden
350
31
  3
3dWireframe
350
30
  3
Basic
350
32
  3
Brighten
350
36
  3
ColorChange
350
3A
  3
Conceptual
350
34
  3
Dim
350
35
  3
Facepattern
350
39
  3
Flat
350
2B
  3
FlatWithEdges
350
2C
  3
Gouraud
350
2D
  3
GouraudWithEdges
350
2E
  3
Linepattern
350
38
  3
Realistic
350
33
  3
Thicken
350
37
  0
LAYOUT
  5
1E
102
{ACAD_REACTORS
330
1A
102
}
330
1A
100
AcDbPlotSettings
  1

  2
none_device
  4

  6

 40
0.0
 41
0.0
 42
0.0
 43
0.0
 44
0.0
 45
0.0
 46
0.0
 47
0.0
 48
0.0
 49
0.0
140
0.0
141
0.0
142
1.0
143
1.0
 70
   688
 72
     0
 73
     0
 74
     5
  7

 75
    16
 76
     0
 77
     2
 78
   300
147
1.0
148
0.0
149
0.0
100
AcDbLayout
  1
Layout1
 70
     1
 71
     1
 10
0.0
 20
0.0
 11
12.0
 21
9.0
 12
0.0
 22
0.0
 32
0.0
 14
1.000000000000000E+20
 24
1.000000000000000E+20
 34
1.000000000000000E+20
 15
-1.000000000000000E+20
 25
-1.000000000000000E+20
 35
-1.000000000000000E+20
146
0.0
 13
0.0
 23
0.0
 33
0.0
 16
1.0
 26
0.0
 36
0.0
 17
0.0
 27
1.0
 37
0.0
 76
     0
330
1B
  0
LAYOUT
  5
26
102
{ACAD_REACTORS
330
1A
102
}
330
1A
100
AcDbPlotSettings
  1

  2
none_device
  4

  6

 40
0.0
 41
0.0
 42
0.0
 43
0.0
 44
0.0
 45
0.0
 46
0.0
 47
0.0
 48
0.0
 49
0.0
140
0.0
141
0.0
142
1.0
143
1.0
 70
   688
 72
     0
 73
     0
 74
     5
  7

 75
    16
 76
     0
 77
     2
 78
   300
147
1.0
148
0.0
149
0.0
100
AcDbLayout
  1
Layout2
 70
     1
 71
     2
 10
0.0
 20
0.0
 11
0.0
 21
0.0
 12
0.0
 22
0.0
 32
0.0
 14
0.0
 24
0.0
 34
0.0
 15
0.0
 25
0.0
 35
0.0
146
0.0
 13
0.0
 23
0.0
 33
0.0
 16
1.0
 26
0.0
 36
0.0
 17
0.0
 27
1.0
 37
0.0
 76
     0
330
23
  0
LAYOUT
  5
22
102
{ACAD_REACTORS
330
1A
102
}
330
1A
100
AcDbPlotSettings
  1

  2
none_device
  4

  6

 40
0.0
 41
0.0
 42
0.0
 43
0.0
 44
0.0
 45
0.0
 46
0.0
 47
0.0
 48
0.0
 49
0.0
140
0.0
141
0.0
142
1.0
143
1.0
 70
  1712
 72
     0
 73
     0
 74
     0
  7

 75
     0
 76
     0
 77
     2
 78
   300
147
1.0
148
0.0
149
0.0
100
AcDbLayout
  1
Model
 70
     1
 71
     0
 10
0.0
 20
0.0
 11
12.0
 21
9.0
 12
0.0
 22
0.0
 32
0.0
 14
1.000000000000000E+20
 24
1.000000000000000E+20
 34
1.000000000000000E+20
 15
-1.000000000000000E+20
 25
-1.000000000000000E+20
 35
-1.000000000000000E+20
146
0.0
 13
0.0
 23
0.0
 33
0.0
 16
1.0
 26
0.0
 36
0.0
 17
0.0
 27
1.0
 37
0.0
 76
     0
330
1F
331
29
  0
MATERIAL
  5
3D
102
{ACAD_REACTORS
330
3B
102
}
330
3B
100
AcDbMaterial
  1
ByBlock
 72
     1
 94
      127
  0
MATERIAL
  5
3C
102
{ACAD_REACTORS
330
3B
102
}
330
3B
100
AcDbMaterial
  1
ByLayer
 72
     1
 94
      127
  0
MATERIAL
  5
3E
102
{ACAD_REACTORS
330
3B
102
}
330
3B
100
AcDbMaterial
  1
Global
 72
     1
 94
      127
  0
MLINESTYLE
  5
18
102
{ACAD_REACTORS
330
17
102
}
330
17
100
AcDbMlineStyle
  2
Standard
 70
     0
  3

 62
   256
 51
90.0
 52
90.0
 71
     2
 49
0.5
 62
   256
  6
BYLAYER
 49
-0.5
 62
   256
  6
BYLAYER
  0
ACDBPLACEHOLDER
  5
F
102
{ACAD_REACTORS
330
E
102
}
330
E
  0
VISUALSTYLE
  5
2F
102
{ACAD_REACTORS
330
2A
102
}
330
2A
100
AcDbVisualStyle
  2
2dWireframe
 70
     4
177
     2
291
     0
 71
     0
176
     1
 72
     2
176
     1
 73
     0
176
     1
 90
        0
176
     1
 40
-0.6
176
     1
 41
-30.0
176
     1
 62
     5
 63
     7
421
 16777215
176
     1
 74
     1
176
     1
 91
        4
176
     1
 64
     7
176
     1
 65
   257
176
     1
 75
     1
176
     1
175
     1
176
     1
 42
1.0
176
     1
 92
        0
176
     1
 66
   257
176
     1
 43
1.0
176
     1
 76
     1
176
     1
 77
     6
176
     1
 78
     2
176
     1
 67
     7
176
     1
 79
     5
176
     1
170
     0
176
     1
171
     0
176
     1
290
     0
176
     1
 93
        1
176
     1
 44
0.0
176
     1
173
     0
176
     1
  0
VISUALSTYLE
  5
31
102
{ACAD_REACTORS
330
2A
102
}
330
2A
100
AcDbVisualStyle
  2
3D Hidden
 70
     6
177
     2
291
     0
 71
     1
176
     1
 72
     2
176
     1
 73
     2
176
     1
 90
        0
176
     1
 40
-0.6
176
     1
 41
-30.0
176
     1
 62
     5
 63
     7
421
 16777215
176
     1
 74
     2
176
     1
 91
        2
176
     1
 64
     7
176
     1
 65
   257
176
     1
 75
     2
176
     1
175
     1
176
     1
 42
40.0
176
     1
 92
        0
176
     1
 66
   257
176
     1
 43
1.0
176
     1
 76
     1
176
     1
 77
     6
176
     1
 78
     2
176
     1
 67
     7
176
     1
 79
     3
176
     1
170
     0
176
     1
171
     0
176
     1
290
     0
176
     1
 93
        1
176
     1
 44
0.0
176
     1
173
     0
176
     1
  0
VISUALSTYLE
  5
30
102
{ACAD_REACTORS
330
2A
102
}
330
2A
100
AcDbVisualStyle
  2
3dWireframe
 70
     5
177
     2
291
     0
 71
     0
176
     1
 72
     2
176
     1
 73
     0
176
     1
 90
        0
176
     1
 40
-0.6
176
     1
 41
-30.0
176
     1
 62
     5
 63
     7
421
 16777215
176
     1
 74
     1
176
     1
 91
        4
176
     1
 64
     7
176
     1
 65
   257
176
     1
 75
     1
176
     1
175
     1
176
     1
 42
1.0
176
     1
 92
        0
176
     1
 66
   257
176
     1
 43
1.0
176
     1
 76
     1
176
     1
 77
     6
176
     1
 78
     2
176
     1
 67
     7
176
     1
 79
     5
176
     1
170
     0
176
     1
171
     0
176
     1
290
     0
176
     1
 93
        1
176
     1
 44
0.0
176
     1
173
     0
176
     1
  0
VISUALSTYLE
  5
32
102
{ACAD_REACTORS
330
2A
102
}
330
2A
100
AcDbVisualStyle
  2
Basic
 70
     7
177
     2
291
     1
 71
     1
176
     1
 72
     0
176
     1
 73
     1
176
     1
 90
        0
176
     1
 40
-0.6
176
     1
 41
-30.0
176
     1
 62
     5
 63
     7
421
 16777215
176
     1
 74
     0
176
     1
 91
        4
176
     1
 64
     7
176
     1
 65
   257
176
     1
 75
     1
176
     1
175
     1
176
     1
 42
1.0
176
     1
 92
        8
176
     1
 66
     7
176
     1
 43
1.0
176
     1
 76
     1
176
     1
 77
     6
176
     1
 78
     2
176
     1
 67
     7
176
     1
 79
     5
176
     1
170
     0
176
     1
171
     0
176
     1
290
     0
176
     1
 93
        1
176
     1
 44
0.0
176
     1
173
     0
176
     1
  0
VISUALSTYLE
  5
36
102
{ACAD_REACTORS
330
2A
102
}
330
2A
100
AcDbVisualStyle
  2
Brighten
 70
    12
177
     2
291
     1
 71
     2
176
     1
 72
     2
176
     1
 73
     0
176
     1
 90
        0
176
     1
 40
-0.6
176
     1
 41
-30.0
176
     1
 62
     5
 63
     7
421
 16777215
176
     1
 74
     1
176
     1
 91
        4
176
     1
 64
     7
176
     1
 65
   257
176
     1
 75
     1
176
     1
175
     1
176
     1
 42
1.0
176
     1
 92
        8
176
     1
 66
     7
176
     1
 43
1.0
176
     1
 76
     1
176
     1
 77
     6
176
     1
 78
     2
176
     1
 67
     7
176
     1
 79
     5
176
     1
170
     0
176
     1
171
     0
176
     1
290
     0
176
     1
 93
        1
176
     1
 44
50.0
176
     1
173
     0
176
     1
  0
VISUALSTYLE
  5
3A
102
{ACAD_REACTORS
330
2A
102
}
330
2A
100
AcDbVisualStyle
  2
ColorChange
 70
    16
177
     2
291
     1
 71
     2
176
     1
 72
     2
176
     1
 73
     3
176
     1
 90
        0
176
     1
 40
-0.6
176
     1
 41
-30.0
176
     1
 62
     5
 63
     8
421
  8421504
176
     1
 74
     1
176
     1
 91
        4
176
     1
 64
     7
176
     1
 65
   257
176
     1
 75
     1
176
     1
175
     1
176
     1
 42
1.0
176
     1
 92
        8
176
     1
 66
     8
424
  8421504
176
     1
 43
1.0
176
     1
 76
     1
176
     1
 77
     6
176
     1
 78
     2
176
     1
 67
     7
176
     1
 79
     5
176
     1
170
     0
176
     1
171
     0
176
     1
290
     0
176
     1
 93
        1
176
     1
 44
0.0
176
     1
173
     0
176
     1
  0
VISUALSTYLE
  5
34
102
{ACAD_REACTORS
330
2A
102
}
330
2A
100
AcDbVisualStyle
  2
Conceptual
 70
     9
177
     2
291
     0
 71
     3
176
     1
 72
     2
176
     1
 73
     0
176
     1
 90
        0
176
     1
 40
-0.6
176
     1
 41
-30.0
176
     1
 62
     5
 63
     7
421
 16777215
176
     1
 74
     2
176
     1
 91
        2
176
     1
 64
     7
176
     1
 65
   257
176
     1
 75
     1
176
     1
175
     1
176
     1
 42
40.0
176
     1
 92
        8
176
     1
 66
     7
176
     1
 43
1.0
176
     1
 76
     1
176
     1
 77
     6
176
     1
 78
     2
176
     1
 67
     7
176
     1
 79
     3
176
     1
170
     0
176
     1
171
     0
176
     1
290
     0
176
     1
 93
        1
176
     1
 44
0.0
176
     1
173
     0
176
     1
  0
VISUALSTYLE
  5
35
102
{ACAD_REACTORS
330
2A
102
}
330
2A
100
AcDbVisualStyle
  2
Dim
 70
    11
177
     2
291
     1
 71
     2
176
     1
 72
     2
176
     1
 73
     0
176
     1
 90
        0
176
     1
 40
-0.6
176
     1
 41
-30.0
176
     1
 62
     5
 63
     7
421
 16777215
176
     1
 74
     1
176
     1
 91
        4
176
     1
 64
     7
176
     1
 65
   257
176
     1
 75
     1
176
     1
175
     1
176
     1
 42
1.0
176
     1
 92
        8
176
     1
 66
     7
176
     1
 43
1.0
176
     1
 76
     1
176
     1
 77
     6
176
     1
 78
     2
176
     1
 67
     7
176
     1
 79
     5
176
     1
170
     0
176
     1
171
     0
176
     1
290
     0
176
     1
 93
        1
176
     1
 44
-50.0
176
     1
173
     0
176
     1
  0
VISUALSTYLE
  5
39
102
{ACAD_REACTORS
330
2A
102
}
330
2A
100
AcDbVisualStyle
  2
Facepattern
 70
    15
177
     2
291
     1
 71
     2
176
     1
 72
     2
176
     1
 73
     0
176
     1
 90
        0
176
     1
 40
-0.6
176
     1
 41
-30.0
176
     1
 62
     5
 63
     7
421
 16777215
176
     1
 74
     1
176
     1
 91
        4
176
     1
 64
     7
176
     1
 65
   257
176
     1
 75
     1
176
     1
175
     1
176
     1
 42
1.0
176
     1
 92
        8
176
     1
 66
     7
176
     1
 43
1.0
176
     1
 76
     1
176
     1
 77
     6
176
     1
 78
     2
176
     1
 67
     7
176
     1
 79
     5
176
     1
170
     0
176
     1
171
     0
176
     1
290
     0
176
     1
 93
        1
176
     1
 44
0.0
176
     1
173
     0
176
     1
  0
VISUALSTYLE
  5
2B
102
{ACAD_REACTORS
330
2A
102
}
330
2A
100
AcDbVisualStyle
  2
Flat
 70
     0
177
     2
291
     1
 71
     2
176
     1
 72
     1
176
     1
 73
     1
176
     1
 90
        2
176
     1
 40
-0.6
176
     1
 41
30.0
176
     1
 62
     5
 63
     7
421
 16777215
176
     1
 74
     0
176
     1
 91
        4
176
     1
 64
     7
176
     1
 65
   257
176
     1
 75
     1
176
     1
175
     1
176
     1
 42
1.0
176
     1
 92
        8
176
     1
 66
     7
176
     1
 43
1.0
176
     1
 76
     1
176
     1
 77
     6
176
     1
 78
     2
176
     1
 67
     7
176
     1
 79
     5
176
     1
170
     0
176
     1
171
     0
176
     1
290
     0
176
     1
 93
       13
176
     1
 44
0.0
176
     1
173
     0
176
     1
  0
VISUALSTYLE
  5
2C
102
{ACAD_REACTORS
330
2A
102
}
330
2A
100
AcDbVisualStyle
  2
FlatWithEdges
 70
     1
177
     2
291
     1
 71
     2
176
     1
 72
     1
176
     1
 73
     1
176
     1
 90
        2
176
     1
 40
-0.6
176
     1
 41
30.0
176
     1
 62
     5
 63
     7
421
 16777215
176
     1
 74
     1
176
     1
 91
        4
176
     1
 64
     7
176
     1
 65
   257
176
     1
 75
     1
176
     1
175
     1
176
     1
 42
1.0
176
     1
 92
        0
176
     1
 66
   257
176
     1
 43
1.0
176
     1
 76
     1
176
     1
 77
     6
176
     1
 78
     2
176
     1
 67
     7
176
     1
 79
     5
176
     1
170
     0
176
     1
171
     0
176
     1
290
     0
176
     1
 93
       13
176
     1
 44
0.0
176
     1
173
     0
176
     1
  0
VISUALSTYLE
  5
2D
102
{ACAD_REACTORS
330
2A
102
}
330
2A
100
AcDbVisualStyle
  2
Gouraud
 70
     2
177
     2
291
     1
 71
     2
176
     1
 72
     2
176
     1
 73
     1
176
     1
 90
        2
176
     1
 40
-0.6
176
     1
 41
30.0
176
     1
 62
     5
 63
     7
421
 16777215
176
     1
 74
     0
176
     1
 91
        4
176
     1
 64
     7
176
     1
 65
   257
176
     1
 75
     1
176
     1
175
     1
176
     1
 42
1.0
176
     1
 92
        0
176
     1
 66
     7
176
     1
 43
1.0
176
     1
 76
     1
176
     1
 77
     6
176
     1
 78
     2
176
     1
 67
     7
176
     1
 79
     5
176
     1
170
     0
176
     1
171
     0
176
     1
290
     0
176
     1
 93
       13
176
     1
 44
0.0
176
     1
173
     0
176
     1
  0
VISUALSTYLE
  5
2E
102
{ACAD_REACTORS
330
2A
102
}
330
2A
100
AcDbVisualStyle
  2
GouraudWithEdges
 70
     3
177
     2
291
     1
 71
     2
176
     1
 72
     2
176
     1
 73
     1
176
     1
 90
        2
176
     1
 40
-0.6
176
     1
 41
30.0
176
     1
 62
     5
 63
     7
421
 16777215
176
     1
 74
     1
176
     1
 91
        4
176
     1
 64
     7
176
     1
 65
   257
176
     1
 75
     1
176
     1
175
     1
176
     1
 42
1.0
176
     1
 92
        0
176
     1
 66
   257
176
     1
 43
1.0
176
     1
 76
     1
176
     1
 77
     6
176
     1
 78
     2
176
     1
 67
     7
176
     1
 79
     5
176
     1
170
     0
176
     1
171
     0
176
     1
290
     0
176
     1
 93
       13
176
     1
 44
0.0
176
     1
173
     0
176
     1
  0
VISUALSTYLE
  5
38
102
{ACAD_REACTORS
330
2A
102
}
330
2A
100
AcDbVisualStyle
  2
Linepattern
 70
    14
177
     2
291
     1
 71
     2
176
     1
 72
     2
176
     1
 73
     0
176
     1
 90
        0
176
     1
 40
-0.6
176
     1
 41
-30.0
176
     1
 62
     5
 63
     7
421
 16777215
176
     1
 74
     1
176
     1
 91
        4
176
     1
 64
     7
176
     1
 65
   257
176
     1
 75
     7
176
     1
175
     7
176
     1
 42
1.0
176
     1
 92
        8
176
     1
 66
     7
176
     1
 43
1.0
176
     1
 76
     1
176
     1
 77
     6
176
     1
 78
     2
176
     1
 67
     7
176
     1
 79
     5
176
     1
170
     0
176
     1
171
     0
176
     1
290
     0
176
     1
 93
        1
176
     1
 44
0.0
176
     1
173
     0
176
     1
  0
VISUALSTYLE
  5
33
102
{ACAD_REACTORS
330
2A
102
}
330
2A
100
AcDbVisualStyle
  2
Realistic
 70
     8
177
     2
291
     0
 71
     2
176
     1
 72
     2
176
     1
 73
     0
176
     1
 90
        0
176
     1
 40
-0.6
176
     1
 41
-30.0
176
     1
 62
     5
 63
     7
421
 16777215
176
     1
 74
     1
176
     1
 91
        0
176
     1
 64
     7
176
     1
 65
   257
176
     1
 75
     1
176
     1
175
     1
176
     1
 42
1.0
176
     1
 92
        8
176
     1
 66
     8
424
  7895160
176
     1
 43
1.0
176
     1
 76
     1
176
     1
 77
     6
176
     1
 78
     2
176
     1
 67
     7
176
     1
 79
     5
176
     1
170
     0
176
     1
171
     0
176
     1
290
     0
176
     1
 93
       13
176
     1
 44
0.0
176
     1
173
     0
176
     1
  0
VISUALSTYLE
  5
37
102
{ACAD_REACTORS
330
2A
102
}
330
2A
100
AcDbVisualStyle
  2
Thicken
 70
    13
177
     2
291
     1
 71
     2
176
     1
 72
     2
176
     1
 73
     0
176
     1
 90
        0
176
     1
 40
-0.6
176
     1
 41
-30.0
176
     1
 62
     5
 63
     7
421
 16777215
176
     1
 74
     1
176
     1
 91
        4
176
     1
 64
     7
176
     1
 65
   257
176
     1
 75
     1
176
     1
175
     1
176
     1
 42
1.0
176
     1
 92
       12
176
     1
 66
     7
176
     1
 43
1.0
176
     1
 76
     1
176
     1
 77
     6
176
     1
 78
     2
176
     1
 67
     7
176
     1
 79
     5
176
     1
170
     0
176
     1
171
     0
176
     1
290
     0
176
     1
 93
        1
176
     1
 44
0.0
176
     1
173
     0
176
     1
  0
ENDSEC
  0
EOF
