  0
SECTION
  2
HEADER
  9
$ACADVER
  1
AC1024
  9
$ACADMAINTVER
 70
     6
  9
$DWGCODEPAGE
  3
UNDEFINED
  9
$INSBASE
 10
0.0
 20
0.0
 30
0.0
  9
$EXTMIN
 10
1.000000000000000E+20
 20
1.000000000000000E+20
 30
1.000000000000000E+20
  9
$EXTMAX
 10
-1.000000000000000E+20
 20
-1.000000000000000E+20
 30
-1.000000000000000E+20
  9
$LIMMIN
 10
0.0
 20
0.0
  9
$LIMMAX
 10
12.0
 20
9.0
  9
$ORTHOMODE
 70
     0
  9
$REGENMODE
 70
     1
  9
$FILLMODE
 70
     1
  9
$QTEXTMODE
 70
     0
  9
$MIRRTEXT
 70
     1
  9
$LTSCALE
 40
1.0
  9
$ATTMODE
 70
     1
  9
$TEXTSIZE
 40
0.2
  9
$TRACEWID
 40
0.05
  9
$TEXTSTYLE
  7
Standard
  9
$CLAYER
  8
0
  9
$CELTYPE
  6
ByLayer
  9
$CECOLOR
 62
   256
  9
$CELTSCALE
 40
1.0
  9
$DISPSILH
 70
     0
  9
$DIMSCALE
 40
1.0
  9
$DIMASZ
 40
0.18
  9
$DIMEXO
 40
0.0625
  9
$DIMDLI
 40
0.38
  9
$DIMRND
 40
0.0
  9
$DIMDLE
 40
0.0
  9
$DIMEXE
 40
0.18
  9
$DIMTP
 40
0.0
  9
$DIMTM
 40
0.0
  9
$DIMTXT
 40
0.18
  9
$DIMCEN
 40
0.09
  9
$DIMTSZ
 40
0.0
  9
$DIMTOL
 70
     0
  9
$DIMLIM
 70
     0
  9
$DIMTIH
 70
     1
  9
$DIMTOH
 70
     1
  9
$DIMSE1
 70
     0
  9
$DIMSE2
 70
     0
  9
$DIMTAD
 70
     0
  9
$DIMZIN
 70
     0
  9
$DIMBLK
  1

  9
$DIMASO
 70
     1
  9
$DIMSHO
 70
     1
  9
$DIMPOST
  1

  9
$DIMAPOST
  1

  9
$DIMALT
 70
     0
  9
$DIMALTD
 70
     2
  9
$DIMALTF
 40
25.4
  9
$DIMLFAC
 40
1.0
  9
$DIMTOFL
 70
     0
  9
$DIMTVP
 40
0.0
  9
$DIMTIX
 70
     0
  9
$DIMSOXD
 70
     0
  9
$DIMSAH
 70
     0
  9
$DIMBLK1
  1

  9
$DIMBLK2
  1

  9
$DIMSTYLE
  2
Standard
  9
$DIMCLRD
 70
     0
  9
$DIMCLRE
 70
     0
  9
$DIMCLRT
 70
     0
  9
$DIMTFAC
 40
1.0
  9
$DIMGAP
 40
0.09
  9
$DIMJUST
 70
     0
  9
$DIMSD1
 70
     0
  9
$DIMSD2
 70
     0
  9
$DIMTOLJ
 70
     1
  9
$DIMTZIN
 70
     0
  9
$DIMALTZ
 70
     0
  9
$DIMALTTZ
 70
     0
  9
$DIMUPT
 70
     0
  9
$DIMDEC
 70
     4
  9
$DIMTDEC
 70
     4
  9
$DIMALTU
 70
     2
  9
$DIMALTTD
 70
     2
  9
$DIMTXSTY
  7
Standard
  9
$DIMAUNIT
 70
     0
  9
$DIMADEC
 70
     0
  9
$DIMALTRND
 40
0.0
  9
$DIMAZIN
 70
     0
  9
$DIMDSEP
 70
    46
  9
$DIMATFIT
 70
     3
  9
$DIMFRAC
 70
     0
  9
$DIMLDRBLK
  1

  9
$DIMLUNIT
 70
     2
  9
$DIMLWD
 70
    -2
  9
$DIMLWE
 70
    -2
  9
$DIMTMOVE
 70
     0
  9
$DIMFXL
 40
1.0
  9
$DIMFXLON
 70
     0
  9
$DIMJOGANG
 40
0.7853981633974483
  9
$DIMTFILL
 70
     0
  9
$DIMTFILLCLR
 70
     0
  9
$DIMARCSYM
 70
     0
  9
$DIMLTYPE
  6

  9
$DIMLTEX1
  6

  9
$DIMLTEX2
  6

  9
$DIMTXTDIRECTION
 70
     0
  9
$LUNITS
 70
     2
  9
$LUPREC
 70
     4
  9
$SKETCHINC
 40
0.1
  9
$FILLETRAD
 40
0.5
  9
$AUNITS
 70
     0
  9
$AUPREC
 70
     0
  9
$MENU
  1
.
  9
$ELEVATION
 40
0.0
  9
$PELEVATION
 40
0.0
  9
$THICKNESS
 40
0.0
  9
$LIMCHECK
 70
     0
  9
$CHAMFERA
 40
0.5
  9
$CHAMFERB
 40
0.5
  9
$CHAMFERC
 40
1.0
  9
$CHAMFERD
 40
0.0
  9
$SKPOLY
 70
     0
  9
$TDCREATE
 40
2459015.550451389
  9
$TDUCREATE
 40
2459015.175451389
  9
$TDUPDATE
 40
2459015.550451389
  9
$TDUUPDATE
 40
2459015.175451389
  9
$TDINDWG
 40
0.0000000116
  9
$TDUSRTIMER
 40
0.0000000116
  9
$USRTIMER
 70
     1
  9
$ANGBASE
 50
0.0
  9
$ANGDIR
 70
     0
  9
$PDMODE
 70
     0
  9
$PDSIZE
 40
0.0
  9
$PLINEWID
 40
0.0
  9
$SPLFRAME
 70
     0
  9
$SPLINETYPE
 70
     6
  9
$SPLINESEGS
 70
     8
  9
$HANDSEED
  5
338
  9
$SURFTAB1
 70
     6
  9
$SURFTAB2
 70
     6
  9
$SURFTYPE
 70
     6
  9
$SURFU
 70
     6
  9
$SURFV
 70
     6
  9
$UCSBASE
  2

  9
$UCSNAME
  2

  9
$UCSORG
 10
0.0
 20
0.0
 30
0.0
  9
$UCSXDIR
 10
1.0
 20
0.0
 30
0.0
  9
$UCSYDIR
 10
0.0
 20
1.0
 30
0.0
  9
$UCSORTHOREF
  2

  9
$UCSORTHOVIEW
 70
     0
  9
$UCSORGTOP
 10
0.0
 20
0.0
 30
0.0
  9
$UCSORGBOTTOM
 10
0.0
 20
0.0
 30
0.0
  9
$UCSORGLEFT
 10
0.0
 20
0.0
 30
0.0
  9
$UCSORGRIGHT
 10
0.0
 20
0.0
 30
0.0
  9
$UCSORGFRONT
 10
0.0
 20
0.0
 30
0.0
  9
$UCSORGBACK
 10
0.0
 20
0.0
 30
0.0
  9
$PUCSBASE
  2

  9
$PUCSNAME
  2

  9
$PUCSORG
 10
0.0
 20
0.0
 30
0.0
  9
$PUCSXDIR
 10
1.0
 20
0.0
 30
0.0
  9
$PUCSYDIR
 10
0.0
 20
1.0
 30
0.0
  9
$PUCSORTHOREF
  2

  9
$PUCSORTHOVIEW
 70
     0
  9
$PUCSORGTOP
 10
0.0
 20
0.0
 30
0.0
  9
$PUCSORGBOTTOM
 10
0.0
 20
0.0
 30
0.0
  9
$PUCSORGLEFT
 10
0.0
 20
0.0
 30
0.0
  9
$PUCSORGRIGHT
 10
0.0
 20
0.0
 30
0.0
  9
$PUCSORGFRONT
 10
0.0
 20
0.0
 30
0.0
  9
$PUCSORGBACK
 10
0.0
 20
0.0
 30
0.0
  9
$USERI1
 70
     0
  9
$USERI2
 70
     0
  9
$USERI3
 70
     0
  9
$USERI4
 70
     0
  9
$USERI5
 70
     0
  9
$USERR1
 40
0.0
  9
$USERR2
 40
0.0
  9
$USERR3
 40
0.0
  9
$USERR4
 40
0.0
  9
$USERR5
 40
0.0
  9
$WORLDVIEW
 70
     1
  9
$SHADEDGE
 70
     3
  9
$SHADEDIF
 70
    70
  9
$TILEMODE
 70
     1
  9
$MAXACTVP
 70
    64
  9
$PINSBASE
 10
0.0
 20
0.0
 30
0.0
  9
$PLIMCHECK
 70
     0
  9
$PEXTMIN
 10
1.000000000000000E+20
 20
1.000000000000000E+20
 30
1.000000000000000E+20
  9
$PEXTMAX
 10
-1.000000000000000E+20
 20
-1.000000000000000E+20
 30
-1.000000000000000E+20
  9
$PLIMMIN
 10
0.0
 20
0.0
  9
$PLIMMAX
 10
12.0
 20
9.0
  9
$UNITMODE
 70
     0
  9
$VISRETAIN
 70
     1
  9
$PLINEGEN
 70
     0
  9
$PSLTSCALE
 70
     1
  9
$TREEDEPTH
 70
  3020
  9
$CMLSTYLE
  2
Standard
  9
$CMLJUST
 70
     0
  9
$CMLSCALE
 40
1.0
  9
$PROXYGRAPHICS
 70
     1
  9
$MEASUREMENT
 70
     0
  9
$CELWEIGHT
370
    -1
  9
$ENDCAPS
280
     0
  9
$JOINSTYLE
280
     0
  9
$LWDISPLAY
290
     1
  9
$INSUNITS
 70
     4
  9
$HYPERLINKBASE
  1

  9
$STYLESHEET
  1

  9
$XEDIT
290
     1
  9
$CEPSNTYPE
380
     0
  9
$PSTYLEMODE
290
     1
  9
$FINGERPRINTGUID
  2
{563D0AAA-F836-DEE9-EAA7-3B6274159588}
  9
$VERSIONGUID
  2
{FAEB1C32-E019-11D5-929B-00C0DF256EC4}
  9
$EXTNAMES
290
     1
  9
$PSVPSCALE
 40
0.0
  9
$OLESTARTUP
290
     0
  9
$SORTENTS
280
   127
  9
$INDEXCTL
280
     0
  9
$HIDETEXT
280
     1
  9
$XCLIPFRAME
280
     2
  9
$HALOGAP
280
     0
  9
$OBSCOLOR
 70
   257
  9
$OBSLTYPE
280
     0
  9
$INTERSECTIONDISPLAY
280
     0
  9
$INTERSECTIONCOLOR
 70
   257
  9
$DIMASSOC
280
     2
  9
$PROJECTNAME
  1

  9
$CAMERADISPLAY
290
     0
  9
$LENSLENGTH
 40
50.0
  9
$CAMERAHEIGHT
 40
0.0
  9
$STEPSPERSEC
 40
2.0
  9
$STEPSIZE
 40
6.0
  9
$3DDWFPREC
 40
2.0
  9
$PSOLWIDTH
 40
0.25
  9
$PSOLHEIGHT
 40
4.0
  9
$LOFTANG1
 40
1.570796326794897
  9
$LOFTANG2
 40
1.570796326794897
  9
$LOFTMAG1
 40
0.0
  9
$LOFTMAG2
 40
0.0
  9
$LOFTPARAM
 70
     7
  9
$LOFTNORMALS
280
     1
  9
$LATITUDE
 40
37.795
  9
$LONGITUDE
 40
-122.394
  9
$NORTHDIRECTION
 40
0.0
  9
$TIMEZONE
 70
 -8000
  9
$LIGHTGLYPHDISPLAY
280
     1
  9
$TILEMODELIGHTSYNCH
280
     1
  9
$CMATERIAL
347
3C
  9
$SOLIDHIST
280
     1
  9
$SHOWHIST
280
     1
  9
$DWFFRAME
280
     2
  9
$DGNFRAME
280
     2
  9
$REALWORLDSCALE
290
     1
  9
$INTERFERECOLOR
 62
   256
  9
$CSHADOW
280
     0
  9
$SHADOWPLANELOCATION
 40
0.0
  0
ENDSEC
  0
SECTION
  2
CLASSES
  0
CLASS
  1
ACDBDICTIONARYWDFLT
  2
AcDbDictionaryWithDefault
  3
ObjectDBX Classes
 90
        0
 91
        4
280
     0
281
     0
  0
CLASS
  1
VISUALSTYLE
  2
AcDbVisualStyle
  3
ObjectDBX Classes
 90
     4095
 91
        4
280
     0
281
     0
  0
CLASS
  1
MATERIAL
  2
AcDbMaterial
  3
ObjectDBX Classes
 90
     1153
 91
        4
280
     0
281
     0
  0
CLASS
  1
SUN
  2
AcDbSun
  3
SCENEOE
 90
     1024
 91
        4
280
     0
281
     0
  0
ENDSEC
  0
SECTION
  2
TABLES
  0
TABLE
  2
VPORT
  5
8
330
0
100
AcDbSymbolTable
 70
     1
  0
VPORT
  5
29
330
8
100
AcDbSymbolTableRecord
100
AcDbViewportTableRecord
  2
*Active
 70
     0
 10
0.0
 20
0.0
 11
1.0
 21
1.0
 12
0.0
 22
0.0
 13
0.0
 23
0.0
 14
0.5
 24
0.5
 15
0.5
 25
0.5
 16
0.0
 26
0.0
 36
1.0
 17
99.9999999750058
 27
62.49999998437202
 37
0.0
 40
299.9999999249998
 41
2.000000000000002
 42
50.0
 43
0.0
 44
0.0
 50
0.0
 51
0.0
 71
     0
 72
   100
 73
     1
 74
     3
 75
     0
 76
     0
 77
     0
 78
     0
281
     0
 65
     1
110
0.0
120
0.0
130
0.0
111
1.0
121
0.0
131
0.0
112
0.0
122
1.0
132
0.0
 79
     0
146
0.0
 60
     3
 61
     5
292
     1
282
     1
141
0.0
142
0.0
 63
   250
361
3F
  0
ENDTAB
  0
TABLE
  2
LTYPE
  5
5
330
0
100
AcDbSymbolTable
 70
     1
  0
LTYPE
  5
14
330
5
100
AcDbSymbolTableRecord
100
AcDbLinetypeTableRecord
  2
ByBlock
 70
     0
  3

 72
    65
 73
     0
 40
0.0
  0
LTYPE
  5
15
330
5
100
AcDbSymbolTableRecord
100
AcDbLinetypeTableRecord
  2
ByLayer
 70
     0
  3

 72
    65
 73
     0
 40
0.0
  0
LTYPE
  5
16
330
5
100
AcDbSymbolTableRecord
100
AcDbLinetypeTableRecord
  2
Continuous
 70
     0
  3
Solid line
 72
    65
 73
     0
 40
0.0
  0
ENDTAB
  0
TABLE
  2
LAYER
  5
2
330
0
100
AcDbSymbolTable
 70
     1
  0
LAYER
  5
10
330
2
100
AcDbSymbolTableRecord
100
AcDbLayerTableRecord
  2
0
 70
     0
 62
     7
  6
Continuous
370
    -3
390
F
347
3E
  0
ENDTAB
  0
TABLE
  2
STYLE
  5
3
330
0
100
AcDbSymbolTable
 70
     1
  0
STYLE
  5
11
330
3
100
AcDbSymbolTableRecord
100
AcDbTextStyleTableRecord
  2
Standard
 70
     0
 40
0.0
 41
1.0
 50
0.0
 71
     0
 42
0.2
  3
txt
  4

  0
ENDTAB
  0
TABLE
  2
VIEW
  5
6
330
0
100
AcDbSymbolTable
 70
     0
  0
ENDTAB
  0
TABLE
  2
UCS
  5
7
330
0
100
AcDbSymbolTable
 70
     0
  0
ENDTAB
  0
TABLE
  2
APPID
  5
9
330
0
100
AcDbSymbolTable
 70
     1
  0
APPID
  5
12
330
9
100
AcDbSymbolTableRecord
100
AcDbRegAppTableRecord
  2
ACAD
 70
     0
  0
ENDTAB
  0
TABLE
  2
DIMSTYLE
  5
A
330
0
100
AcDbSymbolTable
 70
     1
100
AcDbDimStyleTable
  0
DIMSTYLE
105
27
330
A
100
AcDbSymbolTableRecord
100
AcDbDimStyleTableRecord
  2
Standard
 70
     0
178
     0
340
11
  0
ENDTAB
  0
TABLE
  2
BLOCK_RECORD
  5
1
330
0
100
AcDbSymbolTable
 70
     2
  0
BLOCK_RECORD
  5
1F
330
1
100
AcDbSymbolTableRecord
100
AcDbBlockTableRecord
  2
*Model_Space
340
22
 70
     0
280
     1
281
     0
  0
BLOCK_RECORD
  5
1B
330
1
100
AcDbSymbolTableRecord
100
AcDbBlockTableRecord
  2
*Paper_Space
340
1E
 70
     0
280
     1
281
     0
  0
BLOCK_RECORD
  5
23
330
1
100
AcDbSymbolTableRecord
100
AcDbBlockTableRecord
  2
*Paper_Space0
340
26
 70
     0
280
     1
281
     0
  0
BLOCK_RECORD
  5
229
330
1
100
AcDbSymbolTableRecord
100
AcDbBlockTableRecord
  2
block 2
340
0
102
{BLKREFS
331
22A
102
}
 70
     0
280
     1
281
     0
  0
ENDTAB
  0
ENDSEC
  0
SECTION
  2
BLOCKS
  0
BLOCK
  5
20
330
1F
100
AcDbEntity
  8
0
100
AcDbBlockBegin
  2
*Model_Space
 70
     0
 10
0.0
 20
0.0
 30
0.0
  3
*Model_Space
  1

  0
ENDBLK
  5
21
330
1F
100
AcDbEntity
  8
0
100
AcDbBlockEnd
  0
BLOCK
  5
1C
330
1B
100
AcDbEntity
 67
     1
  8
0
100
AcDbBlockBegin
  2
*Paper_Space
 70
     0
 10
0.0
 20
0.0
 30
0.0
  3
*Paper_Space
  1

  0
ENDBLK
  5
1D
330
1B
100
AcDbEntity
 67
     1
  8
0
100
AcDbBlockEnd
  0
BLOCK
  5
24
330
23
100
AcDbEntity
  8
0
100
AcDbBlockBegin
  2
*Paper_Space0
 70
     0
 10
0.0
 20
0.0
 30
0.0
  3
*Paper_Space0
  1

  0
ENDBLK
  5
25
330
23
100
AcDbEntity
  8
0
100
AcDbBlockEnd
  0
BLOCK
  5
22B
330
229
100
AcDbEntity
  8
0
100
AcDbBlockBegin
  2
block 2
 70
     0
 10
0.0
 20
0.0
 30
0.0
  3
block 2
  1

  0
POLYLINE
  5
22D
330
229
100
AcDbEntity
  8
0
 62
     7
420
 16777215
370
     9
100
AcDb2dPolyline
 66
     1
 10
0.0
 20
0.0
 30
0.0
  0
VERTEX
  5
22E
330
22D
100
AcDbEntity
  8
0
 62
     7
420
 16777215
370
     9
100
AcDbVertex
100
AcDb2dVertex
 10
160.9782678305307
 20
-7.862073628102407
 30
0.0
  0
VERTEX
  5
22F
330
22D
100
AcDbEntity
  8
0
 62
     7
420
 16777215
370
     9
100
AcDbVertex
100
AcDb2dVertex
 10
160.9823844354037
 20
-22.86207306322105
 30
0.0
  0
SEQEND
  5
230
330
22D
100
AcDbEntity
  8
0
 62
     7
420
 16777215
370
     9
  0
ENDBLK
  5
22C
330
229
100
AcDbEntity
  8
0
100
AcDbBlockEnd
  0
ENDSEC
  0
SECTION
  2
ENTITIES
  0
POLYLINE
  5
40
330
1F
100
AcDbEntity
  8
0
 62
     7
420
 16777215
370
     9
100
AcDb2dPolyline
 66
     1
 10
0.0
 20
0.0
 30
0.0
  0
VERTEX
  5
41
330
40
100
AcDbEntity
  8
0
 62
     7
420
 16777215
370
     9
100
AcDbVertex
100
AcDb2dVertex
 10
27.84744991493647
 20
-71.94620582890647
 30
0.0
  0
VERTEX
  5
42
330
40
100
AcDbEntity
  8
0
 62
     7
420
 16777215
370
     9
100
AcDbVertex
100
AcDb2dVertex
 10
23.98769559721997
 20
-71.94672367981823
 30
0.0
  0
VERTEX
  5
43
330
40
100
AcDbEntity
  8
0
 62
     7
420
 16777215
370
     9
100
AcDbVertex
100
AcDb2dVertex
 10
24.03564113422298
 20
-77.2607122756727
 30
0.0
  0
VERTEX
  5
44
330
40
100
AcDbEntity
  8
0
 62
     7
420
 16777215
370
     9
100
AcDbVertex
100
AcDb2dVertex
 10
24.03144983571141
 20
-77.26490357418427
 30
0.0
  0
VERTEX
  5
45
330
40
100
AcDbEntity
  8
0
 62
     7
420
 16777215
370
     9
100
AcDbVertex
100
AcDb2dVertex
 10
2.023901775711424
 20
-77.26490357418427
 30
0.0
  0
VERTEX
  5
46
330
40
100
AcDbEntity
  8
0
 62
     7
420
 16777215
370
     9
100
AcDbVertex
100
AcDb2dVertex
 10
1.930175775710961
 20
-77.17117757418445
 30
0.0
  0
VERTEX
  5
47
330
40
100
AcDbEntity
  8
0
 62
     7
420
 16777215
370
     9
100
AcDbVertex
100
AcDb2dVertex
 10
1.930175775710961
 20
-73.26490341393328
 30
0.0
  0
VERTEX
  5
48
330
40
100
AcDbEntity
  8
0
 62
     7
420
 16777215
370
     9
100
AcDbVertex
100
AcDb2dVertex
 10
-19.62482302428871
 20
-73.26490341393328
 30
0.0
  0
VERTEX
  5
49
330
40
100
AcDbEntity
  8
0
 62
     7
420
 16777215
370
     9
100
AcDbVertex
100
AcDb2dVertex
 10
-19.62482302428871
 20
-77.17117757418445
 30
0.0
  0
VERTEX
  5
4A
330
40
100
AcDbEntity
  8
0
 62
     7
420
 16777215
370
     9
100
AcDbVertex
100
AcDb2dVertex
 10
-19.71854902428853
 20
-77.26490357418427
 30
0.0
  0
VERTEX
  5
4B
330
40
100
AcDbEntity
  8
0
 62
     7
420
 16777215
370
     9
100
AcDbVertex
100
AcDb2dVertex
 10
-41.72609708428851
 20
-77.26490357418427
 30
0.0
  0
VERTEX
  5
4C
330
40
100
AcDbEntity
  8
0
 62
     7
420
 16777215
370
     9
100
AcDbVertex
100
AcDb2dVertex
 10
-41.81982308428834
 20
-77.17117757418445
 30
0.0
  0
VERTEX
  5
4D
330
40
100
AcDbEntity
  8
0
 62
     7
420
 16777215
370
     9
100
AcDbVertex
100
AcDb2dVertex
 10
-41.81982308428834
 20
-73.26490341393328
 30
0.0
  0
VERTEX
  5
4E
330
40
100
AcDbEntity
  8
0
 62
     7
420
 16777215
370
     9
100
AcDbVertex
100
AcDb2dVertex
 10
-63.37482188428865
 20
-73.26490341393328
 30
0.0
  0
VERTEX
  5
4F
330
40
100
AcDbEntity
  8
0
 62
     7
420
 16777215
370
     9
100
AcDbVertex
100
AcDb2dVertex
 10
-63.37482188428865
 20
-77.17117757418445
 30
0.0
  0
VERTEX
  5
50
330
40
100
AcDbEntity
  8
0
 62
     7
420
 16777215
370
     9
100
AcDbVertex
100
AcDb2dVertex
 10
-63.46854788428847
 20
-77.26490357418427
 30
0.0
  0
VERTEX
  5
51
330
40
100
AcDbEntity
  8
0
 62
     7
420
 16777215
370
     9
100
AcDbVertex
100
AcDb2dVertex
 10
-85.47609848428854
 20
-77.26490357418427
 30
0.0
  0
VERTEX
  5
52
330
40
100
AcDbEntity
  8
0
 62
     7
420
 16777215
370
     9
100
AcDbVertex
100
AcDb2dVertex
 10
-85.56982194428828
 20
-77.17117757418445
 30
0.0
  0
VERTEX
  5
53
330
40
100
AcDbEntity
  8
0
 62
     7
420
 16777215
370
     9
100
AcDbVertex
100
AcDb2dVertex
 10
-85.56982194428892
 20
-73.26490341393328
 30
0.0
  0
VERTEX
  5
54
330
40
100
AcDbEntity
  8
0
 62
     7
420
 16777215
370
     9
100
AcDbVertex
100
AcDb2dVertex
 10
-107.1248232842887
 20
-73.26490341393328
 30
0.0
  0
VERTEX
  5
55
330
40
100
AcDbEntity
  8
0
 62
     7
420
 16777215
370
     9
100
AcDbVertex
100
AcDb2dVertex
 10
-107.1248232842887
 20
-77.17117757418445
 30
0.0
  0
VERTEX
  5
56
330
40
100
AcDbEntity
  8
0
 62
     7
420
 16777215
370
     9
100
AcDbVertex
100
AcDb2dVertex
 10
-107.2185492842885
 20
-77.26490357418427
 30
0.0
  0
VERTEX
  5
57
330
40
100
AcDbEntity
  8
0
 62
     7
420
 16777215
370
     9
100
AcDbVertex
100
AcDb2dVertex
 10
-129.2260973442885
 20
-77.26490357418427
 30
0.0
  0
VERTEX
  5
58
330
40
100
AcDbEntity
  8
0
 62
     7
420
 16777215
370
     9
100
AcDbVertex
100
AcDb2dVertex
 10
-129.3198233442883
 20
-77.17117757418445
 30
0.0
  0
VERTEX
  5
59
330
40
100
AcDbEntity
  8
0
 62
     7
420
 16777215
370
     9
100
AcDbVertex
100
AcDb2dVertex
 10
-129.3198233442883
 20
-73.26490341393328
 30
0.0
  0
VERTEX
  5
5A
330
40
100
AcDbEntity
  8
0
 62
     7
420
 16777215
370
     9
100
AcDbVertex
100
AcDb2dVertex
 10
-150.8748221442886
 20
-73.26490341393328
 30
0.0
  0
VERTEX
  5
5B
330
40
100
AcDbEntity
  8
0
 62
     7
420
 16777215
370
     9
100
AcDbVertex
100
AcDb2dVertex
 10
-150.8748221442886
 20
-77.17117757418445
 30
0.0
  0
VERTEX
  5
5C
330
40
100
AcDbEntity
  8
0
 62
     7
420
 16777215
370
     9
100
AcDbVertex
100
AcDb2dVertex
 10
-150.9685481442891
 20
-77.26490357418427
 30
0.0
  0
VERTEX
  5
5D
330
40
100
AcDbEntity
  8
0
 62
     7
420
 16777215
370
     9
100
AcDbVertex
100
AcDb2dVertex
 10
-172.9760962042891
 20
-77.26490357418427
 30
0.0
  0
VERTEX
  5
5E
330
40
100
AcDbEntity
  8
0
 62
     7
420
 16777215
370
     9
100
AcDbVertex
100
AcDb2dVertex
 10
-173.0698222042889
 20
-77.17117757418445
 30
0.0
  0
VERTEX
  5
5F
330
40
100
AcDbEntity
  8
0
 62
     7
420
 16777215
370
     9
100
AcDbVertex
100
AcDb2dVertex
 10
-173.0698222042889
 20
-73.26490341393328
 30
0.0
  0
VERTEX
  5
60
330
40
100
AcDbEntity
  8
0
 62
     7
420
 16777215
370
     9
100
AcDbVertex
100
AcDb2dVertex
 10
-190.1605982842889
 20
-73.26490341393328
 30
0.0
  0
VERTEX
  5
61
330
40
100
AcDbEntity
  8
0
 62
     7
420
 16777215
370
     9
100
AcDbVertex
100
AcDb2dVertex
 10
-190.2543242842887
 20
-73.17117741393346
 30
0.0
  0
VERTEX
  5
62
330
40
100
AcDbEntity
  8
0
 62
     7
420
 16777215
370
     9
100
AcDbVertex
100
AcDb2dVertex
 10
-190.2543242842887
 20
-52.96180457393347
 30
0.0
  0
VERTEX
  5
63
330
40
100
AcDbEntity
  8
0
 62
     7
420
 16777215
370
     9
100
AcDbVertex
100
AcDb2dVertex
 10
-194.1605984445389
 20
-52.96180457393347
 30
0.0
  0
VERTEX
  5
64
330
40
100
AcDbEntity
  8
0
 62
     7
420
 16777215
370
     9
100
AcDbVertex
100
AcDb2dVertex
 10
-194.2543219045386
 20
-52.86807857393365
 30
0.0
  0
VERTEX
  5
65
330
40
100
AcDbEntity
  8
0
 62
     7
420
 16777215
370
     9
100
AcDbVertex
100
AcDb2dVertex
 10
-194.2543219045386
 20
-30.86053051393367
 30
0.0
  0
VERTEX
  5
66
330
40
100
AcDbEntity
  8
0
 62
     7
420
 16777215
370
     9
100
AcDbVertex
100
AcDb2dVertex
 10
-194.1605984445389
 20
-30.76680451393385
 30
0.0
  0
VERTEX
  5
67
330
40
100
AcDbEntity
  8
0
 62
     7
420
 16777215
370
     9
100
AcDbVertex
100
AcDb2dVertex
 10
-190.2543242842887
 20
-30.76680451393385
 30
0.0
  0
VERTEX
  5
68
330
40
100
AcDbEntity
  8
0
 62
     7
420
 16777215
370
     9
100
AcDbVertex
100
AcDb2dVertex
 10
-190.2543242842887
 20
-9.211803173934086
 30
0.0
  0
VERTEX
  5
69
330
40
100
AcDbEntity
  8
0
 62
     7
420
 16777215
370
     9
100
AcDbVertex
100
AcDb2dVertex
 10
-194.1605984445389
 20
-9.211803173934086
 30
0.0
  0
VERTEX
  5
6A
330
40
100
AcDbEntity
  8
0
 62
     7
420
 16777215
370
     9
100
AcDbVertex
100
AcDb2dVertex
 10
-194.2543219045386
 20
-9.118077173934266
 30
0.0
  0
VERTEX
  5
6B
330
40
100
AcDbEntity
  8
0
 62
     7
420
 16777215
370
     9
100
AcDbVertex
100
AcDb2dVertex
 10
-194.2543219045386
 20
12.88947088606572
 30
0.0
  0
VERTEX
  5
6C
330
40
100
AcDbEntity
  8
0
 62
     7
420
 16777215
370
     9
100
AcDbVertex
100
AcDb2dVertex
 10
-194.1605984445389
 20
12.98319688606682
 30
0.0
  0
VERTEX
  5
6D
330
40
100
AcDbEntity
  8
0
 62
     7
420
 16777215
370
     9
100
AcDbVertex
100
AcDb2dVertex
 10
-190.2543242842887
 20
12.98319688606682
 30
0.0
  0
VERTEX
  5
6E
330
40
100
AcDbEntity
  8
0
 62
     7
420
 16777215
370
     9
100
AcDbVertex
100
AcDb2dVertex
 10
-190.2543242842887
 20
34.53819568606649
 30
0.0
  0
VERTEX
  5
6F
330
40
100
AcDbEntity
  8
0
 62
     7
420
 16777215
370
     9
100
AcDbVertex
100
AcDb2dVertex
 10
-194.1605984445389
 20
34.53819568606649
 30
0.0
  0
VERTEX
  5
70
330
40
100
AcDbEntity
  8
0
 62
     7
420
 16777215
370
     9
100
AcDbVertex
100
AcDb2dVertex
 10
-194.2543219045386
 20
34.63192168606631
 30
0.0
  0
VERTEX
  5
71
330
40
100
AcDbEntity
  8
0
 62
     7
420
 16777215
370
     9
100
AcDbVertex
100
AcDb2dVertex
 10
-194.2543219045386
 20
56.6394697460663
 30
0.0
  0
VERTEX
  5
72
330
40
100
AcDbEntity
  8
0
 62
     7
420
 16777215
370
     9
100
AcDbVertex
100
AcDb2dVertex
 10
-194.1605984445389
 20
56.73319574606612
 30
0.0
  0
VERTEX
  5
73
330
40
100
AcDbEntity
  8
0
 62
     7
420
 16777215
370
     9
100
AcDbVertex
100
AcDb2dVertex
 10
-190.2543242842887
 20
56.73319574606612
 30
0.0
  0
VERTEX
  5
74
330
40
100
AcDbEntity
  8
0
 62
     7
420
 16777215
370
     9
100
AcDbVertex
100
AcDb2dVertex
 10
-190.2543242842887
 20
78.2881970860662
 30
0.0
  0
VERTEX
  5
75
330
40
100
AcDbEntity
  8
0
 62
     7
420
 16777215
370
     9
100
AcDbVertex
100
AcDb2dVertex
 10
-194.1605984445389
 20
78.2881970860662
 30
0.0
  0
VERTEX
  5
76
330
40
100
AcDbEntity
  8
0
 62
     7
420
 16777215
370
     9
100
AcDbVertex
100
AcDb2dVertex
 10
-194.2543219045386
 20
78.3819230860673
 30
0.0
  0
VERTEX
  5
77
330
40
100
AcDbEntity
  8
0
 62
     7
420
 16777215
370
     9
100
AcDbVertex
100
AcDb2dVertex
 10
-194.2543219045386
 20
100.389471146066
 30
0.0
  0
VERTEX
  5
78
330
40
100
AcDbEntity
  8
0
 62
     7
420
 16777215
370
     9
100
AcDbVertex
100
AcDb2dVertex
 10
-194.1605984445389
 20
100.4831971460671
 30
0.0
  0
VERTEX
  5
79
330
40
100
AcDbEntity
  8
0
 62
     7
420
 16777215
370
     9
100
AcDbVertex
100
AcDb2dVertex
 10
-190.2543242842887
 20
100.4831971460671
 30
0.0
  0
VERTEX
  5
7A
330
40
100
AcDbEntity
  8
0
 62
     7
420
 16777215
370
     9
100
AcDbVertex
100
AcDb2dVertex
 10
-190.2543242842887
 20
122.0381959460668
 30
0.0
  0
VERTEX
  5
7B
330
40
100
AcDbEntity
  8
0
 62
     7
420
 16777215
370
     9
100
AcDbVertex
100
AcDb2dVertex
 10
-194.1605984445389
 20
122.0381959460668
 30
0.0
  0
VERTEX
  5
7C
330
40
100
AcDbEntity
  8
0
 62
     7
420
 16777215
370
     9
100
AcDbVertex
100
AcDb2dVertex
 10
-194.2543219045386
 20
122.1319219460666
 30
0.0
  0
VERTEX
  5
7D
330
40
100
AcDbEntity
  8
0
 62
     7
420
 16777215
370
     9
100
AcDbVertex
100
AcDb2dVertex
 10
-194.2543219045386
 20
144.1394700060666
 30
0.0
  0
VERTEX
  5
7E
330
40
100
AcDbEntity
  8
0
 62
     7
420
 16777215
370
     9
100
AcDbVertex
100
AcDb2dVertex
 10
-194.1605984445389
 20
144.2331960060664
 30
0.0
  0
VERTEX
  5
7F
330
40
100
AcDbEntity
  8
0
 62
     7
420
 16777215
370
     9
100
AcDbVertex
100
AcDb2dVertex
 10
-190.2543242842887
 20
144.2331960060664
 30
0.0
  0
VERTEX
  5
80
330
40
100
AcDbEntity
  8
0
 62
     7
420
 16777215
370
     9
100
AcDbVertex
100
AcDb2dVertex
 10
-190.2543242842887
 20
165.7881973460668
 30
0.0
  0
VERTEX
  5
81
330
40
100
AcDbEntity
  8
0
 62
     7
420
 16777215
370
     9
100
AcDbVertex
100
AcDb2dVertex
 10
-194.1605984445389
 20
165.7881973460668
 30
0.0
  0
VERTEX
  5
82
330
40
100
AcDbEntity
  8
0
 62
     7
420
 16777215
370
     9
100
AcDbVertex
100
AcDb2dVertex
 10
-194.2543219045386
 20
165.8819233460666
 30
0.0
  0
SEQEND
  5
83
330
40
100
AcDbEntity
  8
0
 62
     7
420
 16777215
370
     9
  0
POLYLINE
  5
84
330
1F
100
AcDbEntity
  8
0
 62
     7
420
 16777215
370
     9
100
AcDb2dPolyline
 66
     1
 10
0.0
 20
0.0
 30
0.0
  0
VERTEX
  5
85
330
84
100
AcDbEntity
  8
0
 62
     7
420
 16777215
370
     9
100
AcDbVertex
100
AcDb2dVertex
 10
27.84744991493647
 20
-71.94620582890647
 30
0.0
  0
VERTEX
  5
324
330
84
100
AcDbEntity
  8
0
100
AcDbVertex
100
AcDb2dVertex
 10
27.84744991493647
 20
-71.94620582890647
 30
0.0
  0
SEQEND
  5
86
330
84
100
AcDbEntity
  8
0
 62
     7
420
 16777215
370
     9
  0
POLYLINE
  5
87
330
1F
100
AcDbEntity
  8
0
 62
     7
420
 16777215
370
     9
100
AcDb2dPolyline
 66
     1
 10
0.0
 20
0.0
 30
0.0
  0
VERTEX
  5
88
330
87
100
AcDbEntity
  8
0
 62
     7
420
 16777215
370
     9
100
AcDbVertex
100
AcDb2dVertex
 10
25.46760890822521
 20
5.735697376066841
 30
0.0
  0
VERTEX
  5
89
330
87
100
AcDbEntity
  8
0
 62
     7
420
 16777215
370
     9
100
AcDbVertex
100
AcDb2dVertex
 10
-140.0973222242886
 20
5.735697376066841
 30
0.0
  0
SEQEND
  5
8A
330
87
100
AcDbEntity
  8
0
 62
     7
420
 16777215
370
     9
  0
POLYLINE
  5
8B
330
1F
100
AcDbEntity
  8
0
 62
     7
420
 16777215
370
     9
100
AcDb2dPolyline
 66
     1
 10
0.0
 20
0.0
 30
0.0
  0
VERTEX
  5
8C
330
8B
100
AcDbEntity
  8
0
 62
     7
420
 16777215
370
     9
100
AcDbVertex
100
AcDb2dVertex
 10
25.46760890822521
 20
5.735697376066841
 30
0.0
  0
VERTEX
  5
325
330
8B
100
AcDbEntity
  8
0
100
AcDbVertex
100
AcDb2dVertex
 10
25.46760890822521
 20
5.735697376066841
 30
0.0
  0
SEQEND
  5
8D
330
8B
100
AcDbEntity
  8
0
 62
     7
420
 16777215
370
     9
  0
POLYLINE
  5
8E
330
1F
100
AcDbEntity
  8
0
 62
     7
420
 16777215
370
     9
100
AcDb2dPolyline
 66
     1
 10
0.0
 20
0.0
 30
0.0
  0
VERTEX
  5
8F
330
8E
100
AcDbEntity
  8
0
 62
     7
420
 16777215
370
     9
100
AcDbVertex
100
AcDb2dVertex
 10
-140.0973222242886
 20
5.735697376066841
 30
0.0
  0
VERTEX
  5
326
330
8E
100
AcDbEntity
  8
0
100
AcDbVertex
100
AcDb2dVertex
 10
-140.0973222242886
 20
5.735697376066841
 30
0.0
  0
SEQEND
  5
90
330
8E
100
AcDbEntity
  8
0
 62
     7
420
 16777215
370
     9
  0
SPLINE
  5
91
330
1F
100
AcDbEntity
  8
0
 62
     7
420
 16777215
370
     9
100
AcDbSpline
210
0.0
220
0.0
230
1.0
 70
    11
 71
     3
 72
    20
 73
    16
 74
     0
 42
0.0000000001
 43
0.0000000001
 12
1.0
 22
0.0
 32
0.0
 13
1.0
 23
0.0
 33
0.0
 40
0.0
 40
0.0
 40
0.0
 40
0.0
 40
1.0
 40
1.0
 40
1.0
 40
2.0
 40
2.0
 40
2.0
 40
3.0
 40
3.0
 40
3.0
 40
4.0
 40
4.0
 40
4.0
 40
5.0
 40
5.0
 40
5.0
 40
5.0
 10
-135.1860351158553
 20
-15.16636431985941
 30
0.0
 10
-135.1860351158553
 20
-13.50951007036719
 30
0.0
 10
-133.8428893653481
 20
-12.16636431985995
 30
0.0
 10
-132.1860351158559
 20
-12.16636431985995
 30
0.0
 10
-130.5291808663636
 20
-12.16636431985995
 30
0.0
 10
-129.1860351158551
 20
-13.50951007036719
 30
0.0
 10
-129.1860351158551
 20
-15.16636431985941
 30
0.0
 10
-129.1860351158551
 20
-16.82321856935163
 30
0.0
 10
-130.5291808663636
 20
-18.16636431985888
 30
0.0
 10
-132.1860351158559
 20
-18.16636431985888
 30
0.0
 10
-133.8428893653481
 20
-18.16636431985888
 30
0.0
 10
-135.1860351158553
 20
-16.82321856935163
 30
0.0
 10
-135.1860351158553
 20
-15.16636431985941
 30
0.0
 10
-135.1860351158553
 20
-15.16636431985941
 30
0.0
 10
-135.1860351158553
 20
-15.16636431985941
 30
0.0
 10
-135.1860351158553
 20
-15.16636431985941
 30
0.0
  0
SPLINE
  5
92
330
1F
100
AcDbEntity
  8
0
 62
     7
420
 16777215
370
     9
100
AcDbSpline
210
0.0
220
0.0
230
1.0
 70
    11
 71
     3
 72
    20
 73
    16
 74
     0
 42
0.0000000001
 43
0.0000000001
 12
1.0
 22
0.0
 32
0.0
 13
1.0
 23
0.0
 33
0.0
 40
0.0
 40
0.0
 40
0.0
 40
0.0
 40
1.0
 40
1.0
 40
1.0
 40
2.0
 40
2.0
 40
2.0
 40
3.0
 40
3.0
 40
3.0
 40
4.0
 40
4.0
 40
4.0
 40
5.0
 40
5.0
 40
5.0
 40
5.0
 10
-129.1860351155805
 20
-63.16636431966474
 30
0.0
 10
-129.1860351155805
 20
-61.50951007017252
 30
0.0
 10
-127.842889365072
 20
-60.166364319664
 30
0.0
 10
-126.1860351155797
 20
-60.166364319664
 30
0.0
 10
-124.5291808660875
 20
-60.166364319664
 30
0.0
 10
-123.1860351155803
 20
-61.50951007017252
 30
0.0
 10
-123.1860351155803
 20
-63.16636431966474
 30
0.0
 10
-123.1860351155803
 20
-64.82321856915696
 30
0.0
 10
-124.5291808660875
 20
-66.16636431966421
 30
0.0
 10
-126.1860351155797
 20
-66.16636431966421
 30
0.0
 10
-127.842889365072
 20
-66.16636431966421
 30
0.0
 10
-129.1860351155805
 20
-64.82321856915696
 30
0.0
 10
-129.1860351155805
 20
-63.16636431966474
 30
0.0
 10
-129.1860351155805
 20
-63.16636431966474
 30
0.0
 10
-129.1860351155805
 20
-63.16636431966474
 30
0.0
 10
-129.1860351155805
 20
-63.16636431966474
 30
0.0
  0
POLYLINE
  5
93
330
1F
100
AcDbEntity
  8
0
 62
     7
420
 16777215
370
     9
100
AcDb2dPolyline
 66
     1
 10
0.0
 20
0.0
 30
0.0
  0
VERTEX
  5
94
330
93
100
AcDbEntity
  8
0
 62
     7
420
 16777215
370
     9
100
AcDbVertex
100
AcDb2dVertex
 10
-194.186035115834
 20
5.833635680338331
 30
0.0
  0
VERTEX
  5
327
330
93
100
AcDbEntity
  8
0
100
AcDbVertex
100
AcDb2dVertex
 10
-194.186035115834
 20
5.833635680338331
 30
0.0
  0
SEQEND
  5
95
330
93
100
AcDbEntity
  8
0
 62
     7
420
 16777215
370
     9
  0
SPLINE
  5
96
330
1F
100
AcDbEntity
  8
0
 62
     7
420
 16777215
370
     9
100
AcDbSpline
210
0.0
220
0.0
230
1.0
 70
    11
 71
     3
 72
    20
 73
    16
 74
     0
 42
0.0000000001
 43
0.0000000001
 12
1.0
 22
0.0
 32
0.0
 13
1.0
 23
0.0
 33
0.0
 40
0.0
 40
0.0
 40
0.0
 40
0.0
 40
1.0
 40
1.0
 40
1.0
 40
2.0
 40
2.0
 40
2.0
 40
3.0
 40
3.0
 40
3.0
 40
4.0
 40
4.0
 40
4.0
 40
5.0
 40
5.0
 40
5.0
 40
5.0
 10
-118.1860357226216
 20
-30.66636492662715
 30
0.0
 10
-118.1860357226216
 20
-29.83793780188168
 30
0.0
 10
-117.5144628473686
 20
-29.16636492662742
 30
0.0
 10
-116.6860357226219
 20
-29.16636492662742
 30
0.0
 10
-115.8576085978758
 20
-29.16636492662742
 30
0.0
 10
-115.1860357226221
 20
-29.83793780188168
 30
0.0
 10
-115.1860357226221
 20
-30.66636492662715
 30
0.0
 10
-115.1860357226221
 20
-31.4947920513739
 30
0.0
 10
-115.8576085978758
 20
-32.16636492662816
 30
0.0
 10
-116.6860357226219
 20
-32.16636492662816
 30
0.0
 10
-117.5144628473686
 20
-32.16636492662816
 30
0.0
 10
-118.1860357226216
 20
-31.4947920513739
 30
0.0
 10
-118.1860357226216
 20
-30.66636492662715
 30
0.0
 10
-118.1860357226216
 20
-30.66636492662715
 30
0.0
 10
-118.1860357226216
 20
-30.66636492662715
 30
0.0
 10
-118.1860357226216
 20
-30.66636492662715
 30
0.0
  0
SPLINE
  5
97
330
1F
100
AcDbEntity
  8
0
 62
     7
420
 16777215
370
     9
100
AcDbSpline
210
0.0
220
0.0
230
1.0
 70
    11
 71
     3
 72
    20
 73
    16
 74
     0
 42
0.0000000001
 43
0.0000000001
 12
1.0
 22
0.0
 32
0.0
 13
1.0
 23
0.0
 33
0.0
 40
0.0
 40
0.0
 40
0.0
 40
0.0
 40
1.0
 40
1.0
 40
1.0
 40
2.0
 40
2.0
 40
2.0
 40
3.0
 40
3.0
 40
3.0
 40
4.0
 40
4.0
 40
4.0
 40
5.0
 40
5.0
 40
5.0
 40
5.0
 10
-177.1860351153845
 20
-57.16636431938988
 30
0.0
 10
-177.1860351153845
 20
-55.50951006989767
 30
0.0
 10
-175.8428893648766
 20
-54.16636431939042
 30
0.0
 10
-174.1860351153838
 20
-54.16636431939042
 30
0.0
 10
-172.5291808658916
 20
-54.16636431939042
 30
0.0
 10
-171.1860351153843
 20
-55.50951006989767
 30
0.0
 10
-171.1860351153843
 20
-57.16636431938988
 30
0.0
 10
-171.1860351153843
 20
-58.82321856888211
 30
0.0
 10
-172.5291808658916
 20
-60.16636431938935
 30
0.0
 10
-174.1860351153838
 20
-60.16636431938935
 30
0.0
 10
-175.8428893648766
 20
-60.16636431938935
 30
0.0
 10
-177.1860351153845
 20
-58.82321856888211
 30
0.0
 10
-177.1860351153845
 20
-57.16636431938988
 30
0.0
 10
-177.1860351153845
 20
-57.16636431938988
 30
0.0
 10
-177.1860351153845
 20
-57.16636431938988
 30
0.0
 10
-177.1860351153845
 20
-57.16636431938988
 30
0.0
  0
SPLINE
  5
98
330
1F
100
AcDbEntity
  8
0
 62
     7
420
 16777215
370
     9
100
AcDbSpline
210
0.0
220
0.0
230
1.0
 70
    11
 71
     3
 72
    20
 73
    16
 74
     0
 42
0.0000000001
 43
0.0000000001
 12
1.0
 22
0.0
 32
0.0
 13
1.0
 23
0.0
 33
0.0
 40
0.0
 40
0.0
 40
0.0
 40
0.0
 40
1.0
 40
1.0
 40
1.0
 40
2.0
 40
2.0
 40
2.0
 40
3.0
 40
3.0
 40
3.0
 40
4.0
 40
4.0
 40
4.0
 40
5.0
 40
5.0
 40
5.0
 40
5.0
 10
-149.186034509087
 20
-30.66636371309085
 30
0.0
 10
-149.186034509087
 20
-29.83793658834538
 30
0.0
 10
-148.5144616338334
 20
-29.16636371309111
 30
0.0
 10
-147.6860345090873
 20
-29.16636371309111
 30
0.0
 10
-146.8576073843412
 20
-29.16636371309111
 30
0.0
 10
-146.1860345090876
 20
-29.83793658834538
 30
0.0
 10
-146.1860345090876
 20
-30.66636371309085
 30
0.0
 10
-146.1860345090876
 20
-31.4947908378376
 30
0.0
 10
-146.8576073843412
 20
-32.16636371309186
 30
0.0
 10
-147.6860345090873
 20
-32.16636371309186
 30
0.0
 10
-148.5144616338334
 20
-32.16636371309186
 30
0.0
 10
-149.186034509087
 20
-31.4947908378376
 30
0.0
 10
-149.186034509087
 20
-30.66636371309085
 30
0.0
 10
-149.186034509087
 20
-30.66636371309085
 30
0.0
 10
-149.186034509087
 20
-30.66636371309085
 30
0.0
 10
-149.186034509087
 20
-30.66636371309085
 30
0.0
  0
SPLINE
  5
99
330
1F
100
AcDbEntity
  8
0
 62
     7
420
 16777215
370
     9
100
AcDbSpline
210
0.0
220
0.0
230
1.0
 70
    11
 71
     3
 72
    20
 73
    16
 74
     0
 42
0.0000000001
 43
0.0000000001
 12
1.0
 22
0.0
 32
0.0
 13
1.0
 23
0.0
 33
0.0
 40
0.0
 40
0.0
 40
0.0
 40
0.0
 40
1.0
 40
1.0
 40
1.0
 40
2.0
 40
2.0
 40
2.0
 40
3.0
 40
3.0
 40
3.0
 40
4.0
 40
4.0
 40
4.0
 40
5.0
 40
5.0
 40
5.0
 40
5.0
 10
-149.186034509087
 20
0.333636286908325
 30
0.0
 10
-149.186034509087
 20
1.162063411655079
 30
0.0
 10
-148.5144616338334
 20
1.833636286908057
 30
0.0
 10
-147.6860345090873
 20
1.833636286908057
 30
0.0
 10
-146.8576073843412
 20
1.833636286908057
 30
0.0
 10
-146.1860345090876
 20
1.162063411655079
 30
0.0
 10
-146.1860345090876
 20
0.333636286908325
 30
0.0
 10
-146.1860345090876
 20
-0.4947908378371455
 30
0.0
 10
-146.8576073843412
 20
-1.166363713091407
 30
0.0
 10
-147.6860345090873
 20
-1.166363713091407
 30
0.0
 10
-148.5144616338334
 20
-1.166363713091407
 30
0.0
 10
-149.186034509087
 20
-0.4947908378371455
 30
0.0
 10
-149.186034509087
 20
0.333636286908325
 30
0.0
 10
-149.186034509087
 20
0.333636286908325
 30
0.0
 10
-149.186034509087
 20
0.333636286908325
 30
0.0
 10
-149.186034509087
 20
0.333636286908325
 30
0.0
  0
SPLINE
  5
9A
330
1F
100
AcDbEntity
  8
0
 62
     7
420
 16777215
370
     9
100
AcDbSpline
210
0.0
220
0.0
230
1.0
 70
    11
 71
     3
 72
    20
 73
    16
 74
     0
 42
0.0000000001
 43
0.0000000001
 12
1.0
 22
0.0
 32
0.0
 13
1.0
 23
0.0
 33
0.0
 40
0.0
 40
0.0
 40
0.0
 40
0.0
 40
1.0
 40
1.0
 40
1.0
 40
2.0
 40
2.0
 40
2.0
 40
3.0
 40
3.0
 40
3.0
 40
4.0
 40
4.0
 40
4.0
 40
5.0
 40
5.0
 40
5.0
 40
5.0
 10
-183.1860351156594
 20
-9.166364319578136
 30
0.0
 10
-183.1860351156594
 20
-7.509510070085911
 30
0.0
 10
-181.8428893651521
 20
-6.166364319577388
 30
0.0
 10
-180.1860351156599
 20
-6.166364319577388
 30
0.0
 10
-178.5291808661677
 20
-6.166364319577388
 30
0.0
 10
-177.1860351156598
 20
-7.509510070085911
 30
0.0
 10
-177.1860351156598
 20
-9.166364319578136
 30
0.0
 10
-177.1860351156598
 20
-10.82321856907036
 30
0.0
 10
-178.5291808661677
 20
-12.1663643195776
 30
0.0
 10
-180.1860351156599
 20
-12.1663643195776
 30
0.0
 10
-181.8428893651521
 20
-12.1663643195776
 30
0.0
 10
-183.1860351156594
 20
-10.82321856907036
 30
0.0
 10
-183.1860351156594
 20
-9.166364319578136
 30
0.0
 10
-183.1860351156594
 20
-9.166364319578136
 30
0.0
 10
-183.1860351156594
 20
-9.166364319578136
 30
0.0
 10
-183.1860351156594
 20
-9.166364319578136
 30
0.0
  0
SPLINE
  5
9B
330
1F
100
AcDbEntity
  8
0
 62
     7
420
 16777215
370
     9
100
AcDbSpline
210
0.0
220
0.0
230
1.0
 70
    11
 71
     3
 72
    20
 73
    16
 74
     0
 42
0.0000000001
 43
0.0000000001
 12
1.0
 22
0.0
 32
0.0
 13
1.0
 23
0.0
 33
0.0
 40
0.0
 40
0.0
 40
0.0
 40
0.0
 40
1.0
 40
1.0
 40
1.0
 40
2.0
 40
2.0
 40
2.0
 40
3.0
 40
3.0
 40
3.0
 40
4.0
 40
4.0
 40
4.0
 40
5.0
 40
5.0
 40
5.0
 40
5.0
 10
-118.1860345090846
 20
0.3336362869121752
 30
0.0
 10
-118.1860345090846
 20
1.162063411657646
 30
0.0
 10
-117.514461633831
 20
1.833636286911907
 30
0.0
 10
-116.6860345090843
 20
1.833636286911907
 30
0.0
 10
-115.8576073843388
 20
1.833636286911907
 30
0.0
 10
-115.1860345090845
 20
1.162063411657646
 30
0.0
 10
-115.1860345090845
 20
0.3336362869121752
 30
0.0
 10
-115.1860345090845
 20
-0.4947908378345787
 30
0.0
 10
-115.8576073843388
 20
-1.16636371308884
 30
0.0
 10
-116.6860345090843
 20
-1.16636371308884
 30
0.0
 10
-117.514461633831
 20
-1.16636371308884
 30
0.0
 10
-118.1860345090846
 20
-0.4947908378345787
 30
0.0
 10
-118.1860345090846
 20
0.3336362869121752
 30
0.0
 10
-118.1860345090846
 20
0.3336362869121752
 30
0.0
 10
-118.1860345090846
 20
0.3336362869121752
 30
0.0
 10
-118.1860345090846
 20
0.3336362869121752
 30
0.0
  0
POLYLINE
  5
9C
330
1F
100
AcDbEntity
  8
0
 62
     7
420
 16777215
370
     9
100
AcDb2dPolyline
 66
     1
 10
0.0
 20
0.0
 30
0.0
  0
VERTEX
  5
9D
330
9C
100
AcDbEntity
  8
0
 62
     7
420
 16777215
370
     9
100
AcDbVertex
100
AcDb2dVertex
 10
34.89444329596316
 20
-43.3714421046531
 30
0.0
  0
VERTEX
  5
9E
330
9C
100
AcDbEntity
  8
0
 62
     7
420
 16777215
370
     9
100
AcDbVertex
100
AcDb2dVertex
 10
34.88919952736735
 20
-24.26430688778947
 30
0.0
  0
SEQEND
  5
9F
330
9C
100
AcDbEntity
  8
0
 62
     7
420
 16777215
370
     9
  0
POLYLINE
  5
A0
330
1F
100
AcDbEntity
  8
0
 62
     7
420
 16777215
370
     9
100
AcDb2dPolyline
 66
     1
 10
0.0
 20
0.0
 30
0.0
  0
VERTEX
  5
A1
330
A0
100
AcDbEntity
  8
0
 62
     7
420
 16777215
370
     9
100
AcDbVertex
100
AcDb2dVertex
 10
39.89855971238795
 20
-43.37006877326627
 30
0.0
  0
VERTEX
  5
A2
330
A0
100
AcDbEntity
  8
0
 62
     7
420
 16777215
370
     9
100
AcDbVertex
100
AcDb2dVertex
 10
34.89444329596316
 20
-43.3714421046531
 30
0.0
  0
SEQEND
  5
A3
330
A0
100
AcDbEntity
  8
0
 62
     7
420
 16777215
370
     9
  0
POLYLINE
  5
A4
330
1F
100
AcDbEntity
  8
0
 62
     7
420
 16777215
370
     9
100
AcDb2dPolyline
 66
     1
 10
0.0
 20
0.0
 30
0.0
  0
VERTEX
  5
A5
330
A4
100
AcDbEntity
  8
0
 62
     7
420
 16777215
370
     9
100
AcDbVertex
100
AcDb2dVertex
 10
29.90679456887838
 20
-24.26567426067731
 30
0.0
  0
VERTEX
  5
A6
330
A4
100
AcDbEntity
  8
0
 62
     7
420
 16777215
370
     9
100
AcDbVertex
100
AcDb2dVertex
 10
34.88919952736735
 20
-24.26430688778947
 30
0.0
  0
SEQEND
  5
A7
330
A4
100
AcDbEntity
  8
0
 62
     7
420
 16777215
370
     9
  0
POLYLINE
  5
A8
330
1F
100
AcDbEntity
  8
0
 62
     7
420
 16777215
370
     9
100
AcDb2dPolyline
 66
     1
 10
0.0
 20
0.0
 30
0.0
  0
VERTEX
  5
A9
330
A8
100
AcDbEntity
  8
0
 62
     7
420
 16777215
370
     9
100
AcDbVertex
100
AcDb2dVertex
 10
34.90267650571175
 20
-58.37144097489178
 30
0.0
  0
VERTEX
  5
AA
330
A8
100
AcDbEntity
  8
0
 62
     7
420
 16777215
370
     9
100
AcDbVertex
100
AcDb2dVertex
 10
39.90267631741754
 20
-58.37006877326615
 30
0.0
  0
SEQEND
  5
AB
330
A8
100
AcDbEntity
  8
0
 62
     7
420
 16777215
370
     9
  0
POLYLINE
  5
AC
330
1F
100
AcDbEntity
  8
0
 62
     7
420
 16777215
370
     9
100
AcDb2dPolyline
 66
     1
 10
0.0
 20
0.0
 30
0.0
  0
VERTEX
  5
AD
330
AC
100
AcDbEntity
  8
0
 62
     7
420
 16777215
370
     9
100
AcDbVertex
100
AcDb2dVertex
 10
34.90267777571115
 20
-9.26430262393433
 30
0.0
  0
VERTEX
  5
AE
330
AC
100
AcDbEntity
  8
0
 62
     7
420
 16777215
370
     9
100
AcDbVertex
100
AcDb2dVertex
 10
29.90267796400473
 20
-9.265674825558667
 30
0.0
  0
SEQEND
  5
AF
330
AC
100
AcDbEntity
  8
0
 62
     7
420
 16777215
370
     9
  0
POLYLINE
  5
B0
330
1F
100
AcDbEntity
  8
0
 62
     7
420
 16777215
370
     9
100
AcDb2dPolyline
 66
     1
 10
0.0
 20
0.0
 30
0.0
  0
VERTEX
  5
B1
330
B0
100
AcDbEntity
  8
0
 62
     7
420
 16777215
370
     9
100
AcDbVertex
100
AcDb2dVertex
 10
39.90267631741754
 20
-58.37006877326615
 30
0.0
  0
VERTEX
  5
B2
330
B0
100
AcDbEntity
  8
0
 62
     7
420
 16777215
370
     9
100
AcDbVertex
100
AcDb2dVertex
 10
39.89855971238795
 20
-43.37006877326627
 30
0.0
  0
SEQEND
  5
B3
330
B0
100
AcDbEntity
  8
0
 62
     7
420
 16777215
370
     9
  0
POLYLINE
  5
B4
330
1F
100
AcDbEntity
  8
0
 62
     7
420
 16777215
370
     9
100
AcDb2dPolyline
 66
     1
 10
0.0
 20
0.0
 30
0.0
  0
VERTEX
  5
B5
330
B4
100
AcDbEntity
  8
0
 62
     7
420
 16777215
370
     9
100
AcDbVertex
100
AcDb2dVertex
 10
29.90267796400473
 20
-9.265674825558667
 30
0.0
  0
VERTEX
  5
B6
330
B4
100
AcDbEntity
  8
0
 62
     7
420
 16777215
370
     9
100
AcDbVertex
100
AcDb2dVertex
 10
29.90679456887838
 20
-24.26567426067731
 30
0.0
  0
SEQEND
  5
B7
330
B4
100
AcDbEntity
  8
0
 62
     7
420
 16777215
370
     9
  0
POLYLINE
  5
B8
330
1F
100
AcDbEntity
  8
0
 62
     7
420
 16777215
370
     9
100
AcDb2dPolyline
 66
     1
 10
0.0
 20
0.0
 30
0.0
  0
VERTEX
  5
B9
330
B8
100
AcDbEntity
  8
0
 62
     7
420
 16777215
370
     9
100
AcDbVertex
100
AcDb2dVertex
 10
34.90267777571115
 20
5.735697376066841
 30
0.0
  0
VERTEX
  5
BA
330
B8
100
AcDbEntity
  8
0
 62
     7
420
 16777215
370
     9
100
AcDbVertex
100
AcDb2dVertex
 10
34.90267777571115
 20
-9.26430262393433
 30
0.0
  0
SEQEND
  5
BB
330
B8
100
AcDbEntity
  8
0
 62
     7
420
 16777215
370
     9
  0
POLYLINE
  5
BC
330
1F
100
AcDbEntity
  8
0
 62
     7
420
 16777215
370
     9
100
AcDb2dPolyline
 66
     1
 10
0.0
 20
0.0
 30
0.0
  0
VERTEX
  5
BD
330
BC
100
AcDbEntity
  8
0
 62
     7
420
 16777215
370
     9
100
AcDbVertex
100
AcDb2dVertex
 10
34.90267650571175
 20
-71.94525925168585
 30
0.0
  0
VERTEX
  5
BE
330
BC
100
AcDbEntity
  8
0
 62
     7
420
 16777215
370
     9
100
AcDbVertex
100
AcDb2dVertex
 10
34.90267650571175
 20
-58.37144097489178
 30
0.0
  0
SEQEND
  5
BF
330
BC
100
AcDbEntity
  8
0
 62
     7
420
 16777215
370
     9
  0
POLYLINE
  5
C0
330
1F
100
AcDbEntity
  8
0
 62
     7
420
 16777215
370
     9
100
AcDb2dPolyline
 66
     1
 10
0.0
 20
0.0
 30
0.0
  0
VERTEX
  5
C1
330
C0
100
AcDbEntity
  8
0
 62
     7
420
 16777215
370
     9
100
AcDbVertex
100
AcDb2dVertex
 10
-194.2543219045386
 20
176.8856973760666
 30
0.0
  0
VERTEX
  5
C2
330
C0
100
AcDbEntity
  8
0
 62
     7
420
 16777215
370
     9
100
AcDbVertex
100
AcDb2dVertex
 10
-185.254321904289
 20
176.8856973760666
 30
0.0
  0
SEQEND
  5
C3
330
C0
100
AcDbEntity
  8
0
 62
     7
420
 16777215
370
     9
  0
POLYLINE
  5
C4
330
1F
100
AcDbEntity
  8
0
 62
     7
420
 16777215
370
     9
100
AcDb2dPolyline
 66
     1
 10
0.0
 20
0.0
 30
0.0
  0
VERTEX
  5
C5
330
C4
100
AcDbEntity
  8
0
 62
     7
420
 16777215
370
     9
100
AcDbVertex
100
AcDb2dVertex
 10
-185.254321904289
 20
176.8856973760666
 30
0.0
  0
VERTEX
  5
C6
330
C4
100
AcDbEntity
  8
0
 62
     7
420
 16777215
370
     9
100
AcDbVertex
100
AcDb2dVertex
 10
-185.254321904289
 20
171.8856973760671
 30
0.0
  0
SEQEND
  5
C7
330
C4
100
AcDbEntity
  8
0
 62
     7
420
 16777215
370
     9
  0
POLYLINE
  5
C8
330
1F
100
AcDbEntity
  8
0
 62
     7
420
 16777215
370
     9
100
AcDb2dPolyline
 66
     1
 10
0.0
 20
0.0
 30
0.0
  0
VERTEX
  5
C9
330
C8
100
AcDbEntity
  8
0
 62
     7
420
 16777215
370
     9
100
AcDbVertex
100
AcDb2dVertex
 10
-140.0973222242886
 20
176.8856973760666
 30
0.0
  0
VERTEX
  5
CA
330
C8
100
AcDbEntity
  8
0
 62
     7
420
 16777215
370
     9
100
AcDbVertex
100
AcDb2dVertex
 10
-150.0973222242889
 20
176.8856973760666
 30
0.0
  0
SEQEND
  5
CB
330
C8
100
AcDbEntity
  8
0
 62
     7
420
 16777215
370
     9
  0
POLYLINE
  5
CC
330
1F
100
AcDbEntity
  8
0
 62
     7
420
 16777215
370
     9
100
AcDb2dPolyline
 66
     1
 10
0.0
 20
0.0
 30
0.0
  0
VERTEX
  5
CD
330
CC
100
AcDbEntity
  8
0
 62
     7
420
 16777215
370
     9
100
AcDbVertex
100
AcDb2dVertex
 10
-150.0973222242889
 20
176.8856973760666
 30
0.0
  0
VERTEX
  5
CE
330
CC
100
AcDbEntity
  8
0
 62
     7
420
 16777215
370
     9
100
AcDbVertex
100
AcDb2dVertex
 10
-150.0973222242889
 20
181.8856973760668
 30
0.0
  0
SEQEND
  5
CF
330
CC
100
AcDbEntity
  8
0
 62
     7
420
 16777215
370
     9
  0
POLYLINE
  5
D0
330
1F
100
AcDbEntity
  8
0
 62
     7
420
 16777215
370
     9
100
AcDb2dPolyline
 66
     1
 10
0.0
 20
0.0
 30
0.0
  0
VERTEX
  5
D1
330
D0
100
AcDbEntity
  8
0
 62
     7
420
 16777215
370
     9
100
AcDbVertex
100
AcDb2dVertex
 10
-185.254321904289
 20
171.8856973760671
 30
0.0
  0
VERTEX
  5
D2
330
D0
100
AcDbEntity
  8
0
 62
     7
420
 16777215
370
     9
100
AcDbVertex
100
AcDb2dVertex
 10
-175.2543219042886
 20
171.8856973760671
 30
0.0
  0
SEQEND
  5
D3
330
D0
100
AcDbEntity
  8
0
 62
     7
420
 16777215
370
     9
  0
POLYLINE
  5
D4
330
1F
100
AcDbEntity
  8
0
 62
     7
420
 16777215
370
     9
100
AcDb2dPolyline
 66
     1
 10
0.0
 20
0.0
 30
0.0
  0
VERTEX
  5
D5
330
D4
100
AcDbEntity
  8
0
 62
     7
420
 16777215
370
     9
100
AcDbVertex
100
AcDb2dVertex
 10
-150.0973222242889
 20
181.8856973760668
 30
0.0
  0
VERTEX
  5
D6
330
D4
100
AcDbEntity
  8
0
 62
     7
420
 16777215
370
     9
100
AcDbVertex
100
AcDb2dVertex
 10
-160.0973222242893
 20
181.8856973760668
 30
0.0
  0
SEQEND
  5
D7
330
D4
100
AcDbEntity
  8
0
 62
     7
420
 16777215
370
     9
  0
POLYLINE
  5
D8
330
1F
100
AcDbEntity
  8
0
 62
     7
420
 16777215
370
     9
100
AcDb2dPolyline
 66
     1
 10
0.0
 20
0.0
 30
0.0
  0
VERTEX
  5
D9
330
D8
100
AcDbEntity
  8
0
 62
     7
420
 16777215
370
     9
100
AcDbVertex
100
AcDb2dVertex
 10
-175.2543219042886
 20
171.8856973760671
 30
0.0
  0
VERTEX
  5
DA
330
D8
100
AcDbEntity
  8
0
 62
     7
420
 16777215
370
     9
100
AcDbVertex
100
AcDb2dVertex
 10
-175.2543219042886
 20
176.8856973760666
 30
0.0
  0
SEQEND
  5
DB
330
D8
100
AcDbEntity
  8
0
 62
     7
420
 16777215
370
     9
  0
POLYLINE
  5
DC
330
1F
100
AcDbEntity
  8
0
 62
     7
420
 16777215
370
     9
100
AcDb2dPolyline
 66
     1
 10
0.0
 20
0.0
 30
0.0
  0
VERTEX
  5
DD
330
DC
100
AcDbEntity
  8
0
 62
     7
420
 16777215
370
     9
100
AcDbVertex
100
AcDb2dVertex
 10
-160.0973222242893
 20
181.8856973760668
 30
0.0
  0
VERTEX
  5
DE
330
DC
100
AcDbEntity
  8
0
 62
     7
420
 16777215
370
     9
100
AcDbVertex
100
AcDb2dVertex
 10
-160.0973222242893
 20
176.8856973760666
 30
0.0
  0
SEQEND
  5
DF
330
DC
100
AcDbEntity
  8
0
 62
     7
420
 16777215
370
     9
  0
POLYLINE
  5
E0
330
1F
100
AcDbEntity
  8
0
 62
     7
420
 16777215
370
     9
100
AcDb2dPolyline
 66
     1
 10
0.0
 20
0.0
 30
0.0
  0
VERTEX
  5
E1
330
E0
100
AcDbEntity
  8
0
 62
     7
420
 16777215
370
     9
100
AcDbVertex
100
AcDb2dVertex
 10
-175.2543219042886
 20
176.8856973760666
 30
0.0
  0
VERTEX
  5
E2
330
E0
100
AcDbEntity
  8
0
 62
     7
420
 16777215
370
     9
100
AcDbVertex
100
AcDb2dVertex
 10
-160.0973222242893
 20
176.8856973760666
 30
0.0
  0
SEQEND
  5
E3
330
E0
100
AcDbEntity
  8
0
 62
     7
420
 16777215
370
     9
  0
POLYLINE
  5
E4
330
1F
100
AcDbEntity
  8
0
 62
     7
420
 16777215
370
     9
100
AcDb2dPolyline
 66
     1
 10
0.0
 20
0.0
 30
0.0
  0
VERTEX
  5
E5
330
E4
100
AcDbEntity
  8
0
 62
     7
420
 16777215
370
     9
100
AcDbVertex
100
AcDb2dVertex
 10
-194.2543219045386
 20
165.8819233460666
 30
0.0
  0
VERTEX
  5
E6
330
E4
100
AcDbEntity
  8
0
 62
     7
420
 16777215
370
     9
100
AcDbVertex
100
AcDb2dVertex
 10
-194.2543219045386
 20
176.8856973760666
 30
0.0
  0
SEQEND
  5
E7
330
E4
100
AcDbEntity
  8
0
 62
     7
420
 16777215
370
     9
  0
POLYLINE
  5
E8
330
1F
100
AcDbEntity
  8
0
 62
     7
420
 16777215
370
     9
100
AcDb2dPolyline
 66
     1
 10
0.0
 20
0.0
 30
0.0
  0
VERTEX
  5
E9
330
E8
100
AcDbEntity
  8
0
 62
     7
420
 16777215
370
     9
100
AcDbVertex
100
AcDb2dVertex
 10
-140.0973222242886
 20
176.8856973760666
 30
0.0
  0
VERTEX
  5
EA
330
E8
100
AcDbEntity
  8
0
 62
     7
420
 16777215
370
     9
100
AcDbVertex
100
AcDb2dVertex
 10
-140.0973222242886
 20
5.735697376066841
 30
0.0
  0
SEQEND
  5
EB
330
E8
100
AcDbEntity
  8
0
 62
     7
420
 16777215
370
     9
  0
POLYLINE
  5
EC
330
1F
100
AcDbEntity
  8
0
 62
     7
420
 16777215
370
     9
100
AcDb2dPolyline
 66
     1
 10
0.0
 20
0.0
 30
0.0
  0
VERTEX
  5
ED
330
EC
100
AcDbEntity
  8
0
 62
     7
420
 16777215
370
     9
100
AcDbVertex
100
AcDb2dVertex
 10
25.46760890822521
 20
5.735697376066841
 30
0.0
  0
VERTEX
  5
EE
330
EC
100
AcDbEntity
  8
0
 62
     7
420
 16777215
370
     9
100
AcDbVertex
100
AcDb2dVertex
 10
34.90267777571115
 20
5.735697376066841
 30
0.0
  0
SEQEND
  5
EF
330
EC
100
AcDbEntity
  8
0
 62
     7
420
 16777215
370
     9
  0
POLYLINE
  5
F0
330
1F
100
AcDbEntity
  8
0
 62
     7
420
 16777215
370
     9
100
AcDb2dPolyline
 66
     1
 10
0.0
 20
0.0
 30
0.0
  0
VERTEX
  5
F1
330
F0
100
AcDbEntity
  8
0
 62
     7
420
 16777215
370
     9
100
AcDbVertex
100
AcDb2dVertex
 10
27.84744991493647
 20
-71.94620582890647
 30
0.0
  0
VERTEX
  5
F2
330
F0
100
AcDbEntity
  8
0
 62
     7
420
 16777215
370
     9
100
AcDbVertex
100
AcDb2dVertex
 10
34.90267650571175
 20
-71.94525925168585
 30
0.0
  0
SEQEND
  5
F3
330
F0
100
AcDbEntity
  8
0
 62
     7
420
 16777215
370
     9
  0
POLYLINE
  5
F4
330
1F
100
AcDbEntity
  8
0
 62
     7
420
 16777215
370
     9
100
AcDb2dPolyline
 66
     1
 10
0.0
 20
0.0
 30
0.0
  0
VERTEX
  5
F5
330
F4
100
AcDbEntity
  8
0
 62
     7
420
 16777215
370
     9
100
AcDbVertex
100
AcDb2dVertex
 10
-125.1860348322789
 20
174.4908651148707
 30
0.0
  0
VERTEX
  5
328
330
F4
100
AcDbEntity
  8
0
100
AcDbVertex
100
AcDb2dVertex
 10
-125.1860348322789
 20
174.4908651148707
 30
0.0
  0
SEQEND
  5
F6
330
F4
100
AcDbEntity
  8
0
 62
     7
420
 16777215
370
     9
  0
POLYLINE
  5
F7
330
1F
100
AcDbEntity
  8
0
 62
     7
420
 16777215
370
     9
100
AcDb2dPolyline
 66
     1
 10
0.0
 20
0.0
 30
0.0
  0
VERTEX
  5
F8
330
F7
100
AcDbEntity
  8
0
 62
     7
420
 16777215
370
     9
100
AcDbVertex
100
AcDb2dVertex
 10
98.97096437610087
 20
-67.34308749333994
 30
0.0
  0
VERTEX
  5
329
330
F7
100
AcDbEntity
  8
0
100
AcDbVertex
100
AcDb2dVertex
 10
98.97096437610087
 20
-67.34308749333994
 30
0.0
  0
SEQEND
  5
F9
330
F7
100
AcDbEntity
  8
0
 62
     7
420
 16777215
370
     9
  0
POLYLINE
  5
FA
330
1F
100
AcDbEntity
  8
0
 62
     7
420
 16777215
370
     9
100
AcDb2dPolyline
 66
     1
 10
0.0
 20
0.0
 30
0.0
  0
VERTEX
  5
FB
330
FA
100
AcDbEntity
  8
0
 62
     7
420
 16777215
370
     9
100
AcDbVertex
100
AcDb2dVertex
 10
-125.1860348322789
 20
174.4908651148707
 30
0.0
  0
VERTEX
  5
FC
330
FA
100
AcDbEntity
  8
0
 62
     7
420
 16777215
370
     9
100
AcDbVertex
100
AcDb2dVertex
 10
-119.4080114487527
 20
174.4892793921961
 30
0.0
  0
VERTEX
  5
FD
330
FA
100
AcDbEntity
  8
0
 62
     7
420
 16777215
370
     9
100
AcDbVertex
100
AcDb2dVertex
 10
-119.4079938143241
 20
178.2925134147629
 30
0.0
  0
VERTEX
  5
FE
330
FA
100
AcDbEntity
  8
0
 62
     7
420
 16777215
370
     9
100
AcDbVertex
100
AcDb2dVertex
 10
-119.3148099041486
 20
178.3856973763166
 30
0.0
  0
VERTEX
  5
FF
330
FA
100
AcDbEntity
  8
0
 62
     7
420
 16777215
370
     9
100
AcDbVertex
100
AcDb2dVertex
 10
-97.30726184414927
 20
178.3856973763166
 30
0.0
  0
VERTEX
  5
100
330
FA
100
AcDbEntity
  8
0
 62
     7
420
 16777215
370
     9
100
AcDbVertex
100
AcDb2dVertex
 10
-97.21353584414815
 20
178.2919713763168
 30
0.0
  0
VERTEX
  5
101
330
FA
100
AcDbEntity
  8
0
 62
     7
420
 16777215
370
     9
100
AcDbVertex
100
AcDb2dVertex
 10
-97.21353584414815
 20
174.3856972160666
 30
0.0
  0
VERTEX
  5
102
330
FA
100
AcDbEntity
  8
0
 62
     7
420
 16777215
370
     9
100
AcDbVertex
100
AcDb2dVertex
 10
-75.65853704414849
 20
174.3856972160666
 30
0.0
  0
VERTEX
  5
103
330
FA
100
AcDbEntity
  8
0
 62
     7
420
 16777215
370
     9
100
AcDbVertex
100
AcDb2dVertex
 10
-75.65853704414849
 20
178.2919713763168
 30
0.0
  0
VERTEX
  5
104
330
FA
100
AcDbEntity
  8
0
 62
     7
420
 16777215
370
     9
100
AcDbVertex
100
AcDb2dVertex
 10
-75.56481104414867
 20
178.3856973763166
 30
0.0
  0
VERTEX
  5
105
330
FA
100
AcDbEntity
  8
0
 62
     7
420
 16777215
370
     9
100
AcDbVertex
100
AcDb2dVertex
 10
-53.55726298414869
 20
178.3856973763166
 30
0.0
  0
VERTEX
  5
106
330
FA
100
AcDbEntity
  8
0
 62
     7
420
 16777215
370
     9
100
AcDbVertex
100
AcDb2dVertex
 10
-53.46353698414886
 20
178.2919713763168
 30
0.0
  0
VERTEX
  5
107
330
FA
100
AcDbEntity
  8
0
 62
     7
420
 16777215
370
     9
100
AcDbVertex
100
AcDb2dVertex
 10
-53.46353698414886
 20
174.3856972160666
 30
0.0
  0
VERTEX
  5
108
330
FA
100
AcDbEntity
  8
0
 62
     7
420
 16777215
370
     9
100
AcDbVertex
100
AcDb2dVertex
 10
-31.9085356441491
 20
174.3856972160666
 30
0.0
  0
VERTEX
  5
109
330
FA
100
AcDbEntity
  8
0
 62
     7
420
 16777215
370
     9
100
AcDbVertex
100
AcDb2dVertex
 10
-31.9085356441491
 20
178.2919713763168
 30
0.0
  0
VERTEX
  5
10A
330
FA
100
AcDbEntity
  8
0
 62
     7
420
 16777215
370
     9
100
AcDbVertex
100
AcDb2dVertex
 10
-31.81480964414928
 20
178.3856973763166
 30
0.0
  0
VERTEX
  5
10B
330
FA
100
AcDbEntity
  8
0
 62
     7
420
 16777215
370
     9
100
AcDbVertex
100
AcDb2dVertex
 10
-9.807261584149296
 20
178.3856973763166
 30
0.0
  0
VERTEX
  5
10C
330
FA
100
AcDbEntity
  8
0
 62
     7
420
 16777215
370
     9
100
AcDbVertex
100
AcDb2dVertex
 10
-9.713535584148193
 20
178.2919713763168
 30
0.0
  0
VERTEX
  5
10D
330
FA
100
AcDbEntity
  8
0
 62
     7
420
 16777215
370
     9
100
AcDbVertex
100
AcDb2dVertex
 10
-9.713535584148193
 20
174.3856972160666
 30
0.0
  0
VERTEX
  5
10E
330
FA
100
AcDbEntity
  8
0
 62
     7
420
 16777215
370
     9
100
AcDbVertex
100
AcDb2dVertex
 10
11.84146321585148
 20
174.3856972160666
 30
0.0
  0
VERTEX
  5
10F
330
FA
100
AcDbEntity
  8
0
 62
     7
420
 16777215
370
     9
100
AcDbVertex
100
AcDb2dVertex
 10
11.84146321585148
 20
178.2919713763168
 30
0.0
  0
VERTEX
  5
110
330
FA
100
AcDbEntity
  8
0
 62
     7
420
 16777215
370
     9
100
AcDbVertex
100
AcDb2dVertex
 10
11.9351892158513
 20
178.3856973763166
 30
0.0
  0
VERTEX
  5
111
330
FA
100
AcDbEntity
  8
0
 62
     7
420
 16777215
370
     9
100
AcDbVertex
100
AcDb2dVertex
 10
33.94273727585129
 20
178.3856973763166
 30
0.0
  0
VERTEX
  5
112
330
FA
100
AcDbEntity
  8
0
 62
     7
420
 16777215
370
     9
100
AcDbVertex
100
AcDb2dVertex
 10
34.0364632758511
 20
178.2919713763168
 30
0.0
  0
VERTEX
  5
113
330
FA
100
AcDbEntity
  8
0
 62
     7
420
 16777215
370
     9
100
AcDbVertex
100
AcDb2dVertex
 10
34.0364632758511
 20
174.3856972160666
 30
0.0
  0
VERTEX
  5
114
330
FA
100
AcDbEntity
  8
0
 62
     7
420
 16777215
370
     9
100
AcDbVertex
100
AcDb2dVertex
 10
55.59146461585087
 20
174.3856972160666
 30
0.0
  0
VERTEX
  5
115
330
FA
100
AcDbEntity
  8
0
 62
     7
420
 16777215
370
     9
100
AcDbVertex
100
AcDb2dVertex
 10
55.59146461585215
 20
178.2919713763168
 30
0.0
  0
VERTEX
  5
116
330
FA
100
AcDbEntity
  8
0
 62
     7
420
 16777215
370
     9
100
AcDbVertex
100
AcDb2dVertex
 10
55.68519061585197
 20
178.3856973763166
 30
0.0
  0
VERTEX
  5
117
330
FA
100
AcDbEntity
  8
0
 62
     7
420
 16777215
370
     9
100
AcDbVertex
100
AcDb2dVertex
 10
77.69273867585196
 20
178.3856973763166
 30
0.0
  0
VERTEX
  5
118
330
FA
100
AcDbEntity
  8
0
 62
     7
420
 16777215
370
     9
100
AcDbVertex
100
AcDb2dVertex
 10
77.78646467585178
 20
178.2919713763168
 30
0.0
  0
VERTEX
  5
119
330
FA
100
AcDbEntity
  8
0
 62
     7
420
 16777215
370
     9
100
AcDbVertex
100
AcDb2dVertex
 10
77.78646467585178
 20
174.3856972160666
 30
0.0
  0
VERTEX
  5
11A
330
FA
100
AcDbEntity
  8
0
 62
     7
420
 16777215
370
     9
100
AcDbVertex
100
AcDb2dVertex
 10
94.87723821585165
 20
174.3856972160666
 30
0.0
  0
VERTEX
  5
11B
330
FA
100
AcDbEntity
  8
0
 62
     7
420
 16777215
370
     9
100
AcDbVertex
100
AcDb2dVertex
 10
94.97096421585147
 20
174.2919712160668
 30
0.0
  0
VERTEX
  5
11C
330
FA
100
AcDbEntity
  8
0
 62
     7
420
 16777215
370
     9
100
AcDbVertex
100
AcDb2dVertex
 10
94.97096421585147
 20
154.0825983760668
 30
0.0
  0
VERTEX
  5
11D
330
FA
100
AcDbEntity
  8
0
 62
     7
420
 16777215
370
     9
100
AcDbVertex
100
AcDb2dVertex
 10
98.87723837610105
 20
154.0825983760668
 30
0.0
  0
VERTEX
  5
11E
330
FA
100
AcDbEntity
  8
0
 62
     7
420
 16777215
370
     9
100
AcDbVertex
100
AcDb2dVertex
 10
98.97096437610087
 20
153.988872376067
 30
0.0
  0
VERTEX
  5
11F
330
FA
100
AcDbEntity
  8
0
 62
     7
420
 16777215
370
     9
100
AcDbVertex
100
AcDb2dVertex
 10
98.97096437610087
 20
131.981324316067
 30
0.0
  0
VERTEX
  5
120
330
FA
100
AcDbEntity
  8
0
 62
     7
420
 16777215
370
     9
100
AcDbVertex
100
AcDb2dVertex
 10
98.87723837610105
 20
131.8875983160665
 30
0.0
  0
VERTEX
  5
121
330
FA
100
AcDbEntity
  8
0
 62
     7
420
 16777215
370
     9
100
AcDbVertex
100
AcDb2dVertex
 10
94.97096421585147
 20
131.8875983160665
 30
0.0
  0
VERTEX
  5
122
330
FA
100
AcDbEntity
  8
0
 62
     7
420
 16777215
370
     9
100
AcDbVertex
100
AcDb2dVertex
 10
94.97096421585147
 20
110.3325969760667
 30
0.0
  0
VERTEX
  5
123
330
FA
100
AcDbEntity
  8
0
 62
     7
420
 16777215
370
     9
100
AcDbVertex
100
AcDb2dVertex
 10
98.87723837610105
 20
110.3325969760667
 30
0.0
  0
VERTEX
  5
124
330
FA
100
AcDbEntity
  8
0
 62
     7
420
 16777215
370
     9
100
AcDbVertex
100
AcDb2dVertex
 10
98.97096437610087
 20
110.2388709760669
 30
0.0
  0
VERTEX
  5
125
330
FA
100
AcDbEntity
  8
0
 62
     7
420
 16777215
370
     9
100
AcDbVertex
100
AcDb2dVertex
 10
98.97096437610087
 20
88.23132291606694
 30
0.0
  0
VERTEX
  5
126
330
FA
100
AcDbEntity
  8
0
 62
     7
420
 16777215
370
     9
100
AcDbVertex
100
AcDb2dVertex
 10
98.87723837610105
 20
88.13759691606647
 30
0.0
  0
VERTEX
  5
127
330
FA
100
AcDbEntity
  8
0
 62
     7
420
 16777215
370
     9
100
AcDbVertex
100
AcDb2dVertex
 10
94.97096421585147
 20
88.13759691606647
 30
0.0
  0
VERTEX
  5
128
330
FA
100
AcDbEntity
  8
0
 62
     7
420
 16777215
370
     9
100
AcDbVertex
100
AcDb2dVertex
 10
94.97096421585147
 20
66.5825981160668
 30
0.0
  0
VERTEX
  5
129
330
FA
100
AcDbEntity
  8
0
 62
     7
420
 16777215
370
     9
100
AcDbVertex
100
AcDb2dVertex
 10
98.87723837610105
 20
66.5825981160668
 30
0.0
  0
VERTEX
  5
12A
330
FA
100
AcDbEntity
  8
0
 62
     7
420
 16777215
370
     9
100
AcDbVertex
100
AcDb2dVertex
 10
98.97096437610087
 20
66.48887211606635
 30
0.0
  0
VERTEX
  5
12B
330
FA
100
AcDbEntity
  8
0
 62
     7
420
 16777215
370
     9
100
AcDbVertex
100
AcDb2dVertex
 10
98.97096437610087
 20
44.48132405606636
 30
0.0
  0
VERTEX
  5
12C
330
FA
100
AcDbEntity
  8
0
 62
     7
420
 16777215
370
     9
100
AcDbVertex
100
AcDb2dVertex
 10
98.87723837610105
 20
44.38759805606654
 30
0.0
  0
VERTEX
  5
12D
330
FA
100
AcDbEntity
  8
0
 62
     7
420
 16777215
370
     9
100
AcDbVertex
100
AcDb2dVertex
 10
94.97096421585147
 20
44.38759805606654
 30
0.0
  0
VERTEX
  5
12E
330
FA
100
AcDbEntity
  8
0
 62
     7
420
 16777215
370
     9
100
AcDbVertex
100
AcDb2dVertex
 10
94.97096421585147
 20
22.83259925606687
 30
0.0
  0
VERTEX
  5
12F
330
FA
100
AcDbEntity
  8
0
 62
     7
420
 16777215
370
     9
100
AcDbVertex
100
AcDb2dVertex
 10
98.87723837610105
 20
22.83259925606687
 30
0.0
  0
VERTEX
  5
130
330
FA
100
AcDbEntity
  8
0
 62
     7
420
 16777215
370
     9
100
AcDbVertex
100
AcDb2dVertex
 10
98.97096437610087
 20
22.73887325606576
 30
0.0
  0
VERTEX
  5
131
330
FA
100
AcDbEntity
  8
0
 62
     7
420
 16777215
370
     9
100
AcDbVertex
100
AcDb2dVertex
 10
98.97096437610087
 20
0.7313226560669722
 30
0.0
  0
VERTEX
  5
132
330
FA
100
AcDbEntity
  8
0
 62
     7
420
 16777215
370
     9
100
AcDbVertex
100
AcDb2dVertex
 10
98.87723837610105
 20
0.6375991960659568
 30
0.0
  0
VERTEX
  5
133
330
FA
100
AcDbEntity
  8
0
 62
     7
420
 16777215
370
     9
100
AcDbVertex
100
AcDb2dVertex
 10
94.97096421585147
 20
0.6375991960659568
 30
0.0
  0
VERTEX
  5
134
330
FA
100
AcDbEntity
  8
0
 62
     7
420
 16777215
370
     9
100
AcDbVertex
100
AcDb2dVertex
 10
94.97096421585147
 20
-20.9174021439338
 30
0.0
  0
VERTEX
  5
135
330
FA
100
AcDbEntity
  8
0
 62
     7
420
 16777215
370
     9
100
AcDbVertex
100
AcDb2dVertex
 10
98.87723837610105
 20
-20.9174021439338
 30
0.0
  0
VERTEX
  5
136
330
FA
100
AcDbEntity
  8
0
 62
     7
420
 16777215
370
     9
100
AcDbVertex
100
AcDb2dVertex
 10
98.97096437610087
 20
-21.01112814393362
 30
0.0
  0
VERTEX
  5
137
330
FA
100
AcDbEntity
  8
0
 62
     7
420
 16777215
370
     9
100
AcDbVertex
100
AcDb2dVertex
 10
98.97096437610087
 20
-43.01867620393361
 30
0.0
  0
VERTEX
  5
138
330
FA
100
AcDbEntity
  8
0
 62
     7
420
 16777215
370
     9
100
AcDbVertex
100
AcDb2dVertex
 10
98.87723837610105
 20
-43.11240220393343
 30
0.0
  0
VERTEX
  5
139
330
FA
100
AcDbEntity
  8
0
 62
     7
420
 16777215
370
     9
100
AcDbVertex
100
AcDb2dVertex
 10
94.97096421585147
 20
-43.11240220393343
 30
0.0
  0
VERTEX
  5
13A
330
FA
100
AcDbEntity
  8
0
 62
     7
420
 16777215
370
     9
100
AcDbVertex
100
AcDb2dVertex
 10
94.97096421585147
 20
-64.6674010039331
 30
0.0
  0
VERTEX
  5
13B
330
FA
100
AcDbEntity
  8
0
 62
     7
420
 16777215
370
     9
100
AcDbVertex
100
AcDb2dVertex
 10
98.87723837610105
 20
-64.6674010039331
 30
0.0
  0
VERTEX
  5
13C
330
FA
100
AcDbEntity
  8
0
 62
     7
420
 16777215
370
     9
100
AcDbVertex
100
AcDb2dVertex
 10
98.97096437610087
 20
-64.7611270039342
 30
0.0
  0
VERTEX
  5
13D
330
FA
100
AcDbEntity
  8
0
 62
     7
420
 16777215
370
     9
100
AcDbVertex
100
AcDb2dVertex
 10
98.97096437610087
 20
-67.34308749333994
 30
0.0
  0
SEQEND
  5
13E
330
FA
100
AcDbEntity
  8
0
 62
     7
420
 16777215
370
     9
  0
POLYLINE
  5
13F
330
1F
100
AcDbEntity
  8
0
 62
     7
420
 16777215
370
     9
100
AcDb2dPolyline
 66
     1
 10
0.0
 20
0.0
 30
0.0
  0
VERTEX
  5
140
330
13F
100
AcDbEntity
  8
0
 62
     7
420
 16777215
370
     9
100
AcDbVertex
100
AcDb2dVertex
 10
-123.2473885635847
 20
95.38509896606655
 30
0.0
  0
VERTEX
  5
141
330
13F
100
AcDbEntity
  8
0
 62
     7
420
 16777215
370
     9
100
AcDbVertex
100
AcDb2dVertex
 10
44.8139646958515
 20
95.38509896606655
 30
0.0
  0
SEQEND
  5
142
330
13F
100
AcDbEntity
  8
0
 62
     7
420
 16777215
370
     9
  0
POLYLINE
  5
143
330
1F
100
AcDbEntity
  8
0
 62
     7
420
 16777215
370
     9
100
AcDb2dPolyline
 66
     1
 10
0.0
 20
0.0
 30
0.0
  0
VERTEX
  5
144
330
143
100
AcDbEntity
  8
0
 62
     7
420
 16777215
370
     9
100
AcDbVertex
100
AcDb2dVertex
 10
-123.2473885635847
 20
95.38509896606655
 30
0.0
  0
VERTEX
  5
32A
330
143
100
AcDbEntity
  8
0
100
AcDbVertex
100
AcDb2dVertex
 10
-123.2473885635847
 20
95.38509896606655
 30
0.0
  0
SEQEND
  5
145
330
143
100
AcDbEntity
  8
0
 62
     7
420
 16777215
370
     9
  0
POLYLINE
  5
146
330
1F
100
AcDbEntity
  8
0
 62
     7
420
 16777215
370
     9
100
AcDb2dPolyline
 66
     1
 10
0.0
 20
0.0
 30
0.0
  0
VERTEX
  5
147
330
146
100
AcDbEntity
  8
0
 62
     7
420
 16777215
370
     9
100
AcDbVertex
100
AcDb2dVertex
 10
44.8139646958515
 20
-66.28604691596863
 30
0.0
  0
VERTEX
  5
32B
330
146
100
AcDbEntity
  8
0
100
AcDbVertex
100
AcDb2dVertex
 10
44.8139646958515
 20
-66.28604691596863
 30
0.0
  0
SEQEND
  5
148
330
146
100
AcDbEntity
  8
0
 62
     7
420
 16777215
370
     9
  0
POLYLINE
  5
149
330
1F
100
AcDbEntity
  8
0
 62
     7
420
 16777215
370
     9
100
AcDb2dPolyline
 66
     1
 10
0.0
 20
0.0
 30
0.0
  0
VERTEX
  5
14A
330
149
100
AcDbEntity
  8
0
 62
     7
420
 16777215
370
     9
100
AcDbVertex
100
AcDb2dVertex
 10
44.8139646958515
 20
95.38509896606655
 30
0.0
  0
VERTEX
  5
14B
330
149
100
AcDbEntity
  8
0
 62
     7
420
 16777215
370
     9
100
AcDbVertex
100
AcDb2dVertex
 10
44.8139646958515
 20
-66.28604691596863
 30
0.0
  0
SEQEND
  5
14C
330
149
100
AcDbEntity
  8
0
 62
     7
420
 16777215
370
     9
  0
SPLINE
  5
14D
330
1F
100
AcDbEntity
  8
0
 62
     7
420
 16777215
370
     9
100
AcDbSpline
210
0.0
220
0.0
230
1.0
 70
    11
 71
     3
 72
    20
 73
    16
 74
     0
 42
0.0000000001
 43
0.0000000001
 12
1.0
 22
0.0
 32
0.0
 13
1.0
 23
0.0
 33
0.0
 40
0.0
 40
0.0
 40
0.0
 40
0.0
 40
1.0
 40
1.0
 40
1.0
 40
2.0
 40
2.0
 40
2.0
 40
3.0
 40
3.0
 40
3.0
 40
4.0
 40
4.0
 40
4.0
 40
5.0
 40
5.0
 40
5.0
 40
5.0
 10
75.95991102053175
 20
158.3296753221708
 30
0.0
 10
75.95991102053175
 20
159.9865295716637
 30
0.0
 10
77.30305677104026
 20
161.3296753221709
 30
0.0
 10
78.95991102053249
 20
161.3296753221709
 30
0.0
 10
80.61676527002471
 20
161.3296753221709
 30
0.0
 10
81.95991102053195
 20
159.9865295716637
 30
0.0
 10
81.95991102053195
 20
158.3296753221708
 30
0.0
 10
81.95991102053195
 20
156.6728210726786
 30
0.0
 10
80.61676527002471
 20
155.3296753221707
 30
0.0
 10
78.95991102053249
 20
155.3296753221707
 30
0.0
 10
77.30305677104026
 20
155.3296753221707
 30
0.0
 10
75.95991102053175
 20
156.6728210726786
 30
0.0
 10
75.95991102053175
 20
158.3296753221708
 30
0.0
 10
75.95991102053175
 20
158.3296753221708
 30
0.0
 10
75.95991102053175
 20
158.3296753221708
 30
0.0
 10
75.95991102053175
 20
158.3296753221708
 30
0.0
  0
SPLINE
  5
14E
330
1F
100
AcDbEntity
  8
0
 62
     7
420
 16777215
370
     9
100
AcDbSpline
210
0.0
220
0.0
230
1.0
 70
    11
 71
     3
 72
    20
 73
    16
 74
     0
 42
0.0000000001
 43
0.0000000001
 12
1.0
 22
0.0
 32
0.0
 13
1.0
 23
0.0
 33
0.0
 40
0.0
 40
0.0
 40
0.0
 40
0.0
 40
1.0
 40
1.0
 40
1.0
 40
2.0
 40
2.0
 40
2.0
 40
3.0
 40
3.0
 40
3.0
 40
4.0
 40
4.0
 40
4.0
 40
5.0
 40
5.0
 40
5.0
 40
5.0
 10
33.95991102053154
 20
116.3296753221693
 30
0.0
 10
33.95991102053154
 20
117.9865295716615
 30
0.0
 10
35.30305677104007
 20
119.3296753221694
 30
0.0
 10
36.95991102053229
 20
119.3296753221694
 30
0.0
 10
38.61676527002452
 20
119.3296753221694
 30
0.0
 10
39.95991102053176
 20
117.9865295716615
 30
0.0
 10
39.95991102053176
 20
116.3296753221693
 30
0.0
 10
39.95991102053176
 20
114.6728210726771
 30
0.0
 10
38.61676527002452
 20
113.3296753221692
 30
0.0
 10
36.95991102053229
 20
113.3296753221692
 30
0.0
 10
35.30305677104007
 20
113.3296753221692
 30
0.0
 10
33.95991102053154
 20
114.6728210726771
 30
0.0
 10
33.95991102053154
 20
116.3296753221693
 30
0.0
 10
33.95991102053154
 20
116.3296753221693
 30
0.0
 10
33.95991102053154
 20
116.3296753221693
 30
0.0
 10
33.95991102053154
 20
116.3296753221693
 30
0.0
  0
SPLINE
  5
14F
330
1F
100
AcDbEntity
  8
0
 62
     7
420
 16777215
370
     9
100
AcDbSpline
210
0.0
220
0.0
230
1.0
 70
    11
 71
     3
 72
    20
 73
    16
 74
     0
 42
0.0000000001
 43
0.0000000001
 12
1.0
 22
0.0
 32
0.0
 13
1.0
 23
0.0
 33
0.0
 40
0.0
 40
0.0
 40
0.0
 40
0.0
 40
1.0
 40
1.0
 40
1.0
 40
2.0
 40
2.0
 40
2.0
 40
3.0
 40
3.0
 40
3.0
 40
4.0
 40
4.0
 40
4.0
 40
5.0
 40
5.0
 40
5.0
 40
5.0
 10
27.95991102053133
 20
164.3296753221697
 30
0.0
 10
27.95991102053133
 20
165.9865295716619
 30
0.0
 10
29.30305677103857
 20
167.3296753221698
 30
0.0
 10
30.95991102053208
 20
167.3296753221698
 30
0.0
 10
32.6167652700243
 20
167.3296753221698
 30
0.0
 10
33.95991102053154
 20
165.9865295716619
 30
0.0
 10
33.95991102053154
 20
164.3296753221697
 30
0.0
 10
33.95991102053154
 20
162.6728210726768
 30
0.0
 10
32.6167652700243
 20
161.3296753221696
 30
0.0
 10
30.95991102053208
 20
161.3296753221696
 30
0.0
 10
29.30305677103857
 20
161.3296753221696
 30
0.0
 10
27.95991102053133
 20
162.6728210726768
 30
0.0
 10
27.95991102053133
 20
164.3296753221697
 30
0.0
 10
27.95991102053133
 20
164.3296753221697
 30
0.0
 10
27.95991102053133
 20
164.3296753221697
 30
0.0
 10
27.95991102053133
 20
164.3296753221697
 30
0.0
  0
POLYLINE
  5
150
330
1F
100
AcDbEntity
  8
0
 62
     7
420
 16777215
370
     9
100
AcDb2dPolyline
 66
     1
 10
0.0
 20
0.0
 30
0.0
  0
VERTEX
  5
151
330
150
100
AcDbEntity
  8
0
 62
     7
420
 16777215
370
     9
100
AcDbVertex
100
AcDb2dVertex
 10
98.95991102078378
 20
95.32967532216921
 30
0.0
  0
VERTEX
  5
152
330
150
100
AcDbEntity
  8
0
 62
     7
420
 16777215
370
     9
100
AcDbVertex
100
AcDb2dVertex
 10
98.95991102078378
 20
95.16520127542854
 30
0.0
  0
SEQEND
  5
153
330
150
100
AcDbEntity
  8
0
 62
     7
420
 16777215
370
     9
  0
SPLINE
  5
154
330
1F
100
AcDbEntity
  8
0
 62
     7
420
 16777215
370
     9
100
AcDbSpline
210
0.0
220
0.0
230
1.0
 70
    11
 71
     3
 72
    20
 73
    16
 74
     0
 42
0.0000000001
 43
0.0000000001
 12
1.0
 22
0.0
 32
0.0
 13
1.0
 23
0.0
 33
0.0
 40
0.0
 40
0.0
 40
0.0
 40
0.0
 40
1.0
 40
1.0
 40
1.0
 40
2.0
 40
2.0
 40
2.0
 40
3.0
 40
3.0
 40
3.0
 40
4.0
 40
4.0
 40
4.0
 40
5.0
 40
5.0
 40
5.0
 40
5.0
 10
54.95991102053164
 20
137.32967532217
 30
0.0
 10
54.95991102053164
 20
138.9865295716623
 30
0.0
 10
56.30305677104017
 20
140.3296753221701
 30
0.0
 10
57.95991102053239
 20
140.3296753221701
 30
0.0
 10
59.61676527002462
 20
140.3296753221701
 30
0.0
 10
60.95991102053186
 20
138.9865295716623
 30
0.0
 10
60.95991102053186
 20
137.32967532217
 30
0.0
 10
60.95991102053186
 20
135.6728210726778
 30
0.0
 10
59.61676527002462
 20
134.3296753221699
 30
0.0
 10
57.95991102053239
 20
134.3296753221699
 30
0.0
 10
56.30305677104017
 20
134.3296753221699
 30
0.0
 10
54.95991102053164
 20
135.6728210726778
 30
0.0
 10
54.95991102053164
 20
137.32967532217
 30
0.0
 10
54.95991102053164
 20
137.32967532217
 30
0.0
 10
54.95991102053164
 20
137.32967532217
 30
0.0
 10
54.95991102053164
 20
137.32967532217
 30
0.0
  0
SPLINE
  5
155
330
1F
100
AcDbEntity
  8
0
 62
     7
420
 16777215
370
     9
100
AcDbSpline
210
0.0
220
0.0
230
1.0
 70
    11
 71
     3
 72
    20
 73
    16
 74
     0
 42
0.0000000001
 43
0.0000000001
 12
1.0
 22
0.0
 32
0.0
 13
1.0
 23
0.0
 33
0.0
 40
0.0
 40
0.0
 40
0.0
 40
0.0
 40
1.0
 40
1.0
 40
1.0
 40
2.0
 40
2.0
 40
2.0
 40
3.0
 40
3.0
 40
3.0
 40
4.0
 40
4.0
 40
4.0
 40
5.0
 40
5.0
 40
5.0
 40
5.0
 10
21.95991102053112
 20
104.3296753221695
 30
0.0
 10
21.95991102053112
 20
105.9865295716617
 30
0.0
 10
23.30305677103964
 20
107.3296753221696
 30
0.0
 10
24.95991102053187
 20
107.3296753221696
 30
0.0
 10
26.61676527002409
 20
107.3296753221696
 30
0.0
 10
27.95991102053133
 20
105.9865295716617
 30
0.0
 10
27.95991102053133
 20
104.3296753221695
 30
0.0
 10
27.95991102053133
 20
102.6728210726773
 30
0.0
 10
26.61676527002409
 20
101.3296753221694
 30
0.0
 10
24.95991102053187
 20
101.3296753221694
 30
0.0
 10
23.30305677103964
 20
101.3296753221694
 30
0.0
 10
21.95991102053112
 20
102.6728210726773
 30
0.0
 10
21.95991102053112
 20
104.3296753221695
 30
0.0
 10
21.95991102053112
 20
104.3296753221695
 30
0.0
 10
21.95991102053112
 20
104.3296753221695
 30
0.0
 10
21.95991102053112
 20
104.3296753221695
 30
0.0
  0
SPLINE
  5
156
330
1F
100
AcDbEntity
  8
0
 62
     7
420
 16777215
370
     9
100
AcDbSpline
210
0.0
220
0.0
230
1.0
 70
    11
 71
     3
 72
    20
 73
    16
 74
     0
 42
0.0000000001
 43
0.0000000001
 12
1.0
 22
0.0
 32
0.0
 13
1.0
 23
0.0
 33
0.0
 40
0.0
 40
0.0
 40
0.0
 40
0.0
 40
1.0
 40
1.0
 40
1.0
 40
2.0
 40
2.0
 40
2.0
 40
3.0
 40
3.0
 40
3.0
 40
4.0
 40
4.0
 40
4.0
 40
5.0
 40
5.0
 40
5.0
 40
5.0
 10
81.95991102053195
 20
110.3296753221691
 30
0.0
 10
81.95991102053195
 20
111.9865295716613
 30
0.0
 10
83.3030567710392
 20
113.3296753221692
 30
0.0
 10
84.95991102053142
 20
113.3296753221692
 30
0.0
 10
86.61676527002493
 20
113.3296753221692
 30
0.0
 10
87.95991102053216
 20
111.9865295716613
 30
0.0
 10
87.95991102053216
 20
110.3296753221691
 30
0.0
 10
87.95991102053216
 20
108.6728210726769
 30
0.0
 10
86.61676527002493
 20
107.329675322169
 30
0.0
 10
84.95991102053142
 20
107.329675322169
 30
0.0
 10
83.3030567710392
 20
107.329675322169
 30
0.0
 10
81.95991102053195
 20
108.6728210726769
 30
0.0
 10
81.95991102053195
 20
110.3296753221691
 30
0.0
 10
81.95991102053195
 20
110.3296753221691
 30
0.0
 10
81.95991102053195
 20
110.3296753221691
 30
0.0
 10
81.95991102053195
 20
110.3296753221691
 30
0.0
  0
POLYLINE
  5
157
330
1F
100
AcDbEntity
  8
0
 62
     7
420
 16777215
370
     9
100
AcDb2dPolyline
 66
     1
 10
0.0
 20
0.0
 30
0.0
  0
VERTEX
  5
158
330
157
100
AcDbEntity
  8
0
 62
     7
420
 16777215
370
     9
100
AcDbVertex
100
AcDb2dVertex
 10
-130.1860365741483
 20
174.4922373170244
 30
0.0
  0
VERTEX
  5
159
330
157
100
AcDbEntity
  8
0
 62
     7
420
 16777215
370
     9
100
AcDbVertex
100
AcDb2dVertex
 10
-130.1860365741483
 20
159.4922373170245
 30
0.0
  0
SEQEND
  5
15A
330
157
100
AcDbEntity
  8
0
 62
     7
420
 16777215
370
     9
  0
POLYLINE
  5
15B
330
1F
100
AcDbEntity
  8
0
 62
     7
420
 16777215
370
     9
100
AcDb2dPolyline
 66
     1
 10
0.0
 20
0.0
 30
0.0
  0
VERTEX
  5
15C
330
15B
100
AcDbEntity
  8
0
 62
     7
420
 16777215
370
     9
100
AcDbVertex
100
AcDb2dVertex
 10
-130.1860365741483
 20
159.4922373170245
 30
0.0
  0
VERTEX
  5
15D
330
15B
100
AcDbEntity
  8
0
 62
     7
420
 16777215
370
     9
100
AcDbVertex
100
AcDb2dVertex
 10
-125.1860367624425
 20
159.4908651153995
 30
0.0
  0
SEQEND
  5
15E
330
15B
100
AcDbEntity
  8
0
 62
     7
420
 16777215
370
     9
  0
POLYLINE
  5
15F
330
1F
100
AcDbEntity
  8
0
 62
     7
420
 16777215
370
     9
100
AcDb2dPolyline
 66
     1
 10
0.0
 20
0.0
 30
0.0
  0
VERTEX
  5
160
330
15F
100
AcDbEntity
  8
0
 62
     7
420
 16777215
370
     9
100
AcDbVertex
100
AcDb2dVertex
 10
-130.1860353041489
 20
95.38509896606655
 30
0.0
  0
VERTEX
  5
161
330
15F
100
AcDbEntity
  8
0
 62
     7
420
 16777215
370
     9
100
AcDbVertex
100
AcDb2dVertex
 10
-130.1860353041489
 20
110.3850989660671
 30
0.0
  0
SEQEND
  5
162
330
15F
100
AcDbEntity
  8
0
 62
     7
420
 16777215
370
     9
  0
POLYLINE
  5
163
330
1F
100
AcDbEntity
  8
0
 62
     7
420
 16777215
370
     9
100
AcDb2dPolyline
 66
     1
 10
0.0
 20
0.0
 30
0.0
  0
VERTEX
  5
164
330
163
100
AcDbEntity
  8
0
 62
     7
420
 16777215
370
     9
100
AcDbVertex
100
AcDb2dVertex
 10
-130.1860353041489
 20
110.3850989660671
 30
0.0
  0
VERTEX
  5
165
330
163
100
AcDbEntity
  8
0
 62
     7
420
 16777215
370
     9
100
AcDbVertex
100
AcDb2dVertex
 10
-135.1860351158553
 20
110.3864711676914
 30
0.0
  0
SEQEND
  5
166
330
163
100
AcDbEntity
  8
0
 62
     7
420
 16777215
370
     9
  0
POLYLINE
  5
167
330
1F
100
AcDbEntity
  8
0
 62
     7
420
 16777215
370
     9
100
AcDb2dPolyline
 66
     1
 10
0.0
 20
0.0
 30
0.0
  0
VERTEX
  5
168
330
167
100
AcDbEntity
  8
0
 62
     7
420
 16777215
370
     9
100
AcDbVertex
100
AcDb2dVertex
 10
-135.1860351158553
 20
110.3864711676914
 30
0.0
  0
VERTEX
  5
169
330
167
100
AcDbEntity
  8
0
 62
     7
420
 16777215
370
     9
100
AcDbVertex
100
AcDb2dVertex
 10
-135.1819185109817
 20
125.3864706028101
 30
0.0
  0
SEQEND
  5
16A
330
167
100
AcDbEntity
  8
0
 62
     7
420
 16777215
370
     9
  0
POLYLINE
  5
16B
330
1F
100
AcDbEntity
  8
0
 62
     7
420
 16777215
370
     9
100
AcDb2dPolyline
 66
     1
 10
0.0
 20
0.0
 30
0.0
  0
VERTEX
  5
16C
330
16B
100
AcDbEntity
  8
0
 62
     7
420
 16777215
370
     9
100
AcDbVertex
100
AcDb2dVertex
 10
-125.1860367624425
 20
159.4908651153995
 30
0.0
  0
VERTEX
  5
16D
330
16B
100
AcDbEntity
  8
0
 62
     7
420
 16777215
370
     9
100
AcDbVertex
100
AcDb2dVertex
 10
-125.1901533674721
 20
144.4908651153997
 30
0.0
  0
SEQEND
  5
16E
330
16B
100
AcDbEntity
  8
0
 62
     7
420
 16777215
370
     9
  0
POLYLINE
  5
16F
330
1F
100
AcDbEntity
  8
0
 62
     7
420
 16777215
370
     9
100
AcDb2dPolyline
 66
     1
 10
0.0
 20
0.0
 30
0.0
  0
VERTEX
  5
170
330
16F
100
AcDbEntity
  8
0
 62
     7
420
 16777215
370
     9
100
AcDbVertex
100
AcDb2dVertex
 10
-135.1819185109817
 20
125.3864706028101
 30
0.0
  0
VERTEX
  5
171
330
16F
100
AcDbEntity
  8
0
 62
     7
420
 16777215
370
     9
100
AcDbVertex
100
AcDb2dVertex
 10
-130.1995135524927
 20
125.3851032299229
 30
0.0
  0
SEQEND
  5
172
330
16F
100
AcDbEntity
  8
0
 62
     7
420
 16777215
370
     9
  0
POLYLINE
  5
173
330
1F
100
AcDbEntity
  8
0
 62
     7
420
 16777215
370
     9
100
AcDb2dPolyline
 66
     1
 10
0.0
 20
0.0
 30
0.0
  0
VERTEX
  5
174
330
173
100
AcDbEntity
  8
0
 62
     7
420
 16777215
370
     9
100
AcDbVertex
100
AcDb2dVertex
 10
-125.1901533674721
 20
144.4908651153997
 30
0.0
  0
VERTEX
  5
175
330
173
100
AcDbEntity
  8
0
 62
     7
420
 16777215
370
     9
100
AcDbVertex
100
AcDb2dVertex
 10
-130.1942697838969
 20
144.4922384467865
 30
0.0
  0
SEQEND
  5
176
330
173
100
AcDbEntity
  8
0
 62
     7
420
 16777215
370
     9
  0
POLYLINE
  5
177
330
1F
100
AcDbEntity
  8
0
 62
     7
420
 16777215
370
     9
100
AcDb2dPolyline
 66
     1
 10
0.0
 20
0.0
 30
0.0
  0
VERTEX
  5
178
330
177
100
AcDbEntity
  8
0
 62
     7
420
 16777215
370
     9
100
AcDbVertex
100
AcDb2dVertex
 10
-130.1942697838969
 20
144.4922384467865
 30
0.0
  0
VERTEX
  5
179
330
177
100
AcDbEntity
  8
0
 62
     7
420
 16777215
370
     9
100
AcDbVertex
100
AcDb2dVertex
 10
-130.1995135524927
 20
125.3851032299229
 30
0.0
  0
SEQEND
  5
17A
330
177
100
AcDbEntity
  8
0
 62
     7
420
 16777215
370
     9
  0
POLYLINE
  5
17B
330
1F
100
AcDbEntity
  8
0
 62
     7
420
 16777215
370
     9
100
AcDb2dPolyline
 66
     1
 10
0.0
 20
0.0
 30
0.0
  0
VERTEX
  5
17C
330
17B
100
AcDbEntity
  8
0
 62
     7
420
 16777215
370
     9
100
AcDbVertex
100
AcDb2dVertex
 10
64.67931588961149
 20
-70.87189581162986
 30
0.0
  0
VERTEX
  5
17D
330
17B
100
AcDbEntity
  8
0
 62
     7
420
 16777215
370
     9
100
AcDbVertex
100
AcDb2dVertex
 10
64.67657148646549
 20
-75.8718950584544
 30
0.0
  0
SEQEND
  5
17E
330
17B
100
AcDbEntity
  8
0
 62
     7
420
 16777215
370
     9
  0
POLYLINE
  5
17F
330
1F
100
AcDbEntity
  8
0
 62
     7
420
 16777215
370
     9
100
AcDb2dPolyline
 66
     1
 10
0.0
 20
0.0
 30
0.0
  0
VERTEX
  5
180
330
17F
100
AcDbEntity
  8
0
 62
     7
420
 16777215
370
     9
100
AcDbVertex
100
AcDb2dVertex
 10
79.83082448014466
 20
-80.88021368880051
 30
0.0
  0
VERTEX
  5
181
330
17F
100
AcDbEntity
  8
0
 62
     7
420
 16777215
370
     9
100
AcDbVertex
100
AcDb2dVertex
 10
79.83356888329065
 20
-75.88021444197597
 30
0.0
  0
SEQEND
  5
182
330
17F
100
AcDbEntity
  8
0
 62
     7
420
 16777215
370
     9
  0
POLYLINE
  5
183
330
1F
100
AcDbEntity
  8
0
 62
     7
420
 16777215
370
     9
100
AcDb2dPolyline
 66
     1
 10
0.0
 20
0.0
 30
0.0
  0
VERTEX
  5
184
330
183
100
AcDbEntity
  8
0
 62
     7
420
 16777215
370
     9
100
AcDbVertex
100
AcDb2dVertex
 10
89.83356737694102
 20
-75.88570324826797
 30
0.0
  0
VERTEX
  5
185
330
183
100
AcDbEntity
  8
0
 62
     7
420
 16777215
370
     9
100
AcDbVertex
100
AcDb2dVertex
 10
89.83082297379501
 20
-80.8857024950938
 30
0.0
  0
SEQEND
  5
186
330
183
100
AcDbEntity
  8
0
 62
     7
420
 16777215
370
     9
  0
POLYLINE
  5
187
330
1F
100
AcDbEntity
  8
0
 62
     7
420
 16777215
370
     9
100
AcDb2dPolyline
 66
     1
 10
0.0
 20
0.0
 30
0.0
  0
VERTEX
  5
188
330
187
100
AcDbEntity
  8
0
 62
     7
420
 16777215
370
     9
100
AcDbVertex
100
AcDb2dVertex
 10
54.67657299281512
 20
-75.86640625216239
 30
0.0
  0
VERTEX
  5
189
330
187
100
AcDbEntity
  8
0
 62
     7
420
 16777215
370
     9
100
AcDbVertex
100
AcDb2dVertex
 10
54.67931739596113
 20
-70.86640700533657
 30
0.0
  0
SEQEND
  5
18A
330
187
100
AcDbEntity
  8
0
 62
     7
420
 16777215
370
     9
  0
POLYLINE
  5
18B
330
1F
100
AcDbEntity
  8
0
 62
     7
420
 16777215
370
     9
100
AcDb2dPolyline
 66
     1
 10
0.0
 20
0.0
 30
0.0
  0
VERTEX
  5
18C
330
18B
100
AcDbEntity
  8
0
 62
     7
420
 16777215
370
     9
100
AcDbVertex
100
AcDb2dVertex
 10
79.83356888329065
 20
-75.88021444197597
 30
0.0
  0
VERTEX
  5
18D
330
18B
100
AcDbEntity
  8
0
 62
     7
420
 16777215
370
     9
100
AcDbVertex
100
AcDb2dVertex
 10
64.67657148646549
 20
-75.8718950584544
 30
0.0
  0
SEQEND
  5
18E
330
18B
100
AcDbEntity
  8
0
 62
     7
420
 16777215
370
     9
  0
POLYLINE
  5
18F
330
1F
100
AcDbEntity
  8
0
 62
     7
420
 16777215
370
     9
100
AcDb2dPolyline
 66
     1
 10
0.0
 20
0.0
 30
0.0
  0
VERTEX
  5
190
330
18F
100
AcDbEntity
  8
0
 62
     7
420
 16777215
370
     9
100
AcDbVertex
100
AcDb2dVertex
 10
54.67931739596113
 20
-70.86640700533657
 30
0.0
  0
VERTEX
  5
191
330
18F
100
AcDbEntity
  8
0
 62
     7
420
 16777215
370
     9
100
AcDbVertex
100
AcDb2dVertex
 10
64.67931588961149
 20
-70.87189581162986
 30
0.0
  0
SEQEND
  5
192
330
18F
100
AcDbEntity
  8
0
 62
     7
420
 16777215
370
     9
  0
POLYLINE
  5
193
330
1F
100
AcDbEntity
  8
0
 62
     7
420
 16777215
370
     9
100
AcDb2dPolyline
 66
     1
 10
0.0
 20
0.0
 30
0.0
  0
VERTEX
  5
194
330
193
100
AcDbEntity
  8
0
 62
     7
420
 16777215
370
     9
100
AcDbVertex
100
AcDb2dVertex
 10
89.83082297379501
 20
-80.8857024950938
 30
0.0
  0
VERTEX
  5
195
330
193
100
AcDbEntity
  8
0
 62
     7
420
 16777215
370
     9
100
AcDbVertex
100
AcDb2dVertex
 10
79.83082448014466
 20
-80.88021368880051
 30
0.0
  0
SEQEND
  5
196
330
193
100
AcDbEntity
  8
0
 62
     7
420
 16777215
370
     9
  0
POLYLINE
  5
197
330
1F
100
AcDbEntity
  8
0
 62
     7
420
 16777215
370
     9
100
AcDb2dPolyline
 66
     1
 10
0.0
 20
0.0
 30
0.0
  0
VERTEX
  5
198
330
197
100
AcDbEntity
  8
0
 62
     7
420
 16777215
370
     9
100
AcDbVertex
100
AcDb2dVertex
 10
98.83356587084128
 20
-75.89119205455998
 30
0.0
  0
VERTEX
  5
199
330
197
100
AcDbEntity
  8
0
 62
     7
420
 16777215
370
     9
100
AcDbVertex
100
AcDb2dVertex
 10
89.83356737694102
 20
-75.88570324826797
 30
0.0
  0
SEQEND
  5
19A
330
197
100
AcDbEntity
  8
0
 62
     7
420
 16777215
370
     9
  0
POLYLINE
  5
19B
330
1F
100
AcDbEntity
  8
0
 62
     7
420
 16777215
370
     9
100
AcDb2dPolyline
 66
     1
 10
0.0
 20
0.0
 30
0.0
  0
VERTEX
  5
19C
330
19B
100
AcDbEntity
  8
0
 62
     7
420
 16777215
370
     9
100
AcDbVertex
100
AcDb2dVertex
 10
44.67657449916477
 20
-75.86091744587038
 30
0.0
  0
VERTEX
  5
19D
330
19B
100
AcDbEntity
  8
0
 62
     7
420
 16777215
370
     9
100
AcDbVertex
100
AcDb2dVertex
 10
54.67657299281512
 20
-75.86640625216239
 30
0.0
  0
SEQEND
  5
19E
330
19B
100
AcDbEntity
  8
0
 62
     7
420
 16777215
370
     9
  0
POLYLINE
  5
19F
330
1F
100
AcDbEntity
  8
0
 62
     7
420
 16777215
370
     9
100
AcDb2dPolyline
 66
     1
 10
0.0
 20
0.0
 30
0.0
  0
VERTEX
  5
1A0
330
19F
100
AcDbEntity
  8
0
 62
     7
420
 16777215
370
     9
100
AcDbVertex
100
AcDb2dVertex
 10
-130.1860365741483
 20
174.4922373170244
 30
0.0
  0
VERTEX
  5
1A1
330
19F
100
AcDbEntity
  8
0
 62
     7
420
 16777215
370
     9
100
AcDbVertex
100
AcDb2dVertex
 10
-125.1860348322789
 20
174.4908651148707
 30
0.0
  0
SEQEND
  5
1A2
330
19F
100
AcDbEntity
  8
0
 62
     7
420
 16777215
370
     9
  0
POLYLINE
  5
1A3
330
1F
100
AcDbEntity
  8
0
 62
     7
420
 16777215
370
     9
100
AcDb2dPolyline
 66
     1
 10
0.0
 20
0.0
 30
0.0
  0
VERTEX
  5
1A4
330
1A3
100
AcDbEntity
  8
0
 62
     7
420
 16777215
370
     9
100
AcDbVertex
100
AcDb2dVertex
 10
-130.1860353041489
 20
95.38509896606655
 30
0.0
  0
VERTEX
  5
1A5
330
1A3
100
AcDbEntity
  8
0
 62
     7
420
 16777215
370
     9
100
AcDbVertex
100
AcDb2dVertex
 10
-123.2473885635847
 20
95.38509896606655
 30
0.0
  0
SEQEND
  5
1A6
330
1A3
100
AcDbEntity
  8
0
 62
     7
420
 16777215
370
     9
  0
POLYLINE
  5
1A7
330
1F
100
AcDbEntity
  8
0
 62
     7
420
 16777215
370
     9
100
AcDb2dPolyline
 66
     1
 10
0.0
 20
0.0
 30
0.0
  0
VERTEX
  5
1A8
330
1A7
100
AcDbEntity
  8
0
 62
     7
420
 16777215
370
     9
100
AcDbVertex
100
AcDb2dVertex
 10
44.8139646958515
 20
-66.28604691596863
 30
0.0
  0
VERTEX
  5
1A9
330
1A7
100
AcDbEntity
  8
0
 62
     7
420
 16777215
370
     9
100
AcDbVertex
100
AcDb2dVertex
 10
44.67657449916477
 20
-75.86091744587038
 30
0.0
  0
SEQEND
  5
1AA
330
1A7
100
AcDbEntity
  8
0
 62
     7
420
 16777215
370
     9
  0
POLYLINE
  5
1AB
330
1F
100
AcDbEntity
  8
0
 62
     7
420
 16777215
370
     9
100
AcDb2dPolyline
 66
     1
 10
0.0
 20
0.0
 30
0.0
  0
VERTEX
  5
1AC
330
1AB
100
AcDbEntity
  8
0
 62
     7
420
 16777215
370
     9
100
AcDbVertex
100
AcDb2dVertex
 10
98.97096437610087
 20
-67.34308749333994
 30
0.0
  0
VERTEX
  5
1AD
330
1AB
100
AcDbEntity
  8
0
 62
     7
420
 16777215
370
     9
100
AcDbVertex
100
AcDb2dVertex
 10
98.83356587084128
 20
-75.89119205455998
 30
0.0
  0
SEQEND
  5
1AE
330
1AB
100
AcDbEntity
  8
0
 62
     7
420
 16777215
370
     9
  0
POLYLINE
  5
1AF
330
1F
100
AcDbEntity
  8
0
 62
     7
420
 16777215
370
     9
100
AcDb2dPolyline
 66
     1
 10
0.0
 20
0.0
 30
0.0
  0
VERTEX
  5
1B0
330
1AF
100
AcDbEntity
  8
0
 62
     7
420
 16777215
370
     9
100
AcDbVertex
100
AcDb2dVertex
 10
395.1352673224872
 20
167.2855245435229
 30
0.0
  0
VERTEX
  5
1B1
330
1AF
100
AcDbEntity
  8
0
 62
     7
420
 16777215
370
     9
100
AcDbVertex
100
AcDb2dVertex
 10
395.0415413224874
 20
167.1917985435231
 30
0.0
  0
VERTEX
  5
1B2
330
1AF
100
AcDbEntity
  8
0
 62
     7
420
 16777215
370
     9
100
AcDbVertex
100
AcDb2dVertex
 10
391.1352671622375
 20
167.1917985435231
 30
0.0
  0
VERTEX
  5
1B3
330
1AF
100
AcDbEntity
  8
0
 62
     7
420
 16777215
370
     9
100
AcDbVertex
100
AcDb2dVertex
 10
391.1352671622375
 20
145.6367972035233
 30
0.0
  0
VERTEX
  5
1B4
330
1AF
100
AcDbEntity
  8
0
 62
     7
420
 16777215
370
     9
100
AcDbVertex
100
AcDb2dVertex
 10
395.0415413224874
 20
145.6367972035233
 30
0.0
  0
VERTEX
  5
1B5
330
1AF
100
AcDbEntity
  8
0
 62
     7
420
 16777215
370
     9
100
AcDbVertex
100
AcDb2dVertex
 10
395.1352673224872
 20
145.5430712035235
 30
0.0
  0
VERTEX
  5
1B6
330
1AF
100
AcDbEntity
  8
0
 62
     7
420
 16777215
370
     9
100
AcDbVertex
100
AcDb2dVertex
 10
395.1352673224872
 20
123.5355231435229
 30
0.0
  0
VERTEX
  5
1B7
330
1AF
100
AcDbEntity
  8
0
 62
     7
420
 16777215
370
     9
100
AcDbVertex
100
AcDb2dVertex
 10
395.0415413224874
 20
123.441797143523
 30
0.0
  0
VERTEX
  5
1B8
330
1AF
100
AcDbEntity
  8
0
 62
     7
420
 16777215
370
     9
100
AcDbVertex
100
AcDb2dVertex
 10
391.1352671622375
 20
123.441797143523
 30
0.0
  0
VERTEX
  5
1B9
330
1AF
100
AcDbEntity
  8
0
 62
     7
420
 16777215
370
     9
100
AcDbVertex
100
AcDb2dVertex
 10
391.1352671622375
 20
101.8867983435234
 30
0.0
  0
VERTEX
  5
1BA
330
1AF
100
AcDbEntity
  8
0
 62
     7
420
 16777215
370
     9
100
AcDbVertex
100
AcDb2dVertex
 10
395.0415413224874
 20
101.8867983435234
 30
0.0
  0
VERTEX
  5
1BB
330
1AF
100
AcDbEntity
  8
0
 62
     7
420
 16777215
370
     9
100
AcDbVertex
100
AcDb2dVertex
 10
395.1352673224872
 20
101.7930723435223
 30
0.0
  0
VERTEX
  5
1BC
330
1AF
100
AcDbEntity
  8
0
 62
     7
420
 16777215
370
     9
100
AcDbVertex
100
AcDb2dVertex
 10
395.1352673224872
 20
79.78552428352228
 30
0.0
  0
VERTEX
  5
1BD
330
1AF
100
AcDbEntity
  8
0
 62
     7
420
 16777215
370
     9
100
AcDbVertex
100
AcDb2dVertex
 10
395.0415413224874
 20
79.69179828352246
 30
0.0
  0
VERTEX
  5
1BE
330
1AF
100
AcDbEntity
  8
0
 62
     7
420
 16777215
370
     9
100
AcDbVertex
100
AcDb2dVertex
 10
391.1352671622375
 20
79.69179828352246
 30
0.0
  0
VERTEX
  5
1BF
330
1AF
100
AcDbEntity
  8
0
 62
     7
420
 16777215
370
     9
100
AcDbVertex
100
AcDb2dVertex
 10
391.1352671622375
 20
58.13679694352238
 30
0.0
  0
VERTEX
  5
1C0
330
1AF
100
AcDbEntity
  8
0
 62
     7
420
 16777215
370
     9
100
AcDbVertex
100
AcDb2dVertex
 10
395.0415413224874
 20
58.13679694352238
 30
0.0
  0
VERTEX
  5
1C1
330
1AF
100
AcDbEntity
  8
0
 62
     7
420
 16777215
370
     9
100
AcDbVertex
100
AcDb2dVertex
 10
395.1352673224872
 20
58.04307094352256
 30
0.0
  0
VERTEX
  5
1C2
330
1AF
100
AcDbEntity
  8
0
 62
     7
420
 16777215
370
     9
100
AcDbVertex
100
AcDb2dVertex
 10
395.1352673224872
 20
36.03552288352257
 30
0.0
  0
VERTEX
  5
1C3
330
1AF
100
AcDbEntity
  8
0
 62
     7
420
 16777215
370
     9
100
AcDbVertex
100
AcDb2dVertex
 10
395.0415413224874
 20
35.94179688352276
 30
0.0
  0
VERTEX
  5
1C4
330
1AF
100
AcDbEntity
  8
0
 62
     7
420
 16777215
370
     9
100
AcDbVertex
100
AcDb2dVertex
 10
391.1352671622375
 20
35.94179688352276
 30
0.0
  0
VERTEX
  5
1C5
330
1AF
100
AcDbEntity
  8
0
 62
     7
420
 16777215
370
     9
100
AcDbVertex
100
AcDb2dVertex
 10
391.1352671622375
 20
14.38679808352308
 30
0.0
  0
VERTEX
  5
1C6
330
1AF
100
AcDbEntity
  8
0
 62
     7
420
 16777215
370
     9
100
AcDbVertex
100
AcDb2dVertex
 10
395.0415413224874
 20
14.38679808352308
 30
0.0
  0
VERTEX
  5
1C7
330
1AF
100
AcDbEntity
  8
0
 62
     7
420
 16777215
370
     9
100
AcDbVertex
100
AcDb2dVertex
 10
395.1352673224872
 20
14.29307208352198
 30
0.0
  0
VERTEX
  5
1C8
330
1AF
100
AcDbEntity
  8
0
 62
     7
420
 16777215
370
     9
100
AcDbVertex
100
AcDb2dVertex
 10
395.1352673224872
 20
-7.714475976478004
 30
0.0
  0
VERTEX
  5
1C9
330
1AF
100
AcDbEntity
  8
0
 62
     7
420
 16777215
370
     9
100
AcDbVertex
100
AcDb2dVertex
 10
395.0415413224874
 20
-7.808201976477826
 30
0.0
  0
VERTEX
  5
1CA
330
1AF
100
AcDbEntity
  8
0
 62
     7
420
 16777215
370
     9
100
AcDbVertex
100
AcDb2dVertex
 10
391.1352671622375
 20
-7.808201976477826
 30
0.0
  0
VERTEX
  5
1CB
330
1AF
100
AcDbEntity
  8
0
 62
     7
420
 16777215
370
     9
100
AcDbVertex
100
AcDb2dVertex
 10
391.1352671622375
 20
-29.36320331647758
 30
0.0
  0
VERTEX
  5
1CC
330
1AF
100
AcDbEntity
  8
0
 62
     7
420
 16777215
370
     9
100
AcDbVertex
100
AcDb2dVertex
 10
395.0415413224874
 20
-29.36320331647758
 30
0.0
  0
VERTEX
  5
1CD
330
1AF
100
AcDbEntity
  8
0
 62
     7
420
 16777215
370
     9
100
AcDbVertex
100
AcDb2dVertex
 10
395.1352673224872
 20
-29.45692931647741
 30
0.0
  0
VERTEX
  5
1CE
330
1AF
100
AcDbEntity
  8
0
 62
     7
420
 16777215
370
     9
100
AcDbVertex
100
AcDb2dVertex
 10
395.1352673224872
 20
-51.46447737647739
 30
0.0
  0
VERTEX
  5
1CF
330
1AF
100
AcDbEntity
  8
0
 62
     7
420
 16777215
370
     9
100
AcDbVertex
100
AcDb2dVertex
 10
395.0415413224874
 20
-51.55820337647721
 30
0.0
  0
VERTEX
  5
1D0
330
1AF
100
AcDbEntity
  8
0
 62
     7
420
 16777215
370
     9
100
AcDbVertex
100
AcDb2dVertex
 10
391.1352671622375
 20
-51.55820337647721
 30
0.0
  0
VERTEX
  5
1D1
330
1AF
100
AcDbEntity
  8
0
 62
     7
420
 16777215
370
     9
100
AcDbVertex
100
AcDb2dVertex
 10
391.1352671622375
 20
-71.7675762164772
 30
0.0
  0
VERTEX
  5
1D2
330
1AF
100
AcDbEntity
  8
0
 62
     7
420
 16777215
370
     9
100
AcDbVertex
100
AcDb2dVertex
 10
391.0415411622376
 20
-71.86130221647701
 30
0.0
  0
VERTEX
  5
1D3
330
1AF
100
AcDbEntity
  8
0
 62
     7
420
 16777215
370
     9
100
AcDbVertex
100
AcDb2dVertex
 10
373.9507676222378
 20
-71.86130221647701
 30
0.0
  0
VERTEX
  5
1D4
330
1AF
100
AcDbEntity
  8
0
 62
     7
420
 16777215
370
     9
100
AcDbVertex
100
AcDb2dVertex
 10
373.9507676222378
 20
-75.7675763767282
 30
0.0
  0
VERTEX
  5
1D5
330
1AF
100
AcDbEntity
  8
0
 62
     7
420
 16777215
370
     9
100
AcDbVertex
100
AcDb2dVertex
 10
373.857041622238
 20
-75.86130237672802
 30
0.0
  0
VERTEX
  5
1D6
330
1AF
100
AcDbEntity
  8
0
 62
     7
420
 16777215
370
     9
100
AcDbVertex
100
AcDb2dVertex
 10
351.8494935622367
 20
-75.86130237672802
 30
0.0
  0
VERTEX
  5
1D7
330
1AF
100
AcDbEntity
  8
0
 62
     7
420
 16777215
370
     9
100
AcDbVertex
100
AcDb2dVertex
 10
351.7557675622382
 20
-75.7675763767282
 30
0.0
  0
VERTEX
  5
1D8
330
1AF
100
AcDbEntity
  8
0
 62
     7
420
 16777215
370
     9
100
AcDbVertex
100
AcDb2dVertex
 10
351.7557675622382
 20
-71.86130221647701
 30
0.0
  0
VERTEX
  5
1D9
330
1AF
100
AcDbEntity
  8
0
 62
     7
420
 16777215
370
     9
100
AcDbVertex
100
AcDb2dVertex
 10
330.2007662222371
 20
-71.86130221647701
 30
0.0
  0
VERTEX
  5
1DA
330
1AF
100
AcDbEntity
  8
0
 62
     7
420
 16777215
370
     9
100
AcDbVertex
100
AcDb2dVertex
 10
330.2007662222371
 20
-75.7675763767282
 30
0.0
  0
VERTEX
  5
1DB
330
1AF
100
AcDbEntity
  8
0
 62
     7
420
 16777215
370
     9
100
AcDbVertex
100
AcDb2dVertex
 10
330.1070402222373
 20
-75.86130237672802
 30
0.0
  0
VERTEX
  5
1DC
330
1AF
100
AcDbEntity
  8
0
 62
     7
420
 16777215
370
     9
100
AcDbVertex
100
AcDb2dVertex
 10
308.0994921622373
 20
-75.86130237672802
 30
0.0
  0
VERTEX
  5
1DD
330
1AF
100
AcDbEntity
  8
0
 62
     7
420
 16777215
370
     9
100
AcDbVertex
100
AcDb2dVertex
 10
308.0057661622375
 20
-75.7675763767282
 30
0.0
  0
VERTEX
  5
1DE
330
1AF
100
AcDbEntity
  8
0
 62
     7
420
 16777215
370
     9
100
AcDbVertex
100
AcDb2dVertex
 10
308.0057661622375
 20
-71.86130221647701
 30
0.0
  0
VERTEX
  5
1DF
330
1AF
100
AcDbEntity
  8
0
 62
     7
420
 16777215
370
     9
100
AcDbVertex
100
AcDb2dVertex
 10
286.4507673622379
 20
-71.86130221647701
 30
0.0
  0
VERTEX
  5
1E0
330
1AF
100
AcDbEntity
  8
0
 62
     7
420
 16777215
370
     9
100
AcDbVertex
100
AcDb2dVertex
 10
286.4507673622379
 20
-75.7675763767282
 30
0.0
  0
VERTEX
  5
1E1
330
1AF
100
AcDbEntity
  8
0
 62
     7
420
 16777215
370
     9
100
AcDbVertex
100
AcDb2dVertex
 10
286.3570413622367
 20
-75.86130237672802
 30
0.0
  0
VERTEX
  5
1E2
330
1AF
100
AcDbEntity
  8
0
 62
     7
420
 16777215
370
     9
100
AcDbVertex
100
AcDb2dVertex
 10
264.3494933022367
 20
-75.86130237672802
 30
0.0
  0
VERTEX
  5
1E3
330
1AF
100
AcDbEntity
  8
0
 62
     7
420
 16777215
370
     9
100
AcDbVertex
100
AcDb2dVertex
 10
264.2557673022369
 20
-75.7675763767282
 30
0.0
  0
VERTEX
  5
1E4
330
1AF
100
AcDbEntity
  8
0
 62
     7
420
 16777215
370
     9
100
AcDbVertex
100
AcDb2dVertex
 10
264.2557673022369
 20
-71.86130221647701
 30
0.0
  0
VERTEX
  5
1E5
330
1AF
100
AcDbEntity
  8
0
 62
     7
420
 16777215
370
     9
100
AcDbVertex
100
AcDb2dVertex
 10
242.7007659622365
 20
-71.86130221647701
 30
0.0
  0
VERTEX
  5
1E6
330
1AF
100
AcDbEntity
  8
0
 62
     7
420
 16777215
370
     9
100
AcDbVertex
100
AcDb2dVertex
 10
242.7007659622365
 20
-75.7675763767282
 30
0.0
  0
VERTEX
  5
1E7
330
1AF
100
AcDbEntity
  8
0
 62
     7
420
 16777215
370
     9
100
AcDbVertex
100
AcDb2dVertex
 10
242.6070399622367
 20
-75.86130237672802
 30
0.0
  0
VERTEX
  5
1E8
330
1AF
100
AcDbEntity
  8
0
 62
     7
420
 16777215
370
     9
100
AcDbVertex
100
AcDb2dVertex
 10
220.5994919022367
 20
-75.86130237672802
 30
0.0
  0
VERTEX
  5
1E9
330
1AF
100
AcDbEntity
  8
0
 62
     7
420
 16777215
370
     9
100
AcDbVertex
100
AcDb2dVertex
 10
220.5057659022369
 20
-75.7675763767282
 30
0.0
  0
VERTEX
  5
1EA
330
1AF
100
AcDbEntity
  8
0
 62
     7
420
 16777215
370
     9
100
AcDbVertex
100
AcDb2dVertex
 10
220.5057659022369
 20
-71.86130221647701
 30
0.0
  0
VERTEX
  5
1EB
330
1AF
100
AcDbEntity
  8
0
 62
     7
420
 16777215
370
     9
100
AcDbVertex
100
AcDb2dVertex
 10
198.9507671022359
 20
-71.86130221647701
 30
0.0
  0
VERTEX
  5
1EC
330
1AF
100
AcDbEntity
  8
0
 62
     7
420
 16777215
370
     9
100
AcDbVertex
100
AcDb2dVertex
 10
198.9507671022372
 20
-75.7675763767282
 30
0.0
  0
VERTEX
  5
1ED
330
1AF
100
AcDbEntity
  8
0
 62
     7
420
 16777215
370
     9
100
AcDbVertex
100
AcDb2dVertex
 10
198.8570411022361
 20
-75.86130237672802
 30
0.0
  0
VERTEX
  5
1EE
330
1AF
100
AcDbEntity
  8
0
 62
     7
420
 16777215
370
     9
100
AcDbVertex
100
AcDb2dVertex
 10
176.8494930422374
 20
-75.86130237672802
 30
0.0
  0
VERTEX
  5
1EF
330
1AF
100
AcDbEntity
  8
0
 62
     7
420
 16777215
370
     9
100
AcDbVertex
100
AcDb2dVertex
 10
176.6656228413502
 20
-75.6774321758408
 30
0.0
  0
VERTEX
  5
1F0
330
1AF
100
AcDbEntity
  8
0
 62
     7
420
 16777215
370
     9
100
AcDbVertex
100
AcDb2dVertex
 10
176.6193074624009
 20
-70.54023037972796
 30
0.0
  0
VERTEX
  5
1F1
330
1AF
100
AcDbEntity
  8
0
 62
     7
420
 16777215
370
     9
100
AcDbVertex
100
AcDb2dVertex
 10
171.8017212618473
 20
-70.5408767398844
 30
0.0
  0
SEQEND
  5
1F2
330
1AF
100
AcDbEntity
  8
0
 62
     7
420
 16777215
370
     9
  0
POLYLINE
  5
1F3
330
1F
100
AcDbEntity
  8
0
 62
     7
420
 16777215
370
     9
100
AcDb2dPolyline
 66
     1
 10
0.0
 20
0.0
 30
0.0
  0
VERTEX
  5
1F4
330
1F3
100
AcDbEntity
  8
0
 62
     7
420
 16777215
370
     9
100
AcDbVertex
100
AcDb2dVertex
 10
395.1352673224872
 20
183.7477055664064
 30
0.0
  0
VERTEX
  5
32C
330
1F3
100
AcDbEntity
  8
0
100
AcDbVertex
100
AcDb2dVertex
 10
395.1352673224872
 20
183.7477055664064
 30
0.0
  0
SEQEND
  5
1F5
330
1F3
100
AcDbEntity
  8
0
 62
     7
420
 16777215
370
     9
  0
POLYLINE
  5
1F6
330
1F
100
AcDbEntity
  8
0
 62
     7
420
 16777215
370
     9
100
AcDb2dPolyline
 66
     1
 10
0.0
 20
0.0
 30
0.0
  0
VERTEX
  5
1F7
330
1F6
100
AcDbEntity
  8
0
 62
     7
420
 16777215
370
     9
100
AcDbVertex
100
AcDb2dVertex
 10
158.8204859300736
 20
-70.54261839077385
 30
0.0
  0
VERTEX
  5
32D
330
1F6
100
AcDbEntity
  8
0
100
AcDbVertex
100
AcDb2dVertex
 10
158.8204859300736
 20
-70.54261839077385
 30
0.0
  0
SEQEND
  5
1F8
330
1F6
100
AcDbEntity
  8
0
 62
     7
420
 16777215
370
     9
  0
POLYLINE
  5
1F9
330
1F
100
AcDbEntity
  8
0
 62
     7
420
 16777215
370
     9
100
AcDb2dPolyline
 66
     1
 10
0.0
 20
0.0
 30
0.0
  0
VERTEX
  5
1FA
330
1F9
100
AcDbEntity
  8
0
 62
     7
420
 16777215
370
     9
100
AcDbVertex
100
AcDb2dVertex
 10
171.8017212618473
 20
-70.5408767398844
 30
0.0
  0
VERTEX
  5
32E
330
1F9
100
AcDbEntity
  8
0
100
AcDbVertex
100
AcDb2dVertex
 10
171.8017212618473
 20
-70.5408767398844
 30
0.0
  0
SEQEND
  5
1FB
330
1F9
100
AcDbEntity
  8
0
 62
     7
420
 16777215
370
     9
  0
POLYLINE
  5
1FC
330
1F
100
AcDbEntity
  8
0
 62
     7
420
 16777215
370
     9
100
AcDb2dPolyline
 66
     1
 10
0.0
 20
0.0
 30
0.0
  0
VERTEX
  5
1FD
330
1FC
100
AcDbEntity
  8
0
 62
     7
420
 16777215
370
     9
100
AcDbVertex
100
AcDb2dVertex
 10
178.1937281326874
 20
7.139298573523101
 30
0.0
  0
VERTEX
  5
32F
330
1FC
100
AcDbEntity
  8
0
100
AcDbVertex
100
AcDb2dVertex
 10
178.1937281326874
 20
7.139298573523101
 30
0.0
  0
SEQEND
  5
1FE
330
1FC
100
AcDbEntity
  8
0
 62
     7
420
 16777215
370
     9
  0
POLYLINE
  5
1FF
330
1F
100
AcDbEntity
  8
0
 62
     7
420
 16777215
370
     9
100
AcDb2dPolyline
 66
     1
 10
0.0
 20
0.0
 30
0.0
  0
VERTEX
  5
200
330
1FF
100
AcDbEntity
  8
0
 62
     7
420
 16777215
370
     9
100
AcDbVertex
100
AcDb2dVertex
 10
340.9782676422375
 20
7.139298573523101
 30
0.0
  0
VERTEX
  5
201
330
1FF
100
AcDbEntity
  8
0
 62
     7
420
 16777215
370
     9
100
AcDbVertex
100
AcDb2dVertex
 10
178.1937281326874
 20
7.139298573523101
 30
0.0
  0
SEQEND
  5
202
330
1FF
100
AcDbEntity
  8
0
 62
     7
420
 16777215
370
     9
  0
POLYLINE
  5
203
330
1F
100
AcDbEntity
  8
0
 62
     7
420
 16777215
370
     9
100
AcDb2dPolyline
 66
     1
 10
0.0
 20
0.0
 30
0.0
  0
VERTEX
  5
204
330
203
100
AcDbEntity
  8
0
 62
     7
420
 16777215
370
     9
100
AcDbVertex
100
AcDb2dVertex
 10
340.9782676422375
 20
7.139298573523101
 30
0.0
  0
VERTEX
  5
330
330
203
100
AcDbEntity
  8
0
100
AcDbVertex
100
AcDb2dVertex
 10
340.9782676422375
 20
7.139298573523101
 30
0.0
  0
SEQEND
  5
205
330
203
100
AcDbEntity
  8
0
 62
     7
420
 16777215
370
     9
  0
POLYLINE
  5
206
330
1F
100
AcDbEntity
  8
0
 62
     7
420
 16777215
370
     9
100
AcDb2dPolyline
 66
     1
 10
0.0
 20
0.0
 30
0.0
  0
VERTEX
  5
207
330
206
100
AcDbEntity
  8
0
 62
     7
420
 16777215
370
     9
100
AcDbVertex
100
AcDb2dVertex
 10
340.9782676422375
 20
183.182301563894
 30
0.0
  0
VERTEX
  5
331
330
206
100
AcDbEntity
  8
0
100
AcDbVertex
100
AcDb2dVertex
 10
340.9782676422375
 20
183.182301563894
 30
0.0
  0
SEQEND
  5
208
330
206
100
AcDbEntity
  8
0
 62
     7
420
 16777215
370
     9
  0
SPLINE
  5
209
330
1F
100
AcDbEntity
  8
0
 62
     7
420
 16777215
370
     9
100
AcDbSpline
210
0.0
220
0.0
230
1.0
 70
    11
 71
     3
 72
    20
 73
    16
 74
     0
 42
0.0000000001
 43
0.0000000001
 12
1.0
 22
0.0
 32
0.0
 13
1.0
 23
0.0
 33
0.0
 40
0.0
 40
0.0
 40
0.0
 40
0.0
 40
1.0
 40
1.0
 40
1.0
 40
2.0
 40
2.0
 40
2.0
 40
3.0
 40
3.0
 40
3.0
 40
4.0
 40
4.0
 40
4.0
 40
5.0
 40
5.0
 40
5.0
 40
5.0
 10
347.0964642557121
 20
1.765637162291977
 30
0.0
 10
347.0964642557121
 20
2.59406428703873
 30
0.0
 10
347.7680371309651
 20
3.265637162292992
 30
0.0
 10
348.5964642557118
 20
3.265637162292992
 30
0.0
 10
349.4248913804573
 20
3.265637162292992
 30
0.0
 10
350.0964642557116
 20
2.59406428703873
 30
0.0
 10
350.0964642557116
 20
1.765637162291977
 30
0.0
 10
350.0964642557116
 20
0.9372100375465061
 30
0.0
 10
349.4248913804573
 20
0.2656371622922446
 30
0.0
 10
348.5964642557118
 20
0.2656371622922446
 30
0.0
 10
347.7680371309651
 20
0.2656371622922446
 30
0.0
 10
347.0964642557121
 20
0.9372100375465061
 30
0.0
 10
347.0964642557121
 20
1.765637162291977
 30
0.0
 10
347.0964642557121
 20
1.765637162291977
 30
0.0
 10
347.0964642557121
 20
1.765637162291977
 30
0.0
 10
347.0964642557121
 20
1.765637162291977
 30
0.0
  0
SPLINE
  5
20A
330
1F
100
AcDbEntity
  8
0
 62
     7
420
 16777215
370
     9
100
AcDbSpline
210
0.0
220
0.0
230
1.0
 70
    11
 71
     3
 72
    20
 73
    16
 74
     0
 42
0.0000000001
 43
0.0000000001
 12
1.0
 22
0.0
 32
0.0
 13
1.0
 23
0.0
 33
0.0
 40
0.0
 40
0.0
 40
0.0
 40
0.0
 40
1.0
 40
1.0
 40
1.0
 40
2.0
 40
2.0
 40
2.0
 40
3.0
 40
3.0
 40
3.0
 40
4.0
 40
4.0
 40
4.0
 40
5.0
 40
5.0
 40
5.0
 40
5.0
 10
316.0964630421715
 20
1.765638375829565
 30
0.0
 10
316.0964630421715
 20
2.594065500576318
 30
0.0
 10
316.7680359174257
 20
3.265638375829297
 30
0.0
 10
317.5964630421725
 20
3.265638375829297
 30
0.0
 10
318.424890166918
 20
3.265638375829297
 30
0.0
 10
319.0964630421722
 20
2.594065500576318
 30
0.0
 10
319.0964630421722
 20
1.765638375829565
 30
0.0
 10
319.0964630421722
 20
0.937211251084094
 30
0.0
 10
318.424890166918
 20
0.2656383758298324
 30
0.0
 10
317.5964630421725
 20
0.2656383758298324
 30
0.0
 10
316.7680359174257
 20
0.2656383758298324
 30
0.0
 10
316.0964630421715
 20
0.937211251084094
 30
0.0
 10
316.0964630421715
 20
1.765638375829565
 30
0.0
 10
316.0964630421715
 20
1.765638375829565
 30
0.0
 10
316.0964630421715
 20
1.765638375829565
 30
0.0
 10
316.0964630421715
 20
1.765638375829565
 30
0.0
  0
SPLINE
  5
20B
330
1F
100
AcDbEntity
  8
0
 62
     7
420
 16777215
370
     9
100
AcDbSpline
210
0.0
220
0.0
230
1.0
 70
    11
 71
     3
 72
    20
 73
    16
 74
     0
 42
0.0000000001
 43
0.0000000001
 12
1.0
 22
0.0
 32
0.0
 13
1.0
 23
0.0
 33
0.0
 40
0.0
 40
0.0
 40
0.0
 40
0.0
 40
1.0
 40
1.0
 40
1.0
 40
2.0
 40
2.0
 40
2.0
 40
3.0
 40
3.0
 40
3.0
 40
4.0
 40
4.0
 40
4.0
 40
5.0
 40
5.0
 40
5.0
 40
5.0
 10
316.0964630421753
 20
-29.23436162417346
 30
0.0
 10
316.0964630421753
 20
-28.4059344994267
 30
0.0
 10
316.7680359174296
 20
-27.73436162417244
 30
0.0
 10
317.5964630421751
 20
-27.73436162417244
 30
0.0
 10
318.4248901669218
 20
-27.73436162417244
 30
0.0
 10
319.0964630421748
 20
-28.4059344994267
 30
0.0
 10
319.0964630421748
 20
-29.23436162417346
 30
0.0
 10
319.0964630421748
 20
-30.06278874891893
 30
0.0
 10
318.4248901669218
 20
-30.73436162417319
 30
0.0
 10
317.5964630421751
 20
-30.73436162417319
 30
0.0
 10
316.7680359174296
 20
-30.73436162417319
 30
0.0
 10
316.0964630421753
 20
-30.06278874891893
 30
0.0
 10
316.0964630421753
 20
-29.23436162417346
 30
0.0
 10
316.0964630421753
 20
-29.23436162417346
 30
0.0
 10
316.0964630421753
 20
-29.23436162417346
 30
0.0
 10
316.0964630421753
 20
-29.23436162417346
 30
0.0
  0
SPLINE
  5
20C
330
1F
100
AcDbEntity
  8
0
 62
     7
420
 16777215
370
     9
100
AcDbSpline
210
0.0
220
0.0
230
1.0
 70
    11
 71
     3
 72
    20
 73
    16
 74
     0
 42
0.0000000001
 43
0.0000000001
 12
1.0
 22
0.0
 32
0.0
 13
1.0
 23
0.0
 33
0.0
 40
0.0
 40
0.0
 40
0.0
 40
0.0
 40
1.0
 40
1.0
 40
1.0
 40
2.0
 40
2.0
 40
2.0
 40
3.0
 40
3.0
 40
3.0
 40
4.0
 40
4.0
 40
4.0
 40
5.0
 40
5.0
 40
5.0
 40
5.0
 10
378.0964636487487
 20
-7.73436223066588
 30
0.0
 10
378.0964636487487
 20
-6.077507981172372
 30
0.0
 10
379.4396093992559
 20
-4.734362230665132
 30
0.0
 10
381.0964636487481
 20
-4.734362230665132
 30
0.0
 10
382.7533178982404
 20
-4.734362230665132
 30
0.0
 10
384.0964636487476
 20
-6.077507981172372
 30
0.0
 10
384.0964636487476
 20
-7.73436223066588
 30
0.0
 10
384.0964636487476
 20
-9.391216480158105
 30
0.0
 10
382.7533178982404
 20
-10.73436223066534
 30
0.0
 10
381.0964636487481
 20
-10.73436223066534
 30
0.0
 10
379.4396093992559
 20
-10.73436223066534
 30
0.0
 10
378.0964636487487
 20
-9.391216480158105
 30
0.0
 10
378.0964636487487
 20
-7.73436223066588
 30
0.0
 10
378.0964636487487
 20
-7.73436223066588
 30
0.0
 10
378.0964636487487
 20
-7.73436223066588
 30
0.0
 10
378.0964636487487
 20
-7.73436223066588
 30
0.0
  0
SPLINE
  5
20D
330
1F
100
AcDbEntity
  8
0
 62
     7
420
 16777215
370
     9
100
AcDbSpline
210
0.0
220
0.0
230
1.0
 70
    11
 71
     3
 72
    20
 73
    16
 74
     0
 42
0.0000000001
 43
0.0000000001
 12
1.0
 22
0.0
 32
0.0
 13
1.0
 23
0.0
 33
0.0
 40
0.0
 40
0.0
 40
0.0
 40
0.0
 40
1.0
 40
1.0
 40
1.0
 40
2.0
 40
2.0
 40
2.0
 40
3.0
 40
3.0
 40
3.0
 40
4.0
 40
4.0
 40
4.0
 40
5.0
 40
5.0
 40
5.0
 40
5.0
 10
347.0964630421758
 20
-29.23436162417346
 30
0.0
 10
347.0964630421758
 20
-28.4059344994267
 30
0.0
 10
347.7680359174287
 20
-27.73436162417244
 30
0.0
 10
348.5964630421755
 20
-27.73436162417244
 30
0.0
 10
349.424890166921
 20
-27.73436162417244
 30
0.0
 10
350.0964630421752
 20
-28.4059344994267
 30
0.0
 10
350.0964630421752
 20
-29.23436162417346
 30
0.0
 10
350.0964630421752
 20
-30.06278874891893
 30
0.0
 10
349.424890166921
 20
-30.73436162417319
 30
0.0
 10
348.5964630421755
 20
-30.73436162417319
 30
0.0
 10
347.7680359174287
 20
-30.73436162417319
 30
0.0
 10
347.0964630421758
 20
-30.06278874891893
 30
0.0
 10
347.0964630421758
 20
-29.23436162417346
 30
0.0
 10
347.0964630421758
 20
-29.23436162417346
 30
0.0
 10
347.0964630421758
 20
-29.23436162417346
 30
0.0
 10
347.0964630421758
 20
-29.23436162417346
 30
0.0
  0
SPLINE
  5
20E
330
1F
100
AcDbEntity
  8
0
 62
     7
420
 16777215
370
     9
100
AcDbSpline
210
0.0
220
0.0
230
1.0
 70
    11
 71
     3
 72
    20
 73
    16
 74
     0
 42
0.0000000001
 43
0.0000000001
 12
1.0
 22
0.0
 32
0.0
 13
1.0
 23
0.0
 33
0.0
 40
0.0
 40
0.0
 40
0.0
 40
0.0
 40
1.0
 40
1.0
 40
1.0
 40
2.0
 40
2.0
 40
2.0
 40
3.0
 40
3.0
 40
3.0
 40
4.0
 40
4.0
 40
4.0
 40
5.0
 40
5.0
 40
5.0
 40
5.0
 10
324.0964636486621
 20
-61.73436223074479
 30
0.0
 10
324.0964636486621
 20
-60.07750798125257
 30
0.0
 10
325.4396093991693
 20
-58.73436223074533
 30
0.0
 10
327.0964636486615
 20
-58.73436223074533
 30
0.0
 10
328.7533178981537
 20
-58.73436223074533
 30
0.0
 10
330.0964636486623
 20
-60.07750798125257
 30
0.0
 10
330.0964636486623
 20
-61.73436223074479
 30
0.0
 10
330.0964636486623
 20
-63.3912164802383
 30
0.0
 10
328.7533178981537
 20
-64.73436223074553
 30
0.0
 10
327.0964636486615
 20
-64.73436223074553
 30
0.0
 10
325.4396093991693
 20
-64.73436223074553
 30
0.0
 10
324.0964636486621
 20
-63.3912164802383
 30
0.0
 10
324.0964636486621
 20
-61.73436223074479
 30
0.0
 10
324.0964636486621
 20
-61.73436223074479
 30
0.0
 10
324.0964636486621
 20
-61.73436223074479
 30
0.0
 10
324.0964636486621
 20
-61.73436223074479
 30
0.0
  0
SPLINE
  5
20F
330
1F
100
AcDbEntity
  8
0
 62
     7
420
 16777215
370
     9
100
AcDbSpline
210
0.0
220
0.0
230
1.0
 70
    11
 71
     3
 72
    20
 73
    16
 74
     0
 42
0.0000000001
 43
0.0000000001
 12
1.0
 22
0.0
 32
0.0
 13
1.0
 23
0.0
 33
0.0
 40
0.0
 40
0.0
 40
0.0
 40
0.0
 40
1.0
 40
1.0
 40
1.0
 40
2.0
 40
2.0
 40
2.0
 40
3.0
 40
3.0
 40
3.0
 40
4.0
 40
4.0
 40
4.0
 40
5.0
 40
5.0
 40
5.0
 40
5.0
 10
330.0964636489433
 20
-13.73436223094074
 30
0.0
 10
330.0964636489433
 20
-12.07750798144851
 30
0.0
 10
331.4396093994505
 20
-10.73436223093999
 30
0.0
 10
333.0964636489428
 20
-10.73436223093999
 30
0.0
 10
334.753317898435
 20
-10.73436223093999
 30
0.0
 10
336.0964636489422
 20
-12.07750798144851
 30
0.0
 10
336.0964636489422
 20
-13.73436223094074
 30
0.0
 10
336.0964636489422
 20
-15.39121648043296
 30
0.0
 10
334.753317898435
 20
-16.7343622309402
 30
0.0
 10
333.0964636489428
 20
-16.7343622309402
 30
0.0
 10
331.4396093994505
 20
-16.7343622309402
 30
0.0
 10
330.0964636489433
 20
-15.39121648043296
 30
0.0
 10
330.0964636489433
 20
-13.73436223094074
 30
0.0
 10
330.0964636489433
 20
-13.73436223094074
 30
0.0
 10
330.0964636489433
 20
-13.73436223094074
 30
0.0
 10
330.0964636489433
 20
-13.73436223094074
 30
0.0
  0
SPLINE
  5
210
330
1F
100
AcDbEntity
  8
0
 62
     7
420
 16777215
370
     9
100
AcDbSpline
210
0.0
220
0.0
230
1.0
 70
    11
 71
     3
 72
    20
 73
    16
 74
     0
 42
0.0000000001
 43
0.0000000001
 12
1.0
 22
0.0
 32
0.0
 13
1.0
 23
0.0
 33
0.0
 40
0.0
 40
0.0
 40
0.0
 40
0.0
 40
1.0
 40
1.0
 40
1.0
 40
2.0
 40
2.0
 40
2.0
 40
3.0
 40
3.0
 40
3.0
 40
4.0
 40
4.0
 40
4.0
 40
5.0
 40
5.0
 40
5.0
 40
5.0
 10
372.0964636484738
 20
-55.73436223046993
 30
0.0
 10
372.0964636484738
 20
-54.07750798097771
 30
0.0
 10
373.439609398981
 20
-52.73436223047047
 30
0.0
 10
375.0964636484745
 20
-52.73436223047047
 30
0.0
 10
376.7533178979668
 20
-52.73436223047047
 30
0.0
 10
378.096463648474
 20
-54.07750798097771
 30
0.0
 10
378.096463648474
 20
-55.73436223046993
 30
0.0
 10
378.096463648474
 20
-57.39121647996215
 30
0.0
 10
376.7533178979668
 20
-58.73436223047068
 30
0.0
 10
375.0964636484745
 20
-58.73436223047068
 30
0.0
 10
373.439609398981
 20
-58.73436223047068
 30
0.0
 10
372.0964636484738
 20
-57.39121647996215
 30
0.0
 10
372.0964636484738
 20
-55.73436223046993
 30
0.0
 10
372.0964636484738
 20
-55.73436223046993
 30
0.0
 10
372.0964636484738
 20
-55.73436223046993
 30
0.0
 10
372.0964636484738
 20
-55.73436223046993
 30
0.0
  0
POLYLINE
  5
211
330
1F
100
AcDbEntity
  8
0
 62
     7
420
 16777215
370
     9
100
AcDb2dPolyline
 66
     1
 10
0.0
 20
0.0
 30
0.0
  0
VERTEX
  5
212
330
211
100
AcDbEntity
  8
0
 62
     7
420
 16777215
370
     9
100
AcDbVertex
100
AcDb2dVertex
 10
165.9700331624885
 20
-41.96784090719684
 30
0.0
  0
VERTEX
  5
213
330
211
100
AcDbEntity
  8
0
 62
     7
420
 16777215
370
     9
100
AcDbVertex
100
AcDb2dVertex
 10
165.9647893938927
 20
-22.86070569033321
 30
0.0
  0
SEQEND
  5
214
330
211
100
AcDbEntity
  8
0
 62
     7
420
 16777215
370
     9
  0
POLYLINE
  5
215
330
1F
100
AcDbEntity
  8
0
 62
     7
420
 16777215
370
     9
100
AcDb2dPolyline
 66
     1
 10
0.0
 20
0.0
 30
0.0
  0
VERTEX
  5
216
330
215
100
AcDbEntity
  8
0
 62
     7
420
 16777215
370
     9
100
AcDbVertex
100
AcDb2dVertex
 10
170.9741495789133
 20
-41.96646757581001
 30
0.0
  0
VERTEX
  5
217
330
215
100
AcDbEntity
  8
0
 62
     7
420
 16777215
370
     9
100
AcDbVertex
100
AcDb2dVertex
 10
165.9700331624885
 20
-41.96784090719684
 30
0.0
  0
SEQEND
  5
218
330
215
100
AcDbEntity
  8
0
 62
     7
420
 16777215
370
     9
  0
POLYLINE
  5
219
330
1F
100
AcDbEntity
  8
0
 62
     7
420
 16777215
370
     9
100
AcDb2dPolyline
 66
     1
 10
0.0
 20
0.0
 30
0.0
  0
VERTEX
  5
21A
330
219
100
AcDbEntity
  8
0
 62
     7
420
 16777215
370
     9
100
AcDbVertex
100
AcDb2dVertex
 10
160.9823844354037
 20
-22.86207306322105
 30
0.0
  0
VERTEX
  5
21B
330
219
100
AcDbEntity
  8
0
 62
     7
420
 16777215
370
     9
100
AcDbVertex
100
AcDb2dVertex
 10
165.9647893938927
 20
-22.86070569033321
 30
0.0
  0
SEQEND
  5
21C
330
219
100
AcDbEntity
  8
0
 62
     7
420
 16777215
370
     9
  0
POLYLINE
  5
21D
330
1F
100
AcDbEntity
  8
0
 62
     7
420
 16777215
370
     9
100
AcDb2dPolyline
 66
     1
 10
0.0
 20
0.0
 30
0.0
  0
VERTEX
  5
21E
330
21D
100
AcDbEntity
  8
0
 62
     7
420
 16777215
370
     9
100
AcDbVertex
100
AcDb2dVertex
 10
165.9782663722371
 20
-56.96783977743551
 30
0.0
  0
VERTEX
  5
21F
330
21D
100
AcDbEntity
  8
0
 62
     7
420
 16777215
370
     9
100
AcDbVertex
100
AcDb2dVertex
 10
170.9782661839429
 20
-56.96646757580989
 30
0.0
  0
SEQEND
  5
220
330
21D
100
AcDbEntity
  8
0
 62
     7
420
 16777215
370
     9
  0
POLYLINE
  5
221
330
1F
100
AcDbEntity
  8
0
 62
     7
420
 16777215
370
     9
100
AcDb2dPolyline
 66
     1
 10
0.0
 20
0.0
 30
0.0
  0
VERTEX
  5
222
330
221
100
AcDbEntity
  8
0
 62
     7
420
 16777215
370
     9
100
AcDbVertex
100
AcDb2dVertex
 10
165.9782676422365
 20
-7.86070142647807
 30
0.0
  0
VERTEX
  5
223
330
221
100
AcDbEntity
  8
0
 62
     7
420
 16777215
370
     9
100
AcDbVertex
100
AcDb2dVertex
 10
160.9782678305307
 20
-7.862073628102407
 30
0.0
  0
SEQEND
  5
224
330
221
100
AcDbEntity
  8
0
 62
     7
420
 16777215
370
     9
  0
POLYLINE
  5
225
330
1F
100
AcDbEntity
  8
0
 62
     7
420
 16777215
370
     9
100
AcDb2dPolyline
 66
     1
 10
0.0
 20
0.0
 30
0.0
  0
VERTEX
  5
226
330
225
100
AcDbEntity
  8
0
 62
     7
420
 16777215
370
     9
100
AcDbVertex
100
AcDb2dVertex
 10
170.9782661839429
 20
-56.96646757580989
 30
0.0
  0
VERTEX
  5
227
330
225
100
AcDbEntity
  8
0
 62
     7
420
 16777215
370
     9
100
AcDbVertex
100
AcDb2dVertex
 10
170.9741495789133
 20
-41.96646757581001
 30
0.0
  0
SEQEND
  5
228
330
225
100
AcDbEntity
  8
0
 62
     7
420
 16777215
370
     9
  0
INSERT
  5
22A
330
1F
100
AcDbEntity
  8
0
100
AcDbBlockReference
  2
block 2
 10
0.0
 20
0.0
 30
0.0
  0
POLYLINE
  5
231
330
1F
100
AcDbEntity
  8
0
 62
     7
420
 16777215
370
     9
100
AcDb2dPolyline
 66
     1
 10
0.0
 20
0.0
 30
0.0
  0
VERTEX
  5
232
330
231
100
AcDbEntity
  8
0
 62
     7
420
 16777215
370
     9
100
AcDbVertex
100
AcDb2dVertex
 10
165.9782676422365
 20
7.139298573523101
 30
0.0
  0
VERTEX
  5
233
330
231
100
AcDbEntity
  8
0
 62
     7
420
 16777215
370
     9
100
AcDbVertex
100
AcDb2dVertex
 10
165.9782676422365
 20
-7.86070142647807
 30
0.0
  0
SEQEND
  5
234
330
231
100
AcDbEntity
  8
0
 62
     7
420
 16777215
370
     9
  0
POLYLINE
  5
235
330
1F
100
AcDbEntity
  8
0
 62
     7
420
 16777215
370
     9
100
AcDb2dPolyline
 66
     1
 10
0.0
 20
0.0
 30
0.0
  0
VERTEX
  5
236
330
235
100
AcDbEntity
  8
0
 62
     7
420
 16777215
370
     9
100
AcDbVertex
100
AcDb2dVertex
 10
165.9782663722371
 20
-70.54165805422959
 30
0.0
  0
VERTEX
  5
237
330
235
100
AcDbEntity
  8
0
 62
     7
420
 16777215
370
     9
100
AcDbVertex
100
AcDb2dVertex
 10
165.9782663722371
 20
-56.96783977743551
 30
0.0
  0
SEQEND
  5
238
330
235
100
AcDbEntity
  8
0
 62
     7
420
 16777215
370
     9
  0
POLYLINE
  5
239
330
1F
100
AcDbEntity
  8
0
 62
     7
420
 16777215
370
     9
100
AcDb2dPolyline
 66
     1
 10
0.0
 20
0.0
 30
0.0
  0
VERTEX
  5
23A
330
239
100
AcDbEntity
  8
0
 62
     7
420
 16777215
370
     9
100
AcDbVertex
100
AcDb2dVertex
 10
360.8436188359975
 20
183.1823037958272
 30
0.0
  0
VERTEX
  5
23B
330
239
100
AcDbEntity
  8
0
 62
     7
420
 16777215
370
     9
100
AcDbVertex
100
AcDb2dVertex
 10
360.8408744328515
 20
178.1823045490027
 30
0.0
  0
SEQEND
  5
23C
330
239
100
AcDbEntity
  8
0
 62
     7
420
 16777215
370
     9
  0
POLYLINE
  5
23D
330
1F
100
AcDbEntity
  8
0
 62
     7
420
 16777215
370
     9
100
AcDb2dPolyline
 66
     1
 10
0.0
 20
0.0
 30
0.0
  0
VERTEX
  5
23E
330
23D
100
AcDbEntity
  8
0
 62
     7
420
 16777215
370
     9
100
AcDbVertex
100
AcDb2dVertex
 10
375.9951274265307
 20
173.1739859186566
 30
0.0
  0
VERTEX
  5
23F
330
23D
100
AcDbEntity
  8
0
 62
     7
420
 16777215
370
     9
100
AcDbVertex
100
AcDb2dVertex
 10
375.9978718296767
 20
178.1739851654811
 30
0.0
  0
SEQEND
  5
240
330
23D
100
AcDbEntity
  8
0
 62
     7
420
 16777215
370
     9
  0
POLYLINE
  5
241
330
1F
100
AcDbEntity
  8
0
 62
     7
420
 16777215
370
     9
100
AcDb2dPolyline
 66
     1
 10
0.0
 20
0.0
 30
0.0
  0
VERTEX
  5
242
330
241
100
AcDbEntity
  8
0
 62
     7
420
 16777215
370
     9
100
AcDbVertex
100
AcDb2dVertex
 10
385.997870323327
 20
178.1684963591891
 30
0.0
  0
VERTEX
  5
243
330
241
100
AcDbEntity
  8
0
 62
     7
420
 16777215
370
     9
100
AcDbVertex
100
AcDb2dVertex
 10
385.9951259201811
 20
173.1684971123633
 30
0.0
  0
SEQEND
  5
244
330
241
100
AcDbEntity
  8
0
 62
     7
420
 16777215
370
     9
  0
POLYLINE
  5
245
330
1F
100
AcDbEntity
  8
0
 62
     7
420
 16777215
370
     9
100
AcDb2dPolyline
 66
     1
 10
0.0
 20
0.0
 30
0.0
  0
VERTEX
  5
246
330
245
100
AcDbEntity
  8
0
 62
     7
420
 16777215
370
     9
100
AcDbVertex
100
AcDb2dVertex
 10
350.8408759392012
 20
178.1877933552947
 30
0.0
  0
VERTEX
  5
247
330
245
100
AcDbEntity
  8
0
 62
     7
420
 16777215
370
     9
100
AcDbVertex
100
AcDb2dVertex
 10
350.8436203423472
 20
183.1877926021205
 30
0.0
  0
SEQEND
  5
248
330
245
100
AcDbEntity
  8
0
 62
     7
420
 16777215
370
     9
  0
POLYLINE
  5
249
330
1F
100
AcDbEntity
  8
0
 62
     7
420
 16777215
370
     9
100
AcDb2dPolyline
 66
     1
 10
0.0
 20
0.0
 30
0.0
  0
VERTEX
  5
24A
330
249
100
AcDbEntity
  8
0
 62
     7
420
 16777215
370
     9
100
AcDbVertex
100
AcDb2dVertex
 10
375.9978718296767
 20
178.1739851654811
 30
0.0
  0
VERTEX
  5
24B
330
249
100
AcDbEntity
  8
0
 62
     7
420
 16777215
370
     9
100
AcDbVertex
100
AcDb2dVertex
 10
360.8408744328515
 20
178.1823045490027
 30
0.0
  0
SEQEND
  5
24C
330
249
100
AcDbEntity
  8
0
 62
     7
420
 16777215
370
     9
  0
POLYLINE
  5
24D
330
1F
100
AcDbEntity
  8
0
 62
     7
420
 16777215
370
     9
100
AcDb2dPolyline
 66
     1
 10
0.0
 20
0.0
 30
0.0
  0
VERTEX
  5
24E
330
24D
100
AcDbEntity
  8
0
 62
     7
420
 16777215
370
     9
100
AcDbVertex
100
AcDb2dVertex
 10
350.8436203423472
 20
183.1877926021205
 30
0.0
  0
VERTEX
  5
24F
330
24D
100
AcDbEntity
  8
0
 62
     7
420
 16777215
370
     9
100
AcDbVertex
100
AcDb2dVertex
 10
360.8436188359975
 20
183.1823037958272
 30
0.0
  0
SEQEND
  5
250
330
24D
100
AcDbEntity
  8
0
 62
     7
420
 16777215
370
     9
  0
POLYLINE
  5
251
330
1F
100
AcDbEntity
  8
0
 62
     7
420
 16777215
370
     9
100
AcDb2dPolyline
 66
     1
 10
0.0
 20
0.0
 30
0.0
  0
VERTEX
  5
252
330
251
100
AcDbEntity
  8
0
 62
     7
420
 16777215
370
     9
100
AcDbVertex
100
AcDb2dVertex
 10
385.9951259201811
 20
173.1684971123633
 30
0.0
  0
VERTEX
  5
253
330
251
100
AcDbEntity
  8
0
 62
     7
420
 16777215
370
     9
100
AcDbVertex
100
AcDb2dVertex
 10
375.9951274265307
 20
173.1739859186566
 30
0.0
  0
SEQEND
  5
254
330
251
100
AcDbEntity
  8
0
 62
     7
420
 16777215
370
     9
  0
POLYLINE
  5
255
330
1F
100
AcDbEntity
  8
0
 62
     7
420
 16777215
370
     9
100
AcDb2dPolyline
 66
     1
 10
0.0
 20
0.0
 30
0.0
  0
VERTEX
  5
256
330
255
100
AcDbEntity
  8
0
 62
     7
420
 16777215
370
     9
100
AcDbVertex
100
AcDb2dVertex
 10
394.9978688172276
 20
178.1630075528971
 30
0.0
  0
VERTEX
  5
257
330
255
100
AcDbEntity
  8
0
 62
     7
420
 16777215
370
     9
100
AcDbVertex
100
AcDb2dVertex
 10
385.997870323327
 20
178.1684963591891
 30
0.0
  0
SEQEND
  5
258
330
255
100
AcDbEntity
  8
0
 62
     7
420
 16777215
370
     9
  0
POLYLINE
  5
259
330
1F
100
AcDbEntity
  8
0
 62
     7
420
 16777215
370
     9
100
AcDb2dPolyline
 66
     1
 10
0.0
 20
0.0
 30
0.0
  0
VERTEX
  5
25A
330
259
100
AcDbEntity
  8
0
 62
     7
420
 16777215
370
     9
100
AcDbVertex
100
AcDb2dVertex
 10
340.8408774455508
 20
178.1932821615867
 30
0.0
  0
VERTEX
  5
25B
330
259
100
AcDbEntity
  8
0
 62
     7
420
 16777215
370
     9
100
AcDbVertex
100
AcDb2dVertex
 10
350.8408759392012
 20
178.1877933552947
 30
0.0
  0
SEQEND
  5
25C
330
259
100
AcDbEntity
  8
0
 62
     7
420
 16777215
370
     9
  0
POLYLINE
  5
25D
330
1F
100
AcDbEntity
  8
0
 62
     7
420
 16777215
370
     9
100
AcDb2dPolyline
 66
     1
 10
0.0
 20
0.0
 30
0.0
  0
VERTEX
  5
25E
330
25D
100
AcDbEntity
  8
0
 62
     7
420
 16777215
370
     9
100
AcDbVertex
100
AcDb2dVertex
 10
165.9782676422365
 20
7.139298573523101
 30
0.0
  0
VERTEX
  5
25F
330
25D
100
AcDbEntity
  8
0
 62
     7
420
 16777215
370
     9
100
AcDbVertex
100
AcDb2dVertex
 10
178.1937281326874
 20
7.139298573523101
 30
0.0
  0
SEQEND
  5
260
330
25D
100
AcDbEntity
  8
0
 62
     7
420
 16777215
370
     9
  0
POLYLINE
  5
261
330
1F
100
AcDbEntity
  8
0
 62
     7
420
 16777215
370
     9
100
AcDb2dPolyline
 66
     1
 10
0.0
 20
0.0
 30
0.0
  0
VERTEX
  5
262
330
261
100
AcDbEntity
  8
0
 62
     7
420
 16777215
370
     9
100
AcDbVertex
100
AcDb2dVertex
 10
340.8408774455508
 20
178.1932821615867
 30
0.0
  0
VERTEX
  5
263
330
261
100
AcDbEntity
  8
0
 62
     7
420
 16777215
370
     9
100
AcDbVertex
100
AcDb2dVertex
 10
340.9782676422375
 20
7.139298573523101
 30
0.0
  0
SEQEND
  5
264
330
261
100
AcDbEntity
  8
0
 62
     7
420
 16777215
370
     9
  0
POLYLINE
  5
265
330
1F
100
AcDbEntity
  8
0
 62
     7
420
 16777215
370
     9
100
AcDb2dPolyline
 66
     1
 10
0.0
 20
0.0
 30
0.0
  0
VERTEX
  5
266
330
265
100
AcDbEntity
  8
0
 62
     7
420
 16777215
370
     9
100
AcDbVertex
100
AcDb2dVertex
 10
394.9978688172276
 20
178.1630075528971
 30
0.0
  0
VERTEX
  5
267
330
265
100
AcDbEntity
  8
0
 62
     7
420
 16777215
370
     9
100
AcDbVertex
100
AcDb2dVertex
 10
395.0415413224874
 20
167.1917985435231
 30
0.0
  0
SEQEND
  5
268
330
265
100
AcDbEntity
  8
0
 62
     7
420
 16777215
370
     9
  0
POLYLINE
  5
269
330
1F
100
AcDbEntity
  8
0
 62
     7
420
 16777215
370
     9
100
AcDb2dPolyline
 66
     1
 10
0.0
 20
0.0
 30
0.0
  0
VERTEX
  5
26A
330
269
100
AcDbEntity
  8
0
 62
     7
420
 16777215
370
     9
100
AcDbVertex
100
AcDb2dVertex
 10
165.9782663722371
 20
-70.54165805422959
 30
0.0
  0
VERTEX
  5
26B
330
269
100
AcDbEntity
  8
0
 62
     7
420
 16777215
370
     9
100
AcDbVertex
100
AcDb2dVertex
 10
171.8017212618473
 20
-70.5408767398844
 30
0.0
  0
SEQEND
  5
26C
330
269
100
AcDbEntity
  8
0
 62
     7
420
 16777215
370
     9
  0
POLYLINE
  5
26D
330
1F
100
AcDbEntity
  8
0
 62
     7
420
 16777215
370
     9
100
AcDb2dPolyline
 66
     1
 10
0.0
 20
0.0
 30
0.0
  0
VERTEX
  5
26E
330
26D
100
AcDbEntity
  8
0
 62
     7
420
 16777215
370
     9
100
AcDbVertex
100
AcDb2dVertex
 10
103.8274217995977
 20
-70.71840210864251
 30
0.0
  0
VERTEX
  5
332
330
26D
100
AcDbEntity
  8
0
100
AcDbVertex
100
AcDb2dVertex
 10
103.8274217995977
 20
-70.71840210864251
 30
0.0
  0
SEQEND
  5
26F
330
26D
100
AcDbEntity
  8
0
 62
     7
420
 16777215
370
     9
  0
POLYLINE
  5
270
330
1F
100
AcDbEntity
  8
0
 62
     7
420
 16777215
370
     9
100
AcDb2dPolyline
 66
     1
 10
0.0
 20
0.0
 30
0.0
  0
VERTEX
  5
271
330
270
100
AcDbEntity
  8
0
 62
     7
420
 16777215
370
     9
100
AcDbVertex
100
AcDb2dVertex
 10
102.8274217998479
 20
-83.46842739102154
 30
0.0
  0
VERTEX
  5
333
330
270
100
AcDbEntity
  8
0
100
AcDbVertex
100
AcDb2dVertex
 10
102.8274217998479
 20
-83.46842739102154
 30
0.0
  0
SEQEND
  5
272
330
270
100
AcDbEntity
  8
0
 62
     7
420
 16777215
370
     9
  0
POLYLINE
  5
273
330
1F
100
AcDbEntity
  8
0
 62
     7
420
 16777215
370
     9
100
AcDb2dPolyline
 66
     1
 10
0.0
 20
0.0
 30
0.0
  0
VERTEX
  5
274
330
273
100
AcDbEntity
  8
0
 62
     7
420
 16777215
370
     9
100
AcDbVertex
100
AcDb2dVertex
 10
103.8274217995977
 20
-70.71840210864251
 30
0.0
  0
VERTEX
  5
275
330
273
100
AcDbEntity
  8
0
 62
     7
420
 16777215
370
     9
100
AcDbVertex
100
AcDb2dVertex
 10
103.8274217995977
 20
-65.791993799049
 30
0.0
  0
VERTEX
  5
276
330
273
100
AcDbEntity
  8
0
 62
     7
420
 16777215
370
     9
100
AcDbVertex
100
AcDb2dVertex
 10
103.9211452595974
 20
-65.69826779904854
 30
0.0
  0
VERTEX
  5
277
330
273
100
AcDbEntity
  8
0
 62
     7
420
 16777215
370
     9
100
AcDbVertex
100
AcDb2dVertex
 10
107.8274194198473
 20
-65.69826779904854
 30
0.0
  0
VERTEX
  5
278
330
273
100
AcDbEntity
  8
0
 62
     7
420
 16777215
370
     9
100
AcDbVertex
100
AcDb2dVertex
 10
107.8274194198473
 20
-44.14326899904886
 30
0.0
  0
VERTEX
  5
279
330
273
100
AcDbEntity
  8
0
 62
     7
420
 16777215
370
     9
100
AcDbVertex
100
AcDb2dVertex
 10
103.9211452595974
 20
-44.14326899904886
 30
0.0
  0
VERTEX
  5
27A
330
273
100
AcDbEntity
  8
0
 62
     7
420
 16777215
370
     9
100
AcDbVertex
100
AcDb2dVertex
 10
103.8274217995977
 20
-44.04954299904905
 30
0.0
  0
VERTEX
  5
27B
330
273
100
AcDbEntity
  8
0
 62
     7
420
 16777215
370
     9
100
AcDbVertex
100
AcDb2dVertex
 10
103.8274217995977
 20
-22.04199493904906
 30
0.0
  0
VERTEX
  5
27C
330
273
100
AcDbEntity
  8
0
 62
     7
420
 16777215
370
     9
100
AcDbVertex
100
AcDb2dVertex
 10
103.9211452595974
 20
-21.94826893904859
 30
0.0
  0
VERTEX
  5
27D
330
273
100
AcDbEntity
  8
0
 62
     7
420
 16777215
370
     9
100
AcDbVertex
100
AcDb2dVertex
 10
107.8274194198473
 20
-21.94826893904859
 30
0.0
  0
VERTEX
  5
27E
330
273
100
AcDbEntity
  8
0
 62
     7
420
 16777215
370
     9
100
AcDbVertex
100
AcDb2dVertex
 10
107.8274194198473
 20
-0.393267599048835
 30
0.0
  0
VERTEX
  5
27F
330
273
100
AcDbEntity
  8
0
 62
     7
420
 16777215
370
     9
100
AcDbVertex
100
AcDb2dVertex
 10
103.9211452595974
 20
-0.393267599048835
 30
0.0
  0
VERTEX
  5
280
330
273
100
AcDbEntity
  8
0
 62
     7
420
 16777215
370
     9
100
AcDbVertex
100
AcDb2dVertex
 10
103.8274217995977
 20
-0.2995441390484613
 30
0.0
  0
VERTEX
  5
281
330
273
100
AcDbEntity
  8
0
 62
     7
420
 16777215
370
     9
100
AcDbVertex
100
AcDb2dVertex
 10
103.8274217995977
 20
21.70800646095097
 30
0.0
  0
VERTEX
  5
282
330
273
100
AcDbEntity
  8
0
 62
     7
420
 16777215
370
     9
100
AcDbVertex
100
AcDb2dVertex
 10
103.9211452595974
 20
21.80173246095143
 30
0.0
  0
VERTEX
  5
283
330
273
100
AcDbEntity
  8
0
 62
     7
420
 16777215
370
     9
100
AcDbVertex
100
AcDb2dVertex
 10
107.8274194198473
 20
21.80173246095143
 30
0.0
  0
VERTEX
  5
284
330
273
100
AcDbEntity
  8
0
 62
     7
420
 16777215
370
     9
100
AcDbVertex
100
AcDb2dVertex
 10
107.8274194198473
 20
43.3567312609511
 30
0.0
  0
VERTEX
  5
285
330
273
100
AcDbEntity
  8
0
 62
     7
420
 16777215
370
     9
100
AcDbVertex
100
AcDb2dVertex
 10
103.9211452595974
 20
43.3567312609511
 30
0.0
  0
VERTEX
  5
286
330
273
100
AcDbEntity
  8
0
 62
     7
420
 16777215
370
     9
100
AcDbVertex
100
AcDb2dVertex
 10
103.8274217995977
 20
43.45045726095157
 30
0.0
  0
VERTEX
  5
287
330
273
100
AcDbEntity
  8
0
 62
     7
420
 16777215
370
     9
100
AcDbVertex
100
AcDb2dVertex
 10
103.8274217995977
 20
65.45800532095156
 30
0.0
  0
VERTEX
  5
288
330
273
100
AcDbEntity
  8
0
 62
     7
420
 16777215
370
     9
100
AcDbVertex
100
AcDb2dVertex
 10
103.9211452595974
 20
65.55173132095138
 30
0.0
  0
VERTEX
  5
289
330
273
100
AcDbEntity
  8
0
 62
     7
420
 16777215
370
     9
100
AcDbVertex
100
AcDb2dVertex
 10
107.8274194198473
 20
65.55173132095138
 30
0.0
  0
VERTEX
  5
28A
330
273
100
AcDbEntity
  8
0
 62
     7
420
 16777215
370
     9
100
AcDbVertex
100
AcDb2dVertex
 10
107.8274194198473
 20
87.10673012095104
 30
0.0
  0
VERTEX
  5
28B
330
273
100
AcDbEntity
  8
0
 62
     7
420
 16777215
370
     9
100
AcDbVertex
100
AcDb2dVertex
 10
103.9211452595974
 20
87.10673012095104
 30
0.0
  0
VERTEX
  5
28C
330
273
100
AcDbEntity
  8
0
 62
     7
420
 16777215
370
     9
100
AcDbVertex
100
AcDb2dVertex
 10
103.8274217995977
 20
87.2004561209515
 30
0.0
  0
VERTEX
  5
28D
330
273
100
AcDbEntity
  8
0
 62
     7
420
 16777215
370
     9
100
AcDbVertex
100
AcDb2dVertex
 10
103.8274217995977
 20
109.2080041809515
 30
0.0
  0
VERTEX
  5
28E
330
273
100
AcDbEntity
  8
0
 62
     7
420
 16777215
370
     9
100
AcDbVertex
100
AcDb2dVertex
 10
103.9211452595974
 20
109.3017301809513
 30
0.0
  0
VERTEX
  5
28F
330
273
100
AcDbEntity
  8
0
 62
     7
420
 16777215
370
     9
100
AcDbVertex
100
AcDb2dVertex
 10
107.8274194198473
 20
109.3017301809513
 30
0.0
  0
VERTEX
  5
290
330
273
100
AcDbEntity
  8
0
 62
     7
420
 16777215
370
     9
100
AcDbVertex
100
AcDb2dVertex
 10
107.8274194198473
 20
130.8567315209511
 30
0.0
  0
VERTEX
  5
291
330
273
100
AcDbEntity
  8
0
 62
     7
420
 16777215
370
     9
100
AcDbVertex
100
AcDb2dVertex
 10
103.9211452595974
 20
130.8567315209511
 30
0.0
  0
VERTEX
  5
292
330
273
100
AcDbEntity
  8
0
 62
     7
420
 16777215
370
     9
100
AcDbVertex
100
AcDb2dVertex
 10
103.8274217995977
 20
130.9504575209509
 30
0.0
  0
VERTEX
  5
293
330
273
100
AcDbEntity
  8
0
 62
     7
420
 16777215
370
     9
100
AcDbVertex
100
AcDb2dVertex
 10
103.8274217995977
 20
152.9580055809515
 30
0.0
  0
VERTEX
  5
294
330
273
100
AcDbEntity
  8
0
 62
     7
420
 16777215
370
     9
100
AcDbVertex
100
AcDb2dVertex
 10
103.9211452595974
 20
153.0517315809514
 30
0.0
  0
VERTEX
  5
295
330
273
100
AcDbEntity
  8
0
 62
     7
420
 16777215
370
     9
100
AcDbVertex
100
AcDb2dVertex
 10
107.8274194198473
 20
153.0517315809514
 30
0.0
  0
VERTEX
  5
296
330
273
100
AcDbEntity
  8
0
 62
     7
420
 16777215
370
     9
100
AcDbVertex
100
AcDb2dVertex
 10
107.8274194198473
 20
173.2611044209513
 30
0.0
  0
VERTEX
  5
297
330
273
100
AcDbEntity
  8
0
 62
     7
420
 16777215
370
     9
100
AcDbVertex
100
AcDb2dVertex
 10
107.9211454198471
 20
173.3548304209511
 30
0.0
  0
VERTEX
  5
298
330
273
100
AcDbEntity
  8
0
 62
     7
420
 16777215
370
     9
100
AcDbVertex
100
AcDb2dVertex
 10
125.0119214998471
 20
173.3548304209511
 30
0.0
  0
VERTEX
  5
299
330
273
100
AcDbEntity
  8
0
 62
     7
420
 16777215
370
     9
100
AcDbVertex
100
AcDb2dVertex
 10
125.0119214998471
 20
177.2611045812014
 30
0.0
  0
VERTEX
  5
29A
330
273
100
AcDbEntity
  8
0
 62
     7
420
 16777215
370
     9
100
AcDbVertex
100
AcDb2dVertex
 10
125.1056474998482
 20
177.3548305812012
 30
0.0
  0
VERTEX
  5
29B
330
273
100
AcDbEntity
  8
0
 62
     7
420
 16777215
370
     9
100
AcDbVertex
100
AcDb2dVertex
 10
147.1131955598476
 20
177.3548305812012
 30
0.0
  0
VERTEX
  5
29C
330
273
100
AcDbEntity
  8
0
 62
     7
420
 16777215
370
     9
100
AcDbVertex
100
AcDb2dVertex
 10
147.2069215598474
 20
177.2611045812014
 30
0.0
  0
VERTEX
  5
29D
330
273
100
AcDbEntity
  8
0
 62
     7
420
 16777215
370
     9
100
AcDbVertex
100
AcDb2dVertex
 10
147.2069215598474
 20
173.3548304209511
 30
0.0
  0
VERTEX
  5
29E
330
273
100
AcDbEntity
  8
0
 62
     7
420
 16777215
370
     9
100
AcDbVertex
100
AcDb2dVertex
 10
168.7619203598483
 20
173.3548304209511
 30
0.0
  0
VERTEX
  5
29F
330
273
100
AcDbEntity
  8
0
 62
     7
420
 16777215
370
     9
100
AcDbVertex
100
AcDb2dVertex
 10
168.7619203598483
 20
177.2611045812014
 30
0.0
  0
VERTEX
  5
2A0
330
273
100
AcDbEntity
  8
0
 62
     7
420
 16777215
370
     9
100
AcDbVertex
100
AcDb2dVertex
 10
168.8556463598482
 20
177.3548305812012
 30
0.0
  0
VERTEX
  5
2A1
330
273
100
AcDbEntity
  8
0
 62
     7
420
 16777215
370
     9
100
AcDbVertex
100
AcDb2dVertex
 10
190.8631944198481
 20
177.3548305812012
 30
0.0
  0
VERTEX
  5
2A2
330
273
100
AcDbEntity
  8
0
 62
     7
420
 16777215
370
     9
100
AcDbVertex
100
AcDb2dVertex
 10
190.956920419848
 20
177.2611045812014
 30
0.0
  0
VERTEX
  5
2A3
330
273
100
AcDbEntity
  8
0
 62
     7
420
 16777215
370
     9
100
AcDbVertex
100
AcDb2dVertex
 10
190.956920419848
 20
173.3548304209511
 30
0.0
  0
VERTEX
  5
2A4
330
273
100
AcDbEntity
  8
0
 62
     7
420
 16777215
370
     9
100
AcDbVertex
100
AcDb2dVertex
 10
212.5119217598477
 20
173.3548304209511
 30
0.0
  0
VERTEX
  5
2A5
330
273
100
AcDbEntity
  8
0
 62
     7
420
 16777215
370
     9
100
AcDbVertex
100
AcDb2dVertex
 10
212.5119217598477
 20
177.2611045812014
 30
0.0
  0
VERTEX
  5
2A6
330
273
100
AcDbEntity
  8
0
 62
     7
420
 16777215
370
     9
100
AcDbVertex
100
AcDb2dVertex
 10
212.6056452198474
 20
177.3548305812012
 30
0.0
  0
VERTEX
  5
2A7
330
273
100
AcDbEntity
  8
0
 62
     7
420
 16777215
370
     9
100
AcDbVertex
100
AcDb2dVertex
 10
234.6131958198475
 20
177.3548305812012
 30
0.0
  0
VERTEX
  5
2A8
330
273
100
AcDbEntity
  8
0
 62
     7
420
 16777215
370
     9
100
AcDbVertex
100
AcDb2dVertex
 10
234.7069218198473
 20
177.2611045812014
 30
0.0
  0
VERTEX
  5
2A9
330
273
100
AcDbEntity
  8
0
 62
     7
420
 16777215
370
     9
100
AcDbVertex
100
AcDb2dVertex
 10
234.7069218198473
 20
173.3548304209511
 30
0.0
  0
VERTEX
  5
2AA
330
273
100
AcDbEntity
  8
0
 62
     7
420
 16777215
370
     9
100
AcDbVertex
100
AcDb2dVertex
 10
256.2619206198483
 20
173.3548304209511
 30
0.0
  0
VERTEX
  5
2AB
330
273
100
AcDbEntity
  8
0
 62
     7
420
 16777215
370
     9
100
AcDbVertex
100
AcDb2dVertex
 10
256.2619206198483
 20
177.2611045812014
 30
0.0
  0
VERTEX
  5
2AC
330
273
100
AcDbEntity
  8
0
 62
     7
420
 16777215
370
     9
100
AcDbVertex
100
AcDb2dVertex
 10
256.3556466198481
 20
177.3548305812012
 30
0.0
  0
VERTEX
  5
2AD
330
273
100
AcDbEntity
  8
0
 62
     7
420
 16777215
370
     9
100
AcDbVertex
100
AcDb2dVertex
 10
278.3631946798481
 20
177.3548305812012
 30
0.0
  0
VERTEX
  5
2AE
330
273
100
AcDbEntity
  8
0
 62
     7
420
 16777215
370
     9
100
AcDbVertex
100
AcDb2dVertex
 10
278.4569206798479
 20
177.2611045812014
 30
0.0
  0
VERTEX
  5
2AF
330
273
100
AcDbEntity
  8
0
 62
     7
420
 16777215
370
     9
100
AcDbVertex
100
AcDb2dVertex
 10
278.4569206798479
 20
173.3548304209511
 30
0.0
  0
VERTEX
  5
2B0
330
273
100
AcDbEntity
  8
0
 62
     7
420
 16777215
370
     9
100
AcDbVertex
100
AcDb2dVertex
 10
300.0119194798476
 20
173.3548304209511
 30
0.0
  0
VERTEX
  5
2B1
330
273
100
AcDbEntity
  8
0
 62
     7
420
 16777215
370
     9
100
AcDbVertex
100
AcDb2dVertex
 10
300.0119194798476
 20
177.2611045812014
 30
0.0
  0
VERTEX
  5
2B2
330
273
100
AcDbEntity
  8
0
 62
     7
420
 16777215
370
     9
100
AcDbVertex
100
AcDb2dVertex
 10
300.1056454798474
 20
177.3548305812012
 30
0.0
  0
VERTEX
  5
2B3
330
273
100
AcDbEntity
  8
0
 62
     7
420
 16777215
370
     9
100
AcDbVertex
100
AcDb2dVertex
 10
322.1131935398474
 20
177.3548305812012
 30
0.0
  0
VERTEX
  5
2B4
330
273
100
AcDbEntity
  8
0
 62
     7
420
 16777215
370
     9
100
AcDbVertex
100
AcDb2dVertex
 10
322.2063875135367
 20
177.2616362770247
 30
0.0
  0
VERTEX
  5
2B5
330
273
100
AcDbEntity
  8
0
 62
     7
420
 16777215
370
     9
100
AcDbVertex
100
AcDb2dVertex
 10
322.2063950844521
 20
173.4643284467385
 30
0.0
  0
VERTEX
  5
2B6
330
273
100
AcDbEntity
  8
0
 62
     7
420
 16777215
370
     9
100
AcDbVertex
100
AcDb2dVertex
 10
324.3060031781056
 20
173.4637522295898
 30
0.0
  0
SEQEND
  5
2B7
330
273
100
AcDbEntity
  8
0
 62
     7
420
 16777215
370
     9
  0
POLYLINE
  5
2B8
330
1F
100
AcDbEntity
  8
0
 62
     7
420
 16777215
370
     9
100
AcDb2dPolyline
 66
     1
 10
0.0
 20
0.0
 30
0.0
  0
VERTEX
  5
2B9
330
2B8
100
AcDbEntity
  8
0
 62
     7
420
 16777215
370
     9
100
AcDbVertex
100
AcDb2dVertex
 10
157.984421479848
 20
-67.88506183388789
 30
0.0
  0
VERTEX
  5
2BA
330
2B8
100
AcDbEntity
  8
0
 62
     7
420
 16777215
370
     9
100
AcDbVertex
100
AcDb2dVertex
 10
157.984421479848
 20
94.35423217095112
 30
0.0
  0
SEQEND
  5
2BB
330
2B8
100
AcDbEntity
  8
0
 62
     7
420
 16777215
370
     9
  0
POLYLINE
  5
2BC
330
1F
100
AcDbEntity
  8
0
 62
     7
420
 16777215
370
     9
100
AcDb2dPolyline
 66
     1
 10
0.0
 20
0.0
 30
0.0
  0
VERTEX
  5
2BD
330
2BC
100
AcDbEntity
  8
0
 62
     7
420
 16777215
370
     9
100
AcDbVertex
100
AcDb2dVertex
 10
157.984421479848
 20
-67.88506183388789
 30
0.0
  0
VERTEX
  5
334
330
2BC
100
AcDbEntity
  8
0
100
AcDbVertex
100
AcDb2dVertex
 10
157.984421479848
 20
-67.88506183388789
 30
0.0
  0
SEQEND
  5
2BE
330
2BC
100
AcDbEntity
  8
0
 62
     7
420
 16777215
370
     9
  0
POLYLINE
  5
2BF
330
1F
100
AcDbEntity
  8
0
 62
     7
420
 16777215
370
     9
100
AcDb2dPolyline
 66
     1
 10
0.0
 20
0.0
 30
0.0
  0
VERTEX
  5
2C0
330
2BF
100
AcDbEntity
  8
0
 62
     7
420
 16777215
370
     9
100
AcDbVertex
100
AcDb2dVertex
 10
325.1074186419434
 20
94.35423217095112
 30
0.0
  0
VERTEX
  5
335
330
2BF
100
AcDbEntity
  8
0
100
AcDbVertex
100
AcDb2dVertex
 10
325.1074186419434
 20
94.35423217095112
 30
0.0
  0
SEQEND
  5
2C1
330
2BF
100
AcDbEntity
  8
0
 62
     7
420
 16777215
370
     9
  0
POLYLINE
  5
2C2
330
1F
100
AcDbEntity
  8
0
 62
     7
420
 16777215
370
     9
100
AcDb2dPolyline
 66
     1
 10
0.0
 20
0.0
 30
0.0
  0
VERTEX
  5
2C3
330
2C2
100
AcDbEntity
  8
0
 62
     7
420
 16777215
370
     9
100
AcDbVertex
100
AcDb2dVertex
 10
157.984421479848
 20
94.35423217095112
 30
0.0
  0
VERTEX
  5
2C4
330
2C2
100
AcDbEntity
  8
0
 62
     7
420
 16777215
370
     9
100
AcDbVertex
100
AcDb2dVertex
 10
325.1074186419434
 20
94.35423217095112
 30
0.0
  0
SEQEND
  5
2C5
330
2C2
100
AcDbEntity
  8
0
 62
     7
420
 16777215
370
     9
  0
SPLINE
  5
2C6
330
1F
100
AcDbEntity
  8
0
 62
     7
420
 16777215
370
     9
100
AcDbSpline
210
0.0
220
0.0
230
1.0
 70
    11
 71
     3
 72
    20
 73
    16
 74
     0
 42
0.0000000001
 43
0.0000000001
 12
1.0
 22
0.0
 32
0.0
 13
1.0
 23
0.0
 33
0.0
 40
0.0
 40
0.0
 40
0.0
 40
0.0
 40
1.0
 40
1.0
 40
1.0
 40
2.0
 40
2.0
 40
2.0
 40
3.0
 40
3.0
 40
3.0
 40
4.0
 40
4.0
 40
4.0
 40
5.0
 40
5.0
 40
5.0
 40
5.0
 10
174.9132892680365
 20
103.2456097175421
 30
0.0
 10
174.9132892680365
 20
104.9024639670343
 30
0.0
 10
176.2564350185437
 20
106.2456097175416
 30
0.0
 10
177.9132892680359
 20
106.2456097175416
 30
0.0
 10
179.5701435175282
 20
106.2456097175416
 30
0.0
 10
180.9132892680367
 20
104.9024639670343
 30
0.0
 10
180.9132892680367
 20
103.2456097175421
 30
0.0
 10
180.9132892680367
 20
101.5887554680492
 30
0.0
 10
179.5701435175282
 20
100.245609717542
 30
0.0
 10
177.9132892680359
 20
100.245609717542
 30
0.0
 10
176.2564350185437
 20
100.245609717542
 30
0.0
 10
174.9132892680365
 20
101.5887554680492
 30
0.0
 10
174.9132892680365
 20
103.2456097175421
 30
0.0
 10
174.9132892680365
 20
103.2456097175421
 30
0.0
 10
174.9132892680365
 20
103.2456097175421
 30
0.0
 10
174.9132892680365
 20
103.2456097175421
 30
0.0
  0
SPLINE
  5
2C7
330
1F
100
AcDbEntity
  8
0
 62
     7
420
 16777215
370
     9
100
AcDbSpline
210
0.0
220
0.0
230
1.0
 70
    11
 71
     3
 72
    20
 73
    16
 74
     0
 42
0.0000000001
 43
0.0000000001
 12
1.0
 22
0.0
 32
0.0
 13
1.0
 23
0.0
 33
0.0
 40
0.0
 40
0.0
 40
0.0
 40
0.0
 40
1.0
 40
1.0
 40
1.0
 40
2.0
 40
2.0
 40
2.0
 40
3.0
 40
3.0
 40
3.0
 40
4.0
 40
4.0
 40
4.0
 40
5.0
 40
5.0
 40
5.0
 40
5.0
 10
168.9132897249683
 20
163.2456092606969
 30
0.0
 10
168.9132897249683
 20
164.9024635101891
 30
0.0
 10
170.2564354754768
 20
166.245609260697
 30
0.0
 10
171.913289724969
 20
166.245609260697
 30
0.0
 10
173.5701439744613
 20
166.245609260697
 30
0.0
 10
174.9132897249685
 20
164.9024635101891
 30
0.0
 10
174.9132897249685
 20
163.2456092606969
 30
0.0
 10
174.9132897249685
 20
161.5887550112046
 30
0.0
 10
173.5701439744613
 20
160.2456092606968
 30
0.0
 10
171.913289724969
 20
160.2456092606968
 30
0.0
 10
170.2564354754768
 20
160.2456092606968
 30
0.0
 10
168.9132897249683
 20
161.5887550112046
 30
0.0
 10
168.9132897249683
 20
163.2456092606969
 30
0.0
 10
168.9132897249683
 20
163.2456092606969
 30
0.0
 10
168.9132897249683
 20
163.2456092606969
 30
0.0
 10
168.9132897249683
 20
163.2456092606969
 30
0.0
  0
SPLINE
  5
2C8
330
1F
100
AcDbEntity
  8
0
 62
     7
420
 16777215
370
     9
100
AcDbSpline
210
0.0
220
0.0
230
1.0
 70
    11
 71
     3
 72
    20
 73
    16
 74
     0
 42
0.0000000001
 43
0.0000000001
 12
1.0
 22
0.0
 32
0.0
 13
1.0
 23
0.0
 33
0.0
 40
0.0
 40
0.0
 40
0.0
 40
0.0
 40
1.0
 40
1.0
 40
1.0
 40
2.0
 40
2.0
 40
2.0
 40
3.0
 40
3.0
 40
3.0
 40
4.0
 40
4.0
 40
4.0
 40
5.0
 40
5.0
 40
5.0
 40
5.0
 10
162.913289724687
 20
115.2456092608922
 30
0.0
 10
162.913289724687
 20
116.902463510385
 30
0.0
 10
164.2564354751956
 20
118.2456092608923
 30
0.0
 10
165.9132897246878
 20
118.2456092608923
 30
0.0
 10
167.57014397418
 20
118.2456092608923
 30
0.0
 10
168.9132897246872
 20
116.902463510385
 30
0.0
 10
168.9132897246872
 20
115.2456092608922
 30
0.0
 10
168.9132897246872
 20
113.5887550114
 30
0.0
 10
167.57014397418
 20
112.2456092608921
 30
0.0
 10
165.9132897246878
 20
112.2456092608921
 30
0.0
 10
164.2564354751956
 20
112.2456092608921
 30
0.0
 10
162.913289724687
 20
113.5887550114
 30
0.0
 10
162.913289724687
 20
115.2456092608922
 30
0.0
 10
162.913289724687
 20
115.2456092608922
 30
0.0
 10
162.913289724687
 20
115.2456092608922
 30
0.0
 10
162.913289724687
 20
115.2456092608922
 30
0.0
  0
SPLINE
  5
2C9
330
1F
100
AcDbEntity
  8
0
 62
     7
420
 16777215
370
     9
100
AcDbSpline
210
0.0
220
0.0
230
1.0
 70
    11
 71
     3
 72
    20
 73
    16
 74
     0
 42
0.0000000001
 43
0.0000000001
 12
1.0
 22
0.0
 32
0.0
 13
1.0
 23
0.0
 33
0.0
 40
0.0
 40
0.0
 40
0.0
 40
0.0
 40
1.0
 40
1.0
 40
1.0
 40
2.0
 40
2.0
 40
2.0
 40
3.0
 40
3.0
 40
3.0
 40
4.0
 40
4.0
 40
4.0
 40
5.0
 40
5.0
 40
5.0
 40
5.0
 10
114.9132897248823
 20
109.2456092606173
 30
0.0
 10
114.9132897248823
 20
110.9024635101095
 30
0.0
 10
116.2564354753896
 20
112.2456092606168
 30
0.0
 10
117.9132897248818
 20
112.2456092606168
 30
0.0
 10
119.570143974374
 20
112.2456092606168
 30
0.0
 10
120.9132897248813
 20
110.9024635101095
 30
0.0
 10
120.9132897248813
 20
109.2456092606173
 30
0.0
 10
120.9132897248813
 20
107.5887550111244
 30
0.0
 10
119.570143974374
 20
106.2456092606172
 30
0.0
 10
117.9132897248818
 20
106.2456092606172
 30
0.0
 10
116.2564354753896
 20
106.2456092606172
 30
0.0
 10
114.9132897248823
 20
107.5887550111244
 30
0.0
 10
114.9132897248823
 20
109.2456092606173
 30
0.0
 10
114.9132897248823
 20
109.2456092606173
 30
0.0
 10
114.9132897248823
 20
109.2456092606173
 30
0.0
 10
114.9132897248823
 20
109.2456092606173
 30
0.0
  0
SPLINE
  5
2CA
330
1F
100
AcDbEntity
  8
0
 62
     7
420
 16777215
370
     9
100
AcDbSpline
210
0.0
220
0.0
230
1.0
 70
    11
 71
     3
 72
    20
 73
    16
 74
     0
 42
0.0000000001
 43
0.0000000001
 12
1.0
 22
0.0
 32
0.0
 13
1.0
 23
0.0
 33
0.0
 40
0.0
 40
0.0
 40
0.0
 40
0.0
 40
1.0
 40
1.0
 40
1.0
 40
2.0
 40
2.0
 40
2.0
 40
3.0
 40
3.0
 40
3.0
 40
4.0
 40
4.0
 40
4.0
 40
5.0
 40
5.0
 40
5.0
 40
5.0
 10
120.9132897251559
 20
157.245609260422
 30
0.0
 10
120.9132897251559
 20
158.9024635099142
 30
0.0
 10
122.2564354756632
 20
160.2456092604221
 30
0.0
 10
123.9132897251554
 20
160.2456092604221
 30
0.0
 10
125.5701439746476
 20
160.2456092604221
 30
0.0
 10
126.9132897251561
 20
158.9024635099142
 30
0.0
 10
126.9132897251561
 20
157.245609260422
 30
0.0
 10
126.9132897251561
 20
155.5887550109298
 30
0.0
 10
125.5701439746476
 20
154.2456092604219
 30
0.0
 10
123.9132897251554
 20
154.2456092604219
 30
0.0
 10
122.2564354756632
 20
154.2456092604219
 30
0.0
 10
120.9132897251559
 20
155.5887550109298
 30
0.0
 10
120.9132897251559
 20
157.245609260422
 30
0.0
 10
120.9132897251559
 20
157.245609260422
 30
0.0
 10
120.9132897251559
 20
157.245609260422
 30
0.0
 10
120.9132897251559
 20
157.245609260422
 30
0.0
  0
SPLINE
  5
2CB
330
1F
100
AcDbEntity
  8
0
 62
     7
420
 16777215
370
     9
100
AcDbSpline
210
0.0
220
0.0
230
1.0
 70
    11
 71
     3
 72
    20
 73
    16
 74
     0
 42
0.0000000001
 43
0.0000000001
 12
1.0
 22
0.0
 32
0.0
 13
1.0
 23
0.0
 33
0.0
 40
0.0
 40
0.0
 40
0.0
 40
0.0
 40
1.0
 40
1.0
 40
1.0
 40
2.0
 40
2.0
 40
2.0
 40
3.0
 40
3.0
 40
3.0
 40
4.0
 40
4.0
 40
4.0
 40
5.0
 40
5.0
 40
5.0
 40
5.0
 10
141.9132897249359
 20
136.2456092606459
 30
0.0
 10
141.9132897249359
 20
137.9024635101381
 30
0.0
 10
143.2564354754444
 20
139.245609260646
 30
0.0
 10
144.9132897249367
 20
139.245609260646
 30
0.0
 10
146.5701439744289
 20
139.245609260646
 30
0.0
 10
147.9132897249361
 20
137.9024635101381
 30
0.0
 10
147.9132897249361
 20
136.2456092606459
 30
0.0
 10
147.9132897249361
 20
134.5887550111536
 30
0.0
 10
146.5701439744289
 20
133.2456092606458
 30
0.0
 10
144.9132897249367
 20
133.2456092606458
 30
0.0
 10
143.2564354754444
 20
133.2456092606458
 30
0.0
 10
141.9132897249359
 20
134.5887550111536
 30
0.0
 10
141.9132897249359
 20
136.2456092606459
 30
0.0
 10
141.9132897249359
 20
136.2456092606459
 30
0.0
 10
141.9132897249359
 20
136.2456092606459
 30
0.0
 10
141.9132897249359
 20
136.2456092606459
 30
0.0
  0
POLYLINE
  5
2CC
330
1F
100
AcDbEntity
  8
0
 62
     7
420
 16777215
370
     9
100
AcDb2dPolyline
 66
     1
 10
0.0
 20
0.0
 30
0.0
  0
VERTEX
  5
2CD
330
2CC
100
AcDbEntity
  8
0
 62
     7
420
 16777215
370
     9
100
AcDbVertex
100
AcDb2dVertex
 10
332.9844202098477
 20
173.461370521909
 30
0.0
  0
VERTEX
  5
2CE
330
2CC
100
AcDbEntity
  8
0
 62
     7
420
 16777215
370
     9
100
AcDbVertex
100
AcDb2dVertex
 10
332.9844202098477
 20
158.4613705219091
 30
0.0
  0
SEQEND
  5
2CF
330
2CC
100
AcDbEntity
  8
0
 62
     7
420
 16777215
370
     9
  0
POLYLINE
  5
2D0
330
1F
100
AcDbEntity
  8
0
 62
     7
420
 16777215
370
     9
100
AcDb2dPolyline
 66
     1
 10
0.0
 20
0.0
 30
0.0
  0
VERTEX
  5
2D1
330
2D0
100
AcDbEntity
  8
0
 62
     7
420
 16777215
370
     9
100
AcDbVertex
100
AcDb2dVertex
 10
332.9844202098477
 20
158.4613705219091
 30
0.0
  0
VERTEX
  5
2D2
330
2D0
100
AcDbEntity
  8
0
 62
     7
420
 16777215
370
     9
100
AcDbVertex
100
AcDb2dVertex
 10
337.9844200215535
 20
158.4599983202841
 30
0.0
  0
SEQEND
  5
2D3
330
2D0
100
AcDbEntity
  8
0
 62
     7
420
 16777215
370
     9
  0
POLYLINE
  5
2D4
330
1F
100
AcDbEntity
  8
0
 62
     7
420
 16777215
370
     9
100
AcDb2dPolyline
 66
     1
 10
0.0
 20
0.0
 30
0.0
  0
VERTEX
  5
2D5
330
2D4
100
AcDbEntity
  8
0
 62
     7
420
 16777215
370
     9
100
AcDbVertex
100
AcDb2dVertex
 10
332.9844214798471
 20
94.35423217095112
 30
0.0
  0
VERTEX
  5
2D6
330
2D4
100
AcDbEntity
  8
0
 62
     7
420
 16777215
370
     9
100
AcDbVertex
100
AcDb2dVertex
 10
332.9844214798471
 20
109.3542321709516
 30
0.0
  0
SEQEND
  5
2D7
330
2D4
100
AcDbEntity
  8
0
 62
     7
420
 16777215
370
     9
  0
POLYLINE
  5
2D8
330
1F
100
AcDbEntity
  8
0
 62
     7
420
 16777215
370
     9
100
AcDb2dPolyline
 66
     1
 10
0.0
 20
0.0
 30
0.0
  0
VERTEX
  5
2D9
330
2D8
100
AcDbEntity
  8
0
 62
     7
420
 16777215
370
     9
100
AcDbVertex
100
AcDb2dVertex
 10
332.9844214798471
 20
109.3542321709516
 30
0.0
  0
VERTEX
  5
2DA
330
2D8
100
AcDbEntity
  8
0
 62
     7
420
 16777215
370
     9
100
AcDbVertex
100
AcDb2dVertex
 10
327.9844216681414
 20
109.355604372576
 30
0.0
  0
SEQEND
  5
2DB
330
2D8
100
AcDbEntity
  8
0
 62
     7
420
 16777215
370
     9
  0
POLYLINE
  5
2DC
330
1F
100
AcDbEntity
  8
0
 62
     7
420
 16777215
370
     9
100
AcDb2dPolyline
 66
     1
 10
0.0
 20
0.0
 30
0.0
  0
VERTEX
  5
2DD
330
2DC
100
AcDbEntity
  8
0
 62
     7
420
 16777215
370
     9
100
AcDbVertex
100
AcDb2dVertex
 10
327.9844216681414
 20
109.355604372576
 30
0.0
  0
VERTEX
  5
2DE
330
2DC
100
AcDbEntity
  8
0
 62
     7
420
 16777215
370
     9
100
AcDbVertex
100
AcDb2dVertex
 10
327.9885382730143
 20
124.3556038076946
 30
0.0
  0
SEQEND
  5
2DF
330
2DC
100
AcDbEntity
  8
0
 62
     7
420
 16777215
370
     9
  0
POLYLINE
  5
2E0
330
1F
100
AcDbEntity
  8
0
 62
     7
420
 16777215
370
     9
100
AcDb2dPolyline
 66
     1
 10
0.0
 20
0.0
 30
0.0
  0
VERTEX
  5
2E1
330
2E0
100
AcDbEntity
  8
0
 62
     7
420
 16777215
370
     9
100
AcDbVertex
100
AcDb2dVertex
 10
337.9844200215535
 20
158.4599983202841
 30
0.0
  0
VERTEX
  5
2E2
330
2E0
100
AcDbEntity
  8
0
 62
     7
420
 16777215
370
     9
100
AcDbVertex
100
AcDb2dVertex
 10
337.980303416524
 20
143.4599983202842
 30
0.0
  0
SEQEND
  5
2E3
330
2E0
100
AcDbEntity
  8
0
 62
     7
420
 16777215
370
     9
  0
POLYLINE
  5
2E4
330
1F
100
AcDbEntity
  8
0
 62
     7
420
 16777215
370
     9
100
AcDb2dPolyline
 66
     1
 10
0.0
 20
0.0
 30
0.0
  0
VERTEX
  5
2E5
330
2E4
100
AcDbEntity
  8
0
 62
     7
420
 16777215
370
     9
100
AcDbVertex
100
AcDb2dVertex
 10
327.9885382730143
 20
124.3556038076946
 30
0.0
  0
VERTEX
  5
2E6
330
2E4
100
AcDbEntity
  8
0
 62
     7
420
 16777215
370
     9
100
AcDbVertex
100
AcDb2dVertex
 10
332.9709432315033
 20
124.3542364348074
 30
0.0
  0
SEQEND
  5
2E7
330
2E4
100
AcDbEntity
  8
0
 62
     7
420
 16777215
370
     9
  0
POLYLINE
  5
2E8
330
1F
100
AcDbEntity
  8
0
 62
     7
420
 16777215
370
     9
100
AcDb2dPolyline
 66
     1
 10
0.0
 20
0.0
 30
0.0
  0
VERTEX
  5
2E9
330
2E8
100
AcDbEntity
  8
0
 62
     7
420
 16777215
370
     9
100
AcDbVertex
100
AcDb2dVertex
 10
337.980303416524
 20
143.4599983202842
 30
0.0
  0
VERTEX
  5
2EA
330
2E8
100
AcDbEntity
  8
0
 62
     7
420
 16777215
370
     9
100
AcDbVertex
100
AcDb2dVertex
 10
332.9761870000991
 20
143.461371651671
 30
0.0
  0
SEQEND
  5
2EB
330
2E8
100
AcDbEntity
  8
0
 62
     7
420
 16777215
370
     9
  0
POLYLINE
  5
2EC
330
1F
100
AcDbEntity
  8
0
 62
     7
420
 16777215
370
     9
100
AcDb2dPolyline
 66
     1
 10
0.0
 20
0.0
 30
0.0
  0
VERTEX
  5
2ED
330
2EC
100
AcDbEntity
  8
0
 62
     7
420
 16777215
370
     9
100
AcDbVertex
100
AcDb2dVertex
 10
332.9761870000991
 20
143.461371651671
 30
0.0
  0
VERTEX
  5
2EE
330
2EC
100
AcDbEntity
  8
0
 62
     7
420
 16777215
370
     9
100
AcDbVertex
100
AcDb2dVertex
 10
332.9709432315033
 20
124.3542364348074
 30
0.0
  0
SEQEND
  5
2EF
330
2EC
100
AcDbEntity
  8
0
 62
     7
420
 16777215
370
     9
  0
POLYLINE
  5
2F0
330
1F
100
AcDbEntity
  8
0
 62
     7
420
 16777215
370
     9
100
AcDb2dPolyline
 66
     1
 10
0.0
 20
0.0
 30
0.0
  0
VERTEX
  5
2F1
330
2F0
100
AcDbEntity
  8
0
 62
     7
420
 16777215
370
     9
100
AcDbVertex
100
AcDb2dVertex
 10
103.8274217995977
 20
-76.79576782904898
 30
0.0
  0
VERTEX
  5
2F2
330
2F0
100
AcDbEntity
  8
0
 62
     7
420
 16777215
370
     9
100
AcDbVertex
100
AcDb2dVertex
 10
112.827421799847
 20
-76.79576782904898
 30
0.0
  0
SEQEND
  5
2F3
330
2F0
100
AcDbEntity
  8
0
 62
     7
420
 16777215
370
     9
  0
POLYLINE
  5
2F4
330
1F
100
AcDbEntity
  8
0
 62
     7
420
 16777215
370
     9
100
AcDb2dPolyline
 66
     1
 10
0.0
 20
0.0
 30
0.0
  0
VERTEX
  5
2F5
330
2F4
100
AcDbEntity
  8
0
 62
     7
420
 16777215
370
     9
100
AcDbVertex
100
AcDb2dVertex
 10
112.827421799847
 20
-76.79576782904898
 30
0.0
  0
VERTEX
  5
2F6
330
2F4
100
AcDbEntity
  8
0
 62
     7
420
 16777215
370
     9
100
AcDbVertex
100
AcDb2dVertex
 10
112.827421799847
 20
-81.79576782904853
 30
0.0
  0
SEQEND
  5
2F7
330
2F4
100
AcDbEntity
  8
0
 62
     7
420
 16777215
370
     9
  0
POLYLINE
  5
2F8
330
1F
100
AcDbEntity
  8
0
 62
     7
420
 16777215
370
     9
100
AcDb2dPolyline
 66
     1
 10
0.0
 20
0.0
 30
0.0
  0
VERTEX
  5
2F9
330
2F8
100
AcDbEntity
  8
0
 62
     7
420
 16777215
370
     9
100
AcDbVertex
100
AcDb2dVertex
 10
157.984421479848
 20
-76.79576782904898
 30
0.0
  0
VERTEX
  5
2FA
330
2F8
100
AcDbEntity
  8
0
 62
     7
420
 16777215
370
     9
100
AcDbVertex
100
AcDb2dVertex
 10
147.9844214798477
 20
-76.79576782904898
 30
0.0
  0
SEQEND
  5
2FB
330
2F8
100
AcDbEntity
  8
0
 62
     7
420
 16777215
370
     9
  0
POLYLINE
  5
2FC
330
1F
100
AcDbEntity
  8
0
 62
     7
420
 16777215
370
     9
100
AcDb2dPolyline
 66
     1
 10
0.0
 20
0.0
 30
0.0
  0
VERTEX
  5
2FD
330
2FC
100
AcDbEntity
  8
0
 62
     7
420
 16777215
370
     9
100
AcDbVertex
100
AcDb2dVertex
 10
147.9844214798477
 20
-76.79576782904898
 30
0.0
  0
VERTEX
  5
2FE
330
2FC
100
AcDbEntity
  8
0
 62
     7
420
 16777215
370
     9
100
AcDbVertex
100
AcDb2dVertex
 10
147.9844214798477
 20
-71.79576782904881
 30
0.0
  0
SEQEND
  5
2FF
330
2FC
100
AcDbEntity
  8
0
 62
     7
420
 16777215
370
     9
  0
POLYLINE
  5
300
330
1F
100
AcDbEntity
  8
0
 62
     7
420
 16777215
370
     9
100
AcDb2dPolyline
 66
     1
 10
0.0
 20
0.0
 30
0.0
  0
VERTEX
  5
301
330
300
100
AcDbEntity
  8
0
 62
     7
420
 16777215
370
     9
100
AcDbVertex
100
AcDb2dVertex
 10
112.827421799847
 20
-81.79576782904853
 30
0.0
  0
VERTEX
  5
302
330
300
100
AcDbEntity
  8
0
 62
     7
420
 16777215
370
     9
100
AcDbVertex
100
AcDb2dVertex
 10
122.8274217998473
 20
-81.79576782904853
 30
0.0
  0
SEQEND
  5
303
330
300
100
AcDbEntity
  8
0
 62
     7
420
 16777215
370
     9
  0
POLYLINE
  5
304
330
1F
100
AcDbEntity
  8
0
 62
     7
420
 16777215
370
     9
100
AcDb2dPolyline
 66
     1
 10
0.0
 20
0.0
 30
0.0
  0
VERTEX
  5
305
330
304
100
AcDbEntity
  8
0
 62
     7
420
 16777215
370
     9
100
AcDbVertex
100
AcDb2dVertex
 10
147.9844214798477
 20
-71.79576782904881
 30
0.0
  0
VERTEX
  5
306
330
304
100
AcDbEntity
  8
0
 62
     7
420
 16777215
370
     9
100
AcDbVertex
100
AcDb2dVertex
 10
137.9844214798473
 20
-71.79576782904881
 30
0.0
  0
SEQEND
  5
307
330
304
100
AcDbEntity
  8
0
 62
     7
420
 16777215
370
     9
  0
POLYLINE
  5
308
330
1F
100
AcDbEntity
  8
0
 62
     7
420
 16777215
370
     9
100
AcDb2dPolyline
 66
     1
 10
0.0
 20
0.0
 30
0.0
  0
VERTEX
  5
309
330
308
100
AcDbEntity
  8
0
 62
     7
420
 16777215
370
     9
100
AcDbVertex
100
AcDb2dVertex
 10
122.8274217998473
 20
-81.79576782904853
 30
0.0
  0
VERTEX
  5
30A
330
308
100
AcDbEntity
  8
0
 62
     7
420
 16777215
370
     9
100
AcDbVertex
100
AcDb2dVertex
 10
122.8274217998473
 20
-76.79576782904898
 30
0.0
  0
SEQEND
  5
30B
330
308
100
AcDbEntity
  8
0
 62
     7
420
 16777215
370
     9
  0
POLYLINE
  5
30C
330
1F
100
AcDbEntity
  8
0
 62
     7
420
 16777215
370
     9
100
AcDb2dPolyline
 66
     1
 10
0.0
 20
0.0
 30
0.0
  0
VERTEX
  5
30D
330
30C
100
AcDbEntity
  8
0
 62
     7
420
 16777215
370
     9
100
AcDbVertex
100
AcDb2dVertex
 10
137.9844214798473
 20
-71.79576782904881
 30
0.0
  0
VERTEX
  5
30E
330
30C
100
AcDbEntity
  8
0
 62
     7
420
 16777215
370
     9
100
AcDbVertex
100
AcDb2dVertex
 10
137.9844214798473
 20
-76.79576782904898
 30
0.0
  0
SEQEND
  5
30F
330
30C
100
AcDbEntity
  8
0
 62
     7
420
 16777215
370
     9
  0
POLYLINE
  5
310
330
1F
100
AcDbEntity
  8
0
 62
     7
420
 16777215
370
     9
100
AcDb2dPolyline
 66
     1
 10
0.0
 20
0.0
 30
0.0
  0
VERTEX
  5
311
330
310
100
AcDbEntity
  8
0
 62
     7
420
 16777215
370
     9
100
AcDbVertex
100
AcDb2dVertex
 10
122.8274217998473
 20
-76.79576782904898
 30
0.0
  0
VERTEX
  5
312
330
310
100
AcDbEntity
  8
0
 62
     7
420
 16777215
370
     9
100
AcDbVertex
100
AcDb2dVertex
 10
137.9844214798473
 20
-76.79576782904898
 30
0.0
  0
SEQEND
  5
313
330
310
100
AcDbEntity
  8
0
 62
     7
420
 16777215
370
     9
  0
POLYLINE
  5
314
330
1F
100
AcDbEntity
  8
0
 62
     7
420
 16777215
370
     9
100
AcDb2dPolyline
 66
     1
 10
0.0
 20
0.0
 30
0.0
  0
VERTEX
  5
315
330
314
100
AcDbEntity
  8
0
 62
     7
420
 16777215
370
     9
100
AcDbVertex
100
AcDb2dVertex
 10
103.8274217995977
 20
-76.79576782904898
 30
0.0
  0
VERTEX
  5
316
330
314
100
AcDbEntity
  8
0
 62
     7
420
 16777215
370
     9
100
AcDbVertex
100
AcDb2dVertex
 10
103.8274217995977
 20
-70.71840210864251
 30
0.0
  0
SEQEND
  5
317
330
314
100
AcDbEntity
  8
0
 62
     7
420
 16777215
370
     9
  0
POLYLINE
  5
318
330
1F
100
AcDbEntity
  8
0
 62
     7
420
 16777215
370
     9
100
AcDb2dPolyline
 66
     1
 10
0.0
 20
0.0
 30
0.0
  0
VERTEX
  5
319
330
318
100
AcDbEntity
  8
0
 62
     7
420
 16777215
370
     9
100
AcDbVertex
100
AcDb2dVertex
 10
157.984421479848
 20
-76.79576782904898
 30
0.0
  0
VERTEX
  5
31A
330
318
100
AcDbEntity
  8
0
 62
     7
420
 16777215
370
     9
100
AcDbVertex
100
AcDb2dVertex
 10
157.984421479848
 20
-67.88506183388789
 30
0.0
  0
SEQEND
  5
31B
330
318
100
AcDbEntity
  8
0
 62
     7
420
 16777215
370
     9
  0
POLYLINE
  5
31C
330
1F
100
AcDbEntity
  8
0
 62
     7
420
 16777215
370
     9
100
AcDb2dPolyline
 66
     1
 10
0.0
 20
0.0
 30
0.0
  0
VERTEX
  5
31D
330
31C
100
AcDbEntity
  8
0
 62
     7
420
 16777215
370
     9
100
AcDbVertex
100
AcDb2dVertex
 10
332.9844202098477
 20
173.461370521909
 30
0.0
  0
VERTEX
  5
31E
330
31C
100
AcDbEntity
  8
0
 62
     7
420
 16777215
370
     9
100
AcDbVertex
100
AcDb2dVertex
 10
324.3060031781056
 20
173.4637522295898
 30
0.0
  0
SEQEND
  5
31F
330
31C
100
AcDbEntity
  8
0
 62
     7
420
 16777215
370
     9
  0
POLYLINE
  5
320
330
1F
100
AcDbEntity
  8
0
 62
     7
420
 16777215
370
     9
100
AcDb2dPolyline
 66
     1
 10
0.0
 20
0.0
 30
0.0
  0
VERTEX
  5
321
330
320
100
AcDbEntity
  8
0
 62
     7
420
 16777215
370
     9
100
AcDbVertex
100
AcDb2dVertex
 10
332.9844214798471
 20
94.35423217095112
 30
0.0
  0
VERTEX
  5
322
330
320
100
AcDbEntity
  8
0
 62
     7
420
 16777215
370
     9
100
AcDbVertex
100
AcDb2dVertex
 10
325.1074186419434
 20
94.35423217095112
 30
0.0
  0
SEQEND
  5
323
330
320
100
AcDbEntity
  8
0
 62
     7
420
 16777215
370
     9
  0
ENDSEC
  0
SECTION
  2
OBJECTS
  0
DICTIONARY
  5
C
330
0
100
AcDbDictionary
281
     1
  3
ACAD_GROUP
350
D
  3
ACAD_LAYOUT
350
1A
  3
ACAD_MATERIAL
350
3B
  3
ACAD_MLEADERSTYLE
350
337
  3
ACAD_MLINESTYLE
350
17
  3
ACAD_PLOTSETTINGS
350
19
  3
ACAD_PLOTSTYLENAME
350
E
  3
ACAD_TABLESTYLE
350
336
  3
ACAD_VISUALSTYLE
350
2A
  0
SUN
  5
3F
330
29
100
AcDbSun
 90
        1
290
     0
 63
     7
421
 16777215
 40
1.0
291
     1
 91
  2455826
 92
 54000000
292
     0
 70
     2
 71
   256
280
     1
  0
DICTIONARY
  5
D
102
{ACAD_REACTORS
330
C
102
}
330
C
100
AcDbDictionary
281
     1
  0
DICTIONARY
  5
1A
102
{ACAD_REACTORS
330
C
102
}
330
C
100
AcDbDictionary
281
     1
  3
Layout1
350
1E
  3
Layout2
350
26
  3
Model
350
22
  0
DICTIONARY
  5
3B
102
{ACAD_REACTORS
330
C
102
}
330
C
100
AcDbDictionary
281
     1
  3
ByBlock
350
3D
  3
ByLayer
350
3C
  3
Global
350
3E
  0
DICTIONARY
  5
337
102
{ACAD_REACTORS
330
C
102
}
330
C
100
AcDbDictionary
281
     1
  0
DICTIONARY
  5
17
102
{ACAD_REACTORS
330
C
102
}
330
C
100
AcDbDictionary
281
     1
  3
Standard
350
18
  0
DICTIONARY
  5
19
102
{ACAD_REACTORS
330
C
102
}
330
C
100
AcDbDictionary
281
     1
  0
ACDBDICTIONARYWDFLT
  5
E
102
{ACAD_REACTORS
330
C
102
}
330
C
100
AcDbDictionary
281
     1
  3
Normal
350
F
100
AcDbDictionaryWithDefault
340
F
  0
DICTIONARY
  5
336
102
{ACAD_REACTORS
330
C
102
}
330
C
100
AcDbDictionary
281
     1
  0
DICTIONARY
  5
2A
102
{ACAD_REACTORS
330
C
102
}
330
C
100
AcDbDictionary
281
     1
  3
2dWireframe
350
2F
  3
3D Hidden
350
31
  3
3dWireframe
350
30
  3
Basic
350
32
  3
Brighten
350
36
  3
ColorChange
350
3A
  3
Conceptual
350
34
  3
Dim
350
35
  3
Facepattern
350
39
  3
Flat
350
2B
  3
FlatWithEdges
350
2C
  3
Gouraud
350
2D
  3
GouraudWithEdges
350
2E
  3
Linepattern
350
38
  3
Realistic
350
33
  3
Thicken
350
37
  0
LAYOUT
  5
1E
102
{ACAD_REACTORS
330
1A
102
}
330
1A
100
AcDbPlotSettings
  1

  2
none_device
  4

  6

 40
0.0
 41
0.0
 42
0.0
 43
0.0
 44
0.0
 45
0.0
 46
0.0
 47
0.0
 48
0.0
 49
0.0
140
0.0
141
0.0
142
1.0
143
1.0
 70
   688
 72
     0
 73
     0
 74
     5
  7

 75
    16
 76
     0
 77
     2
 78
   300
147
1.0
148
0.0
149
0.0
100
AcDbLayout
  1
Layout1
 70
     1
 71
     1
 10
0.0
 20
0.0
 11
12.0
 21
9.0
 12
0.0
 22
0.0
 32
0.0
 14
1.000000000000000E+20
 24
1.000000000000000E+20
 34
1.000000000000000E+20
 15
-1.000000000000000E+20
 25
-1.000000000000000E+20
 35
-1.000000000000000E+20
146
0.0
 13
0.0
 23
0.0
 33
0.0
 16
1.0
 26
0.0
 36
0.0
 17
0.0
 27
1.0
 37
0.0
 76
     0
330
1B
  0
LAYOUT
  5
26
102
{ACAD_REACTORS
330
1A
102
}
330
1A
100
AcDbPlotSettings
  1

  2
none_device
  4

  6

 40
0.0
 41
0.0
 42
0.0
 43
0.0
 44
0.0
 45
0.0
 46
0.0
 47
0.0
 48
0.0
 49
0.0
140
0.0
141
0.0
142
1.0
143
1.0
 70
   688
 72
     0
 73
     0
 74
     5
  7

 75
    16
 76
     0
 77
     2
 78
   300
147
1.0
148
0.0
149
0.0
100
AcDbLayout
  1
Layout2
 70
     1
 71
     2
 10
0.0
 20
0.0
 11
0.0
 21
0.0
 12
0.0
 22
0.0
 32
0.0
 14
0.0
 24
0.0
 34
0.0
 15
0.0
 25
0.0
 35
0.0
146
0.0
 13
0.0
 23
0.0
 33
0.0
 16
1.0
 26
0.0
 36
0.0
 17
0.0
 27
1.0
 37
0.0
 76
     0
330
23
  0
LAYOUT
  5
22
102
{ACAD_REACTORS
330
1A
102
}
330
1A
100
AcDbPlotSettings
  1

  2
none_device
  4

  6

 40
0.0
 41
0.0
 42
0.0
 43
0.0
 44
0.0
 45
0.0
 46
0.0
 47
0.0
 48
0.0
 49
0.0
140
0.0
141
0.0
142
1.0
143
1.0
 70
  1712
 72
     0
 73
     0
 74
     0
  7

 75
     0
 76
     0
 77
     2
 78
   300
147
1.0
148
0.0
149
0.0
100
AcDbLayout
  1
Model
 70
     1
 71
     0
 10
0.0
 20
0.0
 11
12.0
 21
9.0
 12
0.0
 22
0.0
 32
0.0
 14
1.000000000000000E+20
 24
1.000000000000000E+20
 34
1.000000000000000E+20
 15
-1.000000000000000E+20
 25
-1.000000000000000E+20
 35
-1.000000000000000E+20
146
0.0
 13
0.0
 23
0.0
 33
0.0
 16
1.0
 26
0.0
 36
0.0
 17
0.0
 27
1.0
 37
0.0
 76
     0
330
1F
331
29
  0
MATERIAL
  5
3D
102
{ACAD_REACTORS
330
3B
102
}
330
3B
100
AcDbMaterial
  1
ByBlock
 72
     1
 94
      127
  0
MATERIAL
  5
3C
102
{ACAD_REACTORS
330
3B
102
}
330
3B
100
AcDbMaterial
  1
ByLayer
 72
     1
 94
      127
  0
MATERIAL
  5
3E
102
{ACAD_REACTORS
330
3B
102
}
330
3B
100
AcDbMaterial
  1
Global
 72
     1
 94
      127
  0
MLINESTYLE
  5
18
102
{ACAD_REACTORS
330
17
102
}
330
17
100
AcDbMlineStyle
  2
Standard
 70
     0
  3

 62
   256
 51
90.0
 52
90.0
 71
     2
 49
0.5
 62
   256
  6
BYLAYER
 49
-0.5
 62
   256
  6
BYLAYER
  0
ACDBPLACEHOLDER
  5
F
102
{ACAD_REACTORS
330
E
102
}
330
E
  0
VISUALSTYLE
  5
2F
102
{ACAD_REACTORS
330
2A
102
}
330
2A
100
AcDbVisualStyle
  2
2dWireframe
 70
     4
177
     2
291
     0
 71
     0
176
     1
 72
     2
176
     1
 73
     0
176
     1
 90
        0
176
     1
 40
-0.6
176
     1
 41
-30.0
176
     1
 62
     5
 63
     7
421
 16777215
176
     1
 74
     1
176
     1
 91
        4
176
     1
 64
     7
176
     1
 65
   257
176
     1
 75
     1
176
     1
175
     1
176
     1
 42
1.0
176
     1
 92
        0
176
     1
 66
   257
176
     1
 43
1.0
176
     1
 76
     1
176
     1
 77
     6
176
     1
 78
     2
176
     1
 67
     7
176
     1
 79
     5
176
     1
170
     0
176
     1
171
     0
176
     1
290
     0
176
     1
 93
        1
176
     1
 44
0.0
176
     1
173
     0
176
     1
  0
VISUALSTYLE
  5
31
102
{ACAD_REACTORS
330
2A
102
}
330
2A
100
AcDbVisualStyle
  2
3D Hidden
 70
     6
177
     2
291
     0
 71
     1
176
     1
 72
     2
176
     1
 73
     2
176
     1
 90
        0
176
     1
 40
-0.6
176
     1
 41
-30.0
176
     1
 62
     5
 63
     7
421
 16777215
176
     1
 74
     2
176
     1
 91
        2
176
     1
 64
     7
176
     1
 65
   257
176
     1
 75
     2
176
     1
175
     1
176
     1
 42
40.0
176
     1
 92
        0
176
     1
 66
   257
176
     1
 43
1.0
176
     1
 76
     1
176
     1
 77
     6
176
     1
 78
     2
176
     1
 67
     7
176
     1
 79
     3
176
     1
170
     0
176
     1
171
     0
176
     1
290
     0
176
     1
 93
        1
176
     1
 44
0.0
176
     1
173
     0
176
     1
  0
VISUALSTYLE
  5
30
102
{ACAD_REACTORS
330
2A
102
}
330
2A
100
AcDbVisualStyle
  2
3dWireframe
 70
     5
177
     2
291
     0
 71
     0
176
     1
 72
     2
176
     1
 73
     0
176
     1
 90
        0
176
     1
 40
-0.6
176
     1
 41
-30.0
176
     1
 62
     5
 63
     7
421
 16777215
176
     1
 74
     1
176
     1
 91
        4
176
     1
 64
     7
176
     1
 65
   257
176
     1
 75
     1
176
     1
175
     1
176
     1
 42
1.0
176
     1
 92
        0
176
     1
 66
   257
176
     1
 43
1.0
176
     1
 76
     1
176
     1
 77
     6
176
     1
 78
     2
176
     1
 67
     7
176
     1
 79
     5
176
     1
170
     0
176
     1
171
     0
176
     1
290
     0
176
     1
 93
        1
176
     1
 44
0.0
176
     1
173
     0
176
     1
  0
VISUALSTYLE
  5
32
102
{ACAD_REACTORS
330
2A
102
}
330
2A
100
AcDbVisualStyle
  2
Basic
 70
     7
177
     2
291
     1
 71
     1
176
     1
 72
     0
176
     1
 73
     1
176
     1
 90
        0
176
     1
 40
-0.6
176
     1
 41
-30.0
176
     1
 62
     5
 63
     7
421
 16777215
176
     1
 74
     0
176
     1
 91
        4
176
     1
 64
     7
176
     1
 65
   257
176
     1
 75
     1
176
     1
175
     1
176
     1
 42
1.0
176
     1
 92
        8
176
     1
 66
     7
176
     1
 43
1.0
176
     1
 76
     1
176
     1
 77
     6
176
     1
 78
     2
176
     1
 67
     7
176
     1
 79
     5
176
     1
170
     0
176
     1
171
     0
176
     1
290
     0
176
     1
 93
        1
176
     1
 44
0.0
176
     1
173
     0
176
     1
  0
VISUALSTYLE
  5
36
102
{ACAD_REACTORS
330
2A
102
}
330
2A
100
AcDbVisualStyle
  2
Brighten
 70
    12
177
     2
291
     1
 71
     2
176
     1
 72
     2
176
     1
 73
     0
176
     1
 90
        0
176
     1
 40
-0.6
176
     1
 41
-30.0
176
     1
 62
     5
 63
     7
421
 16777215
176
     1
 74
     1
176
     1
 91
        4
176
     1
 64
     7
176
     1
 65
   257
176
     1
 75
     1
176
     1
175
     1
176
     1
 42
1.0
176
     1
 92
        8
176
     1
 66
     7
176
     1
 43
1.0
176
     1
 76
     1
176
     1
 77
     6
176
     1
 78
     2
176
     1
 67
     7
176
     1
 79
     5
176
     1
170
     0
176
     1
171
     0
176
     1
290
     0
176
     1
 93
        1
176
     1
 44
50.0
176
     1
173
     0
176
     1
  0
VISUALSTYLE
  5
3A
102
{ACAD_REACTORS
330
2A
102
}
330
2A
100
AcDbVisualStyle
  2
ColorChange
 70
    16
177
     2
291
     1
 71
     2
176
     1
 72
     2
176
     1
 73
     3
176
     1
 90
        0
176
     1
 40
-0.6
176
     1
 41
-30.0
176
     1
 62
     5
 63
     8
421
  8421504
176
     1
 74
     1
176
     1
 91
        4
176
     1
 64
     7
176
     1
 65
   257
176
     1
 75
     1
176
     1
175
     1
176
     1
 42
1.0
176
     1
 92
        8
176
     1
 66
     8
424
  8421504
176
     1
 43
1.0
176
     1
 76
     1
176
     1
 77
     6
176
     1
 78
     2
176
     1
 67
     7
176
     1
 79
     5
176
     1
170
     0
176
     1
171
     0
176
     1
290
     0
176
     1
 93
        1
176
     1
 44
0.0
176
     1
173
     0
176
     1
  0
VISUALSTYLE
  5
34
102
{ACAD_REACTORS
330
2A
102
}
330
2A
100
AcDbVisualStyle
  2
Conceptual
 70
     9
177
     2
291
     0
 71
     3
176
     1
 72
     2
176
     1
 73
     0
176
     1
 90
        0
176
     1
 40
-0.6
176
     1
 41
-30.0
176
     1
 62
     5
 63
     7
421
 16777215
176
     1
 74
     2
176
     1
 91
        2
176
     1
 64
     7
176
     1
 65
   257
176
     1
 75
     1
176
     1
175
     1
176
     1
 42
40.0
176
     1
 92
        8
176
     1
 66
     7
176
     1
 43
1.0
176
     1
 76
     1
176
     1
 77
     6
176
     1
 78
     2
176
     1
 67
     7
176
     1
 79
     3
176
     1
170
     0
176
     1
171
     0
176
     1
290
     0
176
     1
 93
        1
176
     1
 44
0.0
176
     1
173
     0
176
     1
  0
VISUALSTYLE
  5
35
102
{ACAD_REACTORS
330
2A
102
}
330
2A
100
AcDbVisualStyle
  2
Dim
 70
    11
177
     2
291
     1
 71
     2
176
     1
 72
     2
176
     1
 73
     0
176
     1
 90
        0
176
     1
 40
-0.6
176
     1
 41
-30.0
176
     1
 62
     5
 63
     7
421
 16777215
176
     1
 74
     1
176
     1
 91
        4
176
     1
 64
     7
176
     1
 65
   257
176
     1
 75
     1
176
     1
175
     1
176
     1
 42
1.0
176
     1
 92
        8
176
     1
 66
     7
176
     1
 43
1.0
176
     1
 76
     1
176
     1
 77
     6
176
     1
 78
     2
176
     1
 67
     7
176
     1
 79
     5
176
     1
170
     0
176
     1
171
     0
176
     1
290
     0
176
     1
 93
        1
176
     1
 44
-50.0
176
     1
173
     0
176
     1
  0
VISUALSTYLE
  5
39
102
{ACAD_REACTORS
330
2A
102
}
330
2A
100
AcDbVisualStyle
  2
Facepattern
 70
    15
177
     2
291
     1
 71
     2
176
     1
 72
     2
176
     1
 73
     0
176
     1
 90
        0
176
     1
 40
-0.6
176
     1
 41
-30.0
176
     1
 62
     5
 63
     7
421
 16777215
176
     1
 74
     1
176
     1
 91
        4
176
     1
 64
     7
176
     1
 65
   257
176
     1
 75
     1
176
     1
175
     1
176
     1
 42
1.0
176
     1
 92
        8
176
     1
 66
     7
176
     1
 43
1.0
176
     1
 76
     1
176
     1
 77
     6
176
     1
 78
     2
176
     1
 67
     7
176
     1
 79
     5
176
     1
170
     0
176
     1
171
     0
176
     1
290
     0
176
     1
 93
        1
176
     1
 44
0.0
176
     1
173
     0
176
     1
  0
VISUALSTYLE
  5
2B
102
{ACAD_REACTORS
330
2A
102
}
330
2A
100
AcDbVisualStyle
  2
Flat
 70
     0
177
     2
291
     1
 71
     2
176
     1
 72
     1
176
     1
 73
     1
176
     1
 90
        2
176
     1
 40
-0.6
176
     1
 41
30.0
176
     1
 62
     5
 63
     7
421
 16777215
176
     1
 74
     0
176
     1
 91
        4
176
     1
 64
     7
176
     1
 65
   257
176
     1
 75
     1
176
     1
175
     1
176
     1
 42
1.0
176
     1
 92
        8
176
     1
 66
     7
176
     1
 43
1.0
176
     1
 76
     1
176
     1
 77
     6
176
     1
 78
     2
176
     1
 67
     7
176
     1
 79
     5
176
     1
170
     0
176
     1
171
     0
176
     1
290
     0
176
     1
 93
       13
176
     1
 44
0.0
176
     1
173
     0
176
     1
  0
VISUALSTYLE
  5
2C
102
{ACAD_REACTORS
330
2A
102
}
330
2A
100
AcDbVisualStyle
  2
FlatWithEdges
 70
     1
177
     2
291
     1
 71
     2
176
     1
 72
     1
176
     1
 73
     1
176
     1
 90
        2
176
     1
 40
-0.6
176
     1
 41
30.0
176
     1
 62
     5
 63
     7
421
 16777215
176
     1
 74
     1
176
     1
 91
        4
176
     1
 64
     7
176
     1
 65
   257
176
     1
 75
     1
176
     1
175
     1
176
     1
 42
1.0
176
     1
 92
        0
176
     1
 66
   257
176
     1
 43
1.0
176
     1
 76
     1
176
     1
 77
     6
176
     1
 78
     2
176
     1
 67
     7
176
     1
 79
     5
176
     1
170
     0
176
     1
171
     0
176
     1
290
     0
176
     1
 93
       13
176
     1
 44
0.0
176
     1
173
     0
176
     1
  0
VISUALSTYLE
  5
2D
102
{ACAD_REACTORS
330
2A
102
}
330
2A
100
AcDbVisualStyle
  2
Gouraud
 70
     2
177
     2
291
     1
 71
     2
176
     1
 72
     2
176
     1
 73
     1
176
     1
 90
        2
176
     1
 40
-0.6
176
     1
 41
30.0
176
     1
 62
     5
 63
     7
421
 16777215
176
     1
 74
     0
176
     1
 91
        4
176
     1
 64
     7
176
     1
 65
   257
176
     1
 75
     1
176
     1
175
     1
176
     1
 42
1.0
176
     1
 92
        0
176
     1
 66
     7
176
     1
 43
1.0
176
     1
 76
     1
176
     1
 77
     6
176
     1
 78
     2
176
     1
 67
     7
176
     1
 79
     5
176
     1
170
     0
176
     1
171
     0
176
     1
290
     0
176
     1
 93
       13
176
     1
 44
0.0
176
     1
173
     0
176
     1
  0
VISUALSTYLE
  5
2E
102
{ACAD_REACTORS
330
2A
102
}
330
2A
100
AcDbVisualStyle
  2
GouraudWithEdges
 70
     3
177
     2
291
     1
 71
     2
176
     1
 72
     2
176
     1
 73
     1
176
     1
 90
        2
176
     1
 40
-0.6
176
     1
 41
30.0
176
     1
 62
     5
 63
     7
421
 16777215
176
     1
 74
     1
176
     1
 91
        4
176
     1
 64
     7
176
     1
 65
   257
176
     1
 75
     1
176
     1
175
     1
176
     1
 42
1.0
176
     1
 92
        0
176
     1
 66
   257
176
     1
 43
1.0
176
     1
 76
     1
176
     1
 77
     6
176
     1
 78
     2
176
     1
 67
     7
176
     1
 79
     5
176
     1
170
     0
176
     1
171
     0
176
     1
290
     0
176
     1
 93
       13
176
     1
 44
0.0
176
     1
173
     0
176
     1
  0
VISUALSTYLE
  5
38
102
{ACAD_REACTORS
330
2A
102
}
330
2A
100
AcDbVisualStyle
  2
Linepattern
 70
    14
177
     2
291
     1
 71
     2
176
     1
 72
     2
176
     1
 73
     0
176
     1
 90
        0
176
     1
 40
-0.6
176
     1
 41
-30.0
176
     1
 62
     5
 63
     7
421
 16777215
176
     1
 74
     1
176
     1
 91
        4
176
     1
 64
     7
176
     1
 65
   257
176
     1
 75
     7
176
     1
175
     7
176
     1
 42
1.0
176
     1
 92
        8
176
     1
 66
     7
176
     1
 43
1.0
176
     1
 76
     1
176
     1
 77
     6
176
     1
 78
     2
176
     1
 67
     7
176
     1
 79
     5
176
     1
170
     0
176
     1
171
     0
176
     1
290
     0
176
     1
 93
        1
176
     1
 44
0.0
176
     1
173
     0
176
     1
  0
VISUALSTYLE
  5
33
102
{ACAD_REACTORS
330
2A
102
}
330
2A
100
AcDbVisualStyle
  2
Realistic
 70
     8
177
     2
291
     0
 71
     2
176
     1
 72
     2
176
     1
 73
     0
176
     1
 90
        0
176
     1
 40
-0.6
176
     1
 41
-30.0
176
     1
 62
     5
 63
     7
421
 16777215
176
     1
 74
     1
176
     1
 91
        0
176
     1
 64
     7
176
     1
 65
   257
176
     1
 75
     1
176
     1
175
     1
176
     1
 42
1.0
176
     1
 92
        8
176
     1
 66
     8
424
  7895160
176
     1
 43
1.0
176
     1
 76
     1
176
     1
 77
     6
176
     1
 78
     2
176
     1
 67
     7
176
     1
 79
     5
176
     1
170
     0
176
     1
171
     0
176
     1
290
     0
176
     1
 93
       13
176
     1
 44
0.0
176
     1
173
     0
176
     1
  0
VISUALSTYLE
  5
37
102
{ACAD_REACTORS
330
2A
102
}
330
2A
100
AcDbVisualStyle
  2
Thicken
 70
    13
177
     2
291
     1
 71
     2
176
     1
 72
     2
176
     1
 73
     0
176
     1
 90
        0
176
     1
 40
-0.6
176
     1
 41
-30.0
176
     1
 62
     5
 63
     7
421
 16777215
176
     1
 74
     1
176
     1
 91
        4
176
     1
 64
     7
176
     1
 65
   257
176
     1
 75
     1
176
     1
175
     1
176
     1
 42
1.0
176
     1
 92
       12
176
     1
 66
     7
176
     1
 43
1.0
176
     1
 76
     1
176
     1
 77
     6
176
     1
 78
     2
176
     1
 67
     7
176
     1
 79
     5
176
     1
170
     0
176
     1
171
     0
176
     1
290
     0
176
     1
 93
        1
176
     1
 44
0.0
176
     1
173
     0
176
     1
  0
ENDSEC
  0
EOF
