0
SECTION
2
HEADER
9
$INSUNITS
70
4
9
$ACADVER
1
AC1014
9
$HANDSEED
5
FFFF
0
ENDSEC
0
SECTION
2
TABLES
0
TABLE
2
VPORT
5
8
100
AcDbSymbolTable
0
ENDTAB
0
TABLE
2
LTYPE
5
5
100
AcDbSymbolTable
0
LTYPE
5
14
100
AcDbSymbolTableRecord
100
AcDbLinetypeTableRecord
2
BYBLOCK
70
0
0
LTYPE
5
15
100
AcDbSymbolTableRecord
100
AcDbLinetypeTableRecord
2
BYLAYER
70
0
0
ENDTAB
0
TABLE
2
LAYER
5
2
100
AcDbSymbolTable
70
2
0
LAYER
5
50
100
AcDbSymbolTableRecord
100
AcDbLayerTableRecord
2
0
70
0
6
CONTINUOUS
0
ENDTAB
0
TABLE
2
STYLE
5
3
100
AcDbSymbolTable
70
1
0
STYLE
5
11
100
AcDbSymbolTableRecord
100
AcDbTextStyleTableRecord
2
STANDARD
70
0
0
ENDTAB
0
TABLE
2
VIEW
5
6
100
AcDbSymbolTable
70
0
0
ENDTAB
0
TABLE
2
UCS
5
7
100
AcDbSymbolTable
70
0
0
ENDTAB
0
TABLE
2
APPID
5
9
100
AcDbSymbolTable
70
2
0
APPID
5
12
100
AcDbSymbolTableRecord
100
AcDbRegAppTableRecord
2
ACAD
70
0
0
ENDTAB
0
TABLE
2
DIMSTYLE
5
A
100
AcDbSymbolTable
70
1
0
ENDTAB
0
TABLE
2
BLOCK_RECORD
5
1
100
AcDbSymbolTable
70
1
0
BLOCK_RECORD
5
1F
100
AcDbSymbolTableRecord
100
AcDbBlockTableRecord
2
*MODEL_SPACE
0
BLOCK_RECORD
5
1B
100
AcDbSymbolTableRecord
100
AcDbBlockTableRecord
2
*PAPER_SPACE
0
ENDTAB
0
ENDSEC
0
SECTION
2
BLOCKS
0
BLOCK
5
20
100
AcDbEntity
100
AcDbBlockBegin
2
*MODEL_SPACE
0
ENDBLK
5
21
100
AcDbEntity
100
AcDbBlockEnd
0
BLOCK
5
1C
100
AcDbEntity
100
AcDbBlockBegin
2
*PAPER_SPACE
0
ENDBLK
5
1D
100
AcDbEntity
100
AcDbBlockEnd
0
ENDSEC
0
SECTION
2
ENTITIES
0
LINE
5
100
100
AcDbEntity
8
0
100
AcDbLine
10
238.16219087074043
20
-142.870754886383
30
0
11
238.16219087074043
21
-144.870754886383
31
0
0
LINE
5
101
100
AcDbEntity
8
0
100
AcDbLine
10
238.16219087074043
20
-144.870754886383
30
0
11
234.16219087074043
21
-144.870754886383
31
0
0
LINE
5
102
100
AcDbEntity
8
0
100
AcDbLine
10
234.16219087074043
20
-144.870754886383
30
0
11
234.16219087074046
21
-149.870754886383
31
0
0
LINE
5
103
100
AcDbEntity
8
0
100
AcDbLine
10
234.16219087074046
20
-149.870754886383
30
0
11
238.16219087074046
21
-149.870754886383
31
0
0
LINE
5
104
100
AcDbEntity
8
0
100
AcDbLine
10
238.16219087074046
20
-149.870754886383
30
0
11
238.16219087074046
21
-152.870754886383
31
0
0
LINE
5
105
100
AcDbEntity
8
0
100
AcDbLine
10
238.16219087074046
20
-152.870754886383
30
0
11
234.16219087074046
21
-152.870754886383
31
0
0
LINE
5
106
100
AcDbEntity
8
0
100
AcDbLine
10
234.16219087074046
20
-152.870754886383
30
0
11
234.16219087074046
21
-157.870754886383
31
0
0
LINE
5
107
100
AcDbEntity
8
0
100
AcDbLine
10
234.16219087074046
20
-157.870754886383
30
0
11
238.16219087074046
21
-157.87075488638297
31
0
0
LINE
5
108
100
AcDbEntity
8
0
100
AcDbLine
10
238.16219087074046
20
-157.87075488638297
30
0
11
238.16219087074046
21
-162.87075488638297
31
0
0
LINE
5
109
100
AcDbEntity
8
0
100
AcDbLine
10
238.16219087074046
20
-162.87075488638297
30
0
11
241.16219087074043
21
-162.87075488638297
31
0
0
LINE
5
110
100
AcDbEntity
8
0
100
AcDbLine
10
241.16219087074043
20
-162.87075488638297
30
0
11
241.16219087074043
21
-167.87075488638297
31
0
0
LINE
5
111
100
AcDbEntity
8
0
100
AcDbLine
10
241.16219087074043
20
-167.87075488638297
30
0
11
226.16219087074043
21
-167.87075488638297
31
0
0
LINE
5
112
100
AcDbEntity
8
0
100
AcDbLine
10
226.16219087074043
20
-167.87075488638297
30
0
11
226.16219087074043
21
-162.87075488638297
31
0
0
LINE
5
113
100
AcDbEntity
8
0
100
AcDbLine
10
226.16219087074043
20
-162.87075488638297
30
0
11
230.1621908707404
21
-162.87075488638297
31
0
0
LINE
5
114
100
AcDbEntity
8
0
100
AcDbLine
10
230.1621908707404
20
-142.870754886383
30
0
11
238.16219087074043
21
-142.870754886383
31
0
0
LINE
5
115
100
AcDbEntity
8
0
100
AcDbLine
10
230.1621908707404
20
-162.87075488638297
30
0
11
230.1621908707404
21
-142.870754886383
31
0
0
LINE
5
116
100
AcDbEntity
8
0
100
AcDbLine
10
254.41278719361497
20
-163.56148065433337
30
0
11
259.41278719361497
21
-163.56148065433337
31
0
0
LINE
5
117
100
AcDbEntity
8
0
100
AcDbLine
10
259.41278719361497
20
-163.56148065433337
30
0
11
259.41278719361497
21
-159.56148065433339
31
0
0
LINE
5
118
100
AcDbEntity
8
0
100
AcDbLine
10
259.41278719361497
20
-159.56148065433339
30
0
11
264.41278719361497
21
-159.56148065433339
31
0
0
LINE
5
119
100
AcDbEntity
8
0
100
AcDbLine
10
264.41278719361497
20
-159.56148065433339
30
0
11
264.41278719361497
21
-167.56148065433339
31
0
0
LINE
5
120
100
AcDbEntity
8
0
100
AcDbLine
10
264.41278719361497
20
-167.56148065433339
30
0
11
249.41278719361497
21
-167.56148065433339
31
0
0
LINE
5
121
100
AcDbEntity
8
0
100
AcDbLine
10
249.41278719361497
20
-167.56148065433339
30
0
11
249.41278719361497
21
-159.56148065433339
31
0
0
LINE
5
122
100
AcDbEntity
8
0
100
AcDbLine
10
254.41278719361497
20
-159.56148065433339
30
0
11
254.41278719361497
21
-163.56148065433337
31
0
0
LINE
5
123
100
AcDbEntity
8
0
100
AcDbLine
10
249.41278719361497
20
-159.56148065433339
30
0
11
254.41278719361497
21
-159.56148065433339
31
0
0
ENDSEC
0
SECTION
2
OBJECTS
0
DICTIONARY
5
C
100
AcDbDictionary
3
ACAD_GROUP
350
D
3
ACAD_MLINESTYLE
350
17
0
DICTIONARY
5
D
100
AcDbDictionary
0
DICTIONARY
5
1A
330
C
100
AcDbDictionary
0
DICTIONARY
5
17
100
AcDbDictionary
0
ENDSEC
0
EOF
