0
SECTION
2
HEADER
9
$INSUNITS
70
4
9
$ACADVER
1
AC1014
9
$HANDSEED
5
FFFF
0
ENDSEC
0
SECTION
2
TABLES
0
TABLE
2
VPORT
5
8
100
AcDbSymbolTable
0
ENDTAB
0
TABLE
2
LTYPE
5
5
100
AcDbSymbolTable
0
LTYPE
5
14
100
AcDbSymbolTableRecord
100
AcDbLinetypeTableRecord
2
BYBLOCK
70
0
0
LTYPE
5
15
100
AcDbSymbolTableRecord
100
AcDbLinetypeTableRecord
2
BYLAYER
70
0
0
ENDTAB
0
TABLE
2
LAYER
5
2
100
AcDbSymbolTable
70
2
0
LAYER
5
50
100
AcDbSymbolTableRecord
100
AcDbLayerTableRecord
2
0
70
0
6
CONTINUOUS
0
ENDTAB
0
TABLE
2
STYLE
5
3
100
AcDbSymbolTable
70
1
0
STYLE
5
11
100
AcDbSymbolTableRecord
100
AcDbTextStyleTableRecord
2
STANDARD
70
0
0
ENDTAB
0
TABLE
2
VIEW
5
6
100
AcDbSymbolTable
70
0
0
ENDTAB
0
TABLE
2
UCS
5
7
100
AcDbSymbolTable
70
0
0
ENDTAB
0
TABLE
2
APPID
5
9
100
AcDbSymbolTable
70
2
0
APPID
5
12
100
AcDbSymbolTableRecord
100
AcDbRegAppTableRecord
2
ACAD
70
0
0
ENDTAB
0
TABLE
2
DIMSTYLE
5
A
100
AcDbSymbolTable
70
1
0
ENDTAB
0
TABLE
2
BLOCK_RECORD
5
1
100
AcDbSymbolTable
70
1
0
BLOCK_RECORD
5
1F
100
AcDbSymbolTableRecord
100
AcDbBlockTableRecord
2
*MODEL_SPACE
0
BLOCK_RECORD
5
1B
100
AcDbSymbolTableRecord
100
AcDbBlockTableRecord
2
*PAPER_SPACE
0
ENDTAB
0
ENDSEC
0
SECTION
2
BLOCKS
0
BLOCK
5
20
100
AcDbEntity
100
AcDbBlockBegin
2
*MODEL_SPACE
0
ENDBLK
5
21
100
AcDbEntity
100
AcDbBlockEnd
0
BLOCK
5
1C
100
AcDbEntity
100
AcDbBlockBegin
2
*PAPER_SPACE
0
ENDBLK
5
1D
100
AcDbEntity
100
AcDbBlockEnd
0
ENDSEC
0
SECTION
2
ENTITIES
0
LINE
5
100
100
AcDbEntity
8
0
100
AcDbLine
10
191.7142707448555
20
-198.22393046399924
30
0
11
191.7142707448555
21
41.776069536000762
31
0
0
LINE
5
101
100
AcDbEntity
8
0
100
AcDbLine
10
191.7142707448555
20
41.776069536000762
30
0
11
156.7142707448555
21
41.776069536000726
31
0
0
LINE
5
102
100
AcDbEntity
8
0
100
AcDbLine
10
156.7142707448555
20
41.776069536000726
30
0
11
156.7142707448555
21
36.776069536000762
31
0
0
LINE
5
103
100
AcDbEntity
8
0
100
AcDbLine
10
156.7142707448555
20
36.776069536000762
30
0
11
106.7142707448555
21
36.776069536000762
31
0
0
LINE
5
104
100
AcDbEntity
8
0
100
AcDbLine
10
106.7142707448555
20
36.776069536000762
30
0
11
106.7142707448555
21
41.776069536000762
31
0
0
LINE
5
105
100
AcDbEntity
8
0
100
AcDbLine
10
106.7142707448555
20
41.776069536000762
30
0
11
71.714270744855497
21
41.776069536000762
31
0
0
LINE
5
106
100
AcDbEntity
8
0
100
AcDbLine
10
71.714270744855497
20
-198.22393046399924
30
0
11
191.7142707448555
21
-198.22393046399924
31
0
0
LINE
5
107
100
AcDbEntity
8
0
100
AcDbLine
10
71.714270744855497
20
41.776069536000762
30
0
11
71.714270744855497
21
-198.22393046399924
31
0
0
LINE
5
108
100
AcDbEntity
8
0
100
AcDbLine
10
79.360157016809339
20
-92.223930463999238
30
0
11
79.360157016809339
21
-134.22393046399924
31
0
0
LINE
5
109
100
AcDbEntity
8
0
100
AcDbLine
10
79.360157016809339
20
-134.22393046399924
30
0
11
99.360157016809325
21
-134.22393046399924
31
0
0
LINE
5
110
100
AcDbEntity
8
0
100
AcDbLine
10
99.360157016809325
20
-92.223930463999238
30
0
11
79.360157016809339
21
-92.223930463999238
31
0
0
LINE
5
111
100
AcDbEntity
8
0
100
AcDbLine
10
99.360157016809325
20
-134.22393046399924
30
0
11
99.360157016809325
21
-92.223930463999238
31
0
0
CIRCLE
5
112
100
AcDbEntity
8
0
100
AcDbCircle
10
94.360157016809325
20
-138.22393046399927
30
0
40
2
210
0
220
-0
230
1
0
CIRCLE
5
113
100
AcDbEntity
8
0
100
AcDbCircle
10
84.360157016809325
20
-138.22393046399927
30
0
40
2
210
0
220
-0
230
1
0
CIRCLE
5
114
100
AcDbEntity
8
0
100
AcDbCircle
10
94.360157016809325
20
-88.223930463999238
30
0
40
2
210
0
220
-0
230
1
0
CIRCLE
5
115
100
AcDbEntity
8
0
100
AcDbCircle
10
84.360157016809325
20
-88.223930463999238
30
0
40
2
210
0
220
-0
230
1
0
CIRCLE
5
116
100
AcDbEntity
8
0
100
AcDbCircle
10
110.51773412182575
20
-90.197262748373191
30
0
40
1.6000000000000003
210
0
220
-0
230
1
0
LINE
5
117
100
AcDbEntity
8
0
100
AcDbLine
10
185.36015701680935
20
-134.22393046399924
30
0
11
185.36015701680935
21
-92.223930463999267
31
0
0
LINE
5
118
100
AcDbEntity
8
0
100
AcDbLine
10
185.36015701680935
20
-92.223930463999267
30
0
11
165.36015701680935
21
-92.223930463999267
31
0
0
LINE
5
119
100
AcDbEntity
8
0
100
AcDbLine
10
165.36015701680935
20
-134.22393046399924
30
0
11
185.36015701680935
21
-134.22393046399924
31
0
0
LINE
5
120
100
AcDbEntity
8
0
100
AcDbLine
10
165.36015701680935
20
-92.223930463999267
30
0
11
165.36015701680935
21
-134.22393046399924
31
0
0
CIRCLE
5
121
100
AcDbEntity
8
0
100
AcDbCircle
10
154.20257991179292
20
-90.197262748373191
30
0
40
1.6000000000000003
210
0
220
-0
230
1
0
CIRCLE
5
122
100
AcDbEntity
8
0
100
AcDbCircle
10
170.36015701680935
20
-88.223930463999267
30
0
40
2
210
0
220
-0
230
1
0
CIRCLE
5
123
100
AcDbEntity
8
0
100
AcDbCircle
10
180.36015701680935
20
-88.223930463999267
30
0
40
2
210
0
220
-0
230
1
0
CIRCLE
5
124
100
AcDbEntity
8
0
100
AcDbCircle
10
170.36015701680935
20
-138.22393046399927
30
0
40
2
210
0
220
-0
230
1
0
CIRCLE
5
125
100
AcDbEntity
8
0
100
AcDbCircle
10
180.36015701680935
20
-138.22393046399927
30
0
40
2
210
0
220
-0
230
1
0
LINE
5
126
100
AcDbEntity
8
0
100
AcDbLine
10
129.2142707448555
20
-166.22393046399924
30
0
11
129.2142707448555
21
-174.22393046399924
31
0
0
LINE
5
127
100
AcDbEntity
8
0
100
AcDbLine
10
129.2142707448555
20
-174.22393046399924
30
0
11
134.2142707448555
21
-174.22393046399924
31
0
0
LINE
5
128
100
AcDbEntity
8
0
100
AcDbLine
10
134.2142707448555
20
-166.22393046399924
30
0
11
129.2142707448555
21
-166.22393046399924
31
0
0
LINE
5
129
100
AcDbEntity
8
0
100
AcDbLine
10
134.2142707448555
20
-174.22393046399924
30
0
11
134.2142707448555
21
-166.22393046399924
31
0
0
ENDSEC
0
SECTION
2
OBJECTS
0
DICTIONARY
5
C
100
AcDbDictionary
3
ACAD_GROUP
350
D
3
ACAD_MLINESTYLE
350
17
0
DICTIONARY
5
D
100
AcDbDictionary
0
DICTIONARY
5
1A
330
C
100
AcDbDictionary
0
DICTIONARY
5
17
100
AcDbDictionary
0
ENDSEC
0
EOF
