0
SECTION
2
HEADER
9
$INSUNITS
70
4
9
$ACADVER
1
AC1014
9
$HANDSEED
5
FFFF
0
ENDSEC
0
SECTION
2
TABLES
0
TABLE
2
VPORT
5
8
100
AcDbSymbolTable
0
ENDTAB
0
TABLE
2
LTYPE
5
5
100
AcDbSymbolTable
0
LTYPE
5
14
100
AcDbSymbolTableRecord
100
AcDbLinetypeTableRecord
2
BYBLOCK
70
0
0
LTYPE
5
15
100
AcDbSymbolTableRecord
100
AcDbLinetypeTableRecord
2
BYLAYER
70
0
0
ENDTAB
0
TABLE
2
LAYER
5
2
100
AcDbSymbolTable
70
2
0
LAYER
5
50
100
AcDbSymbolTableRecord
100
AcDbLayerTableRecord
2
0
70
0
6
CONTINUOUS
0
ENDTAB
0
TABLE
2
STYLE
5
3
100
AcDbSymbolTable
70
1
0
STYLE
5
11
100
AcDbSymbolTableRecord
100
AcDbTextStyleTableRecord
2
STANDARD
70
0
0
ENDTAB
0
TABLE
2
VIEW
5
6
100
AcDbSymbolTable
70
0
0
ENDTAB
0
TABLE
2
UCS
5
7
100
AcDbSymbolTable
70
0
0
ENDTAB
0
TABLE
2
APPID
5
9
100
AcDbSymbolTable
70
2
0
APPID
5
12
100
AcDbSymbolTableRecord
100
AcDbRegAppTableRecord
2
ACAD
70
0
0
ENDTAB
0
TABLE
2
DIMSTYLE
5
A
100
AcDbSymbolTable
70
1
0
ENDTAB
0
TABLE
2
BLOCK_RECORD
5
1
100
AcDbSymbolTable
70
1
0
BLOCK_RECORD
5
1F
100
AcDbSymbolTableRecord
100
AcDbBlockTableRecord
2
*MODEL_SPACE
0
BLOCK_RECORD
5
1B
100
AcDbSymbolTableRecord
100
AcDbBlockTableRecord
2
*PAPER_SPACE
0
ENDTAB
0
ENDSEC
0
SECTION
2
BLOCKS
0
BLOCK
5
20
100
AcDbEntity
100
AcDbBlockBegin
2
*MODEL_SPACE
0
ENDBLK
5
21
100
AcDbEntity
100
AcDbBlockEnd
0
BLOCK
5
1C
100
AcDbEntity
100
AcDbBlockBegin
2
*PAPER_SPACE
0
ENDBLK
5
1D
100
AcDbEntity
100
AcDbBlockEnd
0
ENDSEC
0
SECTION
2
ENTITIES
0
ARC
5
100
100
AcDbEntity
8
0
100
AcDbCircle
10
4.4068950169182486
20
-35.107339830344756
30
0
40
2.0000000000001705
210
0
220
0
230
1
100
AcDbArc
50
270
51
319.63546342689835
0
LINE
5
101
100
AcDbEntity
8
0
100
AcDbLine
10
4.4068950169182486
20
-37.107339830344927
30
0
11
-53.194373018499519
21
-37.107339830344927
31
0
0
LINE
5
102
100
AcDbEntity
8
0
100
AcDbLine
10
-53.194373018499519
20
-37.107339830344927
30
0
11
-53.194373018499519
21
-33.607339830344927
31
0
0
LINE
5
103
100
AcDbEntity
8
0
100
AcDbLine
10
-53.194373018499519
20
-33.607339830344927
30
0
11
-58.194373018499519
21
-33.607339830344927
31
0
0
LINE
5
104
100
AcDbEntity
8
0
100
AcDbLine
10
-58.194373018499519
20
-33.607339830344927
30
0
11
-58.194373018499519
21
-37.107339830344927
31
0
0
LINE
5
105
100
AcDbEntity
8
0
100
AcDbLine
10
-58.194373018499519
20
-37.107339830344927
30
0
11
-62.668224033400293
21
-37.107339830344976
31
0
0
ARC
5
106
100
AcDbEntity
8
0
100
AcDbCircle
10
-62.668224033400293
20
-35.107339830344948
30
0
40
2.0000000000000284
210
0
220
0
230
1
100
AcDbArc
50
180
51
270.00000000000023
0
LINE
5
107
100
AcDbEntity
8
0
100
AcDbLine
10
-64.668224033400321
20
-35.107339830344948
30
0
11
-64.668224033400207
21
-19.107339830345005
31
0
0
ARC
5
108
100
AcDbEntity
8
0
100
AcDbCircle
10
-62.668224033400222
20
-19.107339830345005
30
0
40
1.9999999999999929
210
0
220
-0
230
1
100
AcDbArc
50
90
51
180
0
LINE
5
109
100
AcDbEntity
8
0
100
AcDbLine
10
-62.668224033400215
20
-17.107339830345012
30
0
11
-58.194373018499519
21
-17.107339830345012
31
0
0
LINE
5
110
100
AcDbEntity
8
0
100
AcDbLine
10
-58.194373018499519
20
-20.607339830345008
30
0
11
-58.194373018499519
21
-17.107339830345012
31
0
0
LINE
5
111
100
AcDbEntity
8
0
100
AcDbLine
10
-53.194373018499519
20
-20.607339830345008
30
0
11
-58.194373018499519
21
-20.607339830345008
31
0
0
LINE
5
112
100
AcDbEntity
8
0
100
AcDbLine
10
-53.194373018499519
20
-17.107339830345012
30
0
11
-53.194373018499519
21
-20.607339830345008
31
0
0
LINE
5
113
100
AcDbEntity
8
0
100
AcDbLine
10
-53.194373018499519
20
-17.107339830345012
30
0
11
-19.668224033400335
21
-17.10733983034503
31
0
0
LINE
5
114
100
AcDbEntity
8
0
100
AcDbLine
10
-19.668224033400328
20
-17.10733983034503
30
0
11
-19.668224033400328
21
-9.1073398303450226
31
0
0
ARC
5
115
100
AcDbEntity
8
0
100
AcDbCircle
10
-17.668224033400335
20
-9.1073398303450226
30
0
40
1.9999999999999929
210
0
220
-0
230
1
100
AcDbArc
50
90
51
180
0
LINE
5
116
100
AcDbEntity
8
0
100
AcDbLine
10
-17.668224033400335
20
-7.1073398303450297
30
0
11
20.331775966599679
21
-7.1073398303450297
31
0
0
ARC
5
117
100
AcDbEntity
8
0
100
AcDbCircle
10
20.331775966599679
20
-9.1073398303450404
30
0
40
2.0000000000000107
210
0
220
-0
230
1
100
AcDbArc
50
0
51
90
0
LINE
5
118
100
AcDbEntity
8
0
100
AcDbLine
10
22.33177596659969
20
-9.1073398303450404
30
0
11
22.331775966599743
21
-16.372185771896373
31
0
0
ARC
5
119
100
AcDbEntity
8
0
100
AcDbCircle
10
20.331775966599661
20
-16.372185771896355
30
0
40
2.0000000000000764
210
-0
220
0
230
1
100
AcDbArc
50
319.63546342690262
51
360
0
LINE
5
120
100
AcDbEntity
8
0
100
AcDbLine
10
21.855654602118637
20
-17.667482612087486
30
0
11
5.9307736524372423
21
-36.402636670536097
31
0
0
CIRCLE
5
121
100
AcDbEntity
8
0
100
AcDbCircle
10
13.796463497512814
20
-12.651569125287239
30
0
40
1.5999997368750001
210
0
220
-0
230
1
0
CIRCLE
5
122
100
AcDbEntity
8
0
100
AcDbCircle
10
-12.182079710820535
20
-12.739765333620579
30
0
40
1.5999997368750001
210
0
220
-0
230
1
0
ENDSEC
0
SECTION
2
OBJECTS
0
DICTIONARY
5
C
100
AcDbDictionary
3
ACAD_GROUP
350
D
3
ACAD_MLINESTYLE
350
17
0
DICTIONARY
5
D
100
AcDbDictionary
0
DICTIONARY
5
1A
330
C
100
AcDbDictionary
0
DICTIONARY
5
17
100
AcDbDictionary
0
ENDSEC
0
EOF
