  0
SECTION
  2
HEADER
  9
$ACADVER
  1
AC1024
  9
$ACADMAINTVER
 70
   205
  9
$DWGCODEPAGE
  3
ANSI_1252
  9
$LASTSAVEDBY
  1
LuisM
  9
$INSBASE
 10
0.0
 20
0.0
 30
0.0
  9
$EXTMIN
 10
2668.486205761055
 20
-1830.0
 30
-0.0000000000002842
  9
$EXTMAX
 10
5718.941148019206
 20
670.0000000000001
 30
0.000000000000143
  9
$LIMMIN
 10
0.0
 20
0.0
  9
$LIMMAX
 10
12.0
 20
9.0
  9
$ORTHOMODE
 70
     0
  9
$REGENMODE
 70
     1
  9
$FILLMODE
 70
     1
  9
$QTEXTMODE
 70
     0
  9
$MIRRTEXT
 70
     0
  9
$LTSCALE
 40
1.0
  9
$ATTMODE
 70
     1
  9
$TEXTSIZE
 40
0.2
  9
$TRACEWID
 40
0.05
  9
$TEXTSTYLE
  7
STANDARD
  9
$CLAYER
  8
0
  9
$CELTYPE
  6
Continuous
  9
$CECOLOR
 62
   256
  9
$CELTSCALE
 40
1.0
  9
$DISPSILH
 70
     0
  9
$DIMSCALE
 40
1.0
  9
$DIMASZ
 40
0.18
  9
$DIMEXO
 40
0.0625
  9
$DIMDLI
 40
0.38
  9
$DIMRND
 40
0.0
  9
$DIMDLE
 40
0.0
  9
$DIMEXE
 40
0.18
  9
$DIMTP
 40
0.0
  9
$DIMTM
 40
0.0
  9
$DIMTXT
 40
0.18
  9
$DIMCEN
 40
0.09
  9
$DIMTSZ
 40
0.0
  9
$DIMTOL
 70
     0
  9
$DIMLIM
 70
     0
  9
$DIMTIH
 70
     1
  9
$DIMTOH
 70
     1
  9
$DIMSE1
 70
     0
  9
$DIMSE2
 70
     0
  9
$DIMTAD
 70
     0
  9
$DIMZIN
 70
     0
  9
$DIMBLK
  1

  9
$DIMASO
 70
     1
  9
$DIMSHO
 70
     1
  9
$DIMPOST
  1

  9
$DIMAPOST
  1

  9
$DIMALT
 70
     0
  9
$DIMALTD
 70
     2
  9
$DIMALTF
 40
25.4
  9
$DIMLFAC
 40
1.0
  9
$DIMTOFL
 70
     0
  9
$DIMTVP
 40
0.0
  9
$DIMTIX
 70
     0
  9
$DIMSOXD
 70
     0
  9
$DIMSAH
 70
     0
  9
$DIMBLK1
  1

  9
$DIMBLK2
  1

  9
$DIMSTYLE
  2
Standard
  9
$DIMCLRD
 70
     0
  9
$DIMCLRE
 70
     0
  9
$DIMCLRT
 70
     0
  9
$DIMTFAC
 40
1.0
  9
$DIMGAP
 40
0.09
  9
$DIMJUST
 70
     0
  9
$DIMSD1
 70
     0
  9
$DIMSD2
 70
     0
  9
$DIMTOLJ
 70
     1
  9
$DIMTZIN
 70
     0
  9
$DIMALTZ
 70
     0
  9
$DIMALTTZ
 70
     0
  9
$DIMUPT
 70
     0
  9
$DIMDEC
 70
     4
  9
$DIMTDEC
 70
     4
  9
$DIMALTU
 70
     2
  9
$DIMALTTD
 70
     2
  9
$DIMTXSTY
  7
STANDARD
  9
$DIMAUNIT
 70
     0
  9
$DIMADEC
 70
     0
  9
$DIMALTRND
 40
0.0
  9
$DIMAZIN
 70
     0
  9
$DIMDSEP
 70
    46
  9
$DIMATFIT
 70
     3
  9
$DIMFRAC
 70
     0
  9
$DIMLDRBLK
  1

  9
$DIMLUNIT
 70
     2
  9
$DIMLWD
 70
    -2
  9
$DIMLWE
 70
    -2
  9
$DIMTMOVE
 70
     0
  9
$DIMFXL
 40
1.0
  9
$DIMFXLON
 70
     0
  9
$DIMJOGANG
 40
0.7853981633974483
  9
$DIMTFILL
 70
     0
  9
$DIMTFILLCLR
 70
     0
  9
$DIMARCSYM
 70
     0
  9
$DIMLTYPE
  6

  9
$DIMLTEX1
  6

  9
$DIMLTEX2
  6

  9
$DIMTXTDIRECTION
 70
     0
  9
$LUNITS
 70
     2
  9
$LUPREC
 70
     4
  9
$SKETCHINC
 40
0.1
  9
$FILLETRAD
 40
0.0
  9
$AUNITS
 70
     0
  9
$AUPREC
 70
     0
  9
$MENU
  1
.
  9
$ELEVATION
 40
0.0
  9
$PELEVATION
 40
0.0
  9
$THICKNESS
 40
0.0
  9
$LIMCHECK
 70
     0
  9
$CHAMFERA
 40
0.0
  9
$CHAMFERB
 40
0.0
  9
$CHAMFERC
 40
0.0
  9
$CHAMFERD
 40
0.0
  9
$SKPOLY
 70
     0
  9
$TDCREATE
 40
2458936.948802454
  9
$TDUCREATE
 40
2458937.157135787
  9
$TDUPDATE
 40
2458937.870628449
  9
$TDUUPDATE
 40
2458938.078961783
  9
$TDINDWG
 40
0.0500176736
  9
$TDUSRTIMER
 40
0.0500176736
  9
$USRTIMER
 70
     1
  9
$ANGBASE
 50
0.0
  9
$ANGDIR
 70
     0
  9
$PDMODE
 70
     0
  9
$PDSIZE
 40
0.0
  9
$PLINEWID
 40
0.0
  9
$SPLFRAME
 70
     0
  9
$SPLINETYPE
 70
     6
  9
$SPLINESEGS
 70
     8
  9
$HANDSEED
  5
1061E
  9
$SURFTAB1
 70
     6
  9
$SURFTAB2
 70
     6
  9
$SURFTYPE
 70
     6
  9
$SURFU
 70
     6
  9
$SURFV
 70
     6
  9
$UCSBASE
  2

  9
$UCSNAME
  2

  9
$UCSORG
 10
0.0
 20
0.0
 30
0.0
  9
$UCSXDIR
 10
1.0
 20
0.0
 30
0.0
  9
$UCSYDIR
 10
0.0
 20
1.0
 30
0.0
  9
$UCSORTHOREF
  2

  9
$UCSORTHOVIEW
 70
     0
  9
$UCSORGTOP
 10
0.0
 20
0.0
 30
0.0
  9
$UCSORGBOTTOM
 10
0.0
 20
0.0
 30
0.0
  9
$UCSORGLEFT
 10
0.0
 20
0.0
 30
0.0
  9
$UCSORGRIGHT
 10
0.0
 20
0.0
 30
0.0
  9
$UCSORGFRONT
 10
0.0
 20
0.0
 30
0.0
  9
$UCSORGBACK
 10
0.0
 20
0.0
 30
0.0
  9
$PUCSBASE
  2

  9
$PUCSNAME
  2

  9
$PUCSORG
 10
0.0
 20
0.0
 30
0.0
  9
$PUCSXDIR
 10
1.0
 20
0.0
 30
0.0
  9
$PUCSYDIR
 10
0.0
 20
1.0
 30
0.0
  9
$PUCSORTHOREF
  2

  9
$PUCSORTHOVIEW
 70
     0
  9
$PUCSORGTOP
 10
0.0
 20
0.0
 30
0.0
  9
$PUCSORGBOTTOM
 10
0.0
 20
0.0
 30
0.0
  9
$PUCSORGLEFT
 10
0.0
 20
0.0
 30
0.0
  9
$PUCSORGRIGHT
 10
0.0
 20
0.0
 30
0.0
  9
$PUCSORGFRONT
 10
0.0
 20
0.0
 30
0.0
  9
$PUCSORGBACK
 10
0.0
 20
0.0
 30
0.0
  9
$USERI1
 70
     0
  9
$USERI2
 70
     0
  9
$USERI3
 70
     0
  9
$USERI4
 70
     0
  9
$USERI5
 70
     0
  9
$USERR1
 40
0.0
  9
$USERR2
 40
0.0
  9
$USERR3
 40
0.0
  9
$USERR4
 40
0.0
  9
$USERR5
 40
0.0
  9
$WORLDVIEW
 70
     1
  9
$SHADEDGE
 70
     3
  9
$SHADEDIF
 70
    70
  9
$TILEMODE
 70
     1
  9
$MAXACTVP
 70
    64
  9
$PINSBASE
 10
0.0
 20
0.0
 30
0.0
  9
$PLIMCHECK
 70
     0
  9
$PEXTMIN
 10
1.000000000000000E+20
 20
1.000000000000000E+20
 30
1.000000000000000E+20
  9
$PEXTMAX
 10
-1.000000000000000E+20
 20
-1.000000000000000E+20
 30
-1.000000000000000E+20
  9
$PLIMMIN
 10
0.0
 20
0.0
  9
$PLIMMAX
 10
12.0
 20
9.0
  9
$UNITMODE
 70
     0
  9
$VISRETAIN
 70
     1
  9
$PLINEGEN
 70
     0
  9
$PSLTSCALE
 70
     1
  9
$TREEDEPTH
 70
  3020
  9
$CMLSTYLE
  2
Standard
  9
$CMLJUST
 70
     0
  9
$CMLSCALE
 40
1.0
  9
$PROXYGRAPHICS
 70
     1
  9
$MEASUREMENT
 70
     0
  9
$CELWEIGHT
370
    -1
  9
$ENDCAPS
280
     0
  9
$JOINSTYLE
280
     0
  9
$LWDISPLAY
290
     0
  9
$INSUNITS
 70
     4
  9
$HYPERLINKBASE
  1

  9
$STYLESHEET
  1

  9
$XEDIT
290
     1
  9
$CEPSNTYPE
380
     0
  9
$PSTYLEMODE
290
     1
  9
$FINGERPRINTGUID
  2
{24C52F40-750A-452D-9B84-60A036883A04}
  9
$VERSIONGUID
  2
{9717E594-57C8-4FB5-845F-6AFF918CFF37}
  9
$EXTNAMES
290
     1
  9
$PSVPSCALE
 40
0.0
  9
$OLESTARTUP
290
     0
  9
$SORTENTS
280
   127
  9
$INDEXCTL
280
     0
  9
$HIDETEXT
280
     0
  9
$XCLIPFRAME
280
     2
  9
$HALOGAP
280
     0
  9
$OBSCOLOR
 70
   257
  9
$OBSLTYPE
280
     0
  9
$INTERSECTIONDISPLAY
280
     0
  9
$INTERSECTIONCOLOR
 70
   257
  9
$DIMASSOC
280
     1
  9
$PROJECTNAME
  1

  9
$CAMERADISPLAY
290
     0
  9
$LENSLENGTH
 40
50.0
  9
$CAMERAHEIGHT
 40
0.0
  9
$STEPSPERSEC
 40
2.0
  9
$STEPSIZE
 40
6.0
  9
$3DDWFPREC
 40
2.0
  9
$PSOLWIDTH
 40
0.25
  9
$PSOLHEIGHT
 40
4.0
  9
$LOFTANG1
 40
1.570796326794896
  9
$LOFTANG2
 40
1.570796326794896
  9
$LOFTMAG1
 40
0.0
  9
$LOFTMAG2
 40
0.0
  9
$LOFTPARAM
 70
     7
  9
$LOFTNORMALS
280
     1
  9
$LATITUDE
 40
37.795
  9
$LONGITUDE
 40
-122.394
  9
$NORTHDIRECTION
 40
0.0
  9
$TIMEZONE
 70
 -8000
  9
$LIGHTGLYPHDISPLAY
280
     1
  9
$TILEMODELIGHTSYNCH
280
     1
  9
$CMATERIAL
347
10005
  9
$SOLIDHIST
280
     0
  9
$SHOWHIST
280
     1
  9
$DWFFRAME
280
     2
  9
$DGNFRAME
280
     0
  9
$REALWORLDSCALE
290
     1
  9
$INTERFERECOLOR
 62
     1
  9
$INTERFEREOBJVS
345
10027
  9
$INTERFEREVPVS
346
10024
  9
$CSHADOW
280
     0
  9
$SHADOWPLANELOCATION
 40
0.0
  0
ENDSEC
  0
SECTION
  2
CLASSES
  0
CLASS
  1
ACDBDICTIONARYWDFLT
  2
AcDbDictionaryWithDefault
  3
ObjectDBX Classes
 90
        0
 91
        1
280
     0
281
     0
  0
CLASS
  1
MATERIAL
  2
AcDbMaterial
  3
ObjectDBX Classes
 90
     1153
 91
        3
280
     0
281
     0
  0
CLASS
  1
VISUALSTYLE
  2
AcDbVisualStyle
  3
ObjectDBX Classes
 90
     4095
 91
       24
280
     0
281
     0
  0
CLASS
  1
TABLESTYLE
  2
AcDbTableStyle
  3
ObjectDBX Classes
 90
     4095
 91
        1
280
     0
281
     0
  0
CLASS
  1
SCALE
  2
AcDbScale
  3
ObjectDBX Classes
 90
     1153
 91
       17
280
     0
281
     0
  0
CLASS
  1
MLEADERSTYLE
  2
AcDbMLeaderStyle
  3
ACDB_MLEADERSTYLE_CLASS
 90
     4095
 91
        1
280
     0
281
     0
  0
CLASS
  1
ACDBSECTIONVIEWSTYLE
  2
AcDbSectionViewStyle
  3
ObjectDBX Classes
 90
     1025
 91
        1
280
     0
281
     0
  0
CLASS
  1
ACDBDETAILVIEWSTYLE
  2
AcDbDetailViewStyle
  3
ObjectDBX Classes
 90
     1025
 91
        1
280
     0
281
     0
  0
CLASS
  1
RAPIDRTRENDERSETTINGS
  2
AcDbRapidRTRenderSettings
  3
ObjectDBX Classes
 90
     1024
 91
        7
280
     0
281
     0
  0
CLASS
  1
DICTIONARYVAR
  2
AcDbDictionaryVar
  3
ObjectDBX Classes
 90
        0
 91
       36
280
     0
281
     0
  0
CLASS
  1
ACAD_EVALUATION_GRAPH
  2
AcDbEvalGraph
  3
ObjectDBX Classes
 90
     1153
 91
        0
280
     0
281
     0
  0
CLASS
  1
ACAECUSTOBJ
  2
AcAeEditorObj
  3
AcAeEditorObj
 90
     1024
 91
        0
280
     0
281
     0
  0
CLASS
  1
SORTENTSTABLE
  2
AcDbSortentsTable
  3
ObjectDBX Classes
 90
        0
 91
        1
280
     0
281
     0
  0
CLASS
  1
CELLSTYLEMAP
  2
AcDbCellStyleMap
  3
ObjectDBX Classes
 90
     1152
 91
        1
280
     0
281
     0
  0
CLASS
  1
MENTALRAYRENDERSETTINGS
  2
AcDbMentalRayRenderSettings
  3
SCENEOE
 90
     1024
 91
        1
280
     0
281
     0
  0
ENDSEC
  0
SECTION
  2
TABLES
  0
TABLE
  2
VPORT
  5
8
330
0
100
AcDbSymbolTable
 70
     1
  0
VPORT
  5
10059
330
8
100
AcDbSymbolTableRecord
100
AcDbViewportTableRecord
  2
*Active
 70
     0
 10
0.0
 20
0.0
 11
1.0
 21
1.0
 12
3894.639095834333
 22
68.40002293560792
 13
0.0
 23
0.0
 14
1.0
 24
1.0
 15
0.0
 25
0.0
 16
0.0
 26
0.0
 36
1.0
 17
0.0
 27
0.0
 37
0.0
 40
1366.15775210733
 41
2.534482758620689
 42
50.0
 43
0.0
 44
0.0
 50
0.0
 51
0.0
 71
     0
 72
  1000
 73
     1
 74
     3
 75
     0
 76
     0
 77
     0
 78
     0
281
     0
 65
     1
110
0.0
120
0.0
130
0.0
111
1.0
121
0.0
131
0.0
112
0.0
122
1.0
132
0.0
 79
     0
146
0.0
348
10023
 60
     3
 61
     5
292
     1
282
     1
141
0.0
142
0.0
 63
   250
421
  3355443
1001
ACAD_NAV_VCDISPLAY
1070
     1
  0
ENDTAB
  0
TABLE
  2
LTYPE
  5
5
330
0
100
AcDbSymbolTable
 70
     1
  0
LTYPE
  5
14
330
5
100
AcDbSymbolTableRecord
100
AcDbLinetypeTableRecord
  2
BYBLOCK
 70
     0
  3

 72
    65
 73
     0
 40
0.0
  0
LTYPE
  5
15
330
5
100
AcDbSymbolTableRecord
100
AcDbLinetypeTableRecord
  2
BYLAYER
 70
     0
  3

 72
    65
 73
     0
 40
0.0
  0
LTYPE
  5
10001
330
5
100
AcDbSymbolTableRecord
100
AcDbLinetypeTableRecord
  2
Continuous
 70
     0
  3
Solid line
 72
    65
 73
     0
 40
0.0
  0
ENDTAB
  0
TABLE
  2
LAYER
  5
2
102
{ACAD_XDICTIONARY
360
1057F
102
}
330
0
100
AcDbSymbolTable
 70
     1
  0
LAYER
  5
50
102
{ACAD_XDICTIONARY
360
103A9
102
}
330
2
100
AcDbSymbolTableRecord
100
AcDbLayerTableRecord
  2
0
 70
     0
 62
     7
  6
Continuous
370
    -3
390
10003
347
10015
  0
ENDTAB
  0
TABLE
  2
STYLE
  5
3
330
0
100
AcDbSymbolTable
 70
     1
  0
STYLE
  5
11
330
3
100
AcDbSymbolTableRecord
100
AcDbTextStyleTableRecord
  2
STANDARD
 70
     0
 40
0.0
 41
1.0
 50
0.0
 71
     0
 42
0.2
  3

  4

  0
ENDTAB
  0
TABLE
  2
VIEW
  5
6
330
0
100
AcDbSymbolTable
 70
     0
  0
ENDTAB
  0
TABLE
  2
UCS
  5
7
330
0
100
AcDbSymbolTable
 70
     0
  0
ENDTAB
  0
TABLE
  2
APPID
  5
9
330
0
100
AcDbSymbolTable
 70
     3
  0
APPID
  5
12
330
9
100
AcDbSymbolTableRecord
100
AcDbRegAppTableRecord
  2
ACAD
 70
     0
  0
APPID
  5
10058
330
9
100
AcDbSymbolTableRecord
100
AcDbRegAppTableRecord
  2
ACAD_NAV_VCDISPLAY
 70
     0
  0
APPID
  5
101B1
330
9
100
AcDbSymbolTableRecord
100
AcDbRegAppTableRecord
  2
ACAUTHENVIRON
 70
     0
  0
ENDTAB
  0
TABLE
  2
DIMSTYLE
  5
A
330
0
100
AcDbSymbolTable
 70
     1
100
AcDbDimStyleTable
 71
     0
  0
DIMSTYLE
105
10052
330
A
100
AcDbSymbolTableRecord
100
AcDbDimStyleTableRecord
  2
Standard
 70
     0
340
11
  0
ENDTAB
  0
TABLE
  2
BLOCK_RECORD
  5
1
330
0
100
AcDbSymbolTable
 70
     3
  0
BLOCK_RECORD
  5
1F
102
{ACAD_XDICTIONARY
360
10597
102
}
330
1
100
AcDbSymbolTableRecord
100
AcDbBlockTableRecord
  2
*MODEL_SPACE
340
10055
 70
     0
280
     1
281
     0
  0
BLOCK_RECORD
  5
1B
330
1
100
AcDbSymbolTableRecord
100
AcDbBlockTableRecord
  2
*PAPER_SPACE
340
10056
 70
     0
280
     1
281
     0
  0
BLOCK_RECORD
  5
10137
330
1
100
AcDbSymbolTableRecord
100
AcDbBlockTableRecord
  2
asiento
340
0
102
{BLKREFS
331
1014A
331
1014C
331
1014D
331
1014E
331
1014F
331
10153
331
10154
331
10155
331
10156
331
10157
331
10158
331
10159
331
1015A
331
101B5
331
101B6
331
101B7
331
101B8
331
101B9
331
101BA
331
101BB
331
101BC
331
101BD
331
101BE
331
101BF
331
101C0
331
101C1
331
101C2
331
101C3
331
101C4
331
101C5
331
101C6
331
101C7
331
101C8
331
101C9
331
101CA
331
101CB
331
101CC
331
101CD
331
101CE
331
101CF
331
101D0
331
101D1
331
10385
331
10392
331
10393
331
103A3
331
103A4
331
103A5
331
103A6
102
}
 70
     4
280
     1
281
     0
  0
BLOCK_RECORD
  5
1015B
330
1
100
AcDbSymbolTableRecord
100
AcDbBlockTableRecord
  2
respaldo
340
0
102
{BLKREFS
331
10379
331
1037C
102
}
 70
     4
280
     1
281
     0
  0
BLOCK_RECORD
  5
10173
330
1
100
AcDbSymbolTableRecord
100
AcDbBlockTableRecord
  2
refuerzo
340
0
102
{BLKREFS
331
1038F
331
10390
102
}
 70
     4
280
     1
281
     0
  0
ENDTAB
  0
ENDSEC
  0
SECTION
  2
BLOCKS
  0
BLOCK
  5
20
330
1F
100
AcDbEntity
  8
0
100
AcDbBlockBegin
  2
*MODEL_SPACE
 70
     0
 10
0.0
 20
0.0
 30
0.0
  3
*MODEL_SPACE
  1

  0
ENDBLK
  5
21
330
1F
100
AcDbEntity
  8
0
100
AcDbBlockEnd
  0
BLOCK
  5
1C
330
1B
100
AcDbEntity
 67
     1
  8
0
100
AcDbBlockBegin
  2
*PAPER_SPACE
 70
     0
 10
0.0
 20
0.0
 30
0.0
  3
*PAPER_SPACE
  1

  0
ENDBLK
  5
1D
330
1B
100
AcDbEntity
 67
     1
  8
0
100
AcDbBlockEnd
  0
BLOCK
  5
10148
330
10137
100
AcDbEntity
  8
0
100
AcDbBlockBegin
  2
asiento
 70
     0
 10
0.0
 20
0.0
 30
0.0
  3
asiento
  1

  0
ARC
  5
10138
330
10137
100
AcDbEntity
  8
0
100
AcDbCircle
 10
-2.245064030267275
 20
411.3597482289454
 30
0.0
 40
3.174999999999995
100
AcDbArc
 50
-45.00000000000061
 51
134.9999999999994
  0
LINE
  5
10139
330
10137
100
AcDbEntity
  8
0
100
AcDbLine
 10
-0.0000000000000069
 20
409.1146841986782
 30
0.0
 11
0.0
 21
400.0
 31
0.0
  0
LINE
  5
1013A
330
10137
100
AcDbEntity
  8
0
100
AcDbLine
 10
0.0
 20
400.0
 30
0.0
 11
470.0
 21
400.0
 31
0.0
  0
LINE
  5
1013B
330
10137
100
AcDbEntity
  8
0
100
AcDbLine
 10
470.0
 20
400.0
 30
0.0
 11
470.0
 21
409.1146841986782
 31
0.0
  0
ARC
  5
1013C
330
10137
100
AcDbEntity
  8
0
100
AcDbCircle
 10
472.2450640302672
 20
411.3597482289454
 30
0.0
 40
3.175000000000017
100
AcDbArc
 50
45.0
 51
225.0
  0
LINE
  5
1013D
330
10137
100
AcDbEntity
  8
0
100
AcDbLine
 10
474.4901280605345
 20
413.6048122592128
 30
0.0
 11
485.0
 21
413.6048122592128
 31
0.0
  0
LINE
  5
1013E
330
10137
100
AcDbEntity
  8
0
100
AcDbLine
 10
485.0
 20
413.6048122592128
 30
0.0
 11
485.0
 21
438.6048122592128
 31
0.0
  0
LINE
  5
1013F
330
10137
100
AcDbEntity
  8
0
100
AcDbLine
 10
485.0
 20
438.6048122592128
 30
0.0
 11
474.4901280605345
 21
438.6048122592128
 31
0.0
  0
ARC
  5
10140
330
10137
100
AcDbEntity
  8
0
100
AcDbCircle
 10
472.2450640302672
 20
440.84987628948
 30
0.0
 40
3.175000000000017
100
AcDbArc
 50
135.0
 51
315.0000000000007
  0
LINE
  5
10141
330
10137
100
AcDbEntity
  8
0
100
AcDbLine
 10
470.0
 20
443.0949403197473
 30
0.0
 11
470.0
 21
450.0
 31
0.0
  0
LINE
  5
10142
330
10137
100
AcDbEntity
  8
0
100
AcDbLine
 10
470.0
 20
450.0
 30
0.0
 11
0.0
 21
450.0
 31
0.0
  0
LINE
  5
10143
330
10137
100
AcDbEntity
  8
0
100
AcDbLine
 10
0.0
 20
450.0
 30
0.0
 11
0.0
 21
443.0949403197473
 31
0.0
  0
ARC
  5
10144
330
10137
100
AcDbEntity
  8
0
100
AcDbCircle
 10
-2.245064030267274
 20
440.84987628948
 30
0.0
 40
3.175000000000006
100
AcDbArc
 50
-135.0000000000003
 51
45.00000000000053
  0
LINE
  5
10145
330
10137
100
AcDbEntity
  8
0
100
AcDbLine
 10
-4.490128060534558
 20
438.6048122592128
 30
0.0
 11
-15.0
 21
438.6048122592128
 31
0.0
  0
LINE
  5
10146
330
10137
100
AcDbEntity
  8
0
100
AcDbLine
 10
-15.0
 20
438.6048122592128
 30
0.0
 11
-15.0
 21
413.6048122592128
 31
0.0
  0
LINE
  5
10147
330
10137
100
AcDbEntity
  8
0
100
AcDbLine
 10
-15.0
 20
413.6048122592128
 30
0.0
 11
-4.490128060534544
 21
413.6048122592128
 31
0.0
  0
ENDBLK
  5
10149
330
10137
100
AcDbEntity
  8
0
100
AcDbBlockEnd
  0
BLOCK
  5
10170
330
1015B
100
AcDbEntity
  8
0
100
AcDbBlockBegin
  2
respaldo
 70
     0
 10
0.0
 20
0.0
 30
0.0
  3
respaldo
  1

  0
ARC
  5
1015C
330
1015B
100
AcDbEntity
  8
0
100
AcDbCircle
 10
-2.245064030267231
 20
108.0541760636009
 30
-0.0000000000002842
 40
3.174999999999985
100
AcDbArc
 50
-45.00000000000055
 51
134.9999999999994
  0
LINE
  5
1015D
330
1015B
100
AcDbEntity
  8
0
100
AcDbLine
 10
0.0000000000000239
 20
105.8091120333336
 30
-0.0000000000002842
 11
0.0
 21
16.82256542966252
 31
-0.0000000000002887
  0
LINE
  5
1015E
330
1015B
100
AcDbEntity
  8
0
100
AcDbLine
 10
0.0
 20
16.82256542966252
 30
-0.0000000000002887
 11
470.0
 21
16.82256542966243
 31
-0.0000000000005684
  0
LINE
  5
1015F
330
1015B
100
AcDbEntity
  8
0
100
AcDbLine
 10
470.0
 20
16.82256542966243
 30
-0.0000000000005684
 11
470.0
 21
105.8091120333335
 31
-0.0000000000005662
  0
ARC
  5
10160
330
1015B
100
AcDbEntity
  8
0
100
AcDbCircle
 10
472.2450640302674
 20
108.0541760636009
 30
-0.0000000000002842
 40
3.17499999999998
100
AcDbArc
 50
45.00000000000089
 51
225.0000000000011
  0
LINE
  5
10161
330
1015B
100
AcDbEntity
  8
0
100
AcDbLine
 10
474.4901280605345
 20
110.2992400938683
 30
-0.0000000000002842
 11
480.5098719394652
 21
110.2992400938681
 31
-0.0000000000002842
  0
ARC
  5
10162
330
1015B
100
AcDbEntity
  8
0
100
AcDbCircle
 10
482.7549359697325
 20
108.0541760636009
 30
-0.0000000000002842
 40
3.174999999999992
100
AcDbArc
 50
-45.00000000000092
 51
135.0000000000025
  0
LINE
  5
10163
330
1015B
100
AcDbEntity
  8
0
100
AcDbLine
 10
484.9999999999999
 20
105.8091120333336
 30
-0.0000000000002842
 11
485.0
 21
16.82256542966254
 31
-0.0000000000002842
  0
LINE
  5
10164
330
1015B
100
AcDbEntity
  8
0
100
AcDbLine
 10
485.0
 20
16.82256542966254
 30
-0.0000000000002842
 11
495.0
 21
16.82256542966243
 31
-0.0000000000005684
  0
ARC
  5
10165
330
1015B
100
AcDbEntity
  8
0
100
AcDbCircle
 10
495.0
 20
31.82256542966257
 30
-0.0000000000002842
 40
15.00000000000014
100
AcDbArc
 50
-90.0
 51
0.0
  0
LINE
  5
10166
330
1015B
100
AcDbEntity
  8
0
100
AcDbLine
 10
510.0
 20
31.82256542966265
 30
-0.0000000000002842
 11
510.0
 21
316.8225654296624
 31
-0.0000000000002842
  0
ARC
  5
10167
330
1015B
100
AcDbEntity
  8
0
100
AcDbCircle
 10
410.0
 20
316.8225654296622
 30
-0.0000000000002842
 40
100.0
100
AcDbArc
 50
0.0
 51
90.0
  0
LINE
  5
10168
330
1015B
100
AcDbEntity
  8
0
100
AcDbLine
 10
410.0
 20
416.8225654296623
 30
-0.000000000000287
 11
60.0
 21
416.8225654296624
 31
-0.0000000000002842
  0
ARC
  5
10169
330
1015B
100
AcDbEntity
  8
0
100
AcDbCircle
 10
60.00000000000002
 20
316.8225654296622
 30
-0.0000000000002842
 40
100.0000000000001
100
AcDbArc
 50
90.00000000000001
 51
180.0
  0
LINE
  5
1016A
330
1015B
100
AcDbEntity
  8
0
100
AcDbLine
 10
-40.0
 20
316.8225654296622
 30
-0.0000000000002842
 11
-40.0
 21
31.8225654296625
 31
-0.0000000000002842
  0
ARC
  5
1016B
330
1015B
100
AcDbEntity
  8
0
100
AcDbCircle
 10
-25.0
 20
31.82256542966257
 30
-0.0000000000002842
 40
15.0
100
AcDbArc
 50
180.0
 51
270.0
  0
LINE
  5
1016C
330
1015B
100
AcDbEntity
  8
0
100
AcDbLine
 10
-25.0
 20
16.82256542966258
 30
-0.0000000000002846
 11
-15.0
 21
16.82256542966243
 31
-0.0000000000005684
  0
LINE
  5
1016D
330
1015B
100
AcDbEntity
  8
0
100
AcDbLine
 10
-15.0
 20
16.82256542966243
 30
-0.0000000000005684
 11
-15.0
 21
105.8091120333335
 31
-0.0000000000005684
  0
ARC
  5
1016E
330
1015B
100
AcDbEntity
  8
0
100
AcDbCircle
 10
-12.75493596973277
 20
108.0541760636009
 30
-0.0000000000002842
 40
3.174999999999999
100
AcDbArc
 50
44.9999999999989
 51
225.0000000000022
  0
LINE
  5
1016F
330
1015B
100
AcDbEntity
  8
0
100
AcDbLine
 10
-10.50987193946544
 20
110.2992400938682
 30
-0.0000000000002842
 11
-4.490128060534486
 21
110.2992400938682
 31
-0.0000000000002842
  0
ENDBLK
  5
10171
330
1015B
100
AcDbEntity
  8
0
100
AcDbBlockEnd
  0
BLOCK
  5
10175
330
10173
100
AcDbEntity
  8
0
100
AcDbBlockBegin
  2
refuerzo
 70
     0
 10
0.0
 20
0.0
 30
0.0
  3
refuerzo
  1

  0
LWPOLYLINE
  5
10174
330
10173
100
AcDbEntity
  8
0
100
AcDbPolyline
 90
       20
 70
     1
 43
0.0
 10
474.4901280605345
 20
382.104636412236
 42
-1.0
 10
470.0
 20
386.5947644727709
 10
470.0
 20
475.5813110764416
 10
0.0
 20
475.5813110764416
 10
0.0000000000001149
 20
386.5947644727705
 42
-1.0
 10
-4.490128060534538
 20
382.1046364122361
 10
-10.50987193946547
 20
382.1046364122361
 42
-1.0
 10
-15.00000000000003
 20
386.5947644727709
 10
-15.0
 20
475.5813110764416
 10
-25.0
 20
475.5813110764416
 42
0.4142135623730951
 10
-40.0
 20
460.5813110764416
 10
-40.0
 20
340.5813110764416
 42
0.4142135623730951
 10
-25.0
 20
325.5813110764417
 10
495.0
 20
325.5813110764417
 42
0.4142135623730966
 10
510.0
 20
340.5813110764418
 10
510.0
 20
460.5813110764416
 42
0.4142135623730951
 10
495.0
 20
475.5813110764416
 10
485.0
 20
475.5813110764416
 10
485.0
 20
386.5947644727705
 42
-1.0
 10
480.5098719394652
 20
382.1046364122361
  0
ENDBLK
  5
10176
330
10173
100
AcDbEntity
  8
0
100
AcDbBlockEnd
  0
ENDSEC
  0
SECTION
  2
ENTITIES
  0
INSERT
  5
1014A
330
1F
100
AcDbEntity
  8
0
  6
Continuous
100
AcDbBlockReference
  2
asiento
 10
4203.486205761055
 20
-1145.0
 30
0.0
 50
90.0
  0
INSERT
  5
1014C
330
1F
100
AcDbEntity
  8
0
  6
Continuous
100
AcDbBlockReference
  2
asiento
 10
4269.486205761055
 20
-1145.0
 30
0.0
 50
90.0
  0
INSERT
  5
1014D
330
1F
100
AcDbEntity
  8
0
  6
Continuous
100
AcDbBlockReference
  2
asiento
 10
4335.486205761055
 20
-1145.0
 30
0.0
 50
90.0
  0
INSERT
  5
1014E
330
1F
100
AcDbEntity
  8
0
  6
Continuous
100
AcDbBlockReference
  2
asiento
 10
4401.486205761055
 20
-1145.0
 30
0.0
 50
90.0
  0
INSERT
  5
1014F
330
1F
100
AcDbEntity
  8
0
  6
Continuous
100
AcDbBlockReference
  2
asiento
 10
4467.486205761055
 20
-1145.0
 30
0.0
 50
90.0
  0
INSERT
  5
10153
330
1F
100
AcDbEntity
  8
0
  6
Continuous
100
AcDbBlockReference
  2
asiento
 10
3148.486205761055
 20
-1660.0
 30
0.0
 50
90.0
  0
INSERT
  5
10154
330
1F
100
AcDbEntity
  8
0
  6
Continuous
100
AcDbBlockReference
  2
asiento
 10
3214.486205761055
 20
-1660.0
 30
0.0
 50
90.0
  0
INSERT
  5
10155
330
1F
100
AcDbEntity
  8
0
  6
Continuous
100
AcDbBlockReference
  2
asiento
 10
3280.486205761055
 20
-1660.0
 30
0.0
 50
90.0
  0
INSERT
  5
10156
330
1F
100
AcDbEntity
  8
0
  6
Continuous
100
AcDbBlockReference
  2
asiento
 10
3346.486205761055
 20
-1660.0
 30
0.0
 50
90.0
  0
INSERT
  5
10157
330
1F
100
AcDbEntity
  8
0
  6
Continuous
100
AcDbBlockReference
  2
asiento
 10
3412.486205761055
 20
-1660.0
 30
0.0
 50
90.0
  0
INSERT
  5
10158
330
1F
100
AcDbEntity
  8
0
  6
Continuous
100
AcDbBlockReference
  2
asiento
 10
3478.486205761055
 20
-1660.0
 30
0.0
 50
90.0
  0
INSERT
  5
10159
330
1F
100
AcDbEntity
  8
0
  6
Continuous
100
AcDbBlockReference
  2
asiento
 10
3544.486205761055
 20
-1660.0
 30
0.0
 50
90.0
  0
INSERT
  5
1015A
330
1F
100
AcDbEntity
  8
0
  6
Continuous
100
AcDbBlockReference
  2
asiento
 10
3610.486205761055
 20
-1660.0
 30
0.0
 50
90.0
  0
INSERT
  5
101B5
330
1F
100
AcDbEntity
  8
0
  6
Continuous
100
AcDbBlockReference
  2
asiento
 10
3148.486205761055
 20
-1145.0
 30
0.0
 50
90.0
  0
INSERT
  5
101B6
330
1F
100
AcDbEntity
  8
0
  6
Continuous
100
AcDbBlockReference
  2
asiento
 10
3214.486205761055
 20
-1145.0
 30
0.0
 50
90.0
  0
INSERT
  5
101B7
330
1F
100
AcDbEntity
  8
0
  6
Continuous
100
AcDbBlockReference
  2
asiento
 10
3280.486205761055
 20
-1145.0
 30
0.0
 50
90.0
  0
INSERT
  5
101B8
330
1F
100
AcDbEntity
  8
0
  6
Continuous
100
AcDbBlockReference
  2
asiento
 10
3346.486205761055
 20
-1145.0
 30
0.0
 50
90.0
  0
INSERT
  5
101B9
330
1F
100
AcDbEntity
  8
0
  6
Continuous
100
AcDbBlockReference
  2
asiento
 10
3412.486205761055
 20
-1145.0
 30
0.0
 50
90.0
  0
INSERT
  5
101BA
330
1F
100
AcDbEntity
  8
0
  6
Continuous
100
AcDbBlockReference
  2
asiento
 10
3478.486205761055
 20
-1145.0
 30
0.0
 50
90.0
  0
INSERT
  5
101BB
330
1F
100
AcDbEntity
  8
0
  6
Continuous
100
AcDbBlockReference
  2
asiento
 10
3544.486205761055
 20
-1145.0
 30
0.0
 50
90.0
  0
INSERT
  5
101BC
330
1F
100
AcDbEntity
  8
0
  6
Continuous
100
AcDbBlockReference
  2
asiento
 10
3610.486205761055
 20
-1145.0
 30
0.0
 50
90.0
  0
INSERT
  5
101BD
330
1F
100
AcDbEntity
  8
0
  6
Continuous
100
AcDbBlockReference
  2
asiento
 10
3676.486205761055
 20
-1145.0
 30
0.0
 50
90.0
  0
INSERT
  5
101BE
330
1F
100
AcDbEntity
  8
0
  6
Continuous
100
AcDbBlockReference
  2
asiento
 10
3742.486205761055
 20
-1145.0
 30
0.0
 50
90.0
  0
INSERT
  5
101BF
330
1F
100
AcDbEntity
  8
0
  6
Continuous
100
AcDbBlockReference
  2
asiento
 10
3808.486205761055
 20
-1145.0
 30
0.0
 50
90.0
  0
INSERT
  5
101C0
330
1F
100
AcDbEntity
  8
0
  6
Continuous
100
AcDbBlockReference
  2
asiento
 10
3874.486205761055
 20
-1145.0
 30
0.0
 50
90.0
  0
INSERT
  5
101C1
330
1F
100
AcDbEntity
  8
0
  6
Continuous
100
AcDbBlockReference
  2
asiento
 10
3940.486205761055
 20
-1145.0
 30
0.0
 50
90.0
  0
INSERT
  5
101C2
330
1F
100
AcDbEntity
  8
0
  6
Continuous
100
AcDbBlockReference
  2
asiento
 10
4006.486205761055
 20
-1145.0
 30
0.0
 50
90.0
  0
INSERT
  5
101C3
330
1F
100
AcDbEntity
  8
0
  6
Continuous
100
AcDbBlockReference
  2
asiento
 10
4072.486205761054
 20
-1145.0
 30
0.0
 50
90.0
  0
INSERT
  5
101C4
330
1F
100
AcDbEntity
  8
0
  6
Continuous
100
AcDbBlockReference
  2
asiento
 10
4138.486205761055
 20
-1145.0
 30
0.0
 50
90.0
  0
INSERT
  5
101C5
330
1F
100
AcDbEntity
  8
0
  6
Continuous
100
AcDbBlockReference
  2
asiento
 10
3676.486205761055
 20
-1660.0
 30
0.0
 50
90.0
  0
INSERT
  5
101C6
330
1F
100
AcDbEntity
  8
0
  6
Continuous
100
AcDbBlockReference
  2
asiento
 10
3742.486205761055
 20
-1660.0
 30
0.0
 50
90.0
  0
INSERT
  5
101C7
330
1F
100
AcDbEntity
  8
0
  6
Continuous
100
AcDbBlockReference
  2
asiento
 10
3808.486205761055
 20
-1660.0
 30
0.0
 50
90.0
  0
INSERT
  5
101C8
330
1F
100
AcDbEntity
  8
0
  6
Continuous
100
AcDbBlockReference
  2
asiento
 10
3874.486205761055
 20
-1660.0
 30
0.0
 50
90.0
  0
INSERT
  5
101C9
330
1F
100
AcDbEntity
  8
0
  6
Continuous
100
AcDbBlockReference
  2
asiento
 10
3940.486205761055
 20
-1660.0
 30
0.0
 50
90.0
  0
INSERT
  5
101CA
330
1F
100
AcDbEntity
  8
0
  6
Continuous
100
AcDbBlockReference
  2
asiento
 10
4006.486205761055
 20
-1660.0
 30
0.0
 50
90.0
  0
INSERT
  5
101CB
330
1F
100
AcDbEntity
  8
0
  6
Continuous
100
AcDbBlockReference
  2
asiento
 10
4072.486205761054
 20
-1660.0
 30
0.0
 50
90.0
  0
INSERT
  5
101CC
330
1F
100
AcDbEntity
  8
0
  6
Continuous
100
AcDbBlockReference
  2
asiento
 10
4138.486205761055
 20
-1660.0
 30
0.0
 50
90.0
  0
INSERT
  5
101CD
330
1F
100
AcDbEntity
  8
0
  6
Continuous
100
AcDbBlockReference
  2
asiento
 10
4204.486205761055
 20
-1660.0
 30
0.0
 50
90.0
  0
INSERT
  5
101CE
330
1F
100
AcDbEntity
  8
0
  6
Continuous
100
AcDbBlockReference
  2
asiento
 10
4270.486205761055
 20
-1660.0
 30
0.0
 50
90.0
  0
INSERT
  5
101CF
330
1F
100
AcDbEntity
  8
0
  6
Continuous
100
AcDbBlockReference
  2
asiento
 10
4336.486205761055
 20
-1660.0
 30
0.0
 50
90.0
  0
INSERT
  5
101D0
330
1F
100
AcDbEntity
  8
0
  6
Continuous
100
AcDbBlockReference
  2
asiento
 10
4402.486205761055
 20
-1660.0
 30
0.0
 50
90.0
  0
INSERT
  5
101D1
330
1F
100
AcDbEntity
  8
0
  6
Continuous
100
AcDbBlockReference
  2
asiento
 10
4468.486205761055
 20
-1660.0
 30
0.0
 50
90.0
  0
LWPOLYLINE
  5
101D5
102
{ACAD_REACTORS
330
1038E
102
}
330
1F
100
AcDbEntity
  8
0
100
AcDbPolyline
 90
      194
 70
     1
 43
0.0
 10
4508.704084529433
 20
611.0402415944947
 42
-1.0
 10
4505.061874158605
 20
605.8386261132592
 10
4499.133583715486
 20
604.7933085586605
 42
-1.0
 10
4493.931968234252
 20
608.4355189294911
 10
4486.474622600346
 20
650.7282276456598
 42
0.5283466112772625
 10
4463.887735812948
 20
660.926995213947
 42
0.26142037793994
 10
4415.986205761055
 20
575.5703936586717
 10
4415.986205761055
 20
520.0000000000001
 42
-1.0
 10
4400.986205761055
 20
520.0000000000001
 10
4400.986205761055
 20
665.0
 42
0.4142135623730992
 10
4395.986205761055
 20
670.0
 10
4330.986205761055
 20
670.0
 42
0.4142135623730992
 10
4325.986205761055
 20
665.0
 10
4325.986205761055
 20
470.0000000000001
 42
-1.0
 10
4310.986205761055
 20
470.0000000000001
 10
4310.986205761055
 20
665.0
 42
0.4142135623730992
 10
4305.986205761055
 20
670.0
 10
4240.986205761055
 20
670.0
 42
0.4142135623730992
 10
4235.986205761055
 20
665.0
 10
4235.986205761055
 20
470.0000000000001
 42
-1.0
 10
4220.986205761056
 20
470.0000000000001
 10
4220.986205761056
 20
665.0
 42
0.4142135623730992
 10
4215.986205761055
 20
670.0
 10
4150.986205761055
 20
670.0
 42
0.4142135623730992
 10
4145.986205761055
 20
665.0
 10
4145.986205761055
 20
470.0000000000001
 42
-1.0
 10
4130.986205761055
 20
470.0000000000001
 10
4130.986205761055
 20
665.0
 42
0.4142135623730992
 10
4125.986205761055
 20
670.0
 10
4060.986205761055
 20
670.0
 42
0.4142135623730992
 10
4055.986205761055
 20
665.0
 10
4055.986205761055
 20
470.0000000000001
 42
-1.0
 10
4040.986205761055
 20
470.0000000000001
 10
4040.986205761055
 20
665.0
 42
0.4142135623730992
 10
4035.986205761055
 20
670.0
 10
3970.986205761056
 20
670.0
 42
0.4142135623730992
 10
3965.986205761055
 20
665.0
 10
3965.986205761055
 20
470.0000000000001
 42
-1.0
 10
3950.986205761056
 20
470.0000000000001
 10
3950.986205761056
 20
665.0
 42
0.4142135623731076
 10
3945.986205761056
 20
670.0
 10
3880.986205761055
 20
670.0
 42
0.4142135623731076
 10
3875.986205761055
 20
665.0
 10
3875.986205761055
 20
470.0000000000001
 42
-1.0
 10
3860.986205761056
 20
470.0000000000001
 10
3860.986205761056
 20
665.0
 42
0.4142135623731076
 10
3855.986205761055
 20
670.0
 10
3790.986205761055
 20
670.0
 42
0.4142135623731076
 10
3785.986205761056
 20
665.0
 10
3785.986205761056
 20
470.0000000000001
 42
-1.0
 10
3770.986205761056
 20
470.0000000000001
 10
3770.986205761056
 20
665.0
 42
0.4142135623731076
 10
3765.986205761056
 20
670.0
 10
3700.986205761056
 20
670.0
 42
0.4142135623731076
 10
3695.986205761056
 20
665.0
 10
3695.986205761056
 20
470.0000000000001
 42
-1.0
 10
3680.986205761055
 20
470.0000000000001
 10
3680.986205761055
 20
665.0
 42
0.4142135623731076
 10
3675.986205761056
 20
670.0
 10
3610.986205761056
 20
670.0
 42
0.4142135623731076
 10
3605.986205761055
 20
665.0
 10
3605.986205761055
 20
470.0000000000001
 42
-1.0
 10
3590.986205761055
 20
470.0000000000001
 10
3590.986205761055
 20
665.0
 42
0.4142135623731076
 10
3585.986205761056
 20
670.0
 10
3520.986205761056
 20
670.0
 42
0.4142135623731076
 10
3515.986205761056
 20
665.0
 10
3515.986205761056
 20
470.0000000000001
 42
-1.0
 10
3500.986205761055
 20
470.0000000000001
 10
3500.986205761055
 20
665.0
 42
0.4142135623731076
 10
3495.986205761056
 20
670.0
 10
3430.986205761055
 20
670.0
 42
0.4142135623731076
 10
3425.986205761056
 20
665.0
 10
3425.986205761056
 20
470.0000000000001
 42
-1.0
 10
3410.986205761056
 20
470.0000000000001
 10
3410.986205761056
 20
665.0
 42
0.4142135623731076
 10
3405.986205761055
 20
670.0
 10
3340.986205761055
 20
670.0
 42
0.4142135623731076
 10
3335.986205761056
 20
665.0
 10
3335.986205761056
 20
520.0000000000001
 42
-1.0
 10
3320.986205761055
 20
520.0000000000001
 10
3320.986205761055
 20
575.5703936586717
 42
0.2614203779399395
 10
3273.084675709164
 20
660.9269952139473
 42
0.5283466112772557
 10
3250.497788921764
 20
650.7282276456597
 10
3243.04044328786
 20
608.4355189294906
 42
-1.0
 10
3237.838827806624
 20
604.7933085586613
 10
3231.910537363505
 20
605.8386261132592
 42
-1.0
 10
3228.268326992676
 20
611.0402415944944
 10
3235.560335581889
 20
652.3952773349963
 42
0.4663076581549947
 10
3220.788219286707
 20
670.0
 10
2768.486205761055
 20
670.0
 42
0.4142135623730951
 10
2668.486205761056
 20
570.0
 10
2668.486205761056
 20
270.0
 42
0.4142135623730951
 10
2768.486205761055
 20
170.0
 10
3220.788219286707
 20
169.9999999999999
 42
0.4663076581549975
 10
3235.560335581889
 20
187.6047226650039
 10
3228.268326992676
 20
228.9597584055056
 42
-1.0
 10
3231.910537363506
 20
234.1613738867407
 10
3237.838827806624
 20
235.2066914413389
 42
-1.0
 10
3243.04044328786
 20
231.5644810705094
 10
3250.788240787546
 20
187.6245379684594
 42
0.4978166326751869
 10
3272.102854374788
 20
176.7312708133685
 42
0.2874087553518847
 10
3328.486205761056
 20
266.7178696140017
 10
3328.486205761056
 20
420.0000000000001
 42
-0.4142135623730951
 10
3343.486205761055
 20
435.0
 10
3360.986205761056
 20
435.0
 42
0.4142135623730992
 10
3365.986205761056
 20
440.0
 10
3365.986205761056
 20
635.0000000000001
 42
-1.0
 10
3380.986205761055
 20
635.0000000000001
 10
3380.986205761055
 20
440.0
 42
0.4142135623730992
 10
3385.986205761056
 20
434.9999999999999
 10
3450.986205761056
 20
435.0
 42
0.4142135623730992
 10
3455.986205761055
 20
440.0
 10
3455.986205761055
 20
635.0000000000001
 42
-1.0
 10
3470.986205761056
 20
635.0000000000001
 10
3470.986205761056
 20
440.0
 42
0.4142135623730992
 10
3475.986205761055
 20
434.9999999999999
 10
3540.986205761055
 20
435.0
 42
0.4142135623730992
 10
3545.986205761056
 20
440.0
 10
3545.986205761056
 20
635.0000000000001
 42
-1.0
 10
3560.986205761056
 20
635.0000000000001
 10
3560.986205761056
 20
440.0
 42
0.4142135623730992
 10
3565.986205761055
 20
434.9999999999999
 10
3630.986205761055
 20
435.0
 42
0.4142135623730992
 10
3635.986205761056
 20
440.0
 10
3635.986205761056
 20
635.0000000000001
 42
-1.0
 10
3650.986205761056
 20
635.0000000000001
 10
3650.986205761056
 20
440.0
 42
0.4142135623730971
 10
3655.986205761055
 20
435.0
 10
3720.986205761056
 20
435.0
 42
0.4142135623730971
 10
3725.986205761055
 20
440.0
 10
3725.986205761055
 20
635.0000000000001
 42
-1.0
 10
3740.986205761056
 20
635.0000000000001
 10
3740.986205761056
 20
440.0
 42
0.4142135623730971
 10
3745.986205761056
 20
435.0
 10
3810.986205761056
 20
435.0
 42
0.4142135623730971
 10
3815.986205761055
 20
440.0
 10
3815.986205761055
 20
635.0000000000001
 42
-1.0
 10
3830.986205761055
 20
635.0000000000001
 10
3830.986205761055
 20
440.0
 42
0.4142135623730971
 10
3835.986205761056
 20
435.0
 10
3900.986205761056
 20
435.0
 42
0.4142135623730971
 10
3905.986205761055
 20
440.0
 10
3905.986205761055
 20
635.0000000000001
 42
-1.0
 10
3920.986205761056
 20
635.0000000000001
 10
3920.986205761056
 20
440.0
 42
0.4142135623730971
 10
3925.986205761056
 20
435.0
 10
3990.986205761056
 20
435.0
 42
0.4142135623730971
 10
3995.986205761056
 20
440.0
 10
3995.986205761056
 20
635.0000000000001
 42
-1.0
 10
4010.986205761056
 20
635.0000000000001
 10
4010.986205761056
 20
440.0
 42
0.4142135623730971
 10
4015.986205761055
 20
435.0
 10
4080.986205761055
 20
435.0
 42
0.4142135623730971
 10
4085.986205761055
 20
440.0
 10
4085.986205761055
 20
635.0000000000001
 42
-1.0
 10
4100.986205761055
 20
635.0000000000001
 10
4100.986205761055
 20
440.0
 42
0.4142135623730971
 10
4105.986205761054
 20
435.0
 10
4170.986205761056
 20
435.0
 42
0.4142135623730992
 10
4175.986205761055
 20
440.0
 10
4175.986205761055
 20
635.0000000000001
 42
-1.0
 10
4190.986205761055
 20
635.0000000000001
 10
4190.986205761055
 20
440.0
 42
0.4142135623730992
 10
4195.986205761055
 20
435.0
 10
4260.986205761056
 20
435.0
 42
0.4142135623730992
 10
4265.986205761055
 20
440.0
 10
4265.986205761055
 20
635.0000000000001
 42
-1.0
 10
4280.986205761055
 20
635.0000000000001
 10
4280.986205761055
 20
440.0
 42
0.4142135623730992
 10
4285.986205761055
 20
435.0
 10
4350.986205761055
 20
435.0
 42
0.4142135623730992
 10
4355.986205761054
 20
440.0
 10
4355.986205761054
 20
635.0000000000001
 42
-1.0
 10
4370.986205761055
 20
635.0000000000001
 10
4370.986205761055
 20
440.0
 42
0.4142135623730992
 10
4375.986205761055
 20
435.0
 10
4393.486205761055
 20
435.0
 42
-0.4142135623730951
 10
4408.486205761056
 20
420.0000000000001
 10
4408.486205761056
 20
266.7178696140017
 42
0.2874087553518861
 10
4464.869557147322
 20
176.7312708133683
 42
0.4978166326751802
 10
4486.184170734564
 20
187.6245379684594
 10
4493.931968234251
 20
231.5644810705095
 42
-1.0
 10
4499.133583715486
 20
235.2066914413387
 10
4505.061874158605
 20
234.1613738867405
 42
-1.0
 10
4508.704084529435
 20
228.9597584055056
 10
4501.412075940221
 20
187.6047226650039
 42
0.4663076581549964
 10
4516.184192235404
 20
170.0000000000001
 10
4968.486205761055
 20
170.0
 42
0.4142135623730951
 10
5068.486205761055
 20
270.0000000000001
 10
5068.486205761055
 20
570.0000000000001
 42
0.4142135623730951
 10
4968.486205761055
 20
670.0
 10
4516.184192235404
 20
670.0
 42
0.466307658154997
 10
4501.412075940221
 20
652.3952773349963
  0
ARC
  5
101D6
102
{ACAD_REACTORS
330
1038E
102
}
330
1F
100
AcDbEntity
  8
0
100
AcDbCircle
 10
4653.450178494417
 20
606.3597482289456
 30
0.000000000000143
 40
3.175000000000168
100
AcDbArc
 50
44.99999999999612
 51
224.999999999994
  0
LINE
  5
101D7
102
{ACAD_REACTORS
330
1038E
102
}
330
1F
100
AcDbEntity
  8
0
100
AcDbLine
 10
4655.695242524683
 20
608.6048122592131
 30
0.000000000000143
 11
4661.714986403615
 21
608.6048122592128
 31
0.000000000000143
  0
ARC
  5
101D8
102
{ACAD_REACTORS
330
1038E
102
}
330
1F
100
AcDbEntity
  8
0
100
AcDbCircle
 10
4663.960050433883
 20
606.3597482289456
 30
0.000000000000143
 40
3.174999999999866
100
AcDbArc
 50
315.0000000000036
 51
135.0000000000061
  0
LINE
  5
101D9
102
{ACAD_REACTORS
330
1038E
102
}
330
1F
100
AcDbEntity
  8
0
100
AcDbLine
 10
4666.20511446415
 20
604.1146841986783
 30
0.000000000000143
 11
4666.20511446415
 21
588.0949403197478
 31
0.000000000000143
  0
ARC
  5
101DA
102
{ACAD_REACTORS
330
1038E
102
}
330
1F
100
AcDbEntity
  8
0
100
AcDbCircle
 10
4663.960050433883
 20
585.8498762894801
 30
0.000000000000143
 40
3.175000000000017
100
AcDbArc
 50
224.9999999999933
 51
44.9999999999982
  0
LINE
  5
101DB
102
{ACAD_REACTORS
330
1038E
102
}
330
1F
100
AcDbEntity
  8
0
100
AcDbLine
 10
4661.714986403615
 20
583.6048122592128
 30
0.000000000000143
 11
4655.695242524685
 21
583.6048122592128
 31
0.000000000000143
  0
ARC
  5
101DC
102
{ACAD_REACTORS
330
1038E
102
}
330
1F
100
AcDbEntity
  8
0
100
AcDbCircle
 10
4653.450178494417
 20
585.8498762894801
 30
0.000000000000143
 40
3.175000000000017
100
AcDbArc
 50
135.000000000009
 51
315.0000000000046
  0
LINE
  5
101DD
102
{ACAD_REACTORS
330
1038E
102
}
330
1F
100
AcDbEntity
  8
0
100
AcDbLine
 10
4651.20511446415
 20
588.0949403197471
 30
0.000000000000143
 11
4651.20511446415
 21
604.1146841986781
 31
0.000000000000143
  0
LWPOLYLINE
  5
101DE
102
{ACAD_REACTORS
330
1038E
102
}
330
1F
100
AcDbEntity
  8
0
100
AcDbPolyline
 90
        8
 70
     1
 43
0.0
 10
2739.515842132586
 20
549.9200896761799
 42
-1.0
 10
2737.432334605135
 20
555.9185475099117
 10
2740.056647077389
 20
561.3361392641784
 42
-1.0
 10
2746.05510491112
 20
563.4196467916295
 10
2760.47240140902
 20
556.4358258003533
 42
-1.0
 10
2762.555908936471
 20
550.4373679666218
 10
2759.931596464217
 20
545.0197762123545
 42
-1.0
 10
2753.933138630485
 20
542.9362686849042
  0
LWPOLYLINE
  5
101DF
102
{ACAD_REACTORS
330
1038E
102
}
330
1F
100
AcDbEntity
  8
0
100
AcDbPolyline
 90
        8
 70
     1
 43
0.0
 10
4801.533477518792
 20
235.885315801322
 42
-1.0
 10
4797.043349458258
 20
231.3951877407873
 10
4791.023605579327
 20
231.3951877407875
 42
-1.0
 10
4786.533477518792
 20
235.8853158013218
 10
4786.533477518792
 20
251.9050596802526
 42
-1.0
 10
4791.023605579327
 20
256.3951877407873
 10
4797.043349458258
 20
256.3951877407872
 42
-1.0
 10
4801.533477518792
 20
251.9050596802528
  0
LWPOLYLINE
  5
101E0
102
{ACAD_REACTORS
330
1038E
102
}
330
1F
100
AcDbEntity
  8
0
100
AcDbPolyline
 90
        8
 70
     1
 43
0.0
 10
2950.438934003319
 20
235.8853158013219
 42
-1.0
 10
2945.948805942784
 20
231.3951877407873
 10
2939.929062063853
 20
231.3951877407873
 42
-1.0
 10
2935.438934003319
 20
235.8853158013218
 10
2935.438934003319
 20
251.9050596802527
 42
-1.0
 10
2939.929062063853
 20
256.3951877407873
 10
2945.948805942784
 20
256.3951877407873
 42
-1.0
 10
2950.438934003319
 20
251.9050596802527
  0
ARC
  5
101E1
102
{ACAD_REACTORS
330
1038E
102
}
330
1F
100
AcDbEntity
  8
0
100
AcDbCircle
 10
4976.143544020697
 20
255.4922344905197
 30
0.000000000000143
 40
3.174999999999914
100
AcDbArc
 50
263.3083729903288
 51
83.30837299032879
  0
LINE
  5
101E2
102
{ACAD_REACTORS
330
1038E
102
}
330
1F
100
AcDbEntity
  8
0
100
AcDbLine
 10
4975.773575248252
 20
252.3388635787151
 30
0.000000000000143
 11
4971.049967767193
 21
248.607262215653
 31
0.000000000000143
  0
ARC
  5
101E3
102
{ACAD_REACTORS
330
1038E
102
}
330
1F
100
AcDbEntity
  8
0
100
AcDbCircle
 10
4967.896596855387
 20
248.9772309880983
 30
0.000000000000143
 40
3.174999999999932
100
AcDbArc
 50
173.3083729903091
 51
353.3083729903091
  0
LINE
  5
101E4
102
{ACAD_REACTORS
330
1038E
102
}
330
1F
100
AcDbEntity
  8
0
100
AcDbLine
 10
4964.743225943583
 20
249.3471997605436
 30
0.000000000000143
 11
4954.812687486001
 21
261.9176651413085
 31
0.000000000000143
  0
ARC
  5
101E5
102
{ACAD_REACTORS
330
1038E
102
}
330
1F
100
AcDbEntity
  8
0
100
AcDbCircle
 10
4955.182656258446
 20
265.0710360531132
 30
0.000000000000143
 40
3.175000000000016
100
AcDbArc
 50
83.30837299030269
 51
263.3083729903288
  0
LINE
  5
101E6
102
{ACAD_REACTORS
330
1038E
102
}
330
1F
100
AcDbEntity
  8
0
100
AcDbLine
 10
4955.55262503089
 20
268.2244069649179
 30
0.000000000000143
 11
4960.276232511951
 21
271.9560083279799
 31
0.000000000000143
  0
ARC
  5
101E7
102
{ACAD_REACTORS
330
1038E
102
}
330
1F
100
AcDbEntity
  8
0
100
AcDbCircle
 10
4963.429603423755
 20
271.5860395555347
 30
0.000000000000143
 40
3.174999999999888
100
AcDbArc
 50
353.3083729903173
 51
173.3083729903107
  0
LINE
  5
101E8
102
{ACAD_REACTORS
330
1038E
102
}
330
1F
100
AcDbEntity
  8
0
100
AcDbLine
 10
4966.58297433556
 20
271.2160707830898
 30
0.000000000000143
 11
4976.513512793141
 21
258.6456054023244
 31
0.000000000000143
  0
ARC
  5
101E9
102
{ACAD_REACTORS
330
1038E
102
}
330
1F
100
AcDbEntity
  8
0
100
AcDbCircle
 10
4608.34072414287
 20
606.3597482289456
 30
0.000000000000143
 40
3.174999999999967
100
AcDbArc
 50
44.99999999999789
 51
224.9999999999978
  0
LINE
  5
101EA
102
{ACAD_REACTORS
330
1038E
102
}
330
1F
100
AcDbEntity
  8
0
100
AcDbLine
 10
4610.585788173137
 20
608.6048122592131
 30
0.000000000000143
 11
4616.605532052068
 21
608.6048122592128
 31
0.000000000000143
  0
ARC
  5
101EB
102
{ACAD_REACTORS
330
1038E
102
}
330
1F
100
AcDbEntity
  8
0
100
AcDbCircle
 10
4618.850596082334
 20
606.3597482289456
 30
0.000000000000143
 40
3.175000000000068
100
AcDbArc
 50
315.0000000000062
 51
135.0000000000021
  0
LINE
  5
101EC
102
{ACAD_REACTORS
330
1038E
102
}
330
1F
100
AcDbEntity
  8
0
100
AcDbLine
 10
4621.095660112603
 20
604.1146841986783
 30
0.000000000000143
 11
4621.095660112603
 21
588.0949403197473
 31
0.000000000000143
  0
ARC
  5
101ED
102
{ACAD_REACTORS
330
1038E
102
}
330
1F
100
AcDbEntity
  8
0
100
AcDbCircle
 10
4618.850596082334
 20
585.8498762894803
 30
0.000000000000143
 40
3.175000000000068
100
AcDbArc
 50
224.9999999999938
 51
44.99999999999326
  0
LINE
  5
101EE
102
{ACAD_REACTORS
330
1038E
102
}
330
1F
100
AcDbEntity
  8
0
100
AcDbLine
 10
4616.605532052068
 20
583.6048122592128
 30
0.000000000000143
 11
4610.585788173137
 21
583.6048122592128
 31
0.000000000000143
  0
ARC
  5
101EF
102
{ACAD_REACTORS
330
1038E
102
}
330
1F
100
AcDbEntity
  8
0
100
AcDbCircle
 10
4608.34072414287
 20
585.8498762894803
 30
0.000000000000143
 40
3.174999999999967
100
AcDbArc
 50
135.0000000000061
 51
315.0000000000042
  0
LINE
  5
101F0
102
{ACAD_REACTORS
330
1038E
102
}
330
1F
100
AcDbEntity
  8
0
100
AcDbLine
 10
4606.095660112603
 20
588.0949403197473
 30
0.000000000000143
 11
4606.095660112603
 21
604.1146841986781
 31
0.000000000000143
  0
ARC
  5
101F1
102
{ACAD_REACTORS
330
1038E
102
}
330
1F
100
AcDbEntity
  8
0
100
AcDbCircle
 10
2760.828867501414
 20
584.5077655094805
 30
0.000000000000143
 40
3.174999999999948
100
AcDbArc
 50
83.30837299032868
 51
263.3083729903287
  0
LINE
  5
101F2
102
{ACAD_REACTORS
330
1038E
102
}
330
1F
100
AcDbEntity
  8
0
100
AcDbLine
 10
2761.198836273859
 20
587.6611364212851
 30
0.000000000000143
 11
2765.922443754919
 21
591.3927377843472
 31
0.000000000000143
  0
ARC
  5
101F3
102
{ACAD_REACTORS
330
1038E
102
}
330
1F
100
AcDbEntity
  8
0
100
AcDbCircle
 10
2769.075814666723
 20
591.022769011902
 30
0.000000000000143
 40
3.175000000000007
100
AcDbArc
 50
353.3083729903156
 51
173.3083729903124
  0
LINE
  5
101F4
102
{ACAD_REACTORS
330
1038E
102
}
330
1F
100
AcDbEntity
  8
0
100
AcDbLine
 10
2772.229185578528
 20
590.652800239457
 30
0.000000000000143
 11
2782.15972403611
 21
578.0823348586915
 31
0.000000000000143
  0
ARC
  5
101F5
102
{ACAD_REACTORS
330
1038E
102
}
330
1F
100
AcDbEntity
  8
0
100
AcDbCircle
 10
2781.789755263665
 20
574.9289639468868
 30
0.000000000000143
 40
3.174999999999984
100
AcDbArc
 50
263.3083729903027
 51
83.30837299030269
  0
LINE
  5
101F6
102
{ACAD_REACTORS
330
1038E
102
}
330
1F
100
AcDbEntity
  8
0
100
AcDbLine
 10
2781.41978649122
 20
571.7755930350822
 30
0.000000000000143
 11
2776.696179010161
 21
568.0439916720206
 31
0.000000000000143
  0
ARC
  5
101F7
102
{ACAD_REACTORS
330
1038E
102
}
330
1F
100
AcDbEntity
  8
0
100
AcDbCircle
 10
2773.542808098356
 20
568.4139604444657
 30
0.000000000000143
 40
3.175000000000007
100
AcDbArc
 50
173.3083729903173
 51
353.308372990314
  0
LINE
  5
101F8
102
{ACAD_REACTORS
330
1038E
102
}
330
1F
100
AcDbEntity
  8
0
100
AcDbLine
 10
2770.389437186552
 20
568.7839292169106
 30
0.000000000000143
 11
2760.458898728969
 21
581.354394597676
 31
0.000000000000143
  0
LWPOLYLINE
  5
101F9
102
{ACAD_REACTORS
330
1038E
102
}
330
1F
100
AcDbEntity
  8
0
100
AcDbPolyline
 90
        8
 70
     1
 43
0.0
 10
2905.329479651771
 20
235.8853158013219
 42
-1.0
 10
2900.839351591237
 20
231.3951877407873
 10
2894.819607712306
 20
231.3951877407873
 42
-1.0
 10
2890.329479651772
 20
235.8853158013219
 10
2890.329479651772
 20
251.9050596802527
 42
-1.0
 10
2894.819607712306
 20
256.3951877407873
 10
2900.839351591237
 20
256.3951877407873
 42
-1.0
 10
2905.329479651771
 20
251.9050596802527
  0
LWPOLYLINE
  5
101FA
102
{ACAD_REACTORS
330
1038E
102
}
330
1F
100
AcDbEntity
  8
0
100
AcDbPolyline
 90
        8
 70
     1
 43
0.0
 10
4891.752386221887
 20
235.8853158013218
 42
-1.0
 10
4887.262258161353
 20
231.3951877407873
 10
4881.242514282423
 20
231.3951877407875
 42
-1.0
 10
4876.752386221887
 20
235.8853158013218
 10
4876.752386221888
 20
251.9050596802527
 42
-1.0
 10
4881.242514282422
 20
256.3951877407873
 10
4887.262258161353
 20
256.3951877407875
 42
-1.0
 10
4891.752386221887
 20
251.9050596802526
  0
ARC
  5
101FB
102
{ACAD_REACTORS
330
1038E
102
}
330
1F
100
AcDbEntity
  8
0
100
AcDbCircle
 10
2847.465089330491
 20
606.3597482289456
 30
0.000000000000143
 40
3.174999999999992
100
AcDbArc
 50
44.9999999999956
 51
224.9999999999952
  0
LINE
  5
101FC
102
{ACAD_REACTORS
330
1038E
102
}
330
1F
100
AcDbEntity
  8
0
100
AcDbLine
 10
2849.710153360759
 20
608.6048122592128
 30
0.000000000000143
 11
2855.729897239689
 21
608.6048122592128
 31
0.000000000000143
  0
ARC
  5
101FD
102
{ACAD_REACTORS
330
1038E
102
}
330
1F
100
AcDbEntity
  8
0
100
AcDbCircle
 10
2857.974961269956
 20
606.3597482289456
 30
0.000000000000143
 40
3.175000000000017
100
AcDbArc
 50
315.0000000000046
 51
135.0000000000044
  0
LINE
  5
101FE
102
{ACAD_REACTORS
330
1038E
102
}
330
1F
100
AcDbEntity
  8
0
100
AcDbLine
 10
2860.220025300224
 20
604.1146841986783
 30
0.000000000000143
 11
2860.220025300224
 21
588.0949403197475
 31
0.000000000000143
  0
ARC
  5
101FF
102
{ACAD_REACTORS
330
1038E
102
}
330
1F
100
AcDbEntity
  8
0
100
AcDbCircle
 10
2857.974961269956
 20
585.8498762894803
 30
0.000000000000143
 40
3.174999999999992
100
AcDbArc
 50
224.9999999999956
 51
44.9999999999953
  0
LINE
  5
10200
102
{ACAD_REACTORS
330
1038E
102
}
330
1F
100
AcDbEntity
  8
0
100
AcDbLine
 10
2855.729897239689
 20
583.6048122592128
 30
0.000000000000143
 11
2849.710153360759
 21
583.6048122592128
 31
0.000000000000143
  0
ARC
  5
10201
102
{ACAD_REACTORS
330
1038E
102
}
330
1F
100
AcDbEntity
  8
0
100
AcDbCircle
 10
2847.465089330491
 20
585.8498762894803
 30
0.000000000000143
 40
3.175000000000017
100
AcDbArc
 50
135.0000000000047
 51
315.0000000000042
  0
LINE
  5
10202
102
{ACAD_REACTORS
330
1038E
102
}
330
1F
100
AcDbEntity
  8
0
100
AcDbLine
 10
2845.220025300224
 20
588.0949403197475
 30
0.000000000000143
 11
2845.220025300224
 21
604.1146841986783
 31
0.000000000000143
  0
LWPOLYLINE
  5
10203
102
{ACAD_REACTORS
330
1038E
102
}
330
1F
100
AcDbEntity
  8
0
100
AcDbPolyline
 90
        8
 70
     1
 43
0.0
 10
3130.876751409508
 20
235.8853158013218
 42
-1.0
 10
3126.386623348974
 20
231.3951877407873
 10
3120.366879470043
 20
231.3951877407873
 42
-1.0
 10
3115.876751409508
 20
235.8853158013218
 10
3115.876751409508
 20
251.9050596802528
 42
-1.0
 10
3120.366879470043
 20
256.3951877407873
 10
3126.386623348974
 20
256.3951877407873
 42
-1.0
 10
3130.876751409508
 20
251.9050596802527
  0
LWPOLYLINE
  5
10204
102
{ACAD_REACTORS
330
1038E
102
}
330
1F
100
AcDbEntity
  8
0
100
AcDbPolyline
 90
        8
 70
     1
 43
0.0
 10
3115.876751409508
 20
604.1146841986783
 42
-1.0
 10
3120.366879470043
 20
608.6048122592128
 10
3126.386623348974
 20
608.6048122592128
 42
-1.0
 10
3130.876751409508
 20
604.1146841986783
 10
3130.876751409508
 20
588.0949403197475
 42
-1.0
 10
3126.386623348974
 20
583.6048122592128
 10
3120.366879470043
 20
583.6048122592128
 42
-1.0
 10
3115.876751409508
 20
588.0949403197473
  0
ARC
  5
10205
102
{ACAD_REACTORS
330
1038E
102
}
330
1F
100
AcDbEntity
  8
0
100
AcDbCircle
 10
4998.498323153251
 20
287.0806814069543
 30
0.000000000000143
 40
3.174999999999955
100
AcDbArc
 50
289.1541864951231
 51
109.1541864951485
  0
LINE
  5
10206
102
{ACAD_REACTORS
330
1038E
102
}
330
1F
100
AcDbEntity
  8
0
100
AcDbLine
 10
4999.540076916976
 20
284.0814524900886
 30
0.000000000000143
 11
4996.915764444722
 21
278.663860735822
 31
0.000000000000143
  0
ARC
  5
10207
102
{ACAD_REACTORS
330
1038E
102
}
330
1F
100
AcDbEntity
  8
0
100
AcDbCircle
 10
4993.916535527857
 20
277.6221069720965
 30
0.000000000000143
 40
3.175000000000063
100
AcDbArc
 50
199.1541864951358
 51
19.15418649513405
  0
LINE
  5
10208
102
{ACAD_REACTORS
330
1038E
102
}
330
1F
100
AcDbEntity
  8
0
100
AcDbLine
 10
4990.917306610991
 20
276.5803532083709
 30
0.000000000000143
 11
4976.500010113092
 21
283.5641741996471
 31
0.000000000000143
  0
ARC
  5
10209
102
{ACAD_REACTORS
330
1038E
102
}
330
1F
100
AcDbEntity
  8
0
100
AcDbCircle
 10
4975.458256349366
 20
286.5634031165128
 30
0.000000000000143
 40
3.175000000000012
100
AcDbArc
 50
109.1541864951223
 51
289.1541864951486
  0
LINE
  5
1020A
102
{ACAD_REACTORS
330
1038E
102
}
330
1F
100
AcDbEntity
  8
0
100
AcDbLine
 10
4974.41650258564
 20
289.5626320333787
 30
0.000000000000143
 11
4977.040815057893
 21
294.9802237876454
 31
0.000000000000143
  0
ARC
  5
1020B
102
{ACAD_REACTORS
330
1038E
102
}
330
1F
100
AcDbEntity
  8
0
100
AcDbCircle
 10
4980.040043974759
 20
296.0219775513708
 30
0.000000000000143
 40
3.175000000000016
100
AcDbArc
 50
19.15418649513578
 51
199.1541864951322
  0
LINE
  5
1020C
102
{ACAD_REACTORS
330
1038E
102
}
330
1F
100
AcDbEntity
  8
0
100
AcDbLine
 10
4983.039272891625
 20
297.0637313150963
 30
0.000000000000143
 11
4997.456569389523
 21
290.07991032382
 31
0.000000000000143
  0
ARC
  5
1020D
102
{ACAD_REACTORS
330
1038E
102
}
330
1F
100
AcDbEntity
  8
0
100
AcDbCircle
 10
4563.231269791322
 20
606.3597482289456
 30
0.000000000000143
 40
3.174999999999967
100
AcDbArc
 50
44.99999999999612
 51
224.9999999999978
  0
LINE
  5
1020E
102
{ACAD_REACTORS
330
1038E
102
}
330
1F
100
AcDbEntity
  8
0
100
AcDbLine
 10
4565.47633382159
 20
608.6048122592131
 30
0.000000000000143
 11
4571.496077700521
 21
608.6048122592128
 31
0.000000000000143
  0
ARC
  5
1020F
102
{ACAD_REACTORS
330
1038E
102
}
330
1F
100
AcDbEntity
  8
0
100
AcDbCircle
 10
4573.741141730788
 20
606.3597482289456
 30
0.000000000000143
 40
3.175000000000068
100
AcDbArc
 50
315.0000000000042
 51
135.0000000000042
  0
LINE
  5
10210
102
{ACAD_REACTORS
330
1038E
102
}
330
1F
100
AcDbEntity
  8
0
100
AcDbLine
 10
4575.986205761055
 20
604.1146841986783
 30
0.000000000000143
 11
4575.986205761055
 21
588.0949403197473
 31
0.000000000000143
  0
ARC
  5
10211
102
{ACAD_REACTORS
330
1038E
102
}
330
1F
100
AcDbEntity
  8
0
100
AcDbCircle
 10
4573.741141730788
 20
585.8498762894803
 30
0.000000000000143
 40
3.175000000000068
100
AcDbArc
 50
224.9999999999938
 51
44.99999999999409
  0
LINE
  5
10212
102
{ACAD_REACTORS
330
1038E
102
}
330
1F
100
AcDbEntity
  8
0
100
AcDbLine
 10
4571.496077700521
 20
583.6048122592128
 30
0.000000000000143
 11
4565.47633382159
 21
583.6048122592128
 31
0.000000000000143
  0
ARC
  5
10213
102
{ACAD_REACTORS
330
1038E
102
}
330
1F
100
AcDbEntity
  8
0
100
AcDbCircle
 10
4563.231269791322
 20
585.8498762894803
 30
0.000000000000143
 40
3.174999999999967
100
AcDbArc
 50
135.0000000000061
 51
315.0000000000062
  0
LINE
  5
10214
102
{ACAD_REACTORS
330
1038E
102
}
330
1F
100
AcDbEntity
  8
0
100
AcDbLine
 10
4560.986205761055
 20
588.0949403197473
 30
0.000000000000143
 11
4560.986205761055
 21
604.1146841986781
 31
0.000000000000143
  0
ARC
  5
10215
102
{ACAD_REACTORS
330
1038E
102
}
330
1F
100
AcDbEntity
  8
0
100
AcDbCircle
 10
4931.991662217576
 20
605.4588972086223
 30
0.000000000000143
 40
3.175000000000026
100
AcDbArc
 50
32.5374405145032
 51
212.5374405145053
  0
LINE
  5
10216
102
{ACAD_REACTORS
330
1038E
102
}
330
1F
100
AcDbEntity
  8
0
100
AcDbLine
 10
4934.668314731395
 20
607.1665729156218
 30
0.000000000000143
 11
4940.546216790015
 21
605.8675025721871
 31
0.000000000000143
  0
ARC
  5
10217
102
{ACAD_REACTORS
330
1038E
102
}
330
1F
100
AcDbEntity
  8
0
100
AcDbCircle
 10
4942.253892497014
 20
603.1908500583699
 30
0.000000000000143
 40
3.174999999999987
100
AcDbArc
 50
302.5374405145043
 51
122.5374405145043
  0
LINE
  5
10218
102
{ACAD_REACTORS
330
1038E
102
}
330
1F
100
AcDbEntity
  8
0
100
AcDbLine
 10
4943.961568204013
 20
600.5141975445528
 30
0.000000000000143
 11
4940.504481889199
 21
584.8719231524301
 31
0.000000000000143
  0
ARC
  5
10219
102
{ACAD_REACTORS
330
1038E
102
}
330
1F
100
AcDbEntity
  8
0
100
AcDbCircle
 10
4937.827829375383
 20
583.1642474454304
 30
0.000000000000143
 40
3.17500000000014
100
AcDbArc
 50
212.5374405145052
 51
32.53744051450514
  0
LINE
  5
1021A
102
{ACAD_REACTORS
330
1038E
102
}
330
1F
100
AcDbEntity
  8
0
100
AcDbLine
 10
4935.151176861566
 20
581.4565717384306
 30
0.000000000000143
 11
4929.273274802945
 21
582.7556420818654
 31
0.000000000000143
  0
ARC
  5
1021B
102
{ACAD_REACTORS
330
1038E
102
}
330
1F
100
AcDbEntity
  8
0
100
AcDbCircle
 10
4927.565599095945
 20
585.4322945956828
 30
0.000000000000143
 40
3.174999999999895
100
AcDbArc
 50
122.5374405144803
 51
302.5374405145043
  0
LINE
  5
1021C
102
{ACAD_REACTORS
330
1038E
102
}
330
1F
100
AcDbEntity
  8
0
100
AcDbLine
 10
4925.857923388946
 20
588.1089471095
 30
0.000000000000143
 11
4929.31500970376
 21
603.7512215016227
 31
0.000000000000143
  0
LWPOLYLINE
  5
1021D
102
{ACAD_REACTORS
330
1038E
102
}
330
1F
100
AcDbEntity
  8
0
100
AcDbPolyline
 90
        8
 70
     1
 43
0.0
 10
5002.600889959733
 20
327.5
 42
-1.0
 10
5007.091018020268
 20
323.0098719394657
 10
5007.091018020268
 20
316.9901280605348
 42
-1.0
 10
5002.600889959733
 20
312.5000000000002
 10
4986.581146080804
 20
312.5000000000004
 42
-1.0
 10
4982.091018020268
 20
316.9901280605347
 10
4982.091018020268
 20
323.0098719394655
 42
-1.0
 10
4986.581146080804
 20
327.5000000000002
  0
LWPOLYLINE
  5
1021E
102
{ACAD_REACTORS
330
1038E
102
}
330
1F
100
AcDbEntity
  8
0
100
AcDbPolyline
 90
        8
 70
     1
 43
0.0
 10
2746.05510491112
 20
276.5803532083708
 42
-1.0
 10
2740.056647077389
 20
278.6638607358219
 10
2737.432334605135
 20
284.0814524900887
 42
-1.0
 10
2739.515842132586
 20
290.0799103238202
 10
2753.933138630485
 20
297.0637313150961
 42
-1.0
 10
2759.931596464217
 20
294.9802237876456
 10
2762.555908936471
 20
289.5626320333785
 42
-1.0
 10
2760.47240140902
 20
283.564174199647
  0
LWPOLYLINE
  5
1021F
102
{ACAD_REACTORS
330
1038E
102
}
330
1F
100
AcDbEntity
  8
0
100
AcDbPolyline
 90
        8
 70
     1
 43
0.0
 10
4575.986205761055
 20
235.885315801322
 42
-1.0
 10
4571.496077700521
 20
231.3951877407873
 10
4565.47633382159
 20
231.3951877407875
 42
-1.0
 10
4560.986205761055
 20
235.8853158013218
 10
4560.986205761055
 20
251.9050596802526
 42
-1.0
 10
4565.47633382159
 20
256.3951877407873
 10
4571.496077700521
 20
256.395187740787
 42
-1.0
 10
4575.986205761055
 20
251.9050596802528
  0
LWPOLYLINE
  5
10220
102
{ACAD_REACTORS
330
1038E
102
}
330
1F
100
AcDbEntity
  8
0
100
AcDbPolyline
 90
        8
 70
     1
 43
0.0
 10
4621.095660112603
 20
235.885315801322
 42
-1.0
 10
4616.605532052068
 20
231.3951877407873
 10
4610.585788173137
 20
231.3951877407875
 42
-1.0
 10
4606.095660112603
 20
235.8853158013218
 10
4606.095660112603
 20
251.9050596802526
 42
-1.0
 10
4610.585788173137
 20
256.3951877407873
 10
4616.605532052068
 20
256.395187740787
 42
-1.0
 10
4621.095660112603
 20
251.9050596802528
  0
LWPOLYLINE
  5
10221
102
{ACAD_REACTORS
330
1038E
102
}
330
1F
100
AcDbEntity
  8
0
100
AcDbPolyline
 90
        8
 70
     1
 43
0.0
 10
3070.767297057961
 20
604.1146841986783
 42
-1.0
 10
3075.257425118496
 20
608.6048122592128
 10
3081.277168997426
 20
608.6048122592128
 42
-1.0
 10
3085.767297057961
 20
604.1146841986783
 10
3085.767297057961
 20
588.0949403197475
 42
-1.0
 10
3081.277168997426
 20
583.6048122592128
 10
3075.257425118496
 20
583.6048122592128
 42
-1.0
 10
3070.767297057961
 20
588.0949403197473
  0
LWPOLYLINE
  5
10222
102
{ACAD_REACTORS
330
1038E
102
}
330
1F
100
AcDbEntity
  8
0
100
AcDbPolyline
 90
        8
 70
     1
 43
0.0
 10
3085.767297057961
 20
235.8853158013219
 42
-1.0
 10
3081.277168997426
 20
231.3951877407874
 10
3075.257425118496
 20
231.3951877407873
 42
-1.0
 10
3070.767297057961
 20
235.8853158013219
 10
3070.767297057961
 20
251.9050596802528
 42
-1.0
 10
3075.257425118496
 20
256.3951877407874
 10
3081.277168997426
 20
256.3951877407874
 42
-1.0
 10
3085.767297057961
 20
251.9050596802528
  0
ARC
  5
10223
102
{ACAD_REACTORS
330
1038E
102
}
330
1F
100
AcDbEntity
  8
0
100
AcDbCircle
 10
4698.559632845964
 20
606.3597482289456
 30
0.000000000000143
 40
3.175000000000168
100
AcDbArc
 50
44.9999999999953
 51
224.999999999994
  0
LINE
  5
10224
102
{ACAD_REACTORS
330
1038E
102
}
330
1F
100
AcDbEntity
  8
0
100
AcDbLine
 10
4700.804696876232
 20
608.6048122592131
 30
0.000000000000143
 11
4706.824440755163
 21
608.6048122592128
 31
0.000000000000143
  0
ARC
  5
10225
102
{ACAD_REACTORS
330
1038E
102
}
330
1F
100
AcDbEntity
  8
0
100
AcDbCircle
 10
4709.069504785429
 20
606.3597482289456
 30
0.000000000000143
 40
3.174999999999866
100
AcDbArc
 50
315.0000000000042
 51
135.0000000000042
  0
LINE
  5
10226
102
{ACAD_REACTORS
330
1038E
102
}
330
1F
100
AcDbEntity
  8
0
100
AcDbLine
 10
4711.314568815697
 20
604.1146841986783
 30
0.000000000000143
 11
4711.314568815698
 21
588.0949403197471
 31
0.000000000000143
  0
ARC
  5
10227
102
{ACAD_REACTORS
330
1038E
102
}
330
1F
100
AcDbEntity
  8
0
100
AcDbCircle
 10
4709.069504785429
 20
585.8498762894801
 30
0.000000000000143
 40
3.174999999999816
100
AcDbArc
 50
224.9999999999961
 51
44.99999999998897
  0
LINE
  5
10228
102
{ACAD_REACTORS
330
1038E
102
}
330
1F
100
AcDbEntity
  8
0
100
AcDbLine
 10
4706.824440755163
 20
583.6048122592128
 30
0.000000000000143
 11
4700.804696876232
 21
583.6048122592128
 31
0.000000000000143
  0
ARC
  5
10229
102
{ACAD_REACTORS
330
1038E
102
}
330
1F
100
AcDbEntity
  8
0
100
AcDbCircle
 10
4698.559632845965
 20
585.8498762894801
 30
0.000000000000143
 40
3.175000000000017
100
AcDbArc
 50
135.0000000000018
 51
315.0000000000065
  0
LINE
  5
1022A
102
{ACAD_REACTORS
330
1038E
102
}
330
1F
100
AcDbEntity
  8
0
100
AcDbLine
 10
4696.314568815698
 20
588.0949403197478
 30
0.000000000000143
 11
4696.314568815696
 21
604.1146841986781
 31
0.000000000000143
  0
LWPOLYLINE
  5
1022B
102
{ACAD_REACTORS
330
1038E
102
}
330
1F
100
AcDbEntity
  8
0
100
AcDbPolyline
 90
        8
 70
     1
 43
0.0
 10
4876.752386221888
 20
604.1146841986783
 42
-1.0
 10
4881.242514282422
 20
608.6048122592128
 10
4887.262258161353
 20
608.6048122592132
 42
-1.0
 10
4891.752386221887
 20
604.1146841986783
 10
4891.752386221887
 20
588.0949403197473
 42
-1.0
 10
4887.262258161353
 20
583.6048122592131
 10
4881.242514282422
 20
583.6048122592132
 42
-1.0
 10
4876.752386221887
 20
588.0949403197471
  0
LWPOLYLINE
  5
1022C
102
{ACAD_REACTORS
330
1038E
102
}
330
1F
100
AcDbEntity
  8
0
100
AcDbPolyline
 90
        8
 70
     1
 43
0.0
 10
3040.657842706413
 20
235.8853158013219
 42
-1.0
 10
3036.167714645879
 20
231.3951877407874
 10
3030.147970766948
 20
231.3951877407873
 42
-1.0
 10
3025.657842706414
 20
235.8853158013219
 10
3025.657842706414
 20
251.9050596802528
 42
-1.0
 10
3030.147970766948
 20
256.3951877407874
 10
3036.167714645879
 20
256.3951877407874
 42
-1.0
 10
3040.657842706413
 20
251.9050596802528
  0
LWPOLYLINE
  5
1022D
102
{ACAD_REACTORS
330
1038E
102
}
330
1F
100
AcDbEntity
  8
0
100
AcDbPolyline
 90
        8
 70
     1
 43
0.0
 10
3025.657842706414
 20
604.1146841986783
 42
-1.0
 10
3030.147970766948
 20
608.6048122592128
 10
3036.167714645879
 20
608.6048122592128
 42
-1.0
 10
3040.657842706413
 20
604.1146841986783
 10
3040.657842706413
 20
588.0949403197475
 42
-1.0
 10
3036.167714645879
 20
583.6048122592128
 10
3030.147970766948
 20
583.6048122592128
 42
-1.0
 10
3025.657842706414
 20
588.0949403197473
  0
LWPOLYLINE
  5
1022E
102
{ACAD_REACTORS
330
1038E
102
}
330
1F
100
AcDbEntity
  8
0
100
AcDbPolyline
 90
        8
 70
     1
 43
0.0
 10
2807.657401818351
 20
236.2487784983776
 42
-1.0
 10
2802.304096790717
 20
232.8334270843783
 10
2796.426194732096
 20
234.1324974278133
 42
-1.0
 10
2793.010843318097
 20
239.4858024554471
 10
2796.467929632911
 20
255.12807684757
 42
-1.0
 10
2801.821234660545
 20
258.5434282615695
 10
2807.699136719167
 20
257.2443579181348
 42
-1.0
 10
2811.114488133166
 20
251.8910528905004
  0
ARC
  5
1022F
102
{ACAD_REACTORS
330
1038E
102
}
330
1F
100
AcDbEntity
  8
0
100
AcDbCircle
 10
4709.069504785429
 20
233.6402517710546
 30
0.000000000000143
 40
3.174999999999823
100
AcDbArc
 50
224.9999999999961
 51
44.99999999999614
  0
LINE
  5
10230
102
{ACAD_REACTORS
330
1038E
102
}
330
1F
100
AcDbEntity
  8
0
100
AcDbLine
 10
4706.824440755163
 20
231.3951877407874
 30
0.000000000000143
 11
4700.804696876232
 21
231.3951877407873
 31
0.000000000000143
  0
ARC
  5
10231
102
{ACAD_REACTORS
330
1038E
102
}
330
1F
100
AcDbEntity
  8
0
100
AcDbCircle
 10
4698.559632845965
 20
233.6402517710547
 30
0.000000000000143
 40
3.175000000000149
100
AcDbArc
 50
135.0000000000087
 51
315.0000000000024
  0
LINE
  5
10232
102
{ACAD_REACTORS
330
1038E
102
}
330
1F
100
AcDbEntity
  8
0
100
AcDbLine
 10
4696.314568815697
 20
235.8853158013218
 30
0.000000000000143
 11
4696.314568815698
 21
251.9050596802526
 31
0.000000000000143
  0
ARC
  5
10233
102
{ACAD_REACTORS
330
1038E
102
}
330
1F
100
AcDbEntity
  8
0
100
AcDbCircle
 10
4698.559632845965
 20
254.1501237105201
 30
0.000000000000143
 40
3.17500000000003
100
AcDbArc
 50
44.99999999999356
 51
224.9999999999981
  0
LINE
  5
10234
102
{ACAD_REACTORS
330
1038E
102
}
330
1F
100
AcDbEntity
  8
0
100
AcDbLine
 10
4700.804696876232
 20
256.3951877407873
 30
0.000000000000143
 11
4706.824440755163
 21
256.3951877407874
 31
0.000000000000143
  0
ARC
  5
10235
102
{ACAD_REACTORS
330
1038E
102
}
330
1F
100
AcDbEntity
  8
0
100
AcDbCircle
 10
4709.069504785429
 20
254.1501237105201
 30
0.000000000000143
 40
3.175000000000004
100
AcDbArc
 50
315.0000000000093
 51
135.0000000000044
  0
LINE
  5
10236
102
{ACAD_REACTORS
330
1038E
102
}
330
1F
100
AcDbEntity
  8
0
100
AcDbLine
 10
4711.314568815698
 20
251.9050596802532
 30
0.000000000000143
 11
4711.314568815697
 21
235.8853158013219
 31
0.000000000000143
  0
ARC
  5
10237
102
{ACAD_REACTORS
330
1038E
102
}
330
1F
100
AcDbEntity
  8
0
100
AcDbCircle
 10
2732.12645753211
 20
314.7450640302675
 30
0.000000000000143
 40
3.175000000000017
100
AcDbArc
 50
135.0000000000044
 51
315.0000000000044
  0
LINE
  5
10238
102
{ACAD_REACTORS
330
1038E
102
}
330
1F
100
AcDbEntity
  8
0
100
AcDbLine
 10
2729.881393501843
 20
316.9901280605348
 30
0.000000000000143
 11
2729.881393501843
 21
323.0098719394657
 31
0.000000000000143
  0
ARC
  5
10239
102
{ACAD_REACTORS
330
1038E
102
}
330
1F
100
AcDbEntity
  8
0
100
AcDbCircle
 10
2732.12645753211
 20
325.254935969733
 30
0.000000000000143
 40
3.174999999999998
100
AcDbArc
 50
44.99999999999555
 51
224.9999999999952
  0
LINE
  5
1023A
102
{ACAD_REACTORS
330
1038E
102
}
330
1F
100
AcDbEntity
  8
0
100
AcDbLine
 10
2734.371521562378
 20
327.5000000000002
 30
0.000000000000143
 11
2750.391265441308
 21
327.5000000000002
 31
0.000000000000143
  0
ARC
  5
1023B
102
{ACAD_REACTORS
330
1038E
102
}
330
1F
100
AcDbEntity
  8
0
100
AcDbCircle
 10
2752.636329471576
 20
325.254935969733
 30
0.000000000000143
 40
3.174999999999992
100
AcDbArc
 50
315.0000000000044
 51
135.0000000000044
  0
LINE
  5
1023C
102
{ACAD_REACTORS
330
1038E
102
}
330
1F
100
AcDbEntity
  8
0
100
AcDbLine
 10
2754.881393501843
 20
323.0098719394656
 30
0.000000000000143
 11
2754.881393501843
 21
316.9901280605348
 31
0.000000000000143
  0
ARC
  5
1023D
102
{ACAD_REACTORS
330
1038E
102
}
330
1F
100
AcDbEntity
  8
0
100
AcDbCircle
 10
2752.636329471576
 20
314.7450640302675
 30
0.000000000000143
 40
3.175000000000004
100
AcDbArc
 50
224.9999999999955
 51
44.99999999999555
  0
LINE
  5
1023E
102
{ACAD_REACTORS
330
1038E
102
}
330
1F
100
AcDbEntity
  8
0
100
AcDbLine
 10
2750.391265441308
 20
312.5000000000002
 30
0.000000000000143
 11
2734.371521562378
 21
312.5000000000002
 31
0.000000000000143
  0
LWPOLYLINE
  5
1023F
102
{ACAD_REACTORS
330
1038E
102
}
330
1F
100
AcDbEntity
  8
0
100
AcDbPolyline
 90
        8
 70
     1
 43
0.0
 10
4741.424023167245
 20
604.1146841986785
 42
-1.0
 10
4745.91415122778
 20
608.6048122592128
 10
4751.933895106708
 20
608.6048122592126
 42
-1.0
 10
4756.424023167244
 20
604.1146841986785
 10
4756.424023167244
 20
588.0949403197475
 42
-1.0
 10
4751.933895106708
 20
583.6048122592131
 10
4745.91415122778
 20
583.6048122592132
 42
-1.0
 10
4741.424023167245
 20
588.0949403197473
  0
LWPOLYLINE
  5
10240
102
{ACAD_REACTORS
330
1038E
102
}
330
1F
100
AcDbEntity
  8
0
100
AcDbPolyline
 90
        8
 70
     1
 43
0.0
 10
3160.986205761056
 20
604.1146841986783
 42
-1.0
 10
3165.47633382159
 20
608.6048122592128
 10
3171.496077700521
 20
608.6048122592128
 42
-1.0
 10
3175.986205761056
 20
604.1146841986783
 10
3175.986205761056
 20
588.0949403197475
 42
-1.0
 10
3171.496077700521
 20
583.6048122592128
 10
3165.47633382159
 20
583.6048122592128
 42
-1.0
 10
3160.986205761056
 20
588.0949403197473
  0
LWPOLYLINE
  5
10241
102
{ACAD_REACTORS
330
1038E
102
}
330
1F
100
AcDbEntity
  8
0
100
AcDbPolyline
 90
        8
 70
     1
 43
0.0
 10
2772.229185578528
 20
249.3471997605432
 42
-1.0
 10
2765.922443754919
 20
248.6072622156532
 10
2761.198836273859
 20
252.3388635787151
 42
-1.0
 10
2760.458898728968
 20
258.6456054023243
 10
2770.389437186552
 20
271.2160707830895
 42
-1.0
 10
2776.696179010161
 20
271.9560083279797
 10
2781.41978649122
 20
268.224406964918
 42
-1.0
 10
2782.15972403611
 20
261.9176651413087
  0
LWPOLYLINE
  5
10242
102
{ACAD_REACTORS
330
1038E
102
}
330
1F
100
AcDbEntity
  8
0
100
AcDbPolyline
 90
        8
 70
     1
 43
0.0
 10
4666.20511446415
 20
235.8853158013219
 42
-1.0
 10
4661.714986403615
 20
231.3951877407874
 10
4655.695242524685
 20
231.3951877407876
 42
-1.0
 10
4651.20511446415
 20
235.8853158013218
 10
4651.205114464151
 20
251.9050596802528
 42
-1.0
 10
4655.695242524685
 20
256.3951877407873
 10
4661.714986403615
 20
256.3951877407876
 42
-1.0
 10
4666.20511446415
 20
251.9050596802526
  0
LWPOLYLINE
  5
10243
102
{ACAD_REACTORS
330
1038E
102
}
330
1F
100
AcDbEntity
  8
0
100
AcDbPolyline
 90
        8
 70
     1
 43
0.0
 10
2995.548388354866
 20
235.8853158013218
 42
-1.0
 10
2991.058260294331
 20
231.3951877407873
 10
2985.0385164154
 20
231.3951877407873
 42
-1.0
 10
2980.548388354866
 20
235.8853158013218
 10
2980.548388354866
 20
251.9050596802527
 42
-1.0
 10
2985.0385164154
 20
256.3951877407873
 10
2991.058260294331
 20
256.3951877407873
 42
-1.0
 10
2995.548388354866
 20
251.9050596802527
  0
ARC
  5
10244
102
{ACAD_REACTORS
330
1038E
102
}
330
1F
100
AcDbEntity
  8
0
100
AcDbCircle
 10
2732.12645753211
 20
514.7450640302674
 30
0.000000000000143
 40
3.174999999999954
100
AcDbArc
 50
135.0000000000047
 51
315.0000000000044
  0
LINE
  5
10245
102
{ACAD_REACTORS
330
1038E
102
}
330
1F
100
AcDbEntity
  8
0
100
AcDbLine
 10
2729.881393501843
 20
516.9901280605346
 30
0.000000000000143
 11
2729.881393501843
 21
523.0098719394654
 31
0.000000000000143
  0
ARC
  5
10246
102
{ACAD_REACTORS
330
1038E
102
}
330
1F
100
AcDbEntity
  8
0
100
AcDbCircle
 10
2732.12645753211
 20
525.2549359697327
 30
0.000000000000143
 40
3.175000000000004
100
AcDbArc
 50
44.99999999999558
 51
224.9999999999955
  0
LINE
  5
10247
102
{ACAD_REACTORS
330
1038E
102
}
330
1F
100
AcDbEntity
  8
0
100
AcDbLine
 10
2734.371521562378
 20
527.5
 30
0.000000000000143
 11
2750.391265441308
 21
527.5
 31
0.000000000000143
  0
ARC
  5
10248
102
{ACAD_REACTORS
330
1038E
102
}
330
1F
100
AcDbEntity
  8
0
100
AcDbCircle
 10
2752.636329471576
 20
525.2549359697327
 30
0.000000000000143
 40
3.175000000000004
100
AcDbArc
 50
315.0000000000044
 51
135.0000000000047
  0
LINE
  5
10249
102
{ACAD_REACTORS
330
1038E
102
}
330
1F
100
AcDbEntity
  8
0
100
AcDbLine
 10
2754.881393501843
 20
523.0098719394654
 30
0.000000000000143
 11
2754.881393501843
 21
516.9901280605346
 31
0.000000000000143
  0
ARC
  5
1024A
102
{ACAD_REACTORS
330
1038E
102
}
330
1F
100
AcDbEntity
  8
0
100
AcDbCircle
 10
2752.636329471576
 20
514.7450640302674
 30
0.000000000000143
 40
3.175000000000056
100
AcDbArc
 50
224.9999999999961
 51
44.9999999999953
  0
LINE
  5
1024B
102
{ACAD_REACTORS
330
1038E
102
}
330
1F
100
AcDbEntity
  8
0
100
AcDbLine
 10
2750.391265441308
 20
512.5
 30
0.000000000000143
 11
2734.371521562378
 21
512.5
 31
0.000000000000143
  0
ARC
  5
1024C
102
{ACAD_REACTORS
330
1038E
102
}
330
1F
100
AcDbEntity
  8
0
100
AcDbCircle
 10
2794.718519025097
 20
603.1908500583702
 30
0.000000000000143
 40
3.174999999999954
100
AcDbArc
 50
57.46255948549379
 51
237.4625594854937
  0
LINE
  5
1024D
102
{ACAD_REACTORS
330
1038E
102
}
330
1F
100
AcDbEntity
  8
0
100
AcDbLine
 10
2796.426194732096
 20
605.8675025721871
 30
0.000000000000143
 11
2802.304096790717
 21
607.1665729156221
 31
0.000000000000143
  0
ARC
  5
1024E
102
{ACAD_REACTORS
330
1038E
102
}
330
1F
100
AcDbEntity
  8
0
100
AcDbCircle
 10
2804.980749304533
 20
605.4588972086222
 30
0.000000000000143
 40
3.174999999999983
100
AcDbArc
 50
327.462559485491
 51
147.4625594854929
  0
LINE
  5
1024F
102
{ACAD_REACTORS
330
1038E
102
}
330
1F
100
AcDbEntity
  8
0
100
AcDbLine
 10
2807.657401818351
 20
603.7512215016224
 30
0.000000000000143
 11
2811.114488133166
 21
588.1089471094999
 31
0.000000000000143
  0
ARC
  5
10250
102
{ACAD_REACTORS
330
1038E
102
}
330
1F
100
AcDbEntity
  8
0
100
AcDbCircle
 10
2809.406812426166
 20
585.4322945956826
 30
0.000000000000143
 40
3.175000000000001
100
AcDbArc
 50
237.4625594854935
 51
57.46255948549574
  0
LINE
  5
10251
102
{ACAD_REACTORS
330
1038E
102
}
330
1F
100
AcDbEntity
  8
0
100
AcDbLine
 10
2807.699136719166
 20
582.7556420818657
 30
0.000000000000143
 11
2801.821234660545
 21
581.4565717384306
 31
0.000000000000143
  0
ARC
  5
10252
102
{ACAD_REACTORS
330
1038E
102
}
330
1F
100
AcDbEntity
  8
0
100
AcDbCircle
 10
2799.144582146729
 20
583.1642474454304
 30
0.000000000000143
 40
3.174999999999972
100
AcDbArc
 50
147.4625594854968
 51
327.4625594854929
  0
LINE
  5
10253
102
{ACAD_REACTORS
330
1038E
102
}
330
1F
100
AcDbEntity
  8
0
100
AcDbLine
 10
2796.467929632911
 20
584.8719231524298
 30
0.000000000000143
 11
2793.010843318097
 21
600.5141975445532
 31
0.000000000000143
  0
ARC
  5
10254
102
{ACAD_REACTORS
330
1038E
102
}
330
1F
100
AcDbEntity
  8
0
100
AcDbCircle
 10
3173.741141730789
 20
233.6402517710546
 30
0.000000000000143
 40
3.175000000000011
100
AcDbArc
 50
224.9999999999952
 51
44.99999999999531
  0
LINE
  5
10255
102
{ACAD_REACTORS
330
1038E
102
}
330
1F
100
AcDbEntity
  8
0
100
AcDbLine
 10
3171.496077700521
 20
231.3951877407873
 30
0.000000000000143
 11
3165.47633382159
 21
231.3951877407873
 31
0.000000000000143
  0
ARC
  5
10256
102
{ACAD_REACTORS
330
1038E
102
}
330
1F
100
AcDbEntity
  8
0
100
AcDbCircle
 10
3163.231269791323
 20
233.6402517710546
 30
0.000000000000143
 40
3.175000000000004
100
AcDbArc
 50
135.0000000000047
 51
315.0000000000046
  0
LINE
  5
10257
102
{ACAD_REACTORS
330
1038E
102
}
330
1F
100
AcDbEntity
  8
0
100
AcDbLine
 10
3160.986205761056
 20
235.8853158013219
 30
0.000000000000143
 11
3160.986205761056
 21
251.9050596802527
 31
0.000000000000143
  0
ARC
  5
10258
102
{ACAD_REACTORS
330
1038E
102
}
330
1F
100
AcDbEntity
  8
0
100
AcDbCircle
 10
3163.231269791323
 20
254.1501237105201
 30
0.000000000000143
 40
3.174999999999992
100
AcDbArc
 50
44.9999999999953
 51
224.9999999999952
  0
LINE
  5
10259
102
{ACAD_REACTORS
330
1038E
102
}
330
1F
100
AcDbEntity
  8
0
100
AcDbLine
 10
3165.47633382159
 20
256.3951877407873
 30
0.000000000000143
 11
3171.496077700521
 21
256.3951877407873
 31
0.000000000000143
  0
ARC
  5
1025A
102
{ACAD_REACTORS
330
1038E
102
}
330
1F
100
AcDbEntity
  8
0
100
AcDbCircle
 10
3173.741141730789
 20
254.1501237105201
 30
0.000000000000143
 40
3.175000000000017
100
AcDbArc
 50
315.0000000000044
 51
135.0000000000047
  0
LINE
  5
1025B
102
{ACAD_REACTORS
330
1038E
102
}
330
1F
100
AcDbEntity
  8
0
100
AcDbLine
 10
3175.986205761056
 20
251.9050596802527
 30
0.000000000000143
 11
3175.986205761056
 21
235.8853158013219
 31
0.000000000000143
  0
LWPOLYLINE
  5
1025C
102
{ACAD_REACTORS
330
1038E
102
}
330
1F
100
AcDbEntity
  8
0
100
AcDbPolyline
 90
        8
 70
     1
 43
0.0
 10
4786.533477518792
 20
604.1146841986785
 42
-1.0
 10
4791.023605579327
 20
608.6048122592128
 10
4797.043349458258
 20
608.6048122592126
 42
-1.0
 10
4801.533477518792
 20
604.1146841986785
 10
4801.533477518792
 20
588.0949403197475
 42
-1.0
 10
4797.043349458258
 20
583.6048122592131
 10
4791.023605579327
 20
583.6048122592132
 42
-1.0
 10
4786.533477518792
 20
588.0949403197473
  0
LWPOLYLINE
  5
1025D
102
{ACAD_REACTORS
330
1038E
102
}
330
1F
100
AcDbEntity
  8
0
100
AcDbPolyline
 90
        8
 70
     1
 43
0.0
 10
4756.424023167244
 20
235.885315801322
 42
-1.0
 10
4751.933895106708
 20
231.3951877407873
 10
4745.91415122778
 20
231.3951877407875
 42
-1.0
 10
4741.424023167245
 20
235.8853158013218
 10
4741.424023167245
 20
251.9050596802526
 42
-1.0
 10
4745.91415122778
 20
256.3951877407873
 10
4751.933895106708
 20
256.3951877407872
 42
-1.0
 10
4756.424023167244
 20
251.9050596802528
  0
LWPOLYLINE
  5
1025E
102
{ACAD_REACTORS
330
1038E
102
}
330
1F
100
AcDbEntity
  8
0
100
AcDbPolyline
 90
        8
 70
     1
 43
0.0
 10
4831.64293187034
 20
604.1146841986785
 42
-1.0
 10
4836.133059930875
 20
608.6048122592128
 10
4842.152803809804
 20
608.6048122592126
 42
-1.0
 10
4846.64293187034
 20
604.1146841986785
 10
4846.64293187034
 20
588.0949403197473
 42
-1.0
 10
4842.152803809804
 20
583.6048122592131
 10
4836.133059930874
 20
583.6048122592126
 42
-1.0
 10
4831.64293187034
 20
588.0949403197478
  0
ARC
  5
1025F
102
{ACAD_REACTORS
330
1038E
102
}
330
1F
100
AcDbEntity
  8
0
100
AcDbCircle
 10
4993.916535527857
 20
562.3778930279038
 30
0.000000000000143
 40
3.175000000000022
100
AcDbArc
 50
340.845813504866
 51
160.8458135048659
  0
LINE
  5
10260
102
{ACAD_REACTORS
330
1038E
102
}
330
1F
100
AcDbEntity
  8
0
100
AcDbLine
 10
4996.915764444722
 20
561.3361392641784
 30
0.000000000000143
 11
4999.540076916976
 21
555.9185475099114
 31
0.000000000000143
  0
ARC
  5
10261
102
{ACAD_REACTORS
330
1038E
102
}
330
1F
100
AcDbEntity
  8
0
100
AcDbCircle
 10
4998.498323153251
 20
552.9193185930457
 30
0.000000000000143
 40
3.174999999999888
100
AcDbArc
 50
250.8458135048514
 51
70.84581350485153
  0
LINE
  5
10262
102
{ACAD_REACTORS
330
1038E
102
}
330
1F
100
AcDbEntity
  8
0
100
AcDbLine
 10
4997.456569389523
 20
549.9200896761801
 30
0.000000000000143
 11
4983.039272891625
 21
542.9362686849038
 31
0.000000000000143
  0
ARC
  5
10263
102
{ACAD_REACTORS
330
1038E
102
}
330
1F
100
AcDbEntity
  8
0
100
AcDbCircle
 10
4980.040043974759
 20
543.9780224486295
 30
0.000000000000143
 40
3.174999999999975
100
AcDbArc
 50
160.8458135048676
 51
340.8458135048608
  0
LINE
  5
10264
102
{ACAD_REACTORS
330
1038E
102
}
330
1F
100
AcDbEntity
  8
0
100
AcDbLine
 10
4977.040815057893
 20
545.0197762123548
 30
0.000000000000143
 11
4974.41650258564
 21
550.4373679666216
 31
0.000000000000143
  0
ARC
  5
10265
102
{ACAD_REACTORS
330
1038E
102
}
330
1F
100
AcDbEntity
  8
0
100
AcDbCircle
 10
4975.458256349366
 20
553.4365968834874
 30
0.000000000000143
 40
3.174999999999981
100
AcDbArc
 50
70.84581350485146
 51
250.8458135048776
  0
LINE
  5
10266
102
{ACAD_REACTORS
330
1038E
102
}
330
1F
100
AcDbEntity
  8
0
100
AcDbLine
 10
4976.500010113092
 20
556.435825800353
 30
0.000000000000143
 11
4990.917306610991
 21
563.4196467916295
 31
0.000000000000143
  0
ARC
  5
10267
102
{ACAD_REACTORS
330
1038E
102
}
330
1F
100
AcDbEntity
  8
0
100
AcDbCircle
 10
2892.574543682039
 20
606.3597482289456
 30
0.000000000000143
 40
3.174999999999992
100
AcDbArc
 50
44.9999999999956
 51
224.9999999999952
  0
LINE
  5
10268
102
{ACAD_REACTORS
330
1038E
102
}
330
1F
100
AcDbEntity
  8
0
100
AcDbLine
 10
2894.819607712306
 20
608.6048122592128
 30
0.000000000000143
 11
2900.839351591237
 21
608.6048122592128
 31
0.000000000000143
  0
ARC
  5
10269
102
{ACAD_REACTORS
330
1038E
102
}
330
1F
100
AcDbEntity
  8
0
100
AcDbCircle
 10
2903.084415621504
 20
606.3597482289456
 30
0.000000000000143
 40
3.175000000000017
100
AcDbArc
 50
315.0000000000046
 51
135.0000000000044
  0
LINE
  5
1026A
102
{ACAD_REACTORS
330
1038E
102
}
330
1F
100
AcDbEntity
  8
0
100
AcDbLine
 10
2905.329479651771
 20
604.1146841986783
 30
0.000000000000143
 11
2905.329479651771
 21
588.0949403197475
 31
0.000000000000143
  0
ARC
  5
1026B
102
{ACAD_REACTORS
330
1038E
102
}
330
1F
100
AcDbEntity
  8
0
100
AcDbCircle
 10
2903.084415621504
 20
585.8498762894803
 30
0.000000000000143
 40
3.174999999999992
100
AcDbArc
 50
224.9999999999956
 51
44.9999999999953
  0
LINE
  5
1026C
102
{ACAD_REACTORS
330
1038E
102
}
330
1F
100
AcDbEntity
  8
0
100
AcDbLine
 10
2900.839351591237
 20
583.6048122592128
 30
0.000000000000143
 11
2894.819607712306
 21
583.6048122592128
 31
0.000000000000143
  0
ARC
  5
1026D
102
{ACAD_REACTORS
330
1038E
102
}
330
1F
100
AcDbEntity
  8
0
100
AcDbCircle
 10
2892.574543682039
 20
585.8498762894803
 30
0.000000000000143
 40
3.175000000000017
100
AcDbArc
 50
135.0000000000047
 51
315.0000000000042
  0
LINE
  5
1026E
102
{ACAD_REACTORS
330
1038E
102
}
330
1F
100
AcDbEntity
  8
0
100
AcDbLine
 10
2890.329479651772
 20
588.0949403197475
 30
0.000000000000143
 11
2890.329479651772
 21
604.1146841986783
 31
0.000000000000143
  0
ARC
  5
1026F
102
{ACAD_REACTORS
330
1038E
102
}
330
1F
100
AcDbEntity
  8
0
100
AcDbCircle
 10
2937.683998033586
 20
606.3597482289456
 30
0.000000000000143
 40
3.174999999999992
100
AcDbArc
 50
44.9999999999956
 51
224.9999999999955
  0
LINE
  5
10270
102
{ACAD_REACTORS
330
1038E
102
}
330
1F
100
AcDbEntity
  8
0
100
AcDbLine
 10
2939.929062063853
 20
608.6048122592128
 30
0.000000000000143
 11
2945.948805942784
 21
608.6048122592128
 31
0.000000000000143
  0
ARC
  5
10271
102
{ACAD_REACTORS
330
1038E
102
}
330
1F
100
AcDbEntity
  8
0
100
AcDbCircle
 10
2948.193869973052
 20
606.3597482289456
 30
0.000000000000143
 40
3.175000000000017
100
AcDbArc
 50
315.0000000000046
 51
135.0000000000044
  0
LINE
  5
10272
102
{ACAD_REACTORS
330
1038E
102
}
330
1F
100
AcDbEntity
  8
0
100
AcDbLine
 10
2950.438934003319
 20
604.1146841986783
 30
0.000000000000143
 11
2950.438934003319
 21
588.0949403197475
 31
0.000000000000143
  0
ARC
  5
10273
102
{ACAD_REACTORS
330
1038E
102
}
330
1F
100
AcDbEntity
  8
0
100
AcDbCircle
 10
2948.193869973052
 20
585.8498762894803
 30
0.000000000000143
 40
3.174999999999992
100
AcDbArc
 50
224.9999999999956
 51
44.9999999999953
  0
LINE
  5
10274
102
{ACAD_REACTORS
330
1038E
102
}
330
1F
100
AcDbEntity
  8
0
100
AcDbLine
 10
2945.948805942784
 20
583.6048122592128
 30
0.000000000000143
 11
2939.929062063853
 21
583.6048122592128
 31
0.000000000000143
  0
ARC
  5
10275
102
{ACAD_REACTORS
330
1038E
102
}
330
1F
100
AcDbEntity
  8
0
100
AcDbCircle
 10
2937.683998033586
 20
585.8498762894803
 30
0.000000000000143
 40
3.175000000000017
100
AcDbArc
 50
135.0000000000047
 51
315.0000000000042
  0
LINE
  5
10276
102
{ACAD_REACTORS
330
1038E
102
}
330
1F
100
AcDbEntity
  8
0
100
AcDbLine
 10
2935.438934003319
 20
588.0949403197475
 30
0.000000000000143
 11
2935.438934003319
 21
604.1146841986783
 31
0.000000000000143
  0
ARC
  5
10277
102
{ACAD_REACTORS
330
1038E
102
}
330
1F
100
AcDbEntity
  8
0
100
AcDbCircle
 10
4844.397867840072
 20
233.6402517710546
 30
0.000000000000143
 40
3.174999999999816
100
AcDbArc
 50
224.9999999999979
 51
44.99999999999531
  0
LINE
  5
10278
102
{ACAD_REACTORS
330
1038E
102
}
330
1F
100
AcDbEntity
  8
0
100
AcDbLine
 10
4842.152803809804
 20
231.3951877407873
 30
0.000000000000143
 11
4836.133059930875
 21
231.3951877407873
 31
0.000000000000143
  0
ARC
  5
10279
102
{ACAD_REACTORS
330
1038E
102
}
330
1F
100
AcDbEntity
  8
0
100
AcDbCircle
 10
4833.887995900607
 20
233.6402517710546
 30
0.000000000000143
 40
3.175000000000149
100
AcDbArc
 50
135.0000000000087
 51
315.0000000000041
  0
LINE
  5
1027A
102
{ACAD_REACTORS
330
1038E
102
}
330
1F
100
AcDbEntity
  8
0
100
AcDbLine
 10
4831.64293187034
 20
235.8853158013218
 30
0.000000000000143
 11
4831.64293187034
 21
251.9050596802525
 31
0.000000000000143
  0
ARC
  5
1027B
102
{ACAD_REACTORS
330
1038E
102
}
330
1F
100
AcDbEntity
  8
0
100
AcDbCircle
 10
4833.887995900607
 20
254.15012371052
 30
0.000000000000143
 40
3.175000000000042
100
AcDbArc
 50
44.99999999999556
 51
224.9999999999961
  0
LINE
  5
1027C
102
{ACAD_REACTORS
330
1038E
102
}
330
1F
100
AcDbEntity
  8
0
100
AcDbLine
 10
4836.133059930875
 20
256.3951877407873
 30
0.000000000000143
 11
4842.152803809804
 21
256.3951877407873
 31
0.000000000000143
  0
ARC
  5
1027D
102
{ACAD_REACTORS
330
1038E
102
}
330
1F
100
AcDbEntity
  8
0
100
AcDbCircle
 10
4844.397867840072
 20
254.1501237105201
 30
0.000000000000143
 40
3.175000000000004
100
AcDbArc
 50
315.0000000000093
 51
135.0000000000044
  0
LINE
  5
1027E
102
{ACAD_REACTORS
330
1038E
102
}
330
1F
100
AcDbEntity
  8
0
100
AcDbLine
 10
4846.64293187034
 20
251.9050596802531
 30
0.000000000000143
 11
4846.64293187034
 21
235.8853158013218
 31
0.000000000000143
  0
ARC
  5
1027F
102
{ACAD_REACTORS
330
1038E
102
}
330
1F
100
AcDbEntity
  8
0
100
AcDbCircle
 10
2982.793452385133
 20
606.3597482289456
 30
0.000000000000143
 40
3.174999999999992
100
AcDbArc
 50
44.9999999999956
 51
224.9999999999955
  0
LINE
  5
10280
102
{ACAD_REACTORS
330
1038E
102
}
330
1F
100
AcDbEntity
  8
0
100
AcDbLine
 10
2985.0385164154
 20
608.6048122592128
 30
0.000000000000143
 11
2991.058260294331
 21
608.6048122592128
 31
0.000000000000143
  0
ARC
  5
10281
102
{ACAD_REACTORS
330
1038E
102
}
330
1F
100
AcDbEntity
  8
0
100
AcDbCircle
 10
2993.303324324599
 20
606.3597482289456
 30
0.000000000000143
 40
3.175000000000017
100
AcDbArc
 50
315.0000000000046
 51
135.0000000000044
  0
LINE
  5
10282
102
{ACAD_REACTORS
330
1038E
102
}
330
1F
100
AcDbEntity
  8
0
100
AcDbLine
 10
2995.548388354866
 20
604.1146841986783
 30
0.000000000000143
 11
2995.548388354866
 21
588.0949403197475
 31
0.000000000000143
  0
ARC
  5
10283
102
{ACAD_REACTORS
330
1038E
102
}
330
1F
100
AcDbEntity
  8
0
100
AcDbCircle
 10
2993.303324324599
 20
585.8498762894803
 30
0.000000000000143
 40
3.175000000000017
100
AcDbArc
 50
224.9999999999955
 51
44.9999999999953
  0
LINE
  5
10284
102
{ACAD_REACTORS
330
1038E
102
}
330
1F
100
AcDbEntity
  8
0
100
AcDbLine
 10
2991.058260294331
 20
583.6048122592128
 30
0.000000000000143
 11
2985.0385164154
 21
583.6048122592128
 31
0.000000000000143
  0
ARC
  5
10285
102
{ACAD_REACTORS
330
1038E
102
}
330
1F
100
AcDbEntity
  8
0
100
AcDbCircle
 10
2982.793452385133
 20
585.8498762894803
 30
0.000000000000143
 40
3.175000000000017
100
AcDbArc
 50
135.0000000000047
 51
315.0000000000042
  0
LINE
  5
10286
102
{ACAD_REACTORS
330
1038E
102
}
330
1F
100
AcDbEntity
  8
0
100
AcDbLine
 10
2980.548388354866
 20
588.0949403197475
 30
0.000000000000143
 11
2980.548388354866
 21
604.1146841986783
 31
0.000000000000143
  0
ARC
  5
10287
102
{ACAD_REACTORS
330
1038E
102
}
330
1F
100
AcDbEntity
  8
0
100
AcDbCircle
 10
5004.845953990001
 20
525.2549359697326
 30
0.000000000000143
 40
3.174999999999967
100
AcDbArc
 50
315.0000000000085
 51
135.0000000000061
  0
LINE
  5
10288
102
{ACAD_REACTORS
330
1038E
102
}
330
1F
100
AcDbEntity
  8
0
100
AcDbLine
 10
5007.091018020268
 20
523.0098719394654
 30
0.000000000000143
 11
5007.091018020268
 21
516.9901280605345
 31
0.000000000000143
  0
ARC
  5
10289
102
{ACAD_REACTORS
330
1038E
102
}
330
1F
100
AcDbEntity
  8
0
100
AcDbCircle
 10
5004.845953990001
 20
514.7450640302672
 30
0.000000000000143
 40
3.175000000000017
100
AcDbArc
 50
224.9999999999955
 51
44.9999999999918
  0
LINE
  5
1028A
102
{ACAD_REACTORS
330
1038E
102
}
330
1F
100
AcDbEntity
  8
0
100
AcDbLine
 10
5002.600889959733
 20
512.5
 30
0.000000000000143
 11
4986.581146080804
 21
512.5
 31
0.000000000000143
  0
ARC
  5
1028B
102
{ACAD_REACTORS
330
1038E
102
}
330
1F
100
AcDbEntity
  8
0
100
AcDbCircle
 10
4984.336082050536
 20
514.7450640302674
 30
0.000000000000143
 40
3.174999999999916
100
AcDbArc
 50
135.0000000000062
 51
315.0000000000038
  0
LINE
  5
1028C
102
{ACAD_REACTORS
330
1038E
102
}
330
1F
100
AcDbEntity
  8
0
100
AcDbLine
 10
4982.091018020268
 20
516.9901280605345
 30
0.000000000000143
 11
4982.091018020268
 21
523.0098719394654
 31
0.000000000000143
  0
ARC
  5
1028D
102
{ACAD_REACTORS
330
1038E
102
}
330
1F
100
AcDbEntity
  8
0
100
AcDbCircle
 10
4984.336082050536
 20
525.2549359697326
 30
0.000000000000143
 40
3.175000000000068
100
AcDbArc
 50
44.9999999999956
 51
224.9999999999938
  0
LINE
  5
1028E
102
{ACAD_REACTORS
330
1038E
102
}
330
1F
100
AcDbEntity
  8
0
100
AcDbLine
 10
4986.581146080804
 20
527.5
 30
0.000000000000143
 11
5002.600889959733
 21
527.4999999999997
 31
0.000000000000143
  0
ARC
  5
1028F
102
{ACAD_REACTORS
330
1038E
102
}
330
1F
100
AcDbEntity
  8
0
100
AcDbCircle
 10
2857.974961269956
 20
233.6402517710546
 30
0.000000000000143
 40
3.174999999999992
100
AcDbArc
 50
224.9999999999955
 51
44.99999999999556
  0
LINE
  5
10290
102
{ACAD_REACTORS
330
1038E
102
}
330
1F
100
AcDbEntity
  8
0
100
AcDbLine
 10
2855.729897239689
 20
231.3951877407873
 30
0.000000000000143
 11
2849.710153360759
 21
231.3951877407873
 31
0.000000000000143
  0
ARC
  5
10291
102
{ACAD_REACTORS
330
1038E
102
}
330
1F
100
AcDbEntity
  8
0
100
AcDbCircle
 10
2847.465089330491
 20
233.6402517710546
 30
0.000000000000143
 40
3.175000000000004
100
AcDbArc
 50
135.0000000000047
 51
315.0000000000044
  0
LINE
  5
10292
102
{ACAD_REACTORS
330
1038E
102
}
330
1F
100
AcDbEntity
  8
0
100
AcDbLine
 10
2845.220025300224
 20
235.8853158013219
 30
0.000000000000143
 11
2845.220025300224
 21
251.9050596802527
 31
0.000000000000143
  0
ARC
  5
10293
102
{ACAD_REACTORS
330
1038E
102
}
330
1F
100
AcDbEntity
  8
0
100
AcDbCircle
 10
2847.465089330491
 20
254.15012371052
 30
0.000000000000143
 40
3.175000000000004
100
AcDbArc
 50
44.99999999999555
 51
224.999999999994
  0
LINE
  5
10294
102
{ACAD_REACTORS
330
1038E
102
}
330
1F
100
AcDbEntity
  8
0
100
AcDbLine
 10
2849.710153360759
 20
256.3951877407873
 30
0.000000000000143
 11
2855.729897239689
 21
256.3951877407873
 31
0.000000000000143
  0
ARC
  5
10295
102
{ACAD_REACTORS
330
1038E
102
}
330
1F
100
AcDbEntity
  8
0
100
AcDbCircle
 10
2857.974961269956
 20
254.15012371052
 30
0.000000000000143
 40
3.175000000000004
100
AcDbArc
 50
315.0000000000044
 51
135.0000000000044
  0
LINE
  5
10296
102
{ACAD_REACTORS
330
1038E
102
}
330
1F
100
AcDbEntity
  8
0
100
AcDbLine
 10
2860.220025300224
 20
251.9050596802527
 30
0.000000000000143
 11
2860.220025300224
 21
235.8853158013219
 31
0.000000000000143
  0
ARC
  5
10297
102
{ACAD_REACTORS
330
1038E
102
}
330
1F
100
AcDbEntity
  8
0
100
AcDbCircle
 10
4942.253892497014
 20
236.8091499416303
 30
0.000000000000143
 40
3.175000000000062
100
AcDbArc
 50
237.4625594854957
 51
57.46255948549571
  0
LINE
  5
10298
102
{ACAD_REACTORS
330
1038E
102
}
330
1F
100
AcDbEntity
  8
0
100
AcDbLine
 10
4940.546216790015
 20
234.1324974278131
 30
0.000000000000143
 11
4934.668314731395
 21
232.8334270843783
 31
0.000000000000143
  0
ARC
  5
10299
102
{ACAD_REACTORS
330
1038E
102
}
330
1F
100
AcDbEntity
  8
0
100
AcDbCircle
 10
4931.991662217576
 20
234.5411027913781
 30
0.000000000000143
 40
3.174999999999987
100
AcDbArc
 50
147.4625594854948
 51
327.4625594854948
  0
LINE
  5
1029A
102
{ACAD_REACTORS
330
1038E
102
}
330
1F
100
AcDbEntity
  8
0
100
AcDbLine
 10
4929.31500970376
 20
236.2487784983775
 30
0.000000000000143
 11
4925.857923388946
 21
251.8910528905003
 31
0.000000000000143
  0
ARC
  5
1029B
102
{ACAD_REACTORS
330
1038E
102
}
330
1F
100
AcDbEntity
  8
0
100
AcDbCircle
 10
4927.565599095945
 20
254.5677054043175
 30
0.000000000000143
 40
3.175000000000062
100
AcDbArc
 50
57.46255948549571
 51
237.4625594854969
  0
LINE
  5
1029C
102
{ACAD_REACTORS
330
1038E
102
}
330
1F
100
AcDbEntity
  8
0
100
AcDbLine
 10
4929.273274802945
 20
257.2443579181347
 30
0.000000000000143
 11
4935.151176861566
 21
258.5434282615697
 31
0.000000000000143
  0
ARC
  5
1029D
102
{ACAD_REACTORS
330
1038E
102
}
330
1F
100
AcDbEntity
  8
0
100
AcDbCircle
 10
4937.827829375383
 20
256.8357525545696
 30
0.000000000000143
 40
3.175000000000084
100
AcDbArc
 50
327.4625594855006
 51
147.462559485491
  0
LINE
  5
1029E
102
{ACAD_REACTORS
330
1038E
102
}
330
1F
100
AcDbEntity
  8
0
100
AcDbLine
 10
4940.5044818892
 20
255.1280768475703
 30
0.000000000000143
 11
4943.961568204013
 21
239.4858024554475
 31
0.000000000000143
  0
ARC
  5
1029F
102
{ACAD_REACTORS
330
1038E
102
}
330
1F
100
AcDbEntity
  8
0
100
AcDbCircle
 10
4967.896596855387
 20
591.0227690119021
 30
0.000000000000143
 40
3.174999999999909
100
AcDbArc
 50
6.691627009685964
 51
186.6916270096859
  0
LINE
  5
102A0
102
{ACAD_REACTORS
330
1038E
102
}
330
1F
100
AcDbEntity
  8
0
100
AcDbLine
 10
4971.049967767193
 20
591.3927377843472
 30
0.000000000000143
 11
4975.773575248252
 21
587.6611364212851
 31
0.000000000000143
  0
ARC
  5
102A1
102
{ACAD_REACTORS
330
1038E
102
}
330
1F
100
AcDbEntity
  8
0
100
AcDbCircle
 10
4976.143544020697
 20
584.5077655094805
 30
0.000000000000143
 40
3.175000000000137
100
AcDbArc
 50
276.6916270096974
 51
96.6916270096712
  0
LINE
  5
102A2
102
{ACAD_REACTORS
330
1038E
102
}
330
1F
100
AcDbEntity
  8
0
100
AcDbLine
 10
4976.513512793141
 20
581.3543945976757
 30
0.000000000000143
 11
4966.58297433556
 21
568.7839292169106
 31
0.000000000000143
  0
ARC
  5
102A3
102
{ACAD_REACTORS
330
1038E
102
}
330
1F
100
AcDbEntity
  8
0
100
AcDbCircle
 10
4963.429603423755
 20
568.4139604444655
 30
0.000000000000143
 40
3.174999999999918
100
AcDbArc
 50
186.6916270096875
 51
6.691627009685964
  0
LINE
  5
102A4
102
{ACAD_REACTORS
330
1038E
102
}
330
1F
100
AcDbEntity
  8
0
100
AcDbLine
 10
4960.276232511951
 20
568.0439916720204
 30
0.000000000000143
 11
4955.55262503089
 21
571.7755930350825
 31
0.000000000000143
  0
ARC
  5
102A5
102
{ACAD_REACTORS
330
1038E
102
}
330
1F
100
AcDbEntity
  8
0
100
AcDbCircle
 10
4955.182656258447
 20
574.9289639468869
 30
0.000000000000143
 40
3.175000000000072
100
AcDbArc
 50
96.69162700967133
 51
276.6916270096713
  0
LINE
  5
102A6
102
{ACAD_REACTORS
330
1038E
102
}
330
1F
100
AcDbEntity
  8
0
100
AcDbLine
 10
4954.812687486001
 20
578.0823348586917
 30
0.000000000000143
 11
4964.743225943583
 21
590.652800239457
 31
0.000000000000143
  0
LWPOLYLINE
  5
102A7
102
{ACAD_REACTORS
330
1038D
102
}
330
1F
100
AcDbEntity
  8
0
100
AcDbPolyline
 90
      194
 70
     1
 43
0.0
 10
4508.704084529433
 20
-471.0402415944947
 42
1.0
 10
4505.061874158605
 20
-465.838626113259
 10
4499.133583715486
 20
-464.7933085586604
 42
1.0
 10
4493.931968234252
 20
-468.435518929491
 10
4486.474622600346
 20
-510.7282276456596
 42
-0.5283466112772625
 10
4463.887735812948
 20
-520.9269952139469
 42
-0.26142037793994
 10
4415.986205761055
 20
-435.5703936586715
 10
4415.986205761055
 20
-379.9999999999999
 42
1.0
 10
4400.986205761055
 20
-379.9999999999999
 10
4400.986205761055
 20
-525.0
 42
-0.4142135623730992
 10
4395.986205761055
 20
-530.0
 10
4330.986205761055
 20
-530.0
 42
-0.4142135623730992
 10
4325.986205761055
 20
-525.0
 10
4325.986205761055
 20
-329.9999999999999
 42
1.0
 10
4310.986205761055
 20
-329.9999999999999
 10
4310.986205761055
 20
-525.0
 42
-0.4142135623730992
 10
4305.986205761055
 20
-530.0
 10
4240.986205761055
 20
-530.0
 42
-0.4142135623730992
 10
4235.986205761055
 20
-525.0
 10
4235.986205761055
 20
-329.9999999999999
 42
1.0
 10
4220.986205761056
 20
-329.9999999999999
 10
4220.986205761056
 20
-525.0
 42
-0.4142135623730992
 10
4215.986205761055
 20
-530.0
 10
4150.986205761055
 20
-530.0
 42
-0.4142135623730992
 10
4145.986205761055
 20
-525.0
 10
4145.986205761055
 20
-329.9999999999999
 42
1.0
 10
4130.986205761055
 20
-329.9999999999999
 10
4130.986205761055
 20
-525.0
 42
-0.4142135623730992
 10
4125.986205761055
 20
-530.0
 10
4060.986205761055
 20
-530.0
 42
-0.4142135623730992
 10
4055.986205761055
 20
-525.0
 10
4055.986205761055
 20
-329.9999999999999
 42
1.0
 10
4040.986205761055
 20
-329.9999999999999
 10
4040.986205761055
 20
-525.0
 42
-0.4142135623730992
 10
4035.986205761055
 20
-530.0
 10
3970.986205761056
 20
-530.0
 42
-0.4142135623730992
 10
3965.986205761055
 20
-525.0
 10
3965.986205761055
 20
-329.9999999999999
 42
1.0
 10
3950.986205761056
 20
-329.9999999999999
 10
3950.986205761056
 20
-525.0
 42
-0.4142135623731076
 10
3945.986205761056
 20
-529.9999999999998
 10
3880.986205761055
 20
-530.0
 42
-0.4142135623731076
 10
3875.986205761055
 20
-525.0
 10
3875.986205761055
 20
-329.9999999999999
 42
1.0
 10
3860.986205761056
 20
-329.9999999999999
 10
3860.986205761056
 20
-525.0
 42
-0.4142135623731076
 10
3855.986205761055
 20
-529.9999999999998
 10
3790.986205761055
 20
-530.0
 42
-0.4142135623731076
 10
3785.986205761056
 20
-525.0
 10
3785.986205761056
 20
-329.9999999999999
 42
1.0
 10
3770.986205761056
 20
-329.9999999999999
 10
3770.986205761056
 20
-525.0
 42
-0.4142135623731076
 10
3765.986205761056
 20
-529.9999999999998
 10
3700.986205761056
 20
-530.0
 42
-0.4142135623731076
 10
3695.986205761056
 20
-525.0
 10
3695.986205761056
 20
-329.9999999999999
 42
1.0
 10
3680.986205761055
 20
-329.9999999999999
 10
3680.986205761055
 20
-525.0
 42
-0.4142135623731076
 10
3675.986205761056
 20
-529.9999999999998
 10
3610.986205761056
 20
-530.0
 42
-0.4142135623731076
 10
3605.986205761055
 20
-525.0
 10
3605.986205761055
 20
-329.9999999999999
 42
1.0
 10
3590.986205761055
 20
-329.9999999999999
 10
3590.986205761055
 20
-525.0
 42
-0.4142135623731076
 10
3585.986205761056
 20
-529.9999999999998
 10
3520.986205761056
 20
-530.0
 42
-0.4142135623731076
 10
3515.986205761056
 20
-525.0
 10
3515.986205761056
 20
-329.9999999999999
 42
1.0
 10
3500.986205761055
 20
-329.9999999999999
 10
3500.986205761055
 20
-525.0
 42
-0.4142135623731076
 10
3495.986205761056
 20
-529.9999999999998
 10
3430.986205761055
 20
-530.0
 42
-0.4142135623731076
 10
3425.986205761056
 20
-525.0
 10
3425.986205761056
 20
-329.9999999999999
 42
1.0
 10
3410.986205761056
 20
-329.9999999999999
 10
3410.986205761056
 20
-525.0
 42
-0.4142135623731076
 10
3405.986205761055
 20
-529.9999999999998
 10
3340.986205761055
 20
-530.0
 42
-0.4142135623731076
 10
3335.986205761056
 20
-525.0
 10
3335.986205761056
 20
-379.9999999999999
 42
1.0
 10
3320.986205761055
 20
-379.9999999999999
 10
3320.986205761055
 20
-435.5703936586715
 42
-0.2614203779399395
 10
3273.084675709164
 20
-520.9269952139471
 42
-0.5283466112772557
 10
3250.497788921764
 20
-510.7282276456595
 10
3243.04044328786
 20
-468.4355189294904
 42
1.0
 10
3237.838827806624
 20
-464.7933085586611
 10
3231.910537363505
 20
-465.838626113259
 42
1.0
 10
3228.268326992676
 20
-471.0402415944942
 10
3235.560335581889
 20
-512.3952773349961
 42
-0.4663076581549947
 10
3220.788219286707
 20
-530.0
 10
2768.486205761055
 20
-529.9999999999998
 42
-0.4142135623730951
 10
2668.486205761056
 20
-429.9999999999998
 10
2668.486205761056
 20
-129.9999999999998
 42
-0.4142135623730951
 10
2768.486205761055
 20
-29.99999999999987
 10
3220.788219286707
 20
-29.9999999999998
 42
-0.4663076581549975
 10
3235.560335581889
 20
-47.60472266500374
 10
3228.268326992676
 20
-88.95975840550544
 42
1.0
 10
3231.910537363506
 20
-94.16137388674057
 10
3237.838827806624
 20
-95.20669144133872
 42
1.0
 10
3243.04044328786
 20
-91.56448107050922
 10
3250.788240787546
 20
-47.62453796845926
 42
-0.4978166326751869
 10
3272.102854374788
 20
-36.73127081336831
 42
-0.2874087553518847
 10
3328.486205761056
 20
-126.7178696140015
 10
3328.486205761056
 20
-279.9999999999999
 42
0.4142135623730951
 10
3343.486205761055
 20
-294.9999999999998
 10
3360.986205761056
 20
-294.9999999999998
 42
-0.4142135623730992
 10
3365.986205761056
 20
-299.9999999999998
 10
3365.986205761056
 20
-494.9999999999999
 42
1.0
 10
3380.986205761055
 20
-494.9999999999999
 10
3380.986205761055
 20
-299.9999999999998
 42
-0.4142135623730992
 10
3385.986205761056
 20
-294.9999999999998
 10
3450.986205761056
 20
-294.9999999999998
 42
-0.4142135623730992
 10
3455.986205761055
 20
-299.9999999999998
 10
3455.986205761055
 20
-494.9999999999999
 42
1.0
 10
3470.986205761056
 20
-494.9999999999999
 10
3470.986205761056
 20
-299.9999999999998
 42
-0.4142135623730992
 10
3475.986205761055
 20
-294.9999999999998
 10
3540.986205761055
 20
-294.9999999999998
 42
-0.4142135623730992
 10
3545.986205761056
 20
-299.9999999999998
 10
3545.986205761056
 20
-494.9999999999999
 42
1.0
 10
3560.986205761056
 20
-494.9999999999999
 10
3560.986205761056
 20
-299.9999999999998
 42
-0.4142135623730992
 10
3565.986205761055
 20
-294.9999999999998
 10
3630.986205761055
 20
-294.9999999999998
 42
-0.4142135623730992
 10
3635.986205761056
 20
-299.9999999999998
 10
3635.986205761056
 20
-494.9999999999999
 42
1.0
 10
3650.986205761056
 20
-494.9999999999999
 10
3650.986205761056
 20
-299.9999999999998
 42
-0.4142135623730971
 10
3655.986205761055
 20
-294.9999999999998
 10
3720.986205761056
 20
-294.9999999999998
 42
-0.4142135623730971
 10
3725.986205761055
 20
-299.9999999999998
 10
3725.986205761055
 20
-494.9999999999999
 42
1.0
 10
3740.986205761056
 20
-494.9999999999999
 10
3740.986205761056
 20
-299.9999999999998
 42
-0.4142135623730971
 10
3745.986205761056
 20
-294.9999999999998
 10
3810.986205761056
 20
-294.9999999999998
 42
-0.4142135623730971
 10
3815.986205761055
 20
-299.9999999999998
 10
3815.986205761055
 20
-494.9999999999999
 42
1.0
 10
3830.986205761055
 20
-494.9999999999999
 10
3830.986205761055
 20
-299.9999999999998
 42
-0.4142135623730971
 10
3835.986205761056
 20
-294.9999999999998
 10
3900.986205761056
 20
-294.9999999999998
 42
-0.4142135623730971
 10
3905.986205761055
 20
-299.9999999999998
 10
3905.986205761055
 20
-494.9999999999999
 42
1.0
 10
3920.986205761056
 20
-494.9999999999999
 10
3920.986205761056
 20
-299.9999999999998
 42
-0.4142135623730971
 10
3925.986205761056
 20
-294.9999999999998
 10
3990.986205761056
 20
-294.9999999999998
 42
-0.4142135623730971
 10
3995.986205761056
 20
-299.9999999999998
 10
3995.986205761056
 20
-494.9999999999999
 42
1.0
 10
4010.986205761056
 20
-494.9999999999999
 10
4010.986205761056
 20
-299.9999999999998
 42
-0.4142135623730971
 10
4015.986205761055
 20
-294.9999999999998
 10
4080.986205761055
 20
-294.9999999999998
 42
-0.4142135623730971
 10
4085.986205761055
 20
-299.9999999999998
 10
4085.986205761055
 20
-494.9999999999999
 42
1.0
 10
4100.986205761055
 20
-494.9999999999999
 10
4100.986205761055
 20
-299.9999999999998
 42
-0.4142135623730971
 10
4105.986205761054
 20
-294.9999999999998
 10
4170.986205761056
 20
-294.9999999999999
 42
-0.4142135623730992
 10
4175.986205761055
 20
-299.9999999999999
 10
4175.986205761055
 20
-494.9999999999999
 42
1.0
 10
4190.986205761055
 20
-494.9999999999999
 10
4190.986205761055
 20
-299.9999999999999
 42
-0.4142135623730992
 10
4195.986205761055
 20
-294.9999999999998
 10
4260.986205761056
 20
-294.9999999999999
 42
-0.4142135623730992
 10
4265.986205761055
 20
-299.9999999999999
 10
4265.986205761055
 20
-494.9999999999999
 42
1.0
 10
4280.986205761055
 20
-494.9999999999999
 10
4280.986205761055
 20
-299.9999999999999
 42
-0.4142135623730992
 10
4285.986205761055
 20
-294.9999999999998
 10
4350.986205761055
 20
-294.9999999999999
 42
-0.4142135623730992
 10
4355.986205761054
 20
-299.9999999999999
 10
4355.986205761054
 20
-494.9999999999999
 42
1.0
 10
4370.986205761055
 20
-494.9999999999999
 10
4370.986205761055
 20
-299.9999999999999
 42
-0.4142135623730992
 10
4375.986205761055
 20
-294.9999999999998
 10
4393.486205761055
 20
-294.9999999999999
 42
0.4142135623730951
 10
4408.486205761056
 20
-279.9999999999999
 10
4408.486205761056
 20
-126.7178696140015
 42
-0.2874087553518861
 10
4464.869557147322
 20
-36.73127081336819
 42
-0.4978166326751802
 10
4486.184170734564
 20
-47.62453796845929
 10
4493.931968234251
 20
-91.56448107050934
 42
1.0
 10
4499.133583715486
 20
-95.20669144133854
 10
4505.061874158605
 20
-94.16137388674028
 42
1.0
 10
4508.704084529435
 20
-88.95975840550544
 10
4501.412075940221
 20
-47.60472266500378
 42
-0.4663076581549964
 10
4516.184192235404
 20
-30.0
 10
4968.486205761055
 20
-29.99999999999991
 42
-0.4142135623730951
 10
5068.486205761055
 20
-129.9999999999999
 10
5068.486205761055
 20
-429.9999999999999
 42
-0.4142135623730951
 10
4968.486205761055
 20
-530.0
 10
4516.184192235404
 20
-530.0
 42
-0.466307658154997
 10
4501.412075940221
 20
-512.3952773349961
  0
ARC
  5
102A8
102
{ACAD_REACTORS
330
1038D
102
}
330
1F
100
AcDbEntity
  8
0
100
AcDbCircle
 10
4653.450178494417
 20
-466.3597482289453
 30
0.0
 40
3.175000000000168
100
AcDbArc
 50
135.0000000000052
 51
315.0000000000037
  0
LINE
  5
102A9
102
{ACAD_REACTORS
330
1038D
102
}
330
1F
100
AcDbEntity
  8
0
100
AcDbLine
 10
4655.695242524683
 20
-468.6048122592128
 30
0.0
 11
4661.714986403615
 21
-468.6048122592127
 31
0.0
  0
ARC
  5
102AA
102
{ACAD_REACTORS
330
1038D
102
}
330
1F
100
AcDbEntity
  8
0
100
AcDbCircle
 10
4663.960050433883
 20
-466.3597482289453
 30
0.0
 40
3.174999999999866
100
AcDbArc
 50
224.9999999999944
 51
44.999999999997
  0
LINE
  5
102AB
102
{ACAD_REACTORS
330
1038D
102
}
330
1F
100
AcDbEntity
  8
0
100
AcDbLine
 10
4666.20511446415
 20
-464.1146841986781
 30
0.0
 11
4666.20511446415
 21
-448.0949403197476
 31
0.0
  0
ARC
  5
102AC
102
{ACAD_REACTORS
330
1038D
102
}
330
1F
100
AcDbEntity
  8
0
100
AcDbCircle
 10
4663.960050433883
 20
-445.8498762894799
 30
0.0
 40
3.175000000000017
100
AcDbArc
 50
315.0000000000016
 51
135.0000000000066
  0
LINE
  5
102AD
102
{ACAD_REACTORS
330
1038D
102
}
330
1F
100
AcDbEntity
  8
0
100
AcDbLine
 10
4661.714986403615
 20
-443.6048122592127
 30
0.0
 11
4655.695242524685
 21
-443.6048122592127
 31
0.0
  0
ARC
  5
102AE
102
{ACAD_REACTORS
330
1038D
102
}
330
1F
100
AcDbEntity
  8
0
100
AcDbCircle
 10
4653.450178494417
 20
-445.8498762894799
 30
0.0
 40
3.175000000000017
100
AcDbArc
 50
44.99999999999485
 51
224.9999999999904
  0
LINE
  5
102AF
102
{ACAD_REACTORS
330
1038D
102
}
330
1F
100
AcDbEntity
  8
0
100
AcDbLine
 10
4651.20511446415
 20
-448.0949403197469
 30
0.0
 11
4651.20511446415
 21
-464.1146841986779
 31
0.0
  0
LWPOLYLINE
  5
102B0
102
{ACAD_REACTORS
330
1038D
102
}
330
1F
100
AcDbEntity
  8
0
100
AcDbPolyline
 90
        8
 70
     1
 43
0.0
 10
2739.515842132586
 20
-409.9200896761798
 42
1.0
 10
2737.432334605135
 20
-415.9185475099115
 10
2740.056647077389
 20
-421.3361392641782
 42
1.0
 10
2746.05510491112
 20
-423.4196467916293
 10
2760.47240140902
 20
-416.4358258003531
 42
1.0
 10
2762.555908936471
 20
-410.4373679666216
 10
2759.931596464217
 20
-405.0197762123544
 42
1.0
 10
2753.933138630485
 20
-402.9362686849039
  0
LWPOLYLINE
  5
102B1
102
{ACAD_REACTORS
330
1038D
102
}
330
1F
100
AcDbEntity
  8
0
100
AcDbPolyline
 90
        8
 70
     1
 43
0.0
 10
4801.533477518792
 20
-95.8853158013218
 42
1.0
 10
4797.043349458258
 20
-91.39518774078718
 10
4791.023605579327
 20
-91.39518774078736
 42
1.0
 10
4786.533477518792
 20
-95.8853158013216
 10
4786.533477518792
 20
-111.9050596802524
 42
1.0
 10
4791.023605579327
 20
-116.3951877407871
 10
4797.043349458258
 20
-116.395187740787
 42
1.0
 10
4801.533477518792
 20
-111.9050596802527
  0
LWPOLYLINE
  5
102B2
102
{ACAD_REACTORS
330
1038D
102
}
330
1F
100
AcDbEntity
  8
0
100
AcDbPolyline
 90
        8
 70
     1
 43
0.0
 10
2950.438934003319
 20
-95.88531580132173
 42
1.0
 10
2945.948805942784
 20
-91.39518774078714
 10
2939.929062063853
 20
-91.39518774078714
 42
1.0
 10
2935.438934003319
 20
-95.88531580132169
 10
2935.438934003319
 20
-111.9050596802526
 42
1.0
 10
2939.929062063853
 20
-116.3951877407871
 10
2945.948805942784
 20
-116.3951877407871
 42
1.0
 10
2950.438934003319
 20
-111.9050596802526
  0
ARC
  5
102B3
102
{ACAD_REACTORS
330
1038D
102
}
330
1F
100
AcDbEntity
  8
0
100
AcDbCircle
 10
4976.143544020697
 20
-115.4922344905195
 30
0.0
 40
3.174999999999914
100
AcDbArc
 50
276.6916270096712
 51
96.69162700967122
  0
LINE
  5
102B4
102
{ACAD_REACTORS
330
1038D
102
}
330
1F
100
AcDbEntity
  8
0
100
AcDbLine
 10
4975.773575248252
 20
-112.3388635787149
 30
0.0
 11
4971.049967767193
 21
-108.6072622156528
 31
0.0
  0
ARC
  5
102B5
102
{ACAD_REACTORS
330
1038D
102
}
330
1F
100
AcDbEntity
  8
0
100
AcDbCircle
 10
4967.896596855387
 20
-108.9772309880981
 30
0.0
 40
3.174999999999932
100
AcDbArc
 50
6.691627009690986
 51
186.6916270096906
  0
LINE
  5
102B6
102
{ACAD_REACTORS
330
1038D
102
}
330
1F
100
AcDbEntity
  8
0
100
AcDbLine
 10
4964.743225943583
 20
-109.3471997605434
 30
0.0
 11
4954.812687486001
 21
-121.9176651413083
 31
0.0
  0
ARC
  5
102B7
102
{ACAD_REACTORS
330
1038D
102
}
330
1F
100
AcDbEntity
  8
0
100
AcDbCircle
 10
4955.182656258446
 20
-125.071036053113
 30
0.0
 40
3.175000000000016
100
AcDbArc
 50
96.6916270096712
 51
276.6916270096973
  0
LINE
  5
102B8
102
{ACAD_REACTORS
330
1038D
102
}
330
1F
100
AcDbEntity
  8
0
100
AcDbLine
 10
4955.55262503089
 20
-128.2244069649177
 30
0.0
 11
4960.276232511951
 21
-131.9560083279797
 31
0.0
  0
ARC
  5
102B9
102
{ACAD_REACTORS
330
1038D
102
}
330
1F
100
AcDbEntity
  8
0
100
AcDbCircle
 10
4963.429603423755
 20
-131.5860395555345
 30
0.0
 40
3.174999999999888
100
AcDbArc
 50
186.6916270096891
 51
6.6916270096833
  0
LINE
  5
102BA
102
{ACAD_REACTORS
330
1038D
102
}
330
1F
100
AcDbEntity
  8
0
100
AcDbLine
 10
4966.58297433556
 20
-131.2160707830897
 30
0.0
 11
4976.513512793141
 21
-118.6456054023242
 31
0.0
  0
ARC
  5
102BB
102
{ACAD_REACTORS
330
1038D
102
}
330
1F
100
AcDbEntity
  8
0
100
AcDbCircle
 10
4608.34072414287
 20
-466.3597482289453
 30
0.0
 40
3.174999999999967
100
AcDbArc
 50
135.0000000000023
 51
315.0000000000023
  0
LINE
  5
102BC
102
{ACAD_REACTORS
330
1038D
102
}
330
1F
100
AcDbEntity
  8
0
100
AcDbLine
 10
4610.585788173137
 20
-468.6048122592128
 30
0.0
 11
4616.605532052068
 21
-468.6048122592127
 31
0.0
  0
ARC
  5
102BD
102
{ACAD_REACTORS
330
1038D
102
}
330
1F
100
AcDbEntity
  8
0
100
AcDbCircle
 10
4618.850596082334
 20
-466.3597482289453
 30
0.0
 40
3.175000000000068
100
AcDbArc
 50
224.9999999999973
 51
44.99999999999412
  0
LINE
  5
102BE
102
{ACAD_REACTORS
330
1038D
102
}
330
1F
100
AcDbEntity
  8
0
100
AcDbLine
 10
4621.095660112603
 20
-464.1146841986781
 30
0.0
 11
4621.095660112603
 21
-448.0949403197472
 31
0.0
  0
ARC
  5
102BF
102
{ACAD_REACTORS
330
1038D
102
}
330
1F
100
AcDbEntity
  8
0
100
AcDbCircle
 10
4618.850596082334
 20
-445.8498762894801
 30
0.0
 40
3.175000000000068
100
AcDbArc
 50
315.000000000007
 51
135.0000000000059
  0
LINE
  5
102C0
102
{ACAD_REACTORS
330
1038D
102
}
330
1F
100
AcDbEntity
  8
0
100
AcDbLine
 10
4616.605532052068
 20
-443.6048122592127
 30
0.0
 11
4610.585788173137
 21
-443.6048122592127
 31
0.0
  0
ARC
  5
102C1
102
{ACAD_REACTORS
330
1038D
102
}
330
1F
100
AcDbEntity
  8
0
100
AcDbCircle
 10
4608.34072414287
 20
-445.8498762894801
 30
0.0
 40
3.174999999999967
100
AcDbArc
 50
44.99999999999555
 51
224.9999999999944
  0
LINE
  5
102C2
102
{ACAD_REACTORS
330
1038D
102
}
330
1F
100
AcDbEntity
  8
0
100
AcDbLine
 10
4606.095660112603
 20
-448.0949403197472
 30
0.0
 11
4606.095660112603
 21
-464.1146841986779
 31
0.0
  0
ARC
  5
102C3
102
{ACAD_REACTORS
330
1038D
102
}
330
1F
100
AcDbEntity
  8
0
100
AcDbCircle
 10
2760.828867501414
 20
-444.5077655094804
 30
0.0
 40
3.174999999999948
100
AcDbArc
 50
96.69162700967133
 51
276.6916270096713
  0
LINE
  5
102C4
102
{ACAD_REACTORS
330
1038D
102
}
330
1F
100
AcDbEntity
  8
0
100
AcDbLine
 10
2761.198836273859
 20
-447.661136421285
 30
0.0
 11
2765.922443754919
 21
-451.392737784347
 31
0.0
  0
ARC
  5
102C5
102
{ACAD_REACTORS
330
1038D
102
}
330
1F
100
AcDbEntity
  8
0
100
AcDbCircle
 10
2769.075814666723
 20
-451.0227690119018
 30
0.0
 40
3.175000000000007
100
AcDbArc
 50
186.691627009688
 51
6.691627009685042
  0
LINE
  5
102C6
102
{ACAD_REACTORS
330
1038D
102
}
330
1F
100
AcDbEntity
  8
0
100
AcDbLine
 10
2772.229185578528
 20
-450.6528002394568
 30
0.0
 11
2782.15972403611
 21
-438.0823348586913
 31
0.0
  0
ARC
  5
102C7
102
{ACAD_REACTORS
330
1038D
102
}
330
1F
100
AcDbEntity
  8
0
100
AcDbCircle
 10
2781.789755263665
 20
-434.9289639468866
 30
0.0
 40
3.174999999999984
100
AcDbArc
 50
276.6916270096972
 51
96.6916270096973
  0
LINE
  5
102C8
102
{ACAD_REACTORS
330
1038D
102
}
330
1F
100
AcDbEntity
  8
0
100
AcDbLine
 10
2781.41978649122
 20
-431.7755930350821
 30
0.0
 11
2776.696179010161
 21
-428.0439916720204
 31
0.0
  0
ARC
  5
102C9
102
{ACAD_REACTORS
330
1038D
102
}
330
1F
100
AcDbEntity
  8
0
100
AcDbCircle
 10
2773.542808098356
 20
-428.4139604444655
 30
0.0
 40
3.175000000000007
100
AcDbArc
 50
6.691627009686271
 51
186.6916270096829
  0
LINE
  5
102CA
102
{ACAD_REACTORS
330
1038D
102
}
330
1F
100
AcDbEntity
  8
0
100
AcDbLine
 10
2770.389437186552
 20
-428.7839292169103
 30
0.0
 11
2760.458898728969
 21
-441.3543945976758
 31
0.0
  0
LWPOLYLINE
  5
102CB
102
{ACAD_REACTORS
330
1038D
102
}
330
1F
100
AcDbEntity
  8
0
100
AcDbPolyline
 90
        8
 70
     1
 43
0.0
 10
2905.329479651771
 20
-95.88531580132174
 42
1.0
 10
2900.839351591237
 20
-91.39518774078712
 10
2894.819607712306
 20
-91.39518774078718
 42
1.0
 10
2890.329479651772
 20
-95.88531580132171
 10
2890.329479651772
 20
-111.9050596802526
 42
1.0
 10
2894.819607712306
 20
-116.3951877407871
 10
2900.839351591237
 20
-116.3951877407871
 42
1.0
 10
2905.329479651771
 20
-111.9050596802526
  0
LWPOLYLINE
  5
102CC
102
{ACAD_REACTORS
330
1038D
102
}
330
1F
100
AcDbEntity
  8
0
100
AcDbPolyline
 90
        8
 70
     1
 43
0.0
 10
4891.752386221887
 20
-95.88531580132165
 42
1.0
 10
4887.262258161353
 20
-91.39518774078718
 10
4881.242514282423
 20
-91.39518774078736
 42
1.0
 10
4876.752386221887
 20
-95.8853158013216
 10
4876.752386221888
 20
-111.9050596802526
 42
1.0
 10
4881.242514282422
 20
-116.3951877407871
 10
4887.262258161353
 20
-116.3951877407873
 42
1.0
 10
4891.752386221887
 20
-111.9050596802524
  0
ARC
  5
102CD
102
{ACAD_REACTORS
330
1038D
102
}
330
1F
100
AcDbEntity
  8
0
100
AcDbCircle
 10
2847.465089330491
 20
-466.3597482289454
 30
0.0
 40
3.174999999999992
100
AcDbArc
 50
135.000000000005
 51
315.0000000000044
  0
LINE
  5
102CE
102
{ACAD_REACTORS
330
1038D
102
}
330
1F
100
AcDbEntity
  8
0
100
AcDbLine
 10
2849.710153360759
 20
-468.6048122592127
 30
0.0
 11
2855.729897239689
 21
-468.6048122592127
 31
0.0
  0
ARC
  5
102CF
102
{ACAD_REACTORS
330
1038D
102
}
330
1F
100
AcDbEntity
  8
0
100
AcDbCircle
 10
2857.974961269956
 20
-466.3597482289454
 30
0.0
 40
3.175000000000017
100
AcDbArc
 50
224.9999999999955
 51
44.99999999999483
  0
LINE
  5
102D0
102
{ACAD_REACTORS
330
1038D
102
}
330
1F
100
AcDbEntity
  8
0
100
AcDbLine
 10
2860.220025300224
 20
-464.1146841986781
 30
0.0
 11
2860.220025300224
 21
-448.0949403197473
 31
0.0
  0
ARC
  5
102D1
102
{ACAD_REACTORS
330
1038D
102
}
330
1F
100
AcDbEntity
  8
0
100
AcDbCircle
 10
2857.974961269956
 20
-445.8498762894801
 30
0.0
 40
3.174999999999992
100
AcDbArc
 50
315.0000000000051
 51
135.0000000000044
  0
LINE
  5
102D2
102
{ACAD_REACTORS
330
1038D
102
}
330
1F
100
AcDbEntity
  8
0
100
AcDbLine
 10
2855.729897239689
 20
-443.6048122592127
 30
0.0
 11
2849.710153360759
 21
-443.6048122592127
 31
0.0
  0
ARC
  5
102D3
102
{ACAD_REACTORS
330
1038D
102
}
330
1F
100
AcDbEntity
  8
0
100
AcDbCircle
 10
2847.465089330491
 20
-445.8498762894801
 30
0.0
 40
3.175000000000017
100
AcDbArc
 50
44.99999999999555
 51
224.9999999999947
  0
LINE
  5
102D4
102
{ACAD_REACTORS
330
1038D
102
}
330
1F
100
AcDbEntity
  8
0
100
AcDbLine
 10
2845.220025300224
 20
-448.0949403197473
 30
0.0
 11
2845.220025300224
 21
-464.1146841986781
 31
0.0
  0
LWPOLYLINE
  5
102D5
102
{ACAD_REACTORS
330
1038D
102
}
330
1F
100
AcDbEntity
  8
0
100
AcDbPolyline
 90
        8
 70
     1
 43
0.0
 10
3130.876751409508
 20
-95.88531580132169
 42
1.0
 10
3126.386623348974
 20
-91.39518774078714
 10
3120.366879470043
 20
-91.39518774078712
 42
1.0
 10
3115.876751409508
 20
-95.88531580132169
 10
3115.876751409508
 20
-111.9050596802526
 42
1.0
 10
3120.366879470043
 20
-116.3951877407871
 10
3126.386623348974
 20
-116.3951877407871
 42
1.0
 10
3130.876751409508
 20
-111.9050596802526
  0
LWPOLYLINE
  5
102D6
102
{ACAD_REACTORS
330
1038D
102
}
330
1F
100
AcDbEntity
  8
0
100
AcDbPolyline
 90
        8
 70
     1
 43
0.0
 10
3115.876751409508
 20
-464.114684198678
 42
1.0
 10
3120.366879470043
 20
-468.6048122592127
 10
3126.386623348974
 20
-468.6048122592127
 42
1.0
 10
3130.876751409508
 20
-464.1146841986781
 10
3130.876751409508
 20
-448.0949403197473
 42
1.0
 10
3126.386623348974
 20
-443.6048122592127
 10
3120.366879470043
 20
-443.6048122592127
 42
1.0
 10
3115.876751409508
 20
-448.0949403197472
  0
ARC
  5
102D7
102
{ACAD_REACTORS
330
1038D
102
}
330
1F
100
AcDbEntity
  8
0
100
AcDbCircle
 10
4998.498323153251
 20
-147.0806814069541
 30
0.0
 40
3.174999999999955
100
AcDbArc
 50
250.8458135048515
 51
70.84581350487699
  0
LINE
  5
102D8
102
{ACAD_REACTORS
330
1038D
102
}
330
1F
100
AcDbEntity
  8
0
100
AcDbLine
 10
4999.540076916976
 20
-144.0814524900884
 30
0.0
 11
4996.915764444722
 21
-138.6638607358218
 31
0.0
  0
ARC
  5
102D9
102
{ACAD_REACTORS
330
1038D
102
}
330
1F
100
AcDbEntity
  8
0
100
AcDbCircle
 10
4993.916535527857
 20
-137.6221069720963
 30
0.0
 40
3.175000000000063
100
AcDbArc
 50
340.8458135048664
 51
160.8458135048639
  0
LINE
  5
102DA
102
{ACAD_REACTORS
330
1038D
102
}
330
1F
100
AcDbEntity
  8
0
100
AcDbLine
 10
4990.917306610991
 20
-136.5803532083707
 30
0.0
 11
4976.500010113092
 21
-143.5641741996469
 31
0.0
  0
ARC
  5
102DB
102
{ACAD_REACTORS
330
1038D
102
}
330
1F
100
AcDbEntity
  8
0
100
AcDbCircle
 10
4975.458256349366
 20
-146.5634031165126
 30
0.0
 40
3.175000000000012
100
AcDbArc
 50
70.84581350485153
 51
250.8458135048779
  0
LINE
  5
102DC
102
{ACAD_REACTORS
330
1038D
102
}
330
1F
100
AcDbEntity
  8
0
100
AcDbLine
 10
4974.41650258564
 20
-149.5626320333785
 30
0.0
 11
4977.040815057893
 21
-154.9802237876452
 31
0.0
  0
ARC
  5
102DD
102
{ACAD_REACTORS
330
1038D
102
}
330
1F
100
AcDbEntity
  8
0
100
AcDbCircle
 10
4980.040043974759
 20
-156.0219775513706
 30
0.0
 40
3.175000000000016
100
AcDbArc
 50
160.8458135048675
 51
340.8458135048639
  0
LINE
  5
102DE
102
{ACAD_REACTORS
330
1038D
102
}
330
1F
100
AcDbEntity
  8
0
100
AcDbLine
 10
4983.039272891625
 20
-157.0637313150961
 30
0.0
 11
4997.456569389523
 21
-150.0799103238198
 31
0.0
  0
ARC
  5
102DF
102
{ACAD_REACTORS
330
1038D
102
}
330
1F
100
AcDbEntity
  8
0
100
AcDbCircle
 10
4563.231269791322
 20
-466.3597482289453
 30
0.0
 40
3.174999999999967
100
AcDbArc
 50
135.0000000000023
 51
315.0000000000037
  0
LINE
  5
102E0
102
{ACAD_REACTORS
330
1038D
102
}
330
1F
100
AcDbEntity
  8
0
100
AcDbLine
 10
4565.47633382159
 20
-468.6048122592128
 30
0.0
 11
4571.496077700521
 21
-468.6048122592127
 31
0.0
  0
ARC
  5
102E1
102
{ACAD_REACTORS
330
1038D
102
}
330
1F
100
AcDbEntity
  8
0
100
AcDbCircle
 10
4573.741141730788
 20
-466.3597482289453
 30
0.0
 40
3.175000000000068
100
AcDbArc
 50
224.9999999999958
 51
44.99999999999555
  0
LINE
  5
102E2
102
{ACAD_REACTORS
330
1038D
102
}
330
1F
100
AcDbEntity
  8
0
100
AcDbLine
 10
4575.986205761055
 20
-464.1146841986781
 30
0.0
 11
4575.986205761055
 21
-448.0949403197472
 31
0.0
  0
ARC
  5
102E3
102
{ACAD_REACTORS
330
1038D
102
}
330
1F
100
AcDbEntity
  8
0
100
AcDbCircle
 10
4573.741141730788
 20
-445.8498762894801
 30
0.0
 40
3.175000000000068
100
AcDbArc
 50
315.0000000000056
 51
135.0000000000059
  0
LINE
  5
102E4
102
{ACAD_REACTORS
330
1038D
102
}
330
1F
100
AcDbEntity
  8
0
100
AcDbLine
 10
4571.496077700521
 20
-443.6048122592127
 30
0.0
 11
4565.47633382159
 21
-443.6048122592127
 31
0.0
  0
ARC
  5
102E5
102
{ACAD_REACTORS
330
1038D
102
}
330
1F
100
AcDbEntity
  8
0
100
AcDbCircle
 10
4563.231269791322
 20
-445.8498762894801
 30
0.0
 40
3.174999999999967
100
AcDbArc
 50
44.99999999999412
 51
224.9999999999944
  0
LINE
  5
102E6
102
{ACAD_REACTORS
330
1038D
102
}
330
1F
100
AcDbEntity
  8
0
100
AcDbLine
 10
4560.986205761055
 20
-448.0949403197472
 30
0.0
 11
4560.986205761055
 21
-464.1146841986779
 31
0.0
  0
ARC
  5
102E7
102
{ACAD_REACTORS
330
1038D
102
}
330
1F
100
AcDbEntity
  8
0
100
AcDbCircle
 10
4931.991662217576
 20
-465.4588972086221
 30
0.0
 40
3.175000000000026
100
AcDbArc
 50
147.4625594854939
 51
327.462559485497
  0
LINE
  5
102E8
102
{ACAD_REACTORS
330
1038D
102
}
330
1F
100
AcDbEntity
  8
0
100
AcDbLine
 10
4934.668314731395
 20
-467.1665729156216
 30
0.0
 11
4940.546216790015
 21
-465.8675025721869
 31
0.0
  0
ARC
  5
102E9
102
{ACAD_REACTORS
330
1038D
102
}
330
1F
100
AcDbEntity
  8
0
100
AcDbCircle
 10
4942.253892497014
 20
-463.1908500583698
 30
0.0
 40
3.174999999999987
100
AcDbArc
 50
237.4625594854953
 51
57.46255948549532
  0
LINE
  5
102EA
102
{ACAD_REACTORS
330
1038D
102
}
330
1F
100
AcDbEntity
  8
0
100
AcDbLine
 10
4943.961568204013
 20
-460.5141975445526
 30
0.0
 11
4940.504481889199
 21
-444.8719231524298
 31
0.0
  0
ARC
  5
102EB
102
{ACAD_REACTORS
330
1038D
102
}
330
1F
100
AcDbEntity
  8
0
100
AcDbCircle
 10
4937.827829375383
 20
-443.1642474454302
 30
0.0
 40
3.17500000000014
100
AcDbArc
 50
327.4625594854945
 51
147.4625594854946
  0
LINE
  5
102EC
102
{ACAD_REACTORS
330
1038D
102
}
330
1F
100
AcDbEntity
  8
0
100
AcDbLine
 10
4935.151176861566
 20
-441.4565717384304
 30
0.0
 11
4929.273274802945
 21
-442.7556420818653
 31
0.0
  0
ARC
  5
102ED
102
{ACAD_REACTORS
330
1038D
102
}
330
1F
100
AcDbEntity
  8
0
100
AcDbCircle
 10
4927.565599095945
 20
-445.4322945956826
 30
0.0
 40
3.174999999999895
100
AcDbArc
 50
57.46255948549552
 51
237.4625594855194
  0
LINE
  5
102EE
102
{ACAD_REACTORS
330
1038D
102
}
330
1F
100
AcDbEntity
  8
0
100
AcDbLine
 10
4925.857923388946
 20
-448.1089471094998
 30
0.0
 11
4929.31500970376
 21
-463.7512215016225
 31
0.0
  0
LWPOLYLINE
  5
102EF
102
{ACAD_REACTORS
330
1038D
102
}
330
1F
100
AcDbEntity
  8
0
100
AcDbPolyline
 90
        8
 70
     1
 43
0.0
 10
5002.600889959733
 20
-187.4999999999998
 42
1.0
 10
5007.091018020268
 20
-183.0098719394655
 10
5007.091018020268
 20
-176.9901280605346
 42
1.0
 10
5002.600889959733
 20
-172.5000000000001
 10
4986.581146080804
 20
-172.5000000000002
 42
1.0
 10
4982.091018020268
 20
-176.9901280605345
 10
4982.091018020268
 20
-183.0098719394653
 42
1.0
 10
4986.581146080804
 20
-187.5
  0
LWPOLYLINE
  5
102F0
102
{ACAD_REACTORS
330
1038D
102
}
330
1F
100
AcDbEntity
  8
0
100
AcDbPolyline
 90
        8
 70
     1
 43
0.0
 10
2746.05510491112
 20
-136.5803532083706
 42
1.0
 10
2740.056647077389
 20
-138.6638607358217
 10
2737.432334605135
 20
-144.0814524900885
 42
1.0
 10
2739.515842132586
 20
-150.07991032382
 10
2753.933138630485
 20
-157.0637313150959
 42
1.0
 10
2759.931596464217
 20
-154.9802237876455
 10
2762.555908936471
 20
-149.5626320333783
 42
1.0
 10
2760.47240140902
 20
-143.5641741996468
  0
LWPOLYLINE
  5
102F1
102
{ACAD_REACTORS
330
1038D
102
}
330
1F
100
AcDbEntity
  8
0
100
AcDbPolyline
 90
        8
 70
     1
 43
0.0
 10
4575.986205761055
 20
-95.8853158013218
 42
1.0
 10
4571.496077700521
 20
-91.39518774078718
 10
4565.47633382159
 20
-91.39518774078736
 42
1.0
 10
4560.986205761055
 20
-95.8853158013216
 10
4560.986205761055
 20
-111.9050596802524
 42
1.0
 10
4565.47633382159
 20
-116.3951877407871
 10
4571.496077700521
 20
-116.3951877407869
 42
1.0
 10
4575.986205761055
 20
-111.9050596802526
  0
LWPOLYLINE
  5
102F2
102
{ACAD_REACTORS
330
1038D
102
}
330
1F
100
AcDbEntity
  8
0
100
AcDbPolyline
 90
        8
 70
     1
 43
0.0
 10
4621.095660112603
 20
-95.8853158013218
 42
1.0
 10
4616.605532052068
 20
-91.39518774078718
 10
4610.585788173137
 20
-91.39518774078736
 42
1.0
 10
4606.095660112603
 20
-95.8853158013216
 10
4606.095660112603
 20
-111.9050596802524
 42
1.0
 10
4610.585788173137
 20
-116.3951877407871
 10
4616.605532052068
 20
-116.3951877407869
 42
1.0
 10
4621.095660112603
 20
-111.9050596802526
  0
LWPOLYLINE
  5
102F3
102
{ACAD_REACTORS
330
1038D
102
}
330
1F
100
AcDbEntity
  8
0
100
AcDbPolyline
 90
        8
 70
     1
 43
0.0
 10
3070.767297057961
 20
-464.114684198678
 42
1.0
 10
3075.257425118496
 20
-468.6048122592127
 10
3081.277168997426
 20
-468.6048122592127
 42
1.0
 10
3085.767297057961
 20
-464.1146841986781
 10
3085.767297057961
 20
-448.0949403197473
 42
1.0
 10
3081.277168997426
 20
-443.6048122592127
 10
3075.257425118496
 20
-443.6048122592127
 42
1.0
 10
3070.767297057961
 20
-448.0949403197472
  0
LWPOLYLINE
  5
102F4
102
{ACAD_REACTORS
330
1038D
102
}
330
1F
100
AcDbEntity
  8
0
100
AcDbPolyline
 90
        8
 70
     1
 43
0.0
 10
3085.767297057961
 20
-95.88531580132176
 42
1.0
 10
3081.277168997426
 20
-91.39518774078721
 10
3075.257425118496
 20
-91.3951877407872
 42
1.0
 10
3070.767297057961
 20
-95.88531580132176
 10
3070.767297057961
 20
-111.9050596802527
 42
1.0
 10
3075.257425118496
 20
-116.3951877407872
 10
3081.277168997426
 20
-116.3951877407872
 42
1.0
 10
3085.767297057961
 20
-111.9050596802526
  0
ARC
  5
102F5
102
{ACAD_REACTORS
330
1038D
102
}
330
1F
100
AcDbEntity
  8
0
100
AcDbCircle
 10
4698.559632845964
 20
-466.3597482289453
 30
0.0
 40
3.175000000000168
100
AcDbArc
 50
135.0000000000052
 51
315.0000000000051
  0
LINE
  5
102F6
102
{ACAD_REACTORS
330
1038D
102
}
330
1F
100
AcDbEntity
  8
0
100
AcDbLine
 10
4700.804696876232
 20
-468.6048122592128
 30
0.0
 11
4706.824440755163
 21
-468.6048122592127
 31
0.0
  0
ARC
  5
102F7
102
{ACAD_REACTORS
330
1038D
102
}
330
1F
100
AcDbEntity
  8
0
100
AcDbCircle
 10
4709.069504785429
 20
-466.3597482289453
 30
0.0
 40
3.174999999999866
100
AcDbArc
 50
224.9999999999958
 51
44.99999999999555
  0
LINE
  5
102F8
102
{ACAD_REACTORS
330
1038D
102
}
330
1F
100
AcDbEntity
  8
0
100
AcDbLine
 10
4711.314568815697
 20
-464.1146841986781
 30
0.0
 11
4711.314568815698
 21
-448.0949403197469
 31
0.0
  0
ARC
  5
102F9
102
{ACAD_REACTORS
330
1038D
102
}
330
1F
100
AcDbEntity
  8
0
100
AcDbCircle
 10
4709.069504785429
 20
-445.8498762894799
 30
0.0
 40
3.174999999999816
100
AcDbArc
 50
315.0000000000109
 51
135.0000000000037
  0
LINE
  5
102FA
102
{ACAD_REACTORS
330
1038D
102
}
330
1F
100
AcDbEntity
  8
0
100
AcDbLine
 10
4706.824440755163
 20
-443.6048122592127
 30
0.0
 11
4700.804696876232
 21
-443.6048122592127
 31
0.0
  0
ARC
  5
102FB
102
{ACAD_REACTORS
330
1038D
102
}
330
1F
100
AcDbEntity
  8
0
100
AcDbCircle
 10
4698.559632845965
 20
-445.8498762894799
 30
0.0
 40
3.175000000000017
100
AcDbArc
 50
44.9999999999934
 51
224.9999999999984
  0
LINE
  5
102FC
102
{ACAD_REACTORS
330
1038D
102
}
330
1F
100
AcDbEntity
  8
0
100
AcDbLine
 10
4696.314568815698
 20
-448.0949403197476
 30
0.0
 11
4696.314568815696
 21
-464.1146841986779
 31
0.0
  0
LWPOLYLINE
  5
102FD
102
{ACAD_REACTORS
330
1038D
102
}
330
1F
100
AcDbEntity
  8
0
100
AcDbPolyline
 90
        8
 70
     1
 43
0.0
 10
4876.752386221888
 20
-464.1146841986781
 42
1.0
 10
4881.242514282422
 20
-468.6048122592127
 10
4887.262258161353
 20
-468.604812259213
 42
1.0
 10
4891.752386221887
 20
-464.114684198678
 10
4891.752386221887
 20
-448.0949403197472
 42
1.0
 10
4887.262258161353
 20
-443.6048122592128
 10
4881.242514282422
 20
-443.604812259213
 42
1.0
 10
4876.752386221887
 20
-448.0949403197469
  0
LWPOLYLINE
  5
102FE
102
{ACAD_REACTORS
330
1038D
102
}
330
1F
100
AcDbEntity
  8
0
100
AcDbPolyline
 90
        8
 70
     1
 43
0.0
 10
3040.657842706413
 20
-95.88531580132176
 42
1.0
 10
3036.167714645879
 20
-91.39518774078721
 10
3030.147970766948
 20
-91.3951877407872
 42
1.0
 10
3025.657842706414
 20
-95.88531580132176
 10
3025.657842706414
 20
-111.9050596802526
 42
1.0
 10
3030.147970766948
 20
-116.3951877407872
 10
3036.167714645879
 20
-116.3951877407872
 42
1.0
 10
3040.657842706413
 20
-111.9050596802526
  0
LWPOLYLINE
  5
102FF
102
{ACAD_REACTORS
330
1038D
102
}
330
1F
100
AcDbEntity
  8
0
100
AcDbPolyline
 90
        8
 70
     1
 43
0.0
 10
3025.657842706414
 20
-464.114684198678
 42
1.0
 10
3030.147970766948
 20
-468.6048122592127
 10
3036.167714645879
 20
-468.6048122592127
 42
1.0
 10
3040.657842706413
 20
-464.1146841986781
 10
3040.657842706413
 20
-448.0949403197473
 42
1.0
 10
3036.167714645879
 20
-443.6048122592127
 10
3030.147970766948
 20
-443.6048122592127
 42
1.0
 10
3025.657842706414
 20
-448.0949403197472
  0
LWPOLYLINE
  5
10300
102
{ACAD_REACTORS
330
1038D
102
}
330
1F
100
AcDbEntity
  8
0
100
AcDbPolyline
 90
        8
 70
     1
 43
0.0
 10
2807.657401818351
 20
-96.24877849837751
 42
1.0
 10
2802.304096790717
 20
-92.83342708437814
 10
2796.426194732096
 20
-94.13249742781307
 42
1.0
 10
2793.010843318097
 20
-99.485802455447
 10
2796.467929632911
 20
-115.1280768475698
 42
1.0
 10
2801.821234660545
 20
-118.5434282615693
 10
2807.699136719167
 20
-117.2443579181346
 42
1.0
 10
2811.114488133166
 20
-111.8910528905002
  0
ARC
  5
10301
102
{ACAD_REACTORS
330
1038D
102
}
330
1F
100
AcDbEntity
  8
0
100
AcDbCircle
 10
4709.069504785429
 20
-93.6402517710545
 30
0.0
 40
3.174999999999823
100
AcDbArc
 50
315.0000000000036
 51
135.0000000000034
  0
LINE
  5
10302
102
{ACAD_REACTORS
330
1038D
102
}
330
1F
100
AcDbEntity
  8
0
100
AcDbLine
 10
4706.824440755163
 20
-91.39518774078727
 30
0.0
 11
4700.804696876232
 21
-91.3951877407872
 31
0.0
  0
ARC
  5
10303
102
{ACAD_REACTORS
330
1038D
102
}
330
1F
100
AcDbEntity
  8
0
100
AcDbCircle
 10
4698.559632845965
 20
-93.64025177105453
 30
0.0
 40
3.175000000000149
100
AcDbArc
 50
44.99999999999714
 51
224.9999999999915
  0
LINE
  5
10304
102
{ACAD_REACTORS
330
1038D
102
}
330
1F
100
AcDbEntity
  8
0
100
AcDbLine
 10
4696.314568815697
 20
-95.88531580132167
 30
0.0
 11
4696.314568815698
 21
-111.9050596802524
 31
0.0
  0
ARC
  5
10305
102
{ACAD_REACTORS
330
1038D
102
}
330
1F
100
AcDbEntity
  8
0
100
AcDbCircle
 10
4698.559632845965
 20
-114.1501237105199
 30
0.0
 40
3.17500000000003
100
AcDbArc
 50
135.0000000000018
 51
315.0000000000063
  0
LINE
  5
10306
102
{ACAD_REACTORS
330
1038D
102
}
330
1F
100
AcDbEntity
  8
0
100
AcDbLine
 10
4700.804696876232
 20
-116.3951877407871
 30
0.0
 11
4706.824440755163
 21
-116.3951877407872
 31
0.0
  0
ARC
  5
10307
102
{ACAD_REACTORS
330
1038D
102
}
330
1F
100
AcDbEntity
  8
0
100
AcDbCircle
 10
4709.069504785429
 20
-114.1501237105199
 30
0.0
 40
3.175000000000004
100
AcDbArc
 50
224.9999999999949
 51
44.99999999999023
  0
LINE
  5
10308
102
{ACAD_REACTORS
330
1038D
102
}
330
1F
100
AcDbEntity
  8
0
100
AcDbLine
 10
4711.314568815698
 20
-111.905059680253
 30
0.0
 11
4711.314568815697
 21
-95.88531580132173
 31
0.0
  0
ARC
  5
10309
102
{ACAD_REACTORS
330
1038D
102
}
330
1F
100
AcDbEntity
  8
0
100
AcDbCircle
 10
2732.12645753211
 20
-174.7450640302673
 30
0.0
 40
3.175000000000017
100
AcDbArc
 50
44.99999999999512
 51
224.9999999999952
  0
LINE
  5
1030A
102
{ACAD_REACTORS
330
1038D
102
}
330
1F
100
AcDbEntity
  8
0
100
AcDbLine
 10
2729.881393501843
 20
-176.9901280605346
 30
0.0
 11
2729.881393501843
 21
-183.0098719394655
 31
0.0
  0
ARC
  5
1030B
102
{ACAD_REACTORS
330
1038D
102
}
330
1F
100
AcDbEntity
  8
0
100
AcDbCircle
 10
2732.12645753211
 20
-185.2549359697328
 30
0.0
 40
3.174999999999998
100
AcDbArc
 50
135.0000000000052
 51
315.0000000000049
  0
LINE
  5
1030C
102
{ACAD_REACTORS
330
1038D
102
}
330
1F
100
AcDbEntity
  8
0
100
AcDbLine
 10
2734.371521562378
 20
-187.5
 30
0.0
 11
2750.391265441308
 21
-187.5
 31
0.0
  0
ARC
  5
1030D
102
{ACAD_REACTORS
330
1038D
102
}
330
1F
100
AcDbEntity
  8
0
100
AcDbCircle
 10
2752.636329471576
 20
-185.2549359697328
 30
0.0
 40
3.174999999999992
100
AcDbArc
 50
224.9999999999951
 51
44.99999999999513
  0
LINE
  5
1030E
102
{ACAD_REACTORS
330
1038D
102
}
330
1F
100
AcDbEntity
  8
0
100
AcDbLine
 10
2754.881393501843
 20
-183.0098719394655
 30
0.0
 11
2754.881393501843
 21
-176.9901280605346
 31
0.0
  0
ARC
  5
1030F
102
{ACAD_REACTORS
330
1038D
102
}
330
1F
100
AcDbEntity
  8
0
100
AcDbCircle
 10
2752.636329471576
 20
-174.7450640302673
 30
0.0
 40
3.175000000000004
100
AcDbArc
 50
315.0000000000049
 51
135.0000000000048
  0
LINE
  5
10310
102
{ACAD_REACTORS
330
1038D
102
}
330
1F
100
AcDbEntity
  8
0
100
AcDbLine
 10
2750.391265441308
 20
-172.5
 30
0.0
 11
2734.371521562378
 21
-172.5
 31
0.0
  0
LWPOLYLINE
  5
10311
102
{ACAD_REACTORS
330
1038D
102
}
330
1F
100
AcDbEntity
  8
0
100
AcDbPolyline
 90
        8
 70
     1
 43
0.0
 10
4741.424023167245
 20
-464.1146841986784
 42
1.0
 10
4745.91415122778
 20
-468.6048122592127
 10
4751.933895106708
 20
-468.6048122592125
 42
1.0
 10
4756.424023167244
 20
-464.1146841986784
 10
4756.424023167244
 20
-448.0949403197475
 42
1.0
 10
4751.933895106708
 20
-443.6048122592128
 10
4745.91415122778
 20
-443.604812259213
 42
1.0
 10
4741.424023167245
 20
-448.0949403197472
  0
LWPOLYLINE
  5
10312
102
{ACAD_REACTORS
330
1038D
102
}
330
1F
100
AcDbEntity
  8
0
100
AcDbPolyline
 90
        8
 70
     1
 43
0.0
 10
3160.986205761056
 20
-464.114684198678
 42
1.0
 10
3165.47633382159
 20
-468.6048122592127
 10
3171.496077700521
 20
-468.6048122592127
 42
1.0
 10
3175.986205761056
 20
-464.1146841986781
 10
3175.986205761056
 20
-448.0949403197473
 42
1.0
 10
3171.496077700521
 20
-443.6048122592127
 10
3165.47633382159
 20
-443.6048122592127
 42
1.0
 10
3160.986205761056
 20
-448.0949403197472
  0
LWPOLYLINE
  5
10313
102
{ACAD_REACTORS
330
1038D
102
}
330
1F
100
AcDbEntity
  8
0
100
AcDbPolyline
 90
        8
 70
     1
 43
0.0
 10
2772.229185578528
 20
-109.3471997605431
 42
1.0
 10
2765.922443754919
 20
-108.607262215653
 10
2761.198836273859
 20
-112.3388635787149
 42
1.0
 10
2760.458898728968
 20
-118.6456054023241
 10
2770.389437186552
 20
-131.2160707830893
 42
1.0
 10
2776.696179010161
 20
-131.9560083279795
 10
2781.41978649122
 20
-128.2244069649178
 42
1.0
 10
2782.15972403611
 20
-121.9176651413085
  0
LWPOLYLINE
  5
10314
102
{ACAD_REACTORS
330
1038D
102
}
330
1F
100
AcDbEntity
  8
0
100
AcDbPolyline
 90
        8
 70
     1
 43
0.0
 10
4666.20511446415
 20
-95.88531580132173
 42
1.0
 10
4661.714986403615
 20
-91.39518774078727
 10
4655.695242524685
 20
-91.39518774078741
 42
1.0
 10
4651.20511446415
 20
-95.88531580132167
 10
4651.205114464151
 20
-111.9050596802526
 42
1.0
 10
4655.695242524685
 20
-116.3951877407871
 10
4661.714986403615
 20
-116.3951877407874
 42
1.0
 10
4666.20511446415
 20
-111.9050596802524
  0
LWPOLYLINE
  5
10315
102
{ACAD_REACTORS
330
1038D
102
}
330
1F
100
AcDbEntity
  8
0
100
AcDbPolyline
 90
        8
 70
     1
 43
0.0
 10
2995.548388354866
 20
-95.88531580132169
 42
1.0
 10
2991.058260294331
 20
-91.39518774078714
 10
2985.0385164154
 20
-91.39518774078714
 42
1.0
 10
2980.548388354866
 20
-95.88531580132169
 10
2980.548388354866
 20
-111.9050596802526
 42
1.0
 10
2985.0385164154
 20
-116.3951877407871
 10
2991.058260294331
 20
-116.3951877407871
 42
1.0
 10
2995.548388354866
 20
-111.9050596802526
  0
ARC
  5
10316
102
{ACAD_REACTORS
330
1038D
102
}
330
1F
100
AcDbEntity
  8
0
100
AcDbCircle
 10
2732.12645753211
 20
-374.7450640302673
 30
0.0
 40
3.174999999999954
100
AcDbArc
 50
44.99999999999499
 51
224.9999999999949
  0
LINE
  5
10317
102
{ACAD_REACTORS
330
1038D
102
}
330
1F
100
AcDbEntity
  8
0
100
AcDbLine
 10
2729.881393501843
 20
-376.9901280605345
 30
0.0
 11
2729.881393501843
 21
-383.0098719394653
 31
0.0
  0
ARC
  5
10318
102
{ACAD_REACTORS
330
1038D
102
}
330
1F
100
AcDbEntity
  8
0
100
AcDbCircle
 10
2732.12645753211
 20
-385.2549359697326
 30
0.0
 40
3.175000000000004
100
AcDbArc
 50
135.0000000000046
 51
315.0000000000046
  0
LINE
  5
10319
102
{ACAD_REACTORS
330
1038D
102
}
330
1F
100
AcDbEntity
  8
0
100
AcDbLine
 10
2734.371521562378
 20
-387.4999999999999
 30
0.0
 11
2750.391265441308
 21
-387.4999999999998
 31
0.0
  0
ARC
  5
1031A
102
{ACAD_REACTORS
330
1038D
102
}
330
1F
100
AcDbEntity
  8
0
100
AcDbCircle
 10
2752.636329471576
 20
-385.2549359697326
 30
0.0
 40
3.175000000000004
100
AcDbArc
 50
224.9999999999947
 51
44.9999999999954
  0
LINE
  5
1031B
102
{ACAD_REACTORS
330
1038D
102
}
330
1F
100
AcDbEntity
  8
0
100
AcDbLine
 10
2754.881393501843
 20
-383.0098719394653
 30
0.0
 11
2754.881393501843
 21
-376.9901280605345
 31
0.0
  0
ARC
  5
1031C
102
{ACAD_REACTORS
330
1038D
102
}
330
1F
100
AcDbEntity
  8
0
100
AcDbCircle
 10
2752.636329471576
 20
-374.7450640302673
 30
0.0
 40
3.175000000000056
100
AcDbArc
 50
315.0000000000051
 51
135.0000000000034
  0
LINE
  5
1031D
102
{ACAD_REACTORS
330
1038D
102
}
330
1F
100
AcDbEntity
  8
0
100
AcDbLine
 10
2750.391265441308
 20
-372.4999999999998
 30
0.0
 11
2734.371521562378
 21
-372.5
 31
0.0
  0
ARC
  5
1031E
102
{ACAD_REACTORS
330
1038D
102
}
330
1F
100
AcDbEntity
  8
0
100
AcDbCircle
 10
2794.718519025097
 20
-463.1908500583699
 30
0.0
 40
3.174999999999954
100
AcDbArc
 50
122.5374405145061
 51
302.537440514506
  0
LINE
  5
1031F
102
{ACAD_REACTORS
330
1038D
102
}
330
1F
100
AcDbEntity
  8
0
100
AcDbLine
 10
2796.426194732096
 20
-465.8675025721869
 30
0.0
 11
2802.304096790717
 21
-467.1665729156218
 31
0.0
  0
ARC
  5
10320
102
{ACAD_REACTORS
330
1038D
102
}
330
1F
100
AcDbEntity
  8
0
100
AcDbCircle
 10
2804.980749304533
 20
-465.458897208622
 30
0.0
 40
3.174999999999983
100
AcDbArc
 50
212.5374405145069
 51
32.53744051450875
  0
LINE
  5
10321
102
{ACAD_REACTORS
330
1038D
102
}
330
1F
100
AcDbEntity
  8
0
100
AcDbLine
 10
2807.657401818351
 20
-463.7512215016222
 30
0.0
 11
2811.114488133166
 21
-448.1089471094996
 31
0.0
  0
ARC
  5
10322
102
{ACAD_REACTORS
330
1038D
102
}
330
1F
100
AcDbEntity
  8
0
100
AcDbCircle
 10
2809.406812426166
 20
-445.4322945956824
 30
0.0
 40
3.175000000000001
100
AcDbArc
 50
302.5374405145044
 51
122.5374405145063
  0
LINE
  5
10323
102
{ACAD_REACTORS
330
1038D
102
}
330
1F
100
AcDbEntity
  8
0
100
AcDbLine
 10
2807.699136719166
 20
-442.7556420818655
 30
0.0
 11
2801.821234660545
 21
-441.4565717384304
 31
0.0
  0
ARC
  5
10324
102
{ACAD_REACTORS
330
1038D
102
}
330
1F
100
AcDbEntity
  8
0
100
AcDbCircle
 10
2799.144582146729
 20
-443.1642474454302
 30
0.0
 40
3.174999999999972
100
AcDbArc
 50
32.53744051450694
 51
212.5374405145034
  0
LINE
  5
10325
102
{ACAD_REACTORS
330
1038D
102
}
330
1F
100
AcDbEntity
  8
0
100
AcDbLine
 10
2796.467929632911
 20
-444.8719231524297
 30
0.0
 11
2793.010843318097
 21
-460.514197544553
 31
0.0
  0
ARC
  5
10326
102
{ACAD_REACTORS
330
1038D
102
}
330
1F
100
AcDbEntity
  8
0
100
AcDbCircle
 10
3173.741141730789
 20
-93.64025177105444
 30
0.0
 40
3.175000000000011
100
AcDbArc
 50
315.000000000005
 51
135.000000000005
  0
LINE
  5
10327
102
{ACAD_REACTORS
330
1038D
102
}
330
1F
100
AcDbEntity
  8
0
100
AcDbLine
 10
3171.496077700521
 20
-91.39518774078714
 30
0.0
 11
3165.47633382159
 21
-91.39518774078714
 31
0.0
  0
ARC
  5
10328
102
{ACAD_REACTORS
330
1038D
102
}
330
1F
100
AcDbEntity
  8
0
100
AcDbCircle
 10
3163.231269791323
 20
-93.64025177105443
 30
0.0
 40
3.175000000000004
100
AcDbArc
 50
44.99999999999485
 51
224.9999999999949
  0
LINE
  5
10329
102
{ACAD_REACTORS
330
1038D
102
}
330
1F
100
AcDbEntity
  8
0
100
AcDbLine
 10
3160.986205761056
 20
-95.88531580132171
 30
0.0
 11
3160.986205761056
 21
-111.9050596802526
 31
0.0
  0
ARC
  5
1032A
102
{ACAD_REACTORS
330
1038D
102
}
330
1F
100
AcDbEntity
  8
0
100
AcDbCircle
 10
3163.231269791323
 20
-114.1501237105199
 30
0.0
 40
3.174999999999992
100
AcDbArc
 50
135.000000000005
 51
315.0000000000051
  0
LINE
  5
1032B
102
{ACAD_REACTORS
330
1038D
102
}
330
1F
100
AcDbEntity
  8
0
100
AcDbLine
 10
3165.47633382159
 20
-116.3951877407871
 30
0.0
 11
3171.496077700521
 21
-116.3951877407871
 31
0.0
  0
ARC
  5
1032C
102
{ACAD_REACTORS
330
1038D
102
}
330
1F
100
AcDbEntity
  8
0
100
AcDbCircle
 10
3173.741141730789
 20
-114.1501237105199
 30
0.0
 40
3.175000000000017
100
AcDbArc
 50
224.9999999999947
 51
44.99999999999513
  0
LINE
  5
1032D
102
{ACAD_REACTORS
330
1038D
102
}
330
1F
100
AcDbEntity
  8
0
100
AcDbLine
 10
3175.986205761056
 20
-111.9050596802525
 30
0.0
 11
3175.986205761056
 21
-95.88531580132173
 31
0.0
  0
LWPOLYLINE
  5
1032E
102
{ACAD_REACTORS
330
1038D
102
}
330
1F
100
AcDbEntity
  8
0
100
AcDbPolyline
 90
        8
 70
     1
 43
0.0
 10
4786.533477518792
 20
-464.1146841986784
 42
1.0
 10
4791.023605579327
 20
-468.6048122592127
 10
4797.043349458258
 20
-468.6048122592125
 42
1.0
 10
4801.533477518792
 20
-464.1146841986784
 10
4801.533477518792
 20
-448.0949403197475
 42
1.0
 10
4797.043349458258
 20
-443.6048122592128
 10
4791.023605579327
 20
-443.604812259213
 42
1.0
 10
4786.533477518792
 20
-448.0949403197472
  0
LWPOLYLINE
  5
1032F
102
{ACAD_REACTORS
330
1038D
102
}
330
1F
100
AcDbEntity
  8
0
100
AcDbPolyline
 90
        8
 70
     1
 43
0.0
 10
4756.424023167244
 20
-95.8853158013218
 42
1.0
 10
4751.933895106708
 20
-91.39518774078718
 10
4745.91415122778
 20
-91.39518774078736
 42
1.0
 10
4741.424023167245
 20
-95.8853158013216
 10
4741.424023167245
 20
-111.9050596802524
 42
1.0
 10
4745.91415122778
 20
-116.3951877407871
 10
4751.933895106708
 20
-116.395187740787
 42
1.0
 10
4756.424023167244
 20
-111.9050596802527
  0
LWPOLYLINE
  5
10330
102
{ACAD_REACTORS
330
1038D
102
}
330
1F
100
AcDbEntity
  8
0
100
AcDbPolyline
 90
        8
 70
     1
 43
0.0
 10
4831.64293187034
 20
-464.1146841986784
 42
1.0
 10
4836.133059930875
 20
-468.6048122592127
 10
4842.152803809804
 20
-468.6048122592125
 42
1.0
 10
4846.64293187034
 20
-464.1146841986784
 10
4846.64293187034
 20
-448.0949403197472
 42
1.0
 10
4842.152803809804
 20
-443.6048122592128
 10
4836.133059930874
 20
-443.6048122592125
 42
1.0
 10
4831.64293187034
 20
-448.0949403197476
  0
ARC
  5
10331
102
{ACAD_REACTORS
330
1038D
102
}
330
1F
100
AcDbEntity
  8
0
100
AcDbCircle
 10
4993.916535527857
 20
-422.3778930279037
 30
0.0
 40
3.175000000000022
100
AcDbArc
 50
199.1541864951341
 51
19.15418649513416
  0
LINE
  5
10332
102
{ACAD_REACTORS
330
1038D
102
}
330
1F
100
AcDbEntity
  8
0
100
AcDbLine
 10
4996.915764444722
 20
-421.3361392641782
 30
0.0
 11
4999.540076916976
 21
-415.9185475099112
 31
0.0
  0
ARC
  5
10333
102
{ACAD_REACTORS
330
1038D
102
}
330
1F
100
AcDbEntity
  8
0
100
AcDbCircle
 10
4998.498323153251
 20
-412.9193185930455
 30
0.0
 40
3.174999999999888
100
AcDbArc
 50
289.1541864951484
 51
109.1541864951485
  0
LINE
  5
10334
102
{ACAD_REACTORS
330
1038D
102
}
330
1F
100
AcDbEntity
  8
0
100
AcDbLine
 10
4997.456569389523
 20
-409.9200896761799
 30
0.0
 11
4983.039272891625
 21
-402.9362686849036
 31
0.0
  0
ARC
  5
10335
102
{ACAD_REACTORS
330
1038D
102
}
330
1F
100
AcDbEntity
  8
0
100
AcDbCircle
 10
4980.040043974759
 20
-403.9780224486293
 30
0.0
 40
3.174999999999975
100
AcDbArc
 50
19.15418649513836
 51
199.1541864951324
  0
LINE
  5
10336
102
{ACAD_REACTORS
330
1038D
102
}
330
1F
100
AcDbEntity
  8
0
100
AcDbLine
 10
4977.040815057893
 20
-405.0197762123547
 30
0.0
 11
4974.41650258564
 21
-410.4373679666215
 31
0.0
  0
ARC
  5
10337
102
{ACAD_REACTORS
330
1038D
102
}
330
1F
100
AcDbEntity
  8
0
100
AcDbCircle
 10
4975.458256349366
 20
-413.4365968834872
 30
0.0
 40
3.174999999999981
100
AcDbArc
 50
109.1541864951221
 51
289.1541864951486
  0
LINE
  5
10338
102
{ACAD_REACTORS
330
1038D
102
}
330
1F
100
AcDbEntity
  8
0
100
AcDbLine
 10
4976.500010113092
 20
-416.4358258003529
 30
0.0
 11
4990.917306610991
 21
-423.4196467916293
 31
0.0
  0
ARC
  5
10339
102
{ACAD_REACTORS
330
1038D
102
}
330
1F
100
AcDbEntity
  8
0
100
AcDbCircle
 10
2892.574543682039
 20
-466.3597482289454
 30
0.0
 40
3.174999999999992
100
AcDbArc
 50
135.000000000005
 51
315.0000000000044
  0
LINE
  5
1033A
102
{ACAD_REACTORS
330
1038D
102
}
330
1F
100
AcDbEntity
  8
0
100
AcDbLine
 10
2894.819607712306
 20
-468.6048122592127
 30
0.0
 11
2900.839351591237
 21
-468.6048122592127
 31
0.0
  0
ARC
  5
1033B
102
{ACAD_REACTORS
330
1038D
102
}
330
1F
100
AcDbEntity
  8
0
100
AcDbCircle
 10
2903.084415621504
 20
-466.3597482289454
 30
0.0
 40
3.175000000000017
100
AcDbArc
 50
224.9999999999955
 51
44.99999999999483
  0
LINE
  5
1033C
102
{ACAD_REACTORS
330
1038D
102
}
330
1F
100
AcDbEntity
  8
0
100
AcDbLine
 10
2905.329479651771
 20
-464.1146841986781
 30
0.0
 11
2905.329479651771
 21
-448.0949403197473
 31
0.0
  0
ARC
  5
1033D
102
{ACAD_REACTORS
330
1038D
102
}
330
1F
100
AcDbEntity
  8
0
100
AcDbCircle
 10
2903.084415621504
 20
-445.8498762894801
 30
0.0
 40
3.174999999999992
100
AcDbArc
 50
315.0000000000051
 51
135.0000000000044
  0
LINE
  5
1033E
102
{ACAD_REACTORS
330
1038D
102
}
330
1F
100
AcDbEntity
  8
0
100
AcDbLine
 10
2900.839351591237
 20
-443.6048122592127
 30
0.0
 11
2894.819607712306
 21
-443.6048122592127
 31
0.0
  0
ARC
  5
1033F
102
{ACAD_REACTORS
330
1038D
102
}
330
1F
100
AcDbEntity
  8
0
100
AcDbCircle
 10
2892.574543682039
 20
-445.8498762894801
 30
0.0
 40
3.175000000000017
100
AcDbArc
 50
44.99999999999555
 51
224.9999999999947
  0
LINE
  5
10340
102
{ACAD_REACTORS
330
1038D
102
}
330
1F
100
AcDbEntity
  8
0
100
AcDbLine
 10
2890.329479651772
 20
-448.0949403197473
 30
0.0
 11
2890.329479651772
 21
-464.1146841986781
 31
0.0
  0
ARC
  5
10341
102
{ACAD_REACTORS
330
1038D
102
}
330
1F
100
AcDbEntity
  8
0
100
AcDbCircle
 10
2937.683998033586
 20
-466.3597482289454
 30
0.0
 40
3.174999999999992
100
AcDbArc
 50
135.0000000000049
 51
315.0000000000044
  0
LINE
  5
10342
102
{ACAD_REACTORS
330
1038D
102
}
330
1F
100
AcDbEntity
  8
0
100
AcDbLine
 10
2939.929062063853
 20
-468.6048122592127
 30
0.0
 11
2945.948805942784
 21
-468.6048122592127
 31
0.0
  0
ARC
  5
10343
102
{ACAD_REACTORS
330
1038D
102
}
330
1F
100
AcDbEntity
  8
0
100
AcDbCircle
 10
2948.193869973052
 20
-466.3597482289454
 30
0.0
 40
3.175000000000017
100
AcDbArc
 50
224.9999999999955
 51
44.99999999999483
  0
LINE
  5
10344
102
{ACAD_REACTORS
330
1038D
102
}
330
1F
100
AcDbEntity
  8
0
100
AcDbLine
 10
2950.438934003319
 20
-464.1146841986781
 30
0.0
 11
2950.438934003319
 21
-448.0949403197473
 31
0.0
  0
ARC
  5
10345
102
{ACAD_REACTORS
330
1038D
102
}
330
1F
100
AcDbEntity
  8
0
100
AcDbCircle
 10
2948.193869973052
 20
-445.8498762894801
 30
0.0
 40
3.174999999999992
100
AcDbArc
 50
315.0000000000051
 51
135.0000000000044
  0
LINE
  5
10346
102
{ACAD_REACTORS
330
1038D
102
}
330
1F
100
AcDbEntity
  8
0
100
AcDbLine
 10
2945.948805942784
 20
-443.6048122592127
 30
0.0
 11
2939.929062063853
 21
-443.6048122592127
 31
0.0
  0
ARC
  5
10347
102
{ACAD_REACTORS
330
1038D
102
}
330
1F
100
AcDbEntity
  8
0
100
AcDbCircle
 10
2937.683998033586
 20
-445.8498762894801
 30
0.0
 40
3.175000000000017
100
AcDbArc
 50
44.99999999999555
 51
224.9999999999947
  0
LINE
  5
10348
102
{ACAD_REACTORS
330
1038D
102
}
330
1F
100
AcDbEntity
  8
0
100
AcDbLine
 10
2935.438934003319
 20
-448.0949403197473
 30
0.0
 11
2935.438934003319
 21
-464.1146841986781
 31
0.0
  0
ARC
  5
10349
102
{ACAD_REACTORS
330
1038D
102
}
330
1F
100
AcDbEntity
  8
0
100
AcDbCircle
 10
4844.397867840072
 20
-93.64025177105443
 30
0.0
 40
3.174999999999816
100
AcDbArc
 50
315.000000000005
 51
135.0000000000021
  0
LINE
  5
1034A
102
{ACAD_REACTORS
330
1038D
102
}
330
1F
100
AcDbEntity
  8
0
100
AcDbLine
 10
4842.152803809804
 20
-91.39518774078718
 30
0.0
 11
4836.133059930875
 21
-91.39518774078714
 31
0.0
  0
ARC
  5
1034B
102
{ACAD_REACTORS
330
1038D
102
}
330
1F
100
AcDbEntity
  8
0
100
AcDbCircle
 10
4833.887995900607
 20
-93.64025177105446
 30
0.0
 40
3.175000000000149
100
AcDbArc
 50
44.99999999999571
 51
224.9999999999915
  0
LINE
  5
1034C
102
{ACAD_REACTORS
330
1038D
102
}
330
1F
100
AcDbEntity
  8
0
100
AcDbLine
 10
4831.64293187034
 20
-95.8853158013216
 30
0.0
 11
4831.64293187034
 21
-111.9050596802523
 31
0.0
  0
ARC
  5
1034D
102
{ACAD_REACTORS
330
1038D
102
}
330
1F
100
AcDbEntity
  8
0
100
AcDbCircle
 10
4833.887995900607
 20
-114.1501237105198
 30
0.0
 40
3.175000000000042
100
AcDbArc
 50
135.0000000000034
 51
315.0000000000047
  0
LINE
  5
1034E
102
{ACAD_REACTORS
330
1038D
102
}
330
1F
100
AcDbEntity
  8
0
100
AcDbLine
 10
4836.133059930875
 20
-116.3951877407871
 30
0.0
 11
4842.152803809804
 21
-116.3951877407871
 31
0.0
  0
ARC
  5
1034F
102
{ACAD_REACTORS
330
1038D
102
}
330
1F
100
AcDbEntity
  8
0
100
AcDbCircle
 10
4844.397867840072
 20
-114.1501237105199
 30
0.0
 40
3.175000000000004
100
AcDbArc
 50
224.9999999999949
 51
44.99999999999023
  0
LINE
  5
10350
102
{ACAD_REACTORS
330
1038D
102
}
330
1F
100
AcDbEntity
  8
0
100
AcDbLine
 10
4846.64293187034
 20
-111.9050596802529
 30
0.0
 11
4846.64293187034
 21
-95.88531580132165
 31
0.0
  0
ARC
  5
10351
102
{ACAD_REACTORS
330
1038D
102
}
330
1F
100
AcDbEntity
  8
0
100
AcDbCircle
 10
2982.793452385133
 20
-466.3597482289454
 30
0.0
 40
3.174999999999992
100
AcDbArc
 50
135.0000000000049
 51
315.0000000000044
  0
LINE
  5
10352
102
{ACAD_REACTORS
330
1038D
102
}
330
1F
100
AcDbEntity
  8
0
100
AcDbLine
 10
2985.0385164154
 20
-468.6048122592127
 30
0.0
 11
2991.058260294331
 21
-468.6048122592127
 31
0.0
  0
ARC
  5
10353
102
{ACAD_REACTORS
330
1038D
102
}
330
1F
100
AcDbEntity
  8
0
100
AcDbCircle
 10
2993.303324324599
 20
-466.3597482289454
 30
0.0
 40
3.175000000000017
100
AcDbArc
 50
224.9999999999951
 51
44.99999999999483
  0
LINE
  5
10354
102
{ACAD_REACTORS
330
1038D
102
}
330
1F
100
AcDbEntity
  8
0
100
AcDbLine
 10
2995.548388354866
 20
-464.1146841986781
 30
0.0
 11
2995.548388354866
 21
-448.0949403197473
 31
0.0
  0
ARC
  5
10355
102
{ACAD_REACTORS
330
1038D
102
}
330
1F
100
AcDbEntity
  8
0
100
AcDbCircle
 10
2993.303324324599
 20
-445.8498762894801
 30
0.0
 40
3.175000000000017
100
AcDbArc
 50
315.0000000000051
 51
135.0000000000048
  0
LINE
  5
10356
102
{ACAD_REACTORS
330
1038D
102
}
330
1F
100
AcDbEntity
  8
0
100
AcDbLine
 10
2991.058260294331
 20
-443.6048122592127
 30
0.0
 11
2985.0385164154
 21
-443.6048122592127
 31
0.0
  0
ARC
  5
10357
102
{ACAD_REACTORS
330
1038D
102
}
330
1F
100
AcDbEntity
  8
0
100
AcDbCircle
 10
2982.793452385133
 20
-445.8498762894801
 30
0.0
 40
3.175000000000017
100
AcDbArc
 50
44.99999999999555
 51
224.9999999999947
  0
LINE
  5
10358
102
{ACAD_REACTORS
330
1038D
102
}
330
1F
100
AcDbEntity
  8
0
100
AcDbLine
 10
2980.548388354866
 20
-448.0949403197473
 30
0.0
 11
2980.548388354866
 21
-464.1146841986781
 31
0.0
  0
ARC
  5
10359
102
{ACAD_REACTORS
330
1038D
102
}
330
1F
100
AcDbEntity
  8
0
100
AcDbCircle
 10
5004.845953990001
 20
-385.2549359697325
 30
0.0
 40
3.174999999999967
100
AcDbArc
 50
224.9999999999944
 51
44.99999999999153
  0
LINE
  5
1035A
102
{ACAD_REACTORS
330
1038D
102
}
330
1F
100
AcDbEntity
  8
0
100
AcDbLine
 10
5007.091018020268
 20
-383.0098719394653
 30
0.0
 11
5007.091018020268
 21
-376.9901280605344
 31
0.0
  0
ARC
  5
1035B
102
{ACAD_REACTORS
330
1038D
102
}
330
1F
100
AcDbEntity
  8
0
100
AcDbCircle
 10
5004.845953990001
 20
-374.7450640302671
 30
0.0
 40
3.175000000000017
100
AcDbArc
 50
315.0000000000077
 51
135.0000000000048
  0
LINE
  5
1035C
102
{ACAD_REACTORS
330
1038D
102
}
330
1F
100
AcDbEntity
  8
0
100
AcDbLine
 10
5002.600889959733
 20
-372.4999999999999
 30
0.0
 11
4986.581146080804
 21
-372.4999999999998
 31
0.0
  0
ARC
  5
1035D
102
{ACAD_REACTORS
330
1038D
102
}
330
1F
100
AcDbEntity
  8
0
100
AcDbCircle
 10
4984.336082050536
 20
-374.7450640302673
 30
0.0
 40
3.174999999999916
100
AcDbArc
 50
44.99999999999627
 51
224.999999999994
  0
LINE
  5
1035E
102
{ACAD_REACTORS
330
1038D
102
}
330
1F
100
AcDbEntity
  8
0
100
AcDbLine
 10
4982.091018020268
 20
-376.9901280605344
 30
0.0
 11
4982.091018020268
 21
-383.0098719394653
 31
0.0
  0
ARC
  5
1035F
102
{ACAD_REACTORS
330
1038D
102
}
330
1F
100
AcDbEntity
  8
0
100
AcDbCircle
 10
4984.336082050536
 20
-385.2549359697325
 30
0.0
 40
3.175000000000068
100
AcDbArc
 50
135.0000000000056
 51
315.0000000000044
  0
LINE
  5
10360
102
{ACAD_REACTORS
330
1038D
102
}
330
1F
100
AcDbEntity
  8
0
100
AcDbLine
 10
4986.581146080804
 20
-387.4999999999998
 30
0.0
 11
5002.600889959733
 21
-387.4999999999997
 31
0.0
  0
ARC
  5
10361
102
{ACAD_REACTORS
330
1038D
102
}
330
1F
100
AcDbEntity
  8
0
100
AcDbCircle
 10
2857.974961269956
 20
-93.64025177105444
 30
0.0
 40
3.174999999999992
100
AcDbArc
 50
315.0000000000047
 51
135.0000000000046
  0
LINE
  5
10362
102
{ACAD_REACTORS
330
1038D
102
}
330
1F
100
AcDbEntity
  8
0
100
AcDbLine
 10
2855.729897239689
 20
-91.39518774078712
 30
0.0
 11
2849.710153360759
 21
-91.39518774078714
 31
0.0
  0
ARC
  5
10363
102
{ACAD_REACTORS
330
1038D
102
}
330
1F
100
AcDbEntity
  8
0
100
AcDbCircle
 10
2847.465089330491
 20
-93.64025177105443
 30
0.0
 40
3.175000000000004
100
AcDbArc
 50
44.9999999999953
 51
224.9999999999949
  0
LINE
  5
10364
102
{ACAD_REACTORS
330
1038D
102
}
330
1F
100
AcDbEntity
  8
0
100
AcDbLine
 10
2845.220025300224
 20
-95.88531580132171
 30
0.0
 11
2845.220025300224
 21
-111.9050596802526
 31
0.0
  0
ARC
  5
10365
102
{ACAD_REACTORS
330
1038D
102
}
330
1F
100
AcDbEntity
  8
0
100
AcDbCircle
 10
2847.465089330491
 20
-114.1501237105198
 30
0.0
 40
3.175000000000004
100
AcDbArc
 50
135.0000000000052
 51
315.0000000000048
  0
LINE
  5
10366
102
{ACAD_REACTORS
330
1038D
102
}
330
1F
100
AcDbEntity
  8
0
100
AcDbLine
 10
2849.710153360759
 20
-116.3951877407871
 30
0.0
 11
2855.729897239689
 21
-116.3951877407871
 31
0.0
  0
ARC
  5
10367
102
{ACAD_REACTORS
330
1038D
102
}
330
1F
100
AcDbEntity
  8
0
100
AcDbCircle
 10
2857.974961269956
 20
-114.1501237105198
 30
0.0
 40
3.175000000000004
100
AcDbArc
 50
224.9999999999951
 51
44.99999999999499
  0
LINE
  5
10368
102
{ACAD_REACTORS
330
1038D
102
}
330
1F
100
AcDbEntity
  8
0
100
AcDbLine
 10
2860.220025300224
 20
-111.9050596802525
 30
0.0
 11
2860.220025300224
 21
-95.88531580132173
 31
0.0
  0
ARC
  5
10369
102
{ACAD_REACTORS
330
1038D
102
}
330
1F
100
AcDbEntity
  8
0
100
AcDbCircle
 10
4942.253892497014
 20
-96.80914994163014
 30
0.0
 40
3.175000000000062
100
AcDbArc
 50
302.5374405145044
 51
122.5374405145044
  0
LINE
  5
1036A
102
{ACAD_REACTORS
330
1038D
102
}
330
1F
100
AcDbEntity
  8
0
100
AcDbLine
 10
4940.546216790015
 20
-94.13249742781291
 30
0.0
 11
4934.668314731395
 21
-92.83342708437812
 31
0.0
  0
ARC
  5
1036B
102
{ACAD_REACTORS
330
1038D
102
}
330
1F
100
AcDbEntity
  8
0
100
AcDbCircle
 10
4931.991662217576
 20
-94.54110279137792
 30
0.0
 40
3.174999999999987
100
AcDbArc
 50
32.53744051450514
 51
212.5374405145055
  0
LINE
  5
1036C
102
{ACAD_REACTORS
330
1038D
102
}
330
1F
100
AcDbEntity
  8
0
100
AcDbLine
 10
4929.31500970376
 20
-96.24877849837741
 30
0.0
 11
4925.857923388946
 21
-111.8910528905001
 31
0.0
  0
ARC
  5
1036D
102
{ACAD_REACTORS
330
1038D
102
}
330
1F
100
AcDbEntity
  8
0
100
AcDbCircle
 10
4927.565599095945
 20
-114.5677054043173
 30
0.0
 40
3.175000000000062
100
AcDbArc
 50
122.5374405145026
 51
302.5374405145044
  0
LINE
  5
1036E
102
{ACAD_REACTORS
330
1038D
102
}
330
1F
100
AcDbEntity
  8
0
100
AcDbLine
 10
4929.273274802945
 20
-117.2443579181345
 30
0.0
 11
4935.151176861566
 21
-118.5434282615695
 31
0.0
  0
ARC
  5
1036F
102
{ACAD_REACTORS
330
1038D
102
}
330
1F
100
AcDbEntity
  8
0
100
AcDbCircle
 10
4937.827829375383
 20
-116.8357525545694
 30
0.0
 40
3.175000000000084
100
AcDbArc
 50
212.5374405145085
 51
32.53744051449957
  0
LINE
  5
10370
102
{ACAD_REACTORS
330
1038D
102
}
330
1F
100
AcDbEntity
  8
0
100
AcDbLine
 10
4940.5044818892
 20
-115.1280768475701
 30
0.0
 11
4943.961568204013
 21
-99.48580245544738
 31
0.0
  0
ARC
  5
10371
102
{ACAD_REACTORS
330
1038D
102
}
330
1F
100
AcDbEntity
  8
0
100
AcDbCircle
 10
4967.896596855387
 20
-451.022769011902
 30
0.0
 40
3.174999999999909
100
AcDbArc
 50
173.3083729903133
 51
353.308372990313
  0
LINE
  5
10372
102
{ACAD_REACTORS
330
1038D
102
}
330
1F
100
AcDbEntity
  8
0
100
AcDbLine
 10
4971.049967767193
 20
-451.392737784347
 30
0.0
 11
4975.773575248252
 21
-447.661136421285
 31
0.0
  0
ARC
  5
10373
102
{ACAD_REACTORS
330
1038D
102
}
330
1F
100
AcDbEntity
  8
0
100
AcDbCircle
 10
4976.143544020697
 20
-444.5077655094804
 30
0.0
 40
3.175000000000137
100
AcDbArc
 50
263.3083729903288
 51
83.30837299030269
  0
LINE
  5
10374
102
{ACAD_REACTORS
330
1038D
102
}
330
1F
100
AcDbEntity
  8
0
100
AcDbLine
 10
4976.513512793141
 20
-441.3543945976756
 30
0.0
 11
4966.58297433556
 21
-428.7839292169103
 31
0.0
  0
ARC
  5
10375
102
{ACAD_REACTORS
330
1038D
102
}
330
1F
100
AcDbEntity
  8
0
100
AcDbCircle
 10
4963.429603423755
 20
-428.4139604444653
 30
0.0
 40
3.174999999999918
100
AcDbArc
 50
353.308372990313
 51
173.3083729903123
  0
LINE
  5
10376
102
{ACAD_REACTORS
330
1038D
102
}
330
1F
100
AcDbEntity
  8
0
100
AcDbLine
 10
4960.276232511951
 20
-428.0439916720202
 30
0.0
 11
4955.55262503089
 21
-431.7755930350823
 31
0.0
  0
ARC
  5
10377
102
{ACAD_REACTORS
330
1038D
102
}
330
1F
100
AcDbEntity
  8
0
100
AcDbCircle
 10
4955.182656258447
 20
-434.9289639468867
 30
0.0
 40
3.175000000000072
100
AcDbArc
 50
83.30837299032868
 51
263.3083729903287
  0
LINE
  5
10378
102
{ACAD_REACTORS
330
1038D
102
}
330
1F
100
AcDbEntity
  8
0
100
AcDbLine
 10
4954.812687486001
 20
-438.0823348586916
 30
0.0
 11
4964.743225943583
 21
-450.6528002394569
 31
0.0
  0
INSERT
  5
10379
330
1F
100
AcDbEntity
  8
0
  6
Continuous
100
AcDbBlockReference
  2
respaldo
 10
3760.308771190717
 20
-224.9999999999998
 30
0.0000000000002842
 50
90.0
  0
LWPOLYLINE
  5
1037B
330
1F
100
AcDbEntity
  8
0
  6
Continuous
 62
     5
100
AcDbPolyline
 90
        4
 70
     1
 43
0.0
 10
2668.486205761056
 20
-530.0
 10
5068.486205761055
 20
-530.0
 10
5068.486205761055
 20
670.0
 10
2668.486205761056
 20
670.0
  0
INSERT
  5
1037C
330
1F
100
AcDbEntity
  8
0
  6
Continuous
100
AcDbBlockReference
  2
respaldo
 10
3741.663640331392
 20
-224.9999999999998
 30
0.0000000000002842
 41
-1.0
 50
270.0
  0
INSERT
  5
10385
330
1F
100
AcDbEntity
  8
0
  6
Continuous
100
AcDbBlockReference
  2
asiento
 10
4788.486205761055
 20
-224.9999999999999
 30
-0.0000000000000014
 50
90.0
  0
INSERT
  5
1038F
330
1F
100
AcDbEntity
  8
0
  6
Continuous
100
AcDbBlockReference
  2
refuerzo
 10
2744.345672768305
 20
465.5813110764417
 30
0.0
 41
-1.0
 50
180.0
  0
INSERT
  5
10390
330
1F
100
AcDbEntity
  8
0
  6
Continuous
100
AcDbBlockReference
  2
refuerzo
 10
4492.043659242653
 20
465.5813110764415
 30
0.0
 41
-1.0
 50
180.0
  0
INSERT
  5
10392
330
1F
100
AcDbEntity
  8
0
  6
Continuous
100
AcDbBlockReference
  2
asiento
 10
4656.486205761055
 20
-224.9999999999998
 30
-0.0000000000000014
 50
90.0
  0
INSERT
  5
10393
330
1F
100
AcDbEntity
  8
0
  6
Continuous
100
AcDbBlockReference
  2
asiento
 10
4722.486205761055
 20
-224.9999999999998
 30
-0.0000000000000014
 50
90.0
  0
INSERT
  5
103A3
330
1F
100
AcDbEntity
  8
0
  6
Continuous
100
AcDbBlockReference
  2
asiento
 10
3844.541158463838
 20
752.7044205760596
 30
0.0
 50
180.0
  0
INSERT
  5
103A4
330
1F
100
AcDbEntity
  8
0
  6
Continuous
100
AcDbBlockReference
  2
asiento
 10
4359.541158463836
 20
752.7044205760596
 30
0.0
 50
180.0
  0
INSERT
  5
103A5
330
1F
100
AcDbEntity
  8
0
  6
Continuous
100
AcDbBlockReference
  2
asiento
 10
3844.541158463838
 20
817.7044205760596
 30
0.0
 50
180.0
  0
INSERT
  5
103A6
330
1F
100
AcDbEntity
  8
0
  6
Continuous
100
AcDbBlockReference
  2
asiento
 10
4359.541158463836
 20
817.7044205760596
 30
0.0
 50
180.0
  0
LWPOLYLINE
  5
103A7
330
1F
100
AcDbEntity
  8
0
  6
Continuous
 62
     5
100
AcDbPolyline
 90
        4
 70
     1
 43
0.0
 10
2668.486205761055
 20
-1830.0
 10
5068.486205761055
 20
-1830.0
 10
5068.486205761055
 20
-630.0
 10
2668.486205761055
 20
-630.0
  0
ENDSEC
  0
SECTION
  2
OBJECTS
  0
DICTIONARY
  5
C
330
0
100
AcDbDictionary
281
     1
  3
ACAD_CIP_PREVIOUS_PRODUCT_INFO
350
1005A
  3
ACAD_COLOR
350
10036
  3
ACAD_DETAILVIEWSTYLE
350
10050
  3
ACAD_GROUP
350
D
  3
ACAD_LAYOUT
350
10053
  3
ACAD_MATERIAL
350
10004
  3
ACAD_MLEADERSTYLE
350
1004C
  3
ACAD_MLINESTYLE
350
17
  3
ACAD_PLOTSETTINGS
350
10054
  3
ACAD_PLOTSTYLENAME
350
10002
  3
ACAD_RENDER_ACTIVE_RAPIDRT_SETTINGS
350
10062
  3
ACAD_RENDER_ACTIVE_SETTINGS
350
1061B
  3
ACAD_SCALELIST
350
1003A
  3
ACAD_SECTIONVIEWSTYLE
350
1004E
  3
ACAD_TABLESTYLE
350
10037
  3
ACAD_VISUALSTYLE
350
1001D
  3
ACDB_RECOMPOSE_DATA
350
105E0
  3
AcDbVariableDictionary
350
105D1
  3
AcDsDecomposeData
350
105E6
  0
DICTIONARY
  5
1057F
330
2
100
AcDbDictionary
280
     1
281
     1
  3
ACAD_LAYERSTATES
360
10580
  0
DICTIONARY
  5
103A9
330
50
100
AcDbDictionary
280
     1
281
     1
  3
ADSK_XREC_LAYER_RECONCILED
360
103AA
  0
DICTIONARY
  5
10597
330
1F
100
AcDbDictionary
280
     1
281
     1
  3
ACAD_SORTENTS
360
10598
  0
XRECORD
  5
1005A
102
{ACAD_REACTORS
330
C
102
}
330
C
100
AcDbXrecord
280
     1
300
ACD
300
2016
300
ACD_F_S
  0
DICTIONARY
  5
10036
102
{ACAD_REACTORS
330
C
102
}
330
C
100
AcDbDictionary
281
     1
  0
DICTIONARY
  5
10050
102
{ACAD_REACTORS
330
C
102
}
330
C
100
AcDbDictionary
281
     1
  3
Imperial24
350
10051
  0
DICTIONARY
  5
D
330
C
100
AcDbDictionary
281
     1
  3
*A3
350
1038D
  3
*A4
350
1038E
  3
*A5
350
10579
  3
*A6
350
1057A
  0
DICTIONARY
  5
10053
102
{ACAD_REACTORS
330
C
102
}
330
C
100
AcDbDictionary
281
     1
  3
Layout1
350
10056
  3
Model
350
10055
  0
DICTIONARY
  5
10004
102
{ACAD_REACTORS
330
C
102
}
330
C
100
AcDbDictionary
281
     1
  3
ByBlock
350
1000D
  3
ByLayer
350
10005
  3
Global
350
10015
  0
DICTIONARY
  5
1004C
102
{ACAD_REACTORS
330
C
102
}
330
C
100
AcDbDictionary
281
     1
  3
Standard
350
1004D
  0
DICTIONARY
  5
17
330
C
100
AcDbDictionary
281
     1
  3
Standard
350
10039
  0
DICTIONARY
  5
10054
102
{ACAD_REACTORS
330
C
102
}
330
C
100
AcDbDictionary
281
     1
  0
ACDBDICTIONARYWDFLT
  5
10002
102
{ACAD_REACTORS
330
C
102
}
330
C
100
AcDbDictionary
281
     1
  3
Normal
350
10003
100
AcDbDictionaryWithDefault
340
10003
  0
RAPIDRTRENDERSETTINGS
  5
10062
102
{ACAD_REACTORS
330
C
102
}
330
C
100
AcDbRenderSettings
 90
        2
  1
Medium
290
     1
290
     0
290
     1
290
     1
  1

  1
Applies 5 rendering levels
 90
        0
100
AcDbRapidRTRenderSettings
 90
        3
 70
     0
 90
        5
 90
        1
 70
     1
 70
     2
 40
3.0
 40
3.0
290
     1
  0
MENTALRAYRENDERSETTINGS
  5
1061B
102
{ACAD_XDICTIONARY
360
1061C
102
}
102
{ACAD_REACTORS
330
C
102
}
330
C
100
AcDbRenderSettings
 90
        2
  1
Medium
290
     1
290
     1
290
     1
290
     1
  1

  1

 90
        0
100
AcDbMentalRayRenderSettings
 90
        2
 90
        0
 90
        1
 70
     2
 40
3.0
 40
3.0
 40
0.0500000007450581
 40
0.0500000007450581
 40
0.0500000007450581
 40
0.0500000007450581
 70
     0
290
     0
290
     1
 90
        5
 90
        5
 90
        5
290
     0
 90
      500
290
     0
 40
1.0
 90
    10000
 90
        5
 90
        5
 90
        5
290
     0
 90
      200
290
     0
290
     0
290
     0
 40
1.0
 40
1.0
 40
1500.0
 70
     0
 70
     0
 40
10.0
 70
     0
 70
     0
290
     0
  1

 90
       32
 70
     0
 90
     1048
290
     0
 40
1.0
  0
DICTIONARY
  5
1003A
102
{ACAD_REACTORS
330
C
102
}
330
C
100
AcDbDictionary
281
     1
  3
A0
350
1003B
  3
A1
350
1003C
  3
A2
350
1003D
  3
A3
350
1003E
  3
A4
350
1003F
  3
A5
350
10040
  3
A6
350
10041
  3
A7
350
10042
  3
A8
350
10043
  3
A9
350
10044
  3
B0
350
10045
  3
B1
350
10046
  3
B2
350
10047
  3
B3
350
10048
  3
B4
350
10049
  3
B5
350
1004A
  3
B6
350
1004B
  0
DICTIONARY
  5
1004E
102
{ACAD_REACTORS
330
C
102
}
330
C
100
AcDbDictionary
281
     1
  3
Imperial24
350
1004F
  0
DICTIONARY
  5
10037
102
{ACAD_REACTORS
330
C
102
}
330
C
100
AcDbDictionary
281
     1
  3
Standard
350
10038
  0
DICTIONARY
  5
1001D
102
{ACAD_REACTORS
330
C
102
}
330
C
100
AcDbDictionary
281
     1
  3
2dWireframe
350
10023
  3
Basic
350
10022
  3
Brighten
350
10029
  3
ColorChange
350
1002D
  3
Conceptual
350
10026
  3
Dim
350
10028
  3
EdgeColorOff
350
10035
  3
Facepattern
350
1002C
  3
Flat
350
1001E
  3
FlatWithEdges
350
1001F
  3
Gouraud
350
10020
  3
GouraudWithEdges
350
10021
  3
Hidden
350
10025
  3
JitterOff
350
10033
  3
Linepattern
350
1002B
  3
OverhangOff
350
10034
  3
Realistic
350
10027
  3
Shaded
350
10032
  3
Shaded with edges
350
10031
  3
Shades of Gray
350
1002E
  3
Sketchy
350
1002F
  3
Thicken
350
1002A
  3
Wireframe
350
10024
  3
X-Ray
350
10030
  0
XRECORD
  5
105E0
102
{ACAD_REACTORS
330
C
102
}
330
C
100
AcDbXrecord
280
     1
 90
        1
330
10038
  0
DICTIONARY
  5
105D1
102
{ACAD_REACTORS
330
C
102
}
330
C
100
AcDbDictionary
281
     1
  3
CANNOSCALE
350
105D7
  3
CMLEADERSTYLE
350
105D3
  3
CTABLESTYLE
350
105D2
  3
CVIEWDETAILSTYLE
350
105D4
  3
CVIEWSECTIONSTYLE
350
105D5
  3
LAYEREVAL
350
105D9
  3
LAYERNOTIFY
350
105DA
  3
LIGHTINGUNITS
350
105D8
  3
MSLTSCALE
350
105D6
  0
DICTIONARY
  5
105E6
102
{ACAD_REACTORS
330
C
102
}
330
C
100
AcDbDictionary
281
     1
  3
AcDsRecords
350
105E8
  3
AcDsSchemas
350
105E7
1001
ACAD
1070
     2
  0
DICTIONARY
  5
10580
102
{ACAD_REACTORS
330
1057F
102
}
330
1057F
100
AcDbDictionary
281
     1
  0
XRECORD
  5
103AA
102
{ACAD_REACTORS
330
103A9
102
}
330
103A9
100
AcDbXrecord
280
     1
290
     1
  0
SORTENTSTABLE
  5
10598
102
{ACAD_REACTORS
330
10597
102
}
330
10597
100
AcDbSortentsTable
330
1F
331
1024C
  5
1024C
331
101D6
  5
101D6
331
1020D
  5
1020D
331
10209
  5
10209
331
1033C
  5
1033C
331
102FD
  5
102FD
331
10248
  5
10248
331
102C6
  5
102C6
331
10287
  5
10287
331
10205
  5
10205
331
10157
  5
10157
331
10338
  5
10338
331
101CE
  5
101CE
331
102C2
  5
102C2
331
10283
  5
10283
331
102F9
  5
102F9
331
10244
  5
10244
331
10240
  5
10240
331
10201
  5
10201
331
10153
  5
10153
331
102F5
  5
102F5
331
102BE
  5
102BE
331
1027F
  5
1027F
331
10334
  5
10334
331
101CA
  5
101CA
331
102F1
  5
102F1
331
102BA
  5
102BA
331
1027B
  5
1027B
331
10330
  5
10330
331
10377
  5
10377
331
10373
  5
10373
331
1036F
  5
1036F
331
1036B
  5
1036B
331
1023C
  5
1023C
331
101C6
  5
101C6
331
1014F
  5
1014F
331
101FD
  5
101FD
331
101F9
  5
101F9
331
1032C
  5
1032C
331
101C2
  5
101C2
331
102ED
  5
102ED
331
10238
  5
10238
331
102B6
  5
102B6
331
10277
  5
10277
331
101BE
  5
101BE
331
101F5
  5
101F5
331
10328
  5
10328
331
10234
  5
10234
331
102E9
  5
102E9
331
10273
  5
10273
331
102B2
  5
102B2
331
10324
  5
10324
331
101BA
  5
101BA
331
101F1
  5
101F1
331
10230
  5
10230
331
1026F
  5
1026F
331
102AE
  5
102AE
331
102E5
  5
102E5
331
102E1
  5
102E1
331
10320
  5
10320
331
1026B
  5
1026B
331
102AA
  5
102AA
331
10367
  5
10367
331
10363
  5
10363
331
1035F
  5
1035F
331
103A6
  5
103A6
331
1035B
  5
1035B
331
1022C
  5
1022C
331
101B6
  5
101B6
331
10228
  5
10228
331
102A6
  5
102A6
331
1031C
  5
1031C
331
10267
  5
10267
331
10263
  5
10263
331
10224
  5
10224
331
10357
  5
10357
331
101ED
  5
101ED
331
102A2
  5
102A2
331
10318
  5
10318
331
101E9
  5
101E9
331
10220
  5
10220
331
10314
  5
10314
331
102DD
  5
102DD
331
1029E
  5
1029E
331
10353
  5
10353
331
10310
  5
10310
331
102D9
  5
102D9
331
1029A
  5
1029A
331
10392
  5
10392
331
1025F
  5
1025F
331
1021C
  5
1021C
331
1034F
  5
1034F
331
101E5
  5
101E5
331
1025B
  5
1025B
331
10218
  5
10218
331
1034B
  5
1034B
331
101E1
  5
101E1
331
1030C
  5
1030C
331
10257
  5
10257
331
10296
  5
10296
331
102D5
  5
102D5
331
10253
  5
10253
331
10214
  5
10214
331
10347
  5
10347
331
101DD
  5
101DD
331
102D1
  5
102D1
331
10292
  5
10292
331
10308
  5
10308
331
101D9
  5
101D9
331
10210
  5
10210
331
10304
  5
10304
331
102CD
  5
102CD
331
1028E
  5
1028E
331
10343
  5
10343
331
10300
  5
10300
331
102C9
  5
102C9
331
1028A
  5
1028A
331
1024F
  5
1024F
331
1020C
  5
1020C
331
1033F
  5
1033F
331
101D5
  5
101D5
331
1024B
  5
1024B
331
10208
  5
10208
331
101D1
  5
101D1
331
10247
  5
10247
331
1033B
  5
1033B
331
102FC
  5
102FC
331
10286
  5
10286
331
102C5
  5
102C5
331
1015A
  5
1015A
331
10204
  5
10204
331
10156
  5
10156
331
10337
  5
10337
331
101CD
  5
101CD
331
102C1
  5
102C1
331
10282
  5
10282
331
102F8
  5
102F8
331
10243
  5
10243
331
10200
  5
10200
331
102F4
  5
102F4
331
102BD
  5
102BD
331
1027E
  5
1027E
331
10333
  5
10333
331
101C9
  5
101C9
331
102F0
  5
102F0
331
102B9
  5
102B9
331
1027A
  5
1027A
331
10376
  5
10376
331
10372
  5
10372
331
1036E
  5
1036E
331
1036A
  5
1036A
331
1023F
  5
1023F
331
1023B
  5
1023B
331
101C5
  5
101C5
331
1032F
  5
1032F
331
1014E
  5
1014E
331
101FC
  5
101FC
331
101F8
  5
101F8
331
101C1
  5
101C1
331
10237
  5
10237
331
1032B
  5
1032B
331
102EC
  5
102EC
331
102B5
  5
102B5
331
1014A
  5
1014A
331
10276
  5
10276
331
10327
  5
10327
331
101BD
  5
101BD
331
101F4
  5
101F4
331
10233
  5
10233
331
102B1
  5
102B1
331
10272
  5
10272
331
102E8
  5
102E8
331
102E4
  5
102E4
331
10323
  5
10323
331
101B9
  5
101B9
331
101F0
  5
101F0
331
1026E
  5
1026E
331
102AD
  5
102AD
331
102E0
  5
102E0
331
1026A
  5
1026A
331
102A9
  5
102A9
331
10366
  5
10366
331
10362
  5
10362
331
1035E
  5
1035E
331
103A5
  5
103A5
331
1035A
  5
1035A
331
1022F
  5
1022F
331
1022B
  5
1022B
331
1031F
  5
1031F
331
101B5
  5
101B5
331
10227
  5
10227
331
102A5
  5
102A5
331
1031B
  5
1031B
331
10266
  5
10266
331
10262
  5
10262
331
10223
  5
10223
331
10317
  5
10317
331
102A1
  5
102A1
331
10356
  5
10356
331
101EC
  5
101EC
331
101E8
  5
101E8
331
10313
  5
10313
331
102DC
  5
102DC
331
1029D
  5
1029D
331
10352
  5
10352
331
102D8
  5
102D8
331
10299
  5
10299
331
1025E
  5
1025E
331
1021F
  5
1021F
331
1021B
  5
1021B
331
1034E
  5
1034E
331
101E4
  5
101E4
331
1030F
  5
1030F
331
1025A
  5
1025A
331
10217
  5
10217
331
1034A
  5
1034A
331
101E0
  5
101E0
331
1030B
  5
1030B
331
10256
  5
10256
331
10295
  5
10295
331
102D4
  5
102D4
331
10252
  5
10252
331
10213
  5
10213
331
10346
  5
10346
331
101DC
  5
101DC
331
102D0
  5
102D0
331
10291
  5
10291
331
10307
  5
10307
331
101D8
  5
101D8
331
10303
  5
10303
331
102CC
  5
102CC
331
1028D
  5
1028D
331
10342
  5
10342
331
102C8
  5
102C8
331
10289
  5
10289
331
10385
  5
10385
331
10379
  5
10379
331
1024E
  5
1024E
331
1020F
  5
1020F
331
1020B
  5
1020B
331
1033E
  5
1033E
331
102FF
  5
102FF
331
1024A
  5
1024A
331
10207
  5
10207
331
10159
  5
10159
331
1033A
  5
1033A
331
101D0
  5
101D0
331
102FB
  5
102FB
331
10246
  5
10246
331
10285
  5
10285
331
102C4
  5
102C4
331
10242
  5
10242
331
10203
  5
10203
331
10155
  5
10155
331
10336
  5
10336
331
101CC
  5
101CC
331
102C0
  5
102C0
331
10281
  5
10281
331
102F7
  5
102F7
331
101C8
  5
101C8
331
102F3
  5
102F3
331
102BC
  5
102BC
331
1027D
  5
1027D
331
10332
  5
10332
331
102B8
  5
102B8
331
10279
  5
10279
331
10375
  5
10375
331
10371
  5
10371
331
1036D
  5
1036D
331
10369
  5
10369
331
1023E
  5
1023E
331
101FF
  5
101FF
331
101FB
  5
101FB
331
101C4
  5
101C4
331
1023A
  5
1023A
331
1032E
  5
1032E
331
102EF
  5
102EF
331
1014D
  5
1014D
331
101F7
  5
101F7
331
1032A
  5
1032A
331
101C0
  5
101C0
331
10236
  5
10236
331
102EB
  5
102EB
331
10275
  5
10275
331
102B4
  5
102B4
331
10326
  5
10326
331
101BC
  5
101BC
331
101F3
  5
101F3
331
10232
  5
10232
331
102B0
  5
102B0
331
10271
  5
10271
331
102E7
  5
102E7
331
102E3
  5
102E3
331
10322
  5
10322
331
101B8
  5
101B8
331
1026D
  5
1026D
331
102AC
  5
102AC
331
102A8
  5
102A8
331
10269
  5
10269
331
10365
  5
10365
331
10361
  5
10361
331
1035D
  5
1035D
331
103A4
  5
103A4
331
10359
  5
10359
331
1022E
  5
1022E
331
1022A
  5
1022A
331
1031E
  5
1031E
331
10226
  5
10226
331
101EF
  5
101EF
331
102A4
  5
102A4
331
1031A
  5
1031A
331
10265
  5
10265
331
10261
  5
10261
331
10222
  5
10222
331
10316
  5
10316
331
102DF
  5
102DF
331
102A0
  5
102A0
331
10355
  5
10355
331
101EB
  5
101EB
331
10351
  5
10351
331
10312
  5
10312
331
102DB
  5
102DB
331
1029C
  5
1029C
331
10298
  5
10298
331
10390
  5
10390
331
1025D
  5
1025D
331
101E7
  5
101E7
331
1021E
  5
1021E
331
1021A
  5
1021A
331
1034D
  5
1034D
331
101E3
  5
101E3
331
1030E
  5
1030E
331
10259
  5
10259
331
102D7
  5
102D7
331
10216
  5
10216
331
10349
  5
10349
331
101DF
  5
101DF
331
102D3
  5
102D3
331
10294
  5
10294
331
1030A
  5
1030A
331
10255
  5
10255
331
10251
  5
10251
331
10212
  5
10212
331
10306
  5
10306
331
102CF
  5
102CF
331
10290
  5
10290
331
10345
  5
10345
331
101DB
  5
101DB
331
10302
  5
10302
331
102CB
  5
102CB
331
1028C
  5
1028C
331
10341
  5
10341
331
10288
  5
10288
331
1037C
  5
1037C
331
10378
  5
10378
331
1024D
  5
1024D
331
101D7
  5
101D7
331
1020E
  5
1020E
331
1020A
  5
1020A
331
1033D
  5
1033D
331
102FE
  5
102FE
331
10249
  5
10249
331
102C7
  5
102C7
331
10206
  5
10206
331
10158
  5
10158
331
10339
  5
10339
331
101CF
  5
101CF
331
102FA
  5
102FA
331
10245
  5
10245
331
10284
  5
10284
331
102C3
  5
102C3
331
10241
  5
10241
331
10202
  5
10202
331
10154
  5
10154
331
10335
  5
10335
331
101CB
  5
101CB
331
102BF
  5
102BF
331
10280
  5
10280
331
102F6
  5
102F6
331
102F2
  5
102F2
331
102BB
  5
102BB
331
1027C
  5
1027C
331
10331
  5
10331
331
10278
  5
10278
331
10374
  5
10374
331
10370
  5
10370
331
1036C
  5
1036C
331
10368
  5
10368
331
1023D
  5
1023D
331
101C7
  5
101C7
331
101FE
  5
101FE
331
101FA
  5
101FA
331
101C3
  5
101C3
331
10239
  5
10239
331
1032D
  5
1032D
331
102EE
  5
102EE
331
102B7
  5
102B7
331
1014C
  5
1014C
331
101BF
  5
101BF
331
101F6
  5
101F6
331
10329
  5
10329
331
10235
  5
10235
331
102EA
  5
102EA
331
10274
  5
10274
331
102B3
  5
102B3
331
10325
  5
10325
331
101BB
  5
101BB
331
101F2
  5
101F2
331
10231
  5
10231
331
10270
  5
10270
331
102AF
  5
102AF
331
102E6
  5
102E6
331
102E2
  5
102E2
331
10321
  5
10321
331
1026C
  5
1026C
331
102AB
  5
102AB
331
10268
  5
10268
331
10364
  5
10364
331
10360
  5
10360
331
103A7
  5
103A7
331
1035C
  5
1035C
331
103A3
  5
103A3
331
10358
  5
10358
331
1022D
  5
1022D
331
101B7
  5
101B7
331
10229
  5
10229
331
102A7
  5
102A7
331
1031D
  5
1031D
331
10264
  5
10264
331
10225
  5
10225
331
101EE
  5
101EE
331
102A3
  5
102A3
331
10319
  5
10319
331
10260
  5
10260
331
101EA
  5
101EA
331
10221
  5
10221
331
10315
  5
10315
331
102DE
  5
102DE
331
1029F
  5
1029F
331
10354
  5
10354
331
10350
  5
10350
331
10311
  5
10311
331
102DA
  5
102DA
331
1029B
  5
1029B
331
10393
  5
10393
331
1038F
  5
1038F
331
1021D
  5
1021D
331
101E6
  5
101E6
331
1025C
  5
1025C
331
10219
  5
10219
331
1034C
  5
1034C
331
101E2
  5
101E2
331
1030D
  5
1030D
331
10258
  5
10258
331
10297
  5
10297
331
102D6
  5
102D6
331
10215
  5
10215
331
10348
  5
10348
331
101DE
  5
101DE
331
102D2
  5
102D2
331
10293
  5
10293
331
10309
  5
10309
331
10254
  5
10254
331
10250
  5
10250
331
10211
  5
10211
331
10305
  5
10305
331
102CE
  5
102CE
331
1028F
  5
1028F
331
10344
  5
10344
331
101DA
  5
101DA
331
10340
  5
10340
331
10301
  5
10301
331
102CA
  5
102CA
331
1028B
  5
1028B
331
1037B
  5
1037B
  0
ACDBDETAILVIEWSTYLE
  5
10051
102
{ACAD_XDICTIONARY
360
105CE
102
}
102
{ACAD_REACTORS
330
10050
102
}
330
10050
100
AcDbModelDocViewStyle
 70
     0
  3
Imperial24
290
     0
100
AcDbDetailViewStyle
 70
     0
 71
     0
 90
        3
 71
     1
340
11
 62
   256
 40
0.24
340
0
 62
   256
 40
0.24
300

 40
0.36
280
     3
 71
     2
340
0
 90
       25
 62
   256
 71
     3
340
11
 62
   256
 40
0.24
 90
        1
 40
0.75
 90
        1
300
%<\AcVar ViewType \f "%tc1">% %<\AcVar ViewDetailId>%\PSCALE %<\AcVar ViewScale \f "%sn">%
 71
     4
340
0
 90
       25
 62
   256
340
0
 90
       25
 62
   256
280
     0
  0
GROUP
  5
1038D
102
{ACAD_REACTORS
330
D
102
}
330
D
100
AcDbGroup
300

 70
     1
 71
     1
340
10378
340
10377
340
10376
340
10375
340
10374
340
10373
340
10372
340
10371
340
10370
340
1036F
340
1036E
340
1036D
340
1036C
340
1036B
340
1036A
340
10369
340
10368
340
10367
340
10366
340
10365
340
10364
340
10363
340
10362
340
10361
340
10360
340
1035F
340
1035E
340
1035D
340
1035C
340
1035B
340
1035A
340
10359
340
10358
340
10357
340
10356
340
10355
340
10354
340
10353
340
10352
340
10351
340
10350
340
1034F
340
1034E
340
1034D
340
1034C
340
1034B
340
1034A
340
10349
340
10348
340
10347
340
10346
340
10345
340
10344
340
10343
340
10342
340
10341
340
10340
340
1033F
340
1033E
340
1033D
340
1033C
340
1033B
340
1033A
340
10339
340
10338
340
10337
340
10336
340
10335
340
10334
340
10333
340
10332
340
10331
340
10330
340
1032F
340
1032E
340
1032D
340
1032C
340
1032B
340
1032A
340
10329
340
10328
340
10327
340
10326
340
10325
340
10324
340
10323
340
10322
340
10321
340
10320
340
1031F
340
1031E
340
1031D
340
1031C
340
1031B
340
1031A
340
10319
340
10318
340
10317
340
10316
340
10315
340
10314
340
10313
340
10312
340
10311
340
10310
340
1030F
340
1030E
340
1030D
340
1030C
340
1030B
340
1030A
340
10309
340
10308
340
10307
340
10306
340
10305
340
10304
340
10303
340
10302
340
10301
340
10300
340
102FF
340
102FE
340
102FD
340
102FC
340
102FB
340
102FA
340
102F9
340
102F8
340
102F7
340
102F6
340
102F5
340
102F4
340
102F3
340
102F2
340
102F1
340
102F0
340
102EF
340
102EE
340
102ED
340
102EC
340
102EB
340
102EA
340
102E9
340
102E8
340
102E7
340
102E6
340
102E5
340
102E4
340
102E3
340
102E2
340
102E1
340
102E0
340
102DF
340
102DE
340
102DD
340
102DC
340
102DB
340
102DA
340
102D9
340
102D8
340
102D7
340
102D6
340
102D5
340
102D4
340
102D3
340
102D2
340
102D1
340
102D0
340
102CF
340
102CE
340
102CD
340
102CC
340
102CB
340
102CA
340
102C9
340
102C8
340
102C7
340
102C6
340
102C5
340
102C4
340
102C3
340
102C2
340
102C1
340
102C0
340
102BF
340
102BE
340
102BD
340
102BC
340
102BB
340
102BA
340
102B9
340
102B8
340
102B7
340
102B6
340
102B5
340
102B4
340
102B3
340
102B2
340
102B1
340
102B0
340
102AF
340
102AE
340
102AD
340
102AC
340
102AB
340
102AA
340
102A9
340
102A8
340
102A7
  0
GROUP
  5
1038E
102
{ACAD_REACTORS
330
D
102
}
330
D
100
AcDbGroup
300

 70
     1
 71
     1
340
102A6
340
102A5
340
102A4
340
102A3
340
102A2
340
102A1
340
102A0
340
1029F
340
1029E
340
1029D
340
1029C
340
1029B
340
1029A
340
10299
340
10298
340
10297
340
10296
340
10295
340
10294
340
10293
340
10292
340
10291
340
10290
340
1028F
340
1028E
340
1028D
340
1028C
340
1028B
340
1028A
340
10289
340
10288
340
10287
340
10286
340
10285
340
10284
340
10283
340
10282
340
10281
340
10280
340
1027F
340
1027E
340
1027D
340
1027C
340
1027B
340
1027A
340
10279
340
10278
340
10277
340
10276
340
10275
340
10274
340
10273
340
10272
340
10271
340
10270
340
1026F
340
1026E
340
1026D
340
1026C
340
1026B
340
1026A
340
10269
340
10268
340
10267
340
10266
340
10265
340
10264
340
10263
340
10262
340
10261
340
10260
340
1025F
340
1025E
340
1025D
340
1025C
340
1025B
340
1025A
340
10259
340
10258
340
10257
340
10256
340
10255
340
10254
340
10253
340
10252
340
10251
340
10250
340
1024F
340
1024E
340
1024D
340
1024C
340
1024B
340
1024A
340
10249
340
10248
340
10247
340
10246
340
10245
340
10244
340
10243
340
10242
340
10241
340
10240
340
1023F
340
1023E
340
1023D
340
1023C
340
1023B
340
1023A
340
10239
340
10238
340
10237
340
10236
340
10235
340
10234
340
10233
340
10232
340
10231
340
10230
340
1022F
340
1022E
340
1022D
340
1022C
340
1022B
340
1022A
340
10229
340
10228
340
10227
340
10226
340
10225
340
10224
340
10223
340
10222
340
10221
340
10220
340
1021F
340
1021E
340
1021D
340
1021C
340
1021B
340
1021A
340
10219
340
10218
340
10217
340
10216
340
10215
340
10214
340
10213
340
10212
340
10211
340
10210
340
1020F
340
1020E
340
1020D
340
1020C
340
1020B
340
1020A
340
10209
340
10208
340
10207
340
10206
340
10205
340
10204
340
10203
340
10202
340
10201
340
10200
340
101FF
340
101FE
340
101FD
340
101FC
340
101FB
340
101FA
340
101F9
340
101F8
340
101F7
340
101F6
340
101F5
340
101F4
340
101F3
340
101F2
340
101F1
340
101F0
340
101EF
340
101EE
340
101ED
340
101EC
340
101EB
340
101EA
340
101E9
340
101E8
340
101E7
340
101E6
340
101E5
340
101E4
340
101E3
340
101E2
340
101E1
340
101E0
340
101DF
340
101DE
340
101DD
340
101DC
340
101DB
340
101DA
340
101D9
340
101D8
340
101D7
340
101D6
340
101D5
  0
GROUP
  5
10579
102
{ACAD_REACTORS
330
D
102
}
330
D
100
AcDbGroup
300

 70
     1
 71
     1
  0
GROUP
  5
1057A
102
{ACAD_REACTORS
330
D
102
}
330
D
100
AcDbGroup
300

 70
     1
 71
     1
  0
LAYOUT
  5
10056
102
{ACAD_REACTORS
330
10053
102
}
330
10053
100
AcDbPlotSettings
  1

  2
Microsoft Print to PDF
  4

  6

 40
0.0
 41
0.0
 42
0.0
 43
0.0
 44
0.0
 45
0.0
 46
0.0
 47
0.0
 48
0.0
 49
0.0
140
0.0
141
0.0
142
1.0
143
1.0
 70
   688
 72
     0
 73
     0
 74
     5
  7

 75
    16
147
1.0
 76
     0
 77
     2
 78
   300
148
0.0
149
0.0
100
AcDbLayout
  1
Layout1
 70
     1
 71
     1
 10
0.0
 20
0.0
 11
12.0
 21
9.0
 12
0.0
 22
0.0
 32
0.0
 14
1.000000000000000E+20
 24
1.000000000000000E+20
 34
1.000000000000000E+20
 15
-1.000000000000000E+20
 25
-1.000000000000000E+20
 35
-1.000000000000000E+20
146
0.0
 13
0.0
 23
0.0
 33
0.0
 16
1.0
 26
0.0
 36
0.0
 17
0.0
 27
1.0
 37
0.0
 76
     0
330
1B
  0
LAYOUT
  5
10055
102
{ACAD_REACTORS
330
10053
102
}
330
10053
100
AcDbPlotSettings
  1

  2
Microsoft Print to PDF
  4

  6

 40
0.0
 41
0.0
 42
0.0
 43
0.0
 44
0.0
 45
0.0
 46
0.0
 47
0.0
 48
0.0
 49
0.0
140
0.0
141
0.0
142
1.0
143
1.0
 70
  1712
 72
     0
 73
     0
 74
     0
  7

 75
     0
147
1.0
 76
     0
 77
     2
 78
   300
148
0.0
149
0.0
100
AcDbLayout
  1
Model
 70
     1
 71
     0
 10
0.0
 20
0.0
 11
12.0
 21
9.0
 12
0.0
 22
0.0
 32
0.0
 14
0.0
 24
0.0
 34
0.0
 15
0.0
 25
0.0
 35
0.0
146
0.0
 13
0.0
 23
0.0
 33
0.0
 16
1.0
 26
0.0
 36
0.0
 17
0.0
 27
1.0
 37
0.0
 76
     0
330
1F
331
10059
  0
MATERIAL
  5
1000D
102
{ACAD_XDICTIONARY
360
1000E
102
}
102
{ACAD_REACTORS
330
10004
102
}
330
10004
100
AcDbMaterial
  1
ByBlock
 72
     0
 43
0.0008202099737533
 43
0.0
 43
0.0
 43
0.0
 43
0.0
 43
0.0008202099737533
 43
0.0
 43
0.0
 43
0.0
 43
0.0
 43
1.0
 43
0.0
 43
0.0
 43
0.0
 43
0.0
 43
1.0
 77
     0
 47
0.0008202099737533
 47
0.0
 47
0.0
 47
0.0
 47
0.0
 47
0.0008202099737533
 47
0.0
 47
0.0
 47
0.0
 47
0.0
 47
1.0
 47
0.0
 47
0.0
 47
0.0
 47
0.0
 47
1.0
171
     0
 49
0.0008202099737533
 49
0.0
 49
0.0
 49
0.0
 49
0.0
 49
0.0008202099737533
 49
0.0
 49
0.0
 49
0.0
 49
0.0
 49
1.0
 49
0.0
 49
0.0
 49
0.0
 49
0.0
 49
1.0
175
     0
142
0.0008202099737533
142
0.0
142
0.0
142
0.0
142
0.0
142
0.0008202099737533
142
0.0
142
0.0
142
0.0
142
0.0
142
1.0
142
0.0
142
0.0
142
0.0
142
0.0
142
1.0
179
     0
144
0.0008202099737533
144
0.0
144
0.0
144
0.0
144
0.0
144
0.0008202099737533
144
0.0
144
0.0
144
0.0
144
0.0
144
1.0
144
0.0
144
0.0
144
0.0
144
0.0
144
1.0
147
0.0008202099737533
147
0.0
147
0.0
147
0.0
147
0.0
147
0.0008202099737533
147
0.0
147
0.0
147
0.0
147
0.0
147
1.0
147
0.0
147
0.0
147
0.0
147
0.0
147
1.0
  0
MATERIAL
  5
10005
102
{ACAD_XDICTIONARY
360
10006
102
}
102
{ACAD_REACTORS
330
10004
102
}
330
10004
100
AcDbMaterial
  1
ByLayer
 72
     0
 43
0.0008202099737533
 43
0.0
 43
0.0
 43
0.0
 43
0.0
 43
0.0008202099737533
 43
0.0
 43
0.0
 43
0.0
 43
0.0
 43
1.0
 43
0.0
 43
0.0
 43
0.0
 43
0.0
 43
1.0
 77
     0
 47
0.0008202099737533
 47
0.0
 47
0.0
 47
0.0
 47
0.0
 47
0.0008202099737533
 47
0.0
 47
0.0
 47
0.0
 47
0.0
 47
1.0
 47
0.0
 47
0.0
 47
0.0
 47
0.0
 47
1.0
171
     0
 49
0.0008202099737533
 49
0.0
 49
0.0
 49
0.0
 49
0.0
 49
0.0008202099737533
 49
0.0
 49
0.0
 49
0.0
 49
0.0
 49
1.0
 49
0.0
 49
0.0
 49
0.0
 49
0.0
 49
1.0
175
     0
142
0.0008202099737533
142
0.0
142
0.0
142
0.0
142
0.0
142
0.0008202099737533
142
0.0
142
0.0
142
0.0
142
0.0
142
1.0
142
0.0
142
0.0
142
0.0
142
0.0
142
1.0
179
     0
144
0.0008202099737533
144
0.0
144
0.0
144
0.0
144
0.0
144
0.0008202099737533
144
0.0
144
0.0
144
0.0
144
0.0
144
1.0
144
0.0
144
0.0
144
0.0
144
0.0
144
1.0
147
0.0008202099737533
147
0.0
147
0.0
147
0.0
147
0.0
147
0.0008202099737533
147
0.0
147
0.0
147
0.0
147
0.0
147
1.0
147
0.0
147
0.0
147
0.0
147
0.0
147
1.0
  0
MATERIAL
  5
10015
102
{ACAD_XDICTIONARY
360
10016
102
}
102
{ACAD_REACTORS
330
10004
102
}
330
10004
100
AcDbMaterial
  1
Global
 72
     0
 43
0.0008202099737533
 43
0.0
 43
0.0
 43
0.0
 43
0.0
 43
0.0008202099737533
 43
0.0
 43
0.0
 43
0.0
 43
0.0
 43
1.0
 43
0.0
 43
0.0
 43
0.0
 43
0.0
 43
1.0
 77
     0
 47
0.0008202099737533
 47
0.0
 47
0.0
 47
0.0
 47
0.0
 47
0.0008202099737533
 47
0.0
 47
0.0
 47
0.0
 47
0.0
 47
1.0
 47
0.0
 47
0.0
 47
0.0
 47
0.0
 47
1.0
171
     0
 49
0.0008202099737533
 49
0.0
 49
0.0
 49
0.0
 49
0.0
 49
0.0008202099737533
 49
0.0
 49
0.0
 49
0.0
 49
0.0
 49
1.0
 49
0.0
 49
0.0
 49
0.0
 49
0.0
 49
1.0
175
     0
142
0.0008202099737533
142
0.0
142
0.0
142
0.0
142
0.0
142
0.0008202099737533
142
0.0
142
0.0
142
0.0
142
0.0
142
1.0
142
0.0
142
0.0
142
0.0
142
0.0
142
1.0
179
     0
144
0.0008202099737533
144
0.0
144
0.0
144
0.0
144
0.0
144
0.0008202099737533
144
0.0
144
0.0
144
0.0
144
0.0
144
1.0
144
0.0
144
0.0
144
0.0
144
0.0
144
1.0
147
0.0008202099737533
147
0.0
147
0.0
147
0.0
147
0.0
147
0.0008202099737533
147
0.0
147
0.0
147
0.0
147
0.0
147
1.0
147
0.0
147
0.0
147
0.0
147
0.0
147
1.0
  0
MLEADERSTYLE
  5
1004D
102
{ACAD_REACTORS
330
1004C
102
}
330
1004C
100
AcDbMLeaderStyle
179
     2
170
     2
171
     1
172
     0
 90
        2
 40
0.0
 41
0.0
173
     1
 91
-1056964608
340
14
 92
       -2
290
     1
 42
0.09
291
     1
 43
0.36
  3
Standard
 44
0.18
300

342
11
174
     1
178
     6
175
     1
176
     0
 93
-1056964608
 45
0.18
292
     0
297
     0
 46
0.18
 94
-1056964608
 47
1.0
 49
1.0
140
1.0
293
     1
141
0.0
294
     1
177
     0
142
1.0
295
     0
296
     0
143
0.125
271
     0
272
     9
273
     9
  0
MLINESTYLE
  5
10039
102
{ACAD_REACTORS
330
17
102
}
330
17
100
AcDbMlineStyle
  2
STANDARD
 70
     0
  3

 62
   256
 51
90.0
 52
90.0
 71
     2
 49
0.5
 62
   256
  6
BYLAYER
 49
-0.5
 62
   256
  6
BYLAYER
  0
ACDBPLACEHOLDER
  5
10003
102
{ACAD_REACTORS
330
10002
102
}
330
10002
  0
DICTIONARY
  5
1061C
330
1061B
100
AcDbDictionary
280
     1
281
     1
  3
ADSK_XREC_MENTALRAYSETTINGSINFO
360
1061D
  0
SCALE
  5
1003B
102
{ACAD_REACTORS
330
1003A
102
}
330
1003A
100
AcDbScale
 70
     0
300
1:1
140
1.0
141
1.0
290
     1
  0
SCALE
  5
1003C
102
{ACAD_REACTORS
330
1003A
102
}
330
1003A
100
AcDbScale
 70
     0
300
1/128" = 1'-0"
140
0.0078125
141
12.0
290
     0
  0
SCALE
  5
1003D
102
{ACAD_REACTORS
330
1003A
102
}
330
1003A
100
AcDbScale
 70
     0
300
1/64" = 1'-0"
140
0.015625
141
12.0
290
     0
  0
SCALE
  5
1003E
102
{ACAD_REACTORS
330
1003A
102
}
330
1003A
100
AcDbScale
 70
     0
300
1/32" = 1'-0"
140
0.03125
141
12.0
290
     0
  0
SCALE
  5
1003F
102
{ACAD_REACTORS
330
1003A
102
}
330
1003A
100
AcDbScale
 70
     0
300
1/16" = 1'-0"
140
0.0625
141
12.0
290
     0
  0
SCALE
  5
10040
102
{ACAD_REACTORS
330
1003A
102
}
330
1003A
100
AcDbScale
 70
     0
300
3/32" = 1'-0"
140
0.09375
141
12.0
290
     0
  0
SCALE
  5
10041
102
{ACAD_REACTORS
330
1003A
102
}
330
1003A
100
AcDbScale
 70
     0
300
1/8" = 1'-0"
140
0.125
141
12.0
290
     0
  0
SCALE
  5
10042
102
{ACAD_REACTORS
330
1003A
102
}
330
1003A
100
AcDbScale
 70
     0
300
3/16" = 1'-0"
140
0.1875
141
12.0
290
     0
  0
SCALE
  5
10043
102
{ACAD_REACTORS
330
1003A
102
}
330
1003A
100
AcDbScale
 70
     0
300
1/4" = 1'-0"
140
0.25
141
12.0
290
     0
  0
SCALE
  5
10044
102
{ACAD_REACTORS
330
1003A
102
}
330
1003A
100
AcDbScale
 70
     0
300
3/8" = 1'-0"
140
0.375
141
12.0
290
     0
  0
SCALE
  5
10045
102
{ACAD_REACTORS
330
1003A
102
}
330
1003A
100
AcDbScale
 70
     0
300
1/2" = 1'-0"
140
0.5
141
12.0
290
     0
  0
SCALE
  5
10046
102
{ACAD_REACTORS
330
1003A
102
}
330
1003A
100
AcDbScale
 70
     0
300
3/4" = 1'-0"
140
0.75
141
12.0
290
     0
  0
SCALE
  5
10047
102
{ACAD_REACTORS
330
1003A
102
}
330
1003A
100
AcDbScale
 70
     0
300
1" = 1'-0"
140
1.0
141
12.0
290
     0
  0
SCALE
  5
10048
102
{ACAD_REACTORS
330
1003A
102
}
330
1003A
100
AcDbScale
 70
     0
300
1-1/2" = 1'-0"
140
1.5
141
12.0
290
     0
  0
SCALE
  5
10049
102
{ACAD_REACTORS
330
1003A
102
}
330
1003A
100
AcDbScale
 70
     0
300
3" = 1'-0"
140
3.0
141
12.0
290
     0
  0
SCALE
  5
1004A
102
{ACAD_REACTORS
330
1003A
102
}
330
1003A
100
AcDbScale
 70
     0
300
6" = 1'-0"
140
6.0
141
12.0
290
     0
  0
SCALE
  5
1004B
102
{ACAD_REACTORS
330
1003A
102
}
330
1003A
100
AcDbScale
 70
     0
300
1'-0" = 1'-0"
140
12.0
141
12.0
290
     0
  0
ACDBSECTIONVIEWSTYLE
  5
1004F
102
{ACAD_XDICTIONARY
360
105CC
102
}
102
{ACAD_REACTORS
330
1004E
102
}
330
1004E
100
AcDbModelDocViewStyle
 70
     0
  3
Imperial24
290
     0
100
AcDbSectionViewStyle
 70
     0
 71
     0
 90
       78
 71
     1
340
11
 62
   256
 40
0.24
340
0
340
0
 62
   256
 40
0.24
300
I, O, Q, S, X, Z
 40
0.48
 90
        3
 40
0.18
 90
        1
 71
     2
340
0
 90
       25
 62
   256
340
0
 90
       50
 62
   256
 40
0.24
 40
0.0
 40
0.24
 71
     3
340
11
 62
   256
 40
0.24
 90
        1
 40
0.75
 90
        1
300
%<\AcVar ViewType \f "%tc1">% %<\AcVar ViewSectionStartId>%-%<\AcVar ViewSectionEndId>%\PSCALE %<\AcVar ViewScale \f "%sn">%
 71
     4
 62
   256
 62
   257
300
ANSI31
 40
1.0
 90
        0
290
     0
290
     0
 90
        6
 40
0.0
 40
1.570796326794896
 40
0.2617993877991494
 40
1.308996938995747
 40
-0.2617993877991494
 40
1.832595714594046
  0
TABLESTYLE
  5
10038
102
{ACAD_XDICTIONARY
360
105DE
102
}
102
{ACAD_REACTORS
330
10037
102
}
330
10037
100
AcDbTableStyle
280
     0
  3
Standard
 70
     0
 71
     0
 40
0.06
 41
0.06
280
     0
281
     0
  7
STANDARD
140
0.18
170
     2
 62
     0
 63
     7
283
     0
 90
      512
 91
        0
  1

274
    -2
284
     1
 64
     0
275
    -2
285
     1
 65
     0
276
    -2
286
     1
 66
     0
277
    -2
287
     1
 67
     0
278
    -2
288
     1
 68
     0
279
    -2
289
     1
 69
     0
  7
STANDARD
140
0.25
170
     5
 62
     0
 63
     7
283
     0
 90
      512
 91
        0
  1

274
    -2
284
     1
 64
     0
275
    -2
285
     1
 65
     0
276
    -2
286
     1
 66
     0
277
    -2
287
     1
 67
     0
278
    -2
288
     1
 68
     0
279
    -2
289
     1
 69
     0
  7
STANDARD
140
0.18
170
     5
 62
     0
 63
     7
283
     0
 90
      512
 91
        0
  1

274
    -2
284
     1
 64
     0
275
    -2
285
     1
 65
     0
276
    -2
286
     1
 66
     0
277
    -2
287
     1
 67
     0
278
    -2
288
     1
 68
     0
279
    -2
289
     1
 69
     0
  0
VISUALSTYLE
  5
10023
102
{ACAD_XDICTIONARY
360
105F3
102
}
102
{ACAD_REACTORS
330
1001D
102
}
330
1001D
100
AcDbVisualStyle
  2
2dWireframe
 70
     4
177
     2
291
     0
 71
     0
176
     1
 72
     2
176
     1
 73
     0
176
     1
 90
        0
176
     1
 40
0.6
176
     1
 41
30.0
176
     1
 63
     7
421
 16777215
176
     1
 74
     1
176
     1
 91
        4
176
     1
 64
     7
176
     1
 65
   257
176
     1
 75
     1
176
     1
175
     1
176
     1
 42
1.0
176
     1
 92
        0
176
     1
 66
   257
176
     1
 43
1.0
176
     1
 76
     1
176
     1
 77
     6
176
     1
 78
     2
176
     1
 67
     7
176
     1
 79
     5
176
     1
170
     0
176
     1
171
     0
176
     1
290
     0
176
     1
 93
        1
176
     1
 44
0.0
176
     1
173
     0
176
     1
1001
ACAD
1000
AcDbSavedByObjectVersion
1070
     0
  0
VISUALSTYLE
  5
10022
102
{ACAD_XDICTIONARY
360
105F1
102
}
102
{ACAD_REACTORS
330
1001D
102
}
330
1001D
100
AcDbVisualStyle
  2
Basic
 70
     7
177
     2
291
     1
 71
     1
176
     1
 72
     0
176
     1
 73
     1
176
     1
 90
        0
176
     1
 40
0.6
176
     1
 41
30.0
176
     1
 63
     7
421
 16777215
176
     1
 74
     0
176
     1
 91
        4
176
     1
 64
     7
176
     1
 65
   257
176
     1
 75
     1
176
     1
175
     1
176
     1
 42
1.0
176
     1
 92
        8
176
     1
 66
     7
176
     1
 43
1.0
176
     1
 76
     1
176
     1
 77
     6
176
     1
 78
     2
176
     1
 67
     7
176
     1
 79
     5
176
     1
170
     0
176
     1
171
     0
176
     1
290
     0
176
     1
 93
        1
176
     1
 44
0.0
176
     1
173
     0
176
     1
1001
ACAD
1000
AcDbSavedByObjectVersion
1070
     0
  0
VISUALSTYLE
  5
10029
102
{ACAD_XDICTIONARY
360
105FF
102
}
102
{ACAD_REACTORS
330
1001D
102
}
330
1001D
100
AcDbVisualStyle
  2
Brighten
 70
    12
177
     2
291
     1
 71
     2
176
     1
 72
     2
176
     1
 73
     0
176
     1
 90
        0
176
     1
 40
0.6
176
     1
 41
30.0
176
     1
 63
     7
421
 16777215
176
     1
 74
     1
176
     1
 91
        4
176
     1
 64
     7
176
     1
 65
   257
176
     1
 75
     1
176
     1
175
     1
176
     1
 42
1.0
176
     1
 92
        8
176
     1
 66
     7
176
     1
 43
1.0
176
     1
 76
     1
176
     1
 77
     6
176
     1
 78
     2
176
     1
 67
     7
176
     1
 79
     5
176
     1
170
     0
176
     1
171
     0
176
     1
290
     0
176
     1
 93
        1
176
     1
 44
50.0
176
     1
173
     0
176
     1
1001
ACAD
1000
AcDbSavedByObjectVersion
1070
     0
  0
VISUALSTYLE
  5
1002D
102
{ACAD_XDICTIONARY
360
10607
102
}
102
{ACAD_REACTORS
330
1001D
102
}
330
1001D
100
AcDbVisualStyle
  2
ColorChange
 70
    16
177
     2
291
     1
 71
     2
176
     1
 72
     2
176
     1
 73
     3
176
     1
 90
        0
176
     1
 40
0.6
176
     1
 41
30.0
176
     1
 63
     8
421
  8421504
176
     1
 74
     1
176
     1
 91
        4
176
     1
 64
     7
176
     1
 65
   257
176
     1
 75
     1
176
     1
175
     1
176
     1
 42
1.0
176
     1
 92
        8
176
     1
 66
     8
424
  8421504
176
     1
 43
1.0
176
     1
 76
     1
176
     1
 77
     6
176
     1
 78
     2
176
     1
 67
     7
176
     1
 79
     5
176
     1
170
     0
176
     1
171
     0
176
     1
290
     0
176
     1
 93
        1
176
     1
 44
0.0
176
     1
173
     0
176
     1
1001
ACAD
1000
AcDbSavedByObjectVersion
1070
     0
  0
VISUALSTYLE
  5
10026
102
{ACAD_XDICTIONARY
360
105F9
102
}
102
{ACAD_REACTORS
330
1001D
102
}
330
1001D
100
AcDbVisualStyle
  2
Conceptual
 70
     9
177
     2
291
     0
 71
     3
176
     1
 72
     2
176
     1
 73
     0
176
     1
 90
        0
176
     1
 40
0.6
176
     1
 41
30.0
176
     1
 63
     7
421
 16777215
176
     1
 74
     2
176
     1
 91
        2
176
     1
 64
     7
176
     1
 65
   257
176
     1
 75
     1
176
     1
175
     1
176
     1
 42
179.0
176
     1
 92
        8
176
     1
 66
     7
176
     1
 43
1.0
176
     1
 76
     1
176
     1
 77
     6
176
     1
 78
     2
176
     1
 67
     7
176
     1
 79
     3
176
     1
170
     0
176
     1
171
     0
176
     1
290
     0
176
     1
 93
        1
176
     1
 44
0.0
176
     1
173
     0
176
     1
1001
ACAD
1000
AcDbSavedByObjectVersion
1070
     0
  0
VISUALSTYLE
  5
10028
102
{ACAD_XDICTIONARY
360
105FD
102
}
102
{ACAD_REACTORS
330
1001D
102
}
330
1001D
100
AcDbVisualStyle
  2
Dim
 70
    11
177
     2
291
     1
 71
     2
176
     1
 72
     2
176
     1
 73
     0
176
     1
 90
        0
176
     1
 40
0.6
176
     1
 41
30.0
176
     1
 63
     7
421
 16777215
176
     1
 74
     1
176
     1
 91
        4
176
     1
 64
     7
176
     1
 65
   257
176
     1
 75
     1
176
     1
175
     1
176
     1
 42
1.0
176
     1
 92
        8
176
     1
 66
     7
176
     1
 43
1.0
176
     1
 76
     1
176
     1
 77
     6
176
     1
 78
     2
176
     1
 67
     7
176
     1
 79
     5
176
     1
170
     0
176
     1
171
     0
176
     1
290
     0
176
     1
 93
        1
176
     1
 44
-50.0
176
     1
173
     0
176
     1
1001
ACAD
1000
AcDbSavedByObjectVersion
1070
     0
  0
VISUALSTYLE
  5
10035
102
{ACAD_XDICTIONARY
360
10617
102
}
102
{ACAD_REACTORS
330
1001D
102
}
330
1001D
100
AcDbVisualStyle
  2
EdgeColorOff
 70
    22
177
     2
291
     1
 71
     2
176
     0
 72
     2
176
     0
 73
     0
176
     0
 90
        0
176
     0
 40
0.6
176
     0
 41
30.0
176
     0
 63
     7
421
 16777215
176
     0
 74
     1
176
     0
 91
        4
176
     0
 64
     7
176
     0
 65
   257
176
     0
 75
     1
176
     0
175
     1
176
     0
 42
1.0
176
     0
 92
        8
176
     2
 66
     7
176
     0
 43
1.0
176
     0
 76
     1
176
     0
 77
     6
176
     0
 78
     2
176
     0
 67
     7
176
     0
 79
     5
176
     0
170
     0
176
     0
171
     0
176
     0
290
     0
176
     0
 93
        1
176
     0
 44
0.0
176
     0
173
     0
176
     0
1001
ACAD
1000
AcDbSavedByObjectVersion
1070
     0
  0
VISUALSTYLE
  5
1002C
102
{ACAD_XDICTIONARY
360
10605
102
}
102
{ACAD_REACTORS
330
1001D
102
}
330
1001D
100
AcDbVisualStyle
  2
Facepattern
 70
    15
177
     2
291
     1
 71
     2
176
     1
 72
     2
176
     1
 73
     0
176
     1
 90
        0
176
     1
 40
0.6
176
     1
 41
30.0
176
     1
 63
     7
421
 16777215
176
     1
 74
     1
176
     1
 91
        4
176
     1
 64
     7
176
     1
 65
   257
176
     1
 75
     1
176
     1
175
     1
176
     1
 42
1.0
176
     1
 92
        8
176
     1
 66
     7
176
     1
 43
1.0
176
     1
 76
     1
176
     1
 77
     6
176
     1
 78
     2
176
     1
 67
     7
176
     1
 79
     5
176
     1
170
     0
176
     1
171
     0
176
     1
290
     0
176
     1
 93
        1
176
     1
 44
0.0
176
     1
173
     0
176
     1
1001
ACAD
1000
AcDbSavedByObjectVersion
1070
     0
  0
VISUALSTYLE
  5
1001E
102
{ACAD_XDICTIONARY
360
105E9
102
}
102
{ACAD_REACTORS
330
1001D
102
}
330
1001D
100
AcDbVisualStyle
  2
Flat
 70
     0
177
     2
291
     1
 71
     2
176
     1
 72
     1
176
     1
 73
     1
176
     1
 90
        2
176
     1
 40
0.6
176
     1
 41
30.0
176
     1
 63
     7
421
 16777215
176
     1
 74
     0
176
     1
 91
        0
176
     1
 64
     7
176
     1
 65
   257
176
     1
 75
     1
176
     1
175
     1
176
     1
 42
1.0
176
     1
 92
        8
176
     1
 66
     7
176
     1
 43
1.0
176
     1
 76
     1
176
     1
 77
     6
176
     1
 78
     2
176
     1
 67
     7
176
     1
 79
     5
176
     1
170
     0
176
     1
171
     0
176
     1
290
     0
176
     1
 93
       13
176
     1
 44
0.0
176
     1
173
     0
176
     1
1001
ACAD
1000
AcDbSavedByObjectVersion
1070
     0
  0
VISUALSTYLE
  5
1001F
102
{ACAD_XDICTIONARY
360
105EB
102
}
102
{ACAD_REACTORS
330
1001D
102
}
330
1001D
100
AcDbVisualStyle
  2
FlatWithEdges
 70
     1
177
     2
291
     1
 71
     2
176
     1
 72
     1
176
     1
 73
     1
176
     1
 90
        2
176
     1
 40
0.6
176
     1
 41
30.0
176
     1
 63
     7
421
 16777215
176
     1
 74
     1
176
     1
 91
        0
176
     1
 64
     7
176
     1
 65
   257
176
     1
 75
     1
176
     1
175
     1
176
     1
 42
1.0
176
     1
 92
        0
176
     1
 66
   257
176
     1
 43
1.0
176
     1
 76
     1
176
     1
 77
     6
176
     1
 78
     2
176
     1
 67
     7
176
     1
 79
     5
176
     1
170
     0
176
     1
171
     0
176
     1
290
     0
176
     1
 93
       13
176
     1
 44
0.0
176
     1
173
     0
176
     1
1001
ACAD
1000
AcDbSavedByObjectVersion
1070
     0
  0
VISUALSTYLE
  5
10020
102
{ACAD_XDICTIONARY
360
105ED
102
}
102
{ACAD_REACTORS
330
1001D
102
}
330
1001D
100
AcDbVisualStyle
  2
Gouraud
 70
     2
177
     2
291
     1
 71
     2
176
     1
 72
     2
176
     1
 73
     1
176
     1
 90
        2
176
     1
 40
0.6
176
     1
 41
30.0
176
     1
 63
     7
421
 16777215
176
     1
 74
     0
176
     1
 91
        0
176
     1
 64
     7
176
     1
 65
   257
176
     1
 75
     1
176
     1
175
     1
176
     1
 42
1.0
176
     1
 92
        0
176
     1
 66
     7
176
     1
 43
1.0
176
     1
 76
     1
176
     1
 77
     6
176
     1
 78
     2
176
     1
 67
     7
176
     1
 79
     5
176
     1
170
     0
176
     1
171
     0
176
     1
290
     0
176
     1
 93
       13
176
     1
 44
0.0
176
     1
173
     0
176
     1
1001
ACAD
1000
AcDbSavedByObjectVersion
1070
     0
  0
VISUALSTYLE
  5
10021
102
{ACAD_XDICTIONARY
360
105EF
102
}
102
{ACAD_REACTORS
330
1001D
102
}
330
1001D
100
AcDbVisualStyle
  2
GouraudWithEdges
 70
     3
177
     2
291
     1
 71
     2
176
     1
 72
     2
176
     1
 73
     1
176
     1
 90
        2
176
     1
 40
0.6
176
     1
 41
30.0
176
     1
 63
     7
421
 16777215
176
     1
 74
     1
176
     1
 91
        0
176
     1
 64
     7
176
     1
 65
   257
176
     1
 75
     1
176
     1
175
     1
176
     1
 42
1.0
176
     1
 92
        0
176
     1
 66
   257
176
     1
 43
1.0
176
     1
 76
     1
176
     1
 77
     6
176
     1
 78
     2
176
     1
 67
     7
176
     1
 79
     5
176
     1
170
     0
176
     1
171
     0
176
     1
290
     0
176
     1
 93
       13
176
     1
 44
0.0
176
     1
173
     0
176
     1
1001
ACAD
1000
AcDbSavedByObjectVersion
1070
     0
  0
VISUALSTYLE
  5
10025
102
{ACAD_XDICTIONARY
360
105F7
102
}
102
{ACAD_REACTORS
330
1001D
102
}
330
1001D
100
AcDbVisualStyle
  2
Hidden
 70
     6
177
     2
291
     0
 71
     1
176
     1
 72
     2
176
     1
 73
     2
176
     1
 90
        0
176
     1
 40
0.6
176
     1
 41
30.0
176
     1
 63
     7
421
 16777215
176
     1
 74
     2
176
     1
 91
        2
176
     1
 64
     7
176
     1
 65
   257
176
     1
 75
     2
176
     1
175
     1
176
     1
 42
40.0
176
     1
 92
        0
176
     1
 66
   257
176
     1
 43
1.0
176
     1
 76
     1
176
     1
 77
     6
176
     1
 78
     2
176
     1
 67
     7
176
     1
 79
     3
176
     1
170
     0
176
     1
171
     0
176
     1
290
     0
176
     1
 93
        1
176
     1
 44
0.0
176
     1
173
     0
176
     1
1001
ACAD
1000
AcDbSavedByObjectVersion
1070
     0
  0
VISUALSTYLE
  5
10033
102
{ACAD_XDICTIONARY
360
10613
102
}
102
{ACAD_REACTORS
330
1001D
102
}
330
1001D
100
AcDbVisualStyle
  2
JitterOff
 70
    20
177
     2
291
     1
 71
     2
176
     0
 72
     2
176
     0
 73
     0
176
     0
 90
        0
176
     0
 40
0.6
176
     0
 41
30.0
176
     0
 63
     7
421
 16777215
176
     0
 74
     1
176
     0
 91
        4
176
     0
 64
     7
176
     0
 65
   257
176
     0
 75
     1
176
     0
175
     1
176
     0
 42
1.0
176
     0
 92
       10
176
     2
 66
     7
176
     0
 43
1.0
176
     0
 76
     1
176
     0
 77
     6
176
     0
 78
     2
176
     0
 67
     7
176
     0
 79
     5
176
     0
170
     0
176
     0
171
     0
176
     0
290
     0
176
     0
 93
        1
176
     0
 44
0.0
176
     0
173
     0
176
     0
1001
ACAD
1000
AcDbSavedByObjectVersion
1070
     0
  0
VISUALSTYLE
  5
1002B
102
{ACAD_XDICTIONARY
360
10603
102
}
102
{ACAD_REACTORS
330
1001D
102
}
330
1001D
100
AcDbVisualStyle
  2
Linepattern
 70
    14
177
     2
291
     1
 71
     2
176
     1
 72
     2
176
     1
 73
     0
176
     1
 90
        0
176
     1
 40
0.6
176
     1
 41
30.0
176
     1
 63
     7
421
 16777215
176
     1
 74
     1
176
     1
 91
        4
176
     1
 64
     7
176
     1
 65
   257
176
     1
 75
     7
176
     1
175
     7
176
     1
 42
1.0
176
     1
 92
        8
176
     1
 66
     7
176
     1
 43
1.0
176
     1
 76
     1
176
     1
 77
     6
176
     1
 78
     2
176
     1
 67
     7
176
     1
 79
     5
176
     1
170
     0
176
     1
171
     0
176
     1
290
     0
176
     1
 93
        1
176
     1
 44
0.0
176
     1
173
     0
176
     1
1001
ACAD
1000
AcDbSavedByObjectVersion
1070
     0
  0
VISUALSTYLE
  5
10034
102
{ACAD_XDICTIONARY
360
10615
102
}
102
{ACAD_REACTORS
330
1001D
102
}
330
1001D
100
AcDbVisualStyle
  2
OverhangOff
 70
    21
177
     2
291
     1
 71
     2
176
     0
 72
     2
176
     0
 73
     0
176
     0
 90
        0
176
     0
 40
0.6
176
     0
 41
30.0
176
     0
 63
     7
421
 16777215
176
     0
 74
     1
176
     0
 91
        4
176
     0
 64
     7
176
     0
 65
   257
176
     0
 75
     1
176
     0
175
     1
176
     0
 42
1.0
176
     0
 92
        9
176
     2
 66
     7
176
     0
 43
1.0
176
     0
 76
     1
176
     0
 77
     6
176
     0
 78
     2
176
     0
 67
     7
176
     0
 79
     5
176
     0
170
     0
176
     0
171
     0
176
     0
290
     0
176
     0
 93
        1
176
     0
 44
0.0
176
     0
173
     0
176
     0
1001
ACAD
1000
AcDbSavedByObjectVersion
1070
     0
  0
VISUALSTYLE
  5
10027
102
{ACAD_XDICTIONARY
360
105FB
102
}
102
{ACAD_REACTORS
330
1001D
102
}
330
1001D
100
AcDbVisualStyle
  2
Realistic
 70
     8
177
     2
291
     0
 71
     2
176
     1
 72
     3
176
     1
 73
     0
176
     1
 90
        2
176
     1
 40
0.6
176
     1
 41
30.0
176
     1
 63
     7
421
 16777215
176
     1
 74
     0
176
     1
 91
        0
176
     1
 64
     7
176
     1
 65
   257
176
     1
 75
     1
176
     1
175
     1
176
     1
 42
1.0
176
     1
 92
        8
176
     1
 66
   257
176
     1
 43
1.0
176
     1
 76
     1
176
     1
 77
     6
176
     1
 78
     2
176
     1
 67
     7
176
     1
 79
     3
176
     1
170
     0
176
     1
171
     0
176
     1
290
     0
176
     1
 93
       13
176
     1
 44
0.0
176
     1
173
     0
176
     1
1001
ACAD
1000
AcDbSavedByObjectVersion
1070
     0
  0
VISUALSTYLE
  5
10032
102
{ACAD_XDICTIONARY
360
10611
102
}
102
{ACAD_REACTORS
330
1001D
102
}
330
1001D
100
AcDbVisualStyle
  2
Shaded
 70
    27
177
     2
291
     0
 71
     2
176
     1
 72
     2
176
     1
 73
     1
176
     1
 90
        2
176
     1
 40
0.6
176
     1
 41
30.0
176
     1
 63
     7
421
 16777215
176
     1
 74
     0
176
     1
 91
        4
176
     1
 64
     7
176
     1
 65
   257
176
     1
 75
     1
176
     1
175
     1
176
     1
 42
1.0
176
     1
 92
        8
176
     1
 66
   257
176
     1
 43
1.0
176
     1
 76
     1
176
     1
 77
     6
176
     1
 78
     2
176
     1
 67
     8
425
  7895160
176
     1
 79
     3
176
     1
170
     0
176
     1
171
     0
176
     1
290
     0
176
     1
 93
        5
176
     1
 44
0.0
176
     1
173
     0
176
     1
1001
ACAD
1000
AcDbSavedByObjectVersion
1070
     0
  0
VISUALSTYLE
  5
10031
102
{ACAD_XDICTIONARY
360
1060F
102
}
102
{ACAD_REACTORS
330
1001D
102
}
330
1001D
100
AcDbVisualStyle
  2
Shaded with edges
 70
    26
177
     2
291
     0
 71
     2
176
     1
 72
     2
176
     1
 73
     1
176
     1
 90
        2
176
     1
 40
0.6
176
     1
 41
30.0
176
     1
 63
     7
421
 16777215
176
     1
 74
     1
176
     1
 91
       10
176
     1
 64
     7
176
     1
 65
   257
176
     1
 75
     2
176
     1
175
     1
176
     1
 42
1.0
176
     1
 92
        8
176
     1
 66
   257
176
     1
 43
1.0
176
     1
 76
     1
176
     1
 77
     6
176
     1
 78
     2
176
     1
 67
     7
176
     1
 79
     3
176
     1
170
     0
176
     1
171
     0
176
     1
290
     0
176
     1
 93
        5
176
     1
 44
0.0
176
     1
173
     0
176
     1
1001
ACAD
1000
AcDbSavedByObjectVersion
1070
     0
  0
VISUALSTYLE
  5
1002E
102
{ACAD_XDICTIONARY
360
10609
102
}
102
{ACAD_REACTORS
330
1001D
102
}
330
1001D
100
AcDbVisualStyle
  2
Shades of Gray
 70
    23
177
     2
291
     0
 71
     2
176
     1
 72
     2
176
     1
 73
     3
176
     1
 90
        0
176
     1
 40
0.6
176
     1
 41
30.0
176
     1
 63
     7
421
 16777215
176
     1
 74
     2
176
     1
 91
        2
176
     1
 64
     7
176
     1
 65
     7
176
     1
 75
     1
176
     1
175
     1
176
     1
 42
40.0
176
     1
 92
        8
176
     1
 66
     7
176
     1
 43
1.0
176
     1
 76
     1
176
     1
 77
     6
176
     1
 78
     2
176
     1
 67
     7
176
     1
 79
     3
176
     1
170
     0
176
     1
171
     0
176
     1
290
     0
176
     1
 93
        1
176
     1
 44
0.0
176
     1
173
     0
176
     1
1001
ACAD
1000
AcDbSavedByObjectVersion
1070
     0
  0
VISUALSTYLE
  5
1002F
102
{ACAD_XDICTIONARY
360
1060B
102
}
102
{ACAD_REACTORS
330
1001D
102
}
330
1001D
100
AcDbVisualStyle
  2
Sketchy
 70
    24
177
     2
291
     0
 71
     1
176
     1
 72
     2
176
     1
 73
     2
176
     1
 90
        0
176
     1
 40
0.6
176
     1
 41
30.0
176
     1
 63
     7
421
 16777215
176
     1
 74
     2
176
     1
 91
        2
176
     1
 64
     7
176
     1
 65
     7
176
     1
 75
     1
176
     1
175
     1
176
     1
 42
40.0
176
     1
 92
       11
176
     1
 66
     7
176
     1
 43
1.0
176
     1
 76
     1
176
     1
 77
     6
176
     1
 78
     2
176
     1
 67
     7
176
     1
 79
     6
176
     1
170
     0
176
     1
171
     0
176
     1
290
     0
176
     1
 93
        1
176
     1
 44
0.0
176
     1
173
     0
176
     1
1001
ACAD
1000
AcDbSavedByObjectVersion
1070
     0
  0
VISUALSTYLE
  5
1002A
102
{ACAD_XDICTIONARY
360
10601
102
}
102
{ACAD_REACTORS
330
1001D
102
}
330
1001D
100
AcDbVisualStyle
  2
Thicken
 70
    13
177
     2
291
     1
 71
     2
176
     1
 72
     2
176
     1
 73
     0
176
     1
 90
        0
176
     1
 40
0.6
176
     1
 41
30.0
176
     1
 63
     7
421
 16777215
176
     1
 74
     1
176
     1
 91
        4
176
     1
 64
     7
176
     1
 65
   257
176
     1
 75
     1
176
     1
175
     1
176
     1
 42
1.0
176
     1
 92
       12
176
     1
 66
     7
176
     1
 43
1.0
176
     1
 76
     1
176
     1
 77
     6
176
     1
 78
     2
176
     1
 67
     7
176
     1
 79
     5
176
     1
170
     0
176
     1
171
     0
176
     1
290
     0
176
     1
 93
        1
176
     1
 44
0.0
176
     1
173
     0
176
     1
1001
ACAD
1000
AcDbSavedByObjectVersion
1070
     0
  0
VISUALSTYLE
  5
10024
102
{ACAD_XDICTIONARY
360
105F5
102
}
102
{ACAD_REACTORS
330
1001D
102
}
330
1001D
100
AcDbVisualStyle
  2
Wireframe
 70
     5
177
     2
291
     0
 71
     0
176
     1
 72
     2
176
     1
 73
     0
176
     1
 90
        0
176
     1
 40
0.6
176
     1
 41
30.0
176
     1
 63
     7
421
 16777215
176
     1
 74
     1
176
     1
 91
        4
176
     1
 64
     7
176
     1
 65
   257
176
     1
 75
     1
176
     1
175
     1
176
     1
 42
1.0
176
     1
 92
        0
176
     1
 66
   257
176
     1
 43
1.0
176
     1
 76
     1
176
     1
 77
     6
176
     1
 78
     2
176
     1
 67
     7
176
     1
 79
     3
176
     1
170
     0
176
     1
171
     0
176
     1
290
     0
176
     1
 93
        1
176
     1
 44
0.0
176
     1
173
     0
176
     1
1001
ACAD
1000
AcDbSavedByObjectVersion
1070
     0
  0
VISUALSTYLE
  5
10030
102
{ACAD_XDICTIONARY
360
1060D
102
}
102
{ACAD_REACTORS
330
1001D
102
}
330
1001D
100
AcDbVisualStyle
  2
X-Ray
 70
    25
177
     2
291
     0
 71
     2
176
     1
 72
     2
176
     1
 73
     1
176
     1
 90
        1
176
     1
 40
0.5
176
     1
 41
30.0
176
     1
 63
     7
421
 16777215
176
     1
 74
     1
176
     1
 91
        0
176
     1
 64
     7
176
     1
 65
   257
176
     1
 75
     1
176
     1
175
     1
176
     1
 42
1.0
176
     1
 92
        8
176
     1
 66
     7
176
     1
 43
1.0
176
     1
 76
     1
176
     1
 77
     6
176
     1
 78
     2
176
     1
 67
     7
176
     1
 79
     3
176
     1
170
     0
176
     1
171
     0
176
     1
290
     0
176
     1
 93
       13
176
     1
 44
0.0
176
     1
173
     0
176
     1
1001
ACAD
1000
AcDbSavedByObjectVersion
1070
     0
  0
DICTIONARYVAR
  5
105D7
102
{ACAD_REACTORS
330
105D1
102
}
330
105D1
100
DictionaryVariables
280
     0
  1
1:1
  0
DICTIONARYVAR
  5
105D3
102
{ACAD_REACTORS
330
105D1
102
}
330
105D1
100
DictionaryVariables
280
     0
  1
STANDARD
  0
DICTIONARYVAR
  5
105D2
102
{ACAD_REACTORS
330
105D1
102
}
330
105D1
100
DictionaryVariables
280
     0
  1
STANDARD
  0
DICTIONARYVAR
  5
105D4
102
{ACAD_REACTORS
330
105D1
102
}
330
105D1
100
DictionaryVariables
280
     0
  1
Imperial24
  0
DICTIONARYVAR
  5
105D5
102
{ACAD_REACTORS
330
105D1
102
}
330
105D1
100
DictionaryVariables
280
     0
  1
Imperial24
  0
DICTIONARYVAR
  5
105D9
102
{ACAD_REACTORS
330
105D1
102
}
330
105D1
100
DictionaryVariables
280
     0
  1
1
  0
DICTIONARYVAR
  5
105DA
102
{ACAD_REACTORS
330
105D1
102
}
330
105D1
100
DictionaryVariables
280
     0
  1
15
  0
DICTIONARYVAR
  5
105D8
102
{ACAD_REACTORS
330
105D1
102
}
330
105D1
100
DictionaryVariables
280
     0
  1
0
  0
DICTIONARYVAR
  5
105D6
102
{ACAD_REACTORS
330
105D1
102
}
330
105D1
100
DictionaryVariables
280
     0
  1
0
  0
DICTIONARY
  5
105E8
102
{ACAD_REACTORS
330
105E6
102
}
330
105E6
100
AcDbDictionary
281
     1
  0
DICTIONARY
  5
105E7
102
{ACAD_REACTORS
330
105E6
102
}
330
105E6
100
AcDbDictionary
281
     1
  3
140686890412304
350
105E1
  3
140686890412320
350
105E2
  3
140686890412336
350
105E3
  3
140686890412352
350
105E4
  3
140686890412368
350
105E5
  0
DICTIONARY
  5
105CE
330
10051
100
AcDbDictionary
280
     1
281
     1
  3
ACAD_XREC_ROUNDTRIP
360
1061A
  0
DICTIONARY
  5
1000E
330
1000D
100
AcDbDictionary
280
     1
281
     1
  3
BUMPTILE
360
10010
  3
DIFFUSETILE
360
1000F
  3
OPACITYTILE
360
10013
  3
REFLECTIONTILE
360
10012
  3
REFRACTIONTILE
360
10014
  3
SPECULARTILE
360
10011
  0
DICTIONARY
  5
10006
330
10005
100
AcDbDictionary
280
     1
281
     1
  3
BUMPTILE
360
10008
  3
DIFFUSETILE
360
10007
  3
OPACITYTILE
360
1000B
  3
REFLECTIONTILE
360
1000A
  3
REFRACTIONTILE
360
1000C
  3
SPECULARTILE
360
10009
  0
DICTIONARY
  5
10016
330
10015
100
AcDbDictionary
280
     1
281
     1
  3
BUMPTILE
360
10018
  3
DIFFUSETILE
360
10017
  3
OPACITYTILE
360
1001B
  3
REFLECTIONTILE
360
1001A
  3
REFRACTIONTILE
360
1001C
  3
SPECULARTILE
360
10019
  0
XRECORD
  5
1061D
102
{ACAD_REACTORS
330
1061C
102
}
330
1061C
100
AcDbXrecord
280
     1
 70
     2
 71
     3
 72
     0
  0
DICTIONARY
  5
105CC
330
1004F
100
AcDbDictionary
280
     1
281
     1
  3
ACAD_XREC_ROUNDTRIP
360
10619
  0
DICTIONARY
  5
105DE
330
10038
100
AcDbDictionary
280
     1
281
     1
  3
ACAD_ROUNDTRIP_2008_TABLESTYLE_CELLSTYLEMAP
360
105DF
  0
DICTIONARY
  5
105F3
330
10023
100
AcDbDictionary
280
     1
281
     1
  3
ACAD_XREC_ROUNDTRIP
360
105F4
  0
DICTIONARY
  5
105F1
330
10022
100
AcDbDictionary
280
     1
281
     1
  3
ACAD_XREC_ROUNDTRIP
360
105F2
  0
DICTIONARY
  5
105FF
330
10029
100
AcDbDictionary
280
     1
281
     1
  3
ACAD_XREC_ROUNDTRIP
360
10600
  0
DICTIONARY
  5
10607
330
1002D
100
AcDbDictionary
280
     1
281
     1
  3
ACAD_XREC_ROUNDTRIP
360
10608
  0
DICTIONARY
  5
105F9
330
10026
100
AcDbDictionary
280
     1
281
     1
  3
ACAD_XREC_ROUNDTRIP
360
105FA
  0
DICTIONARY
  5
105FD
330
10028
100
AcDbDictionary
280
     1
281
     1
  3
ACAD_XREC_ROUNDTRIP
360
105FE
  0
DICTIONARY
  5
10617
330
10035
100
AcDbDictionary
280
     1
281
     1
  3
ACAD_XREC_ROUNDTRIP
360
10618
  0
DICTIONARY
  5
10605
330
1002C
100
AcDbDictionary
280
     1
281
     1
  3
ACAD_XREC_ROUNDTRIP
360
10606
  0
DICTIONARY
  5
105E9
330
1001E
100
AcDbDictionary
280
     1
281
     1
  3
ACAD_XREC_ROUNDTRIP
360
105EA
  0
DICTIONARY
  5
105EB
330
1001F
100
AcDbDictionary
280
     1
281
     1
  3
ACAD_XREC_ROUNDTRIP
360
105EC
  0
DICTIONARY
  5
105ED
330
10020
100
AcDbDictionary
280
     1
281
     1
  3
ACAD_XREC_ROUNDTRIP
360
105EE
  0
DICTIONARY
  5
105EF
330
10021
100
AcDbDictionary
280
     1
281
     1
  3
ACAD_XREC_ROUNDTRIP
360
105F0
  0
DICTIONARY
  5
105F7
330
10025
100
AcDbDictionary
280
     1
281
     1
  3
ACAD_XREC_ROUNDTRIP
360
105F8
  0
DICTIONARY
  5
10613
330
10033
100
AcDbDictionary
280
     1
281
     1
  3
ACAD_XREC_ROUNDTRIP
360
10614
  0
DICTIONARY
  5
10603
330
1002B
100
AcDbDictionary
280
     1
281
     1
  3
ACAD_XREC_ROUNDTRIP
360
10604
  0
DICTIONARY
  5
10615
330
10034
100
AcDbDictionary
280
     1
281
     1
  3
ACAD_XREC_ROUNDTRIP
360
10616
  0
DICTIONARY
  5
105FB
330
10027
100
AcDbDictionary
280
     1
281
     1
  3
ACAD_XREC_ROUNDTRIP
360
105FC
  0
DICTIONARY
  5
10611
330
10032
100
AcDbDictionary
280
     1
281
     1
  3
ACAD_XREC_ROUNDTRIP
360
10612
  0
DICTIONARY
  5
1060F
330
10031
100
AcDbDictionary
280
     1
281
     1
  3
ACAD_XREC_ROUNDTRIP
360
10610
  0
DICTIONARY
  5
10609
330
1002E
100
AcDbDictionary
280
     1
281
     1
  3
ACAD_XREC_ROUNDTRIP
360
1060A
  0
DICTIONARY
  5
1060B
330
1002F
100
AcDbDictionary
280
     1
281
     1
  3
ACAD_XREC_ROUNDTRIP
360
1060C
  0
DICTIONARY
  5
10601
330
1002A
100
AcDbDictionary
280
     1
281
     1
  3
ACAD_XREC_ROUNDTRIP
360
10602
  0
DICTIONARY
  5
105F5
330
10024
100
AcDbDictionary
280
     1
281
     1
  3
ACAD_XREC_ROUNDTRIP
360
105F6
  0
DICTIONARY
  5
1060D
330
10030
100
AcDbDictionary
280
     1
281
     1
  3
ACAD_XREC_ROUNDTRIP
360
1060E
  0
XRECORD
  5
105E1
102
{ACAD_REACTORS
330
105E7
102
}
330
105E7
100
AcDbXrecord
280
     1
  1
AcDb_Thumbnail_Schema
102
{ATTRRECORD
341
105E2
  2
AcDbDs::TreatedAsObjectData
280
     1
291
     1
102
ATTRRECORD}
102
{ATTRRECORD
341
105E3
  2
AcDbDs::Legacy
280
     1
291
     1
102
ATTRRECORD}
  2
AcDbDs::ID
280
    10
 91
        8
102
{ATTRRECORD
341
105E4
  2
AcDs:Indexable
280
     1
291
     1
102
ATTRRECORD}
102
{ATTRRECORD
341
105E5
  2
AcDbDs::HandleAttribute
280
     7
282
     1
102
ATTRRECORD}
  2
Thumbnail_Data
280
    15
 91
        0
  0
XRECORD
  5
105E2
102
{ACAD_REACTORS
330
105E7
102
}
330
105E7
100
AcDbXrecord
280
     1
  1
AcDbDs::TreatedAsObjectDataSchema
  2
AcDbDs::TreatedAsObjectData
280
     1
 91
        0
  0
XRECORD
  5
105E3
102
{ACAD_REACTORS
330
105E7
102
}
330
105E7
100
AcDbXrecord
280
     1
  1
AcDbDs::LegacySchema
  2
AcDbDs::Legacy
280
     1
 91
        0
  0
XRECORD
  5
105E4
102
{ACAD_REACTORS
330
105E7
102
}
330
105E7
100
AcDbXrecord
280
     1
  1
AcDbDs::IndexedPropertySchema
  2
AcDs:Indexable
280
     1
 91
        0
  0
XRECORD
  5
105E5
102
{ACAD_REACTORS
330
105E7
102
}
330
105E7
100
AcDbXrecord
280
     1
  1
AcDbDs::HandleAttributeSchema
  2
AcDbDs::HandleAttribute
280
     7
 91
        1
284
     1
  0
XRECORD
  5
1061A
102
{ACAD_REACTORS
330
105CE
102
}
330
105CE
100
AcDbXrecord
280
     1
102
DISPLAYNAME
  1
Imperial24
102
FLAGS
 90
        0
  0
XRECORD
  5
10010
102
{ACAD_REACTORS
330
1000E
102
}
330
1000E
100
AcDbXrecord
280
     1
270
     1
271
     1
  0
XRECORD
  5
1000F
102
{ACAD_REACTORS
330
1000E
102
}
330
1000E
100
AcDbXrecord
280
     1
270
     1
271
     1
  0
XRECORD
  5
10013
102
{ACAD_REACTORS
330
1000E
102
}
330
1000E
100
AcDbXrecord
280
     1
270
     1
271
     1
  0
XRECORD
  5
10012
102
{ACAD_REACTORS
330
1000E
102
}
330
1000E
100
AcDbXrecord
280
     1
270
     1
271
     1
  0
XRECORD
  5
10014
102
{ACAD_REACTORS
330
1000E
102
}
330
1000E
100
AcDbXrecord
280
     1
270
     1
271
     1
  0
XRECORD
  5
10011
102
{ACAD_REACTORS
330
1000E
102
}
330
1000E
100
AcDbXrecord
280
     1
270
     1
271
     1
  0
XRECORD
  5
10008
102
{ACAD_REACTORS
330
10006
102
}
330
10006
100
AcDbXrecord
280
     1
270
     1
271
     1
  0
XRECORD
  5
10007
102
{ACAD_REACTORS
330
10006
102
}
330
10006
100
AcDbXrecord
280
     1
270
     1
271
     1
  0
XRECORD
  5
1000B
102
{ACAD_REACTORS
330
10006
102
}
330
10006
100
AcDbXrecord
280
     1
270
     1
271
     1
  0
XRECORD
  5
1000A
102
{ACAD_REACTORS
330
10006
102
}
330
10006
100
AcDbXrecord
280
     1
270
     1
271
     1
  0
XRECORD
  5
1000C
102
{ACAD_REACTORS
330
10006
102
}
330
10006
100
AcDbXrecord
280
     1
270
     1
271
     1
  0
XRECORD
  5
10009
102
{ACAD_REACTORS
330
10006
102
}
330
10006
100
AcDbXrecord
280
     1
270
     1
271
     1
  0
XRECORD
  5
10018
102
{ACAD_REACTORS
330
10016
102
}
330
10016
100
AcDbXrecord
280
     1
270
     1
271
     1
  0
XRECORD
  5
10017
102
{ACAD_REACTORS
330
10016
102
}
330
10016
100
AcDbXrecord
280
     1
270
     1
271
     1
  0
XRECORD
  5
1001B
102
{ACAD_REACTORS
330
10016
102
}
330
10016
100
AcDbXrecord
280
     1
270
     1
271
     1
  0
XRECORD
  5
1001A
102
{ACAD_REACTORS
330
10016
102
}
330
10016
100
AcDbXrecord
280
     1
270
     1
271
     1
  0
XRECORD
  5
1001C
102
{ACAD_REACTORS
330
10016
102
}
330
10016
100
AcDbXrecord
280
     1
270
     1
271
     1
  0
XRECORD
  5
10019
102
{ACAD_REACTORS
330
10016
102
}
330
10016
100
AcDbXrecord
280
     1
270
     1
271
     1
  0
XRECORD
  5
10619
102
{ACAD_REACTORS
330
105CC
102
}
330
105CC
100
AcDbXrecord
280
     1
102
DISPLAYNAME
  1
Imperial24
102
FLAGS
 90
        0
  0
CELLSTYLEMAP
  5
105DF
102
{ACAD_REACTORS
330
105DE
102
}
330
105DE
100
AcDbCellStyleMap
 90
        3
300
CELLSTYLE
  1
TABLEFORMAT_BEGIN
 90
        5
170
     1
 91
        0
 92
    32768
 62
   257
 93
        1
300
CONTENTFORMAT
  1
CONTENTFORMAT_BEGIN
 90
        0
 91
        0
 92
      512
 93
        0
300

 40
0.0
140
1.0
 94
        5
 62
     0
340
11
144
0.25
309
CONTENTFORMAT_END
171
     0
 94
        0
309
TABLEFORMAT_END
  1
CELLSTYLE_BEGIN
 90
        1
 91
        1
300
_TITLE
309
CELLSTYLE_END
300
CELLSTYLE
  1
TABLEFORMAT_BEGIN
 90
        5
170
     1
 91
        0
 92
        0
 62
   257
 93
        1
300
CONTENTFORMAT
  1
CONTENTFORMAT_BEGIN
 90
        0
 91
        0
 92
      512
 93
        0
300

 40
0.0
140
1.0
 94
        5
 62
     0
340
11
144
0.18
309
CONTENTFORMAT_END
171
     0
 94
        0
309
TABLEFORMAT_END
  1
CELLSTYLE_BEGIN
 90
        2
 91
        1
300
_HEADER
309
CELLSTYLE_END
300
CELLSTYLE
  1
TABLEFORMAT_BEGIN
 90
        5
170
     1
 91
        0
 92
        0
 62
   257
 93
        1
300
CONTENTFORMAT
  1
CONTENTFORMAT_BEGIN
 90
        0
 91
        0
 92
      512
 93
        0
300

 40
0.0
140
1.0
 94
        2
 62
     0
340
11
144
0.18
309
CONTENTFORMAT_END
171
     0
 94
        0
309
TABLEFORMAT_END
  1
CELLSTYLE_BEGIN
 90
        3
 91
        2
300
_DATA
309
CELLSTYLE_END
  0
XRECORD
  5
105F4
102
{ACAD_REACTORS
330
105F3
102
}
330
105F3
100
AcDbXrecord
280
     1
102
RTVSPost2010Prop28
280
     1
102
RTVSPost2010PropOp28
 70
     1
102
RTVSPost2010Prop29
280
     1
102
RTVSPost2010PropOp29
 70
     1
102
RTVSPost2010Prop30
280
     0
102
RTVSPost2010PropOp30
 70
     1
102
RTVSPost2010Prop31
280
     0
102
RTVSPost2010PropOp31
 70
     1
102
RTVSPost2010Prop32
280
     0
102
RTVSPost2010PropOp32
 70
     1
102
RTVSPost2010Prop33
280
     0
102
RTVSPost2010PropOp33
 70
     1
102
RTVSPost2010Prop34
280
     0
102
RTVSPost2010PropOp34
 70
     1
102
RTVSPost2010Prop35
280
     0
102
RTVSPost2010PropOp35
 70
     1
102
RTVSPost2010Prop36
280
     0
102
RTVSPost2010PropOp36
 70
     1
102
RTVSPost2010Prop37
 90
       50
102
RTVSPost2010PropOp37
 70
     1
102
RTVSPost2010Prop38
140
0.0
102
RTVSPost2010PropOp38
 70
     1
102
RTVSPost2010Prop39
140
1.0
102
RTVSPost2010PropOp39
 70
     1
102
RTVSPost2010Prop40
 90
        0
102
RTVSPost2010PropOp40
 70
     1
102
RTVSPost2010Prop41ColorIndex
 90
       18
102
RTVSPost2010Prop41ColorRGB
 90
        0
102
RTVSPost2010PropOp41
 70
     1
102
RTVSPost2010Prop42
 90
       50
102
RTVSPost2010PropOp42
 70
     1
102
RTVSPost2010Prop43
 90
        3
102
RTVSPost2010PropOp43
 70
     1
102
RTVSPost2010Prop44ColorIndex
 90
        5
102
RTVSPost2010Prop44ColorRGB
 90
      255
102
RTVSPost2010PropOp44
 70
     1
102
RTVSPost2010Prop45
280
     0
102
RTVSPost2010PropOp45
 70
     1
102
RTVSPost2010Prop46
 90
       50
102
RTVSPost2010PropOp46
 70
     1
102
RTVSPost2010Prop47
 90
       50
102
RTVSPost2010PropOp47
 70
     1
102
RTVSPost2010Prop48
 90
       50
102
RTVSPost2010PropOp48
 70
     1
102
RTVSPost2010Prop49
280
     0
102
RTVSPost2010PropOp49
 70
     1
102
RTVSPost2010Prop50
 90
       50
102
RTVSPost2010PropOp50
 70
     1
102
RTVSPost2010Prop51ColorIndex
 90
      256
102
RTVSPost2010Prop51ColorRGB
 90
-16777216
102
RTVSPost2010PropOp51
 70
     0
102
RTVSPost2010Prop52
140
1.0
102
RTVSPost2010PropOp52
 70
     0
102
RTVSPost2010Prop53
 90
        2
102
RTVSPost2010PropOp53
 70
     1
102
RTVSPost2010Prop54
  1
strokes_ogs.tif
102
RTVSPost2010PropOp54
 70
     1
102
RTVSPost2010Prop55
280
     0
102
RTVSPost2010PropOp55
 70
     1
102
RTVSPost2010Prop56
140
1.0
102
RTVSPost2010PropOp56
 70
     1
102
RTVSPost2010Prop57
140
1.0
102
RTVSPost2010PropOp57
 70
     1
  0
XRECORD
  5
105F2
102
{ACAD_REACTORS
330
105F1
102
}
330
105F1
100
AcDbXrecord
280
     1
102
RTVSPost2010Prop28
280
     0
102
RTVSPost2010PropOp28
 70
     1
102
RTVSPost2010Prop29
280
     1
102
RTVSPost2010PropOp29
 70
     1
102
RTVSPost2010Prop30
280
     1
102
RTVSPost2010PropOp30
 70
     1
102
RTVSPost2010Prop31
280
     0
102
RTVSPost2010PropOp31
 70
     1
102
RTVSPost2010Prop32
280
     0
102
RTVSPost2010PropOp32
 70
     1
102
RTVSPost2010Prop33
280
     0
102
RTVSPost2010PropOp33
 70
     1
102
RTVSPost2010Prop34
280
     0
102
RTVSPost2010PropOp34
 70
     1
102
RTVSPost2010Prop35
280
     0
102
RTVSPost2010PropOp35
 70
     1
102
RTVSPost2010Prop36
280
     0
102
RTVSPost2010PropOp36
 70
     1
102
RTVSPost2010Prop37
 90
       50
102
RTVSPost2010PropOp37
 70
     1
102
RTVSPost2010Prop38
140
0.0
102
RTVSPost2010PropOp38
 70
     1
102
RTVSPost2010Prop39
140
1.0
102
RTVSPost2010PropOp39
 70
     1
102
RTVSPost2010Prop40
 90
        0
102
RTVSPost2010PropOp40
 70
     1
102
RTVSPost2010Prop41ColorIndex
 90
       18
102
RTVSPost2010Prop41ColorRGB
 90
        0
102
RTVSPost2010PropOp41
 70
     1
102
RTVSPost2010Prop42
 90
       50
102
RTVSPost2010PropOp42
 70
     1
102
RTVSPost2010Prop43
 90
        3
102
RTVSPost2010PropOp43
 70
     1
102
RTVSPost2010Prop44ColorIndex
 90
        5
102
RTVSPost2010Prop44ColorRGB
 90
      255
102
RTVSPost2010PropOp44
 70
     1
102
RTVSPost2010Prop45
280
     0
102
RTVSPost2010PropOp45
 70
     1
102
RTVSPost2010Prop46
 90
       50
102
RTVSPost2010PropOp46
 70
     1
102
RTVSPost2010Prop47
 90
       50
102
RTVSPost2010PropOp47
 70
     1
102
RTVSPost2010Prop48
 90
       50
102
RTVSPost2010PropOp48
 70
     1
102
RTVSPost2010Prop49
280
     0
102
RTVSPost2010PropOp49
 70
     1
102
RTVSPost2010Prop50
 90
       50
102
RTVSPost2010PropOp50
 70
     1
102
RTVSPost2010Prop51ColorIndex
 90
      256
102
RTVSPost2010Prop51ColorRGB
 90
-16777216
102
RTVSPost2010PropOp51
 70
     0
102
RTVSPost2010Prop52
140
1.0
102
RTVSPost2010PropOp52
 70
     0
102
RTVSPost2010Prop53
 90
        2
102
RTVSPost2010PropOp53
 70
     1
102
RTVSPost2010Prop54
  1
strokes_ogs.tif
102
RTVSPost2010PropOp54
 70
     1
102
RTVSPost2010Prop55
280
     0
102
RTVSPost2010PropOp55
 70
     1
102
RTVSPost2010Prop56
140
1.0
102
RTVSPost2010PropOp56
 70
     1
102
RTVSPost2010Prop57
140
1.0
102
RTVSPost2010PropOp57
 70
     1
  0
XRECORD
  5
10600
102
{ACAD_REACTORS
330
105FF
102
}
330
105FF
100
AcDbXrecord
280
     1
102
RTVSPost2010Prop28
280
     0
102
RTVSPost2010PropOp28
 70
     1
102
RTVSPost2010Prop29
280
     1
102
RTVSPost2010PropOp29
 70
     1
102
RTVSPost2010Prop30
280
     1
102
RTVSPost2010PropOp30
 70
     1
102
RTVSPost2010Prop31
280
     0
102
RTVSPost2010PropOp31
 70
     1
102
RTVSPost2010Prop32
280
     0
102
RTVSPost2010PropOp32
 70
     1
102
RTVSPost2010Prop33
280
     0
102
RTVSPost2010PropOp33
 70
     1
102
RTVSPost2010Prop34
280
     0
102
RTVSPost2010PropOp34
 70
     1
102
RTVSPost2010Prop35
280
     0
102
RTVSPost2010PropOp35
 70
     1
102
RTVSPost2010Prop36
280
     0
102
RTVSPost2010PropOp36
 70
     1
102
RTVSPost2010Prop37
 90
       50
102
RTVSPost2010PropOp37
 70
     1
102
RTVSPost2010Prop38
140
0.0
102
RTVSPost2010PropOp38
 70
     1
102
RTVSPost2010Prop39
140
1.0
102
RTVSPost2010PropOp39
 70
     1
102
RTVSPost2010Prop40
 90
        0
102
RTVSPost2010PropOp40
 70
     1
102
RTVSPost2010Prop41ColorIndex
 90
       18
102
RTVSPost2010Prop41ColorRGB
 90
        0
102
RTVSPost2010PropOp41
 70
     1
102
RTVSPost2010Prop42
 90
       50
102
RTVSPost2010PropOp42
 70
     1
102
RTVSPost2010Prop43
 90
        3
102
RTVSPost2010PropOp43
 70
     1
102
RTVSPost2010Prop44ColorIndex
 90
        5
102
RTVSPost2010Prop44ColorRGB
 90
      255
102
RTVSPost2010PropOp44
 70
     1
102
RTVSPost2010Prop45
280
     0
102
RTVSPost2010PropOp45
 70
     1
102
RTVSPost2010Prop46
 90
       50
102
RTVSPost2010PropOp46
 70
     1
102
RTVSPost2010Prop47
 90
       50
102
RTVSPost2010PropOp47
 70
     1
102
RTVSPost2010Prop48
 90
       50
102
RTVSPost2010PropOp48
 70
     1
102
RTVSPost2010Prop49
280
     0
102
RTVSPost2010PropOp49
 70
     1
102
RTVSPost2010Prop50
 90
       50
102
RTVSPost2010PropOp50
 70
     1
102
RTVSPost2010Prop51ColorIndex
 90
      256
102
RTVSPost2010Prop51ColorRGB
 90
-16777216
102
RTVSPost2010PropOp51
 70
     0
102
RTVSPost2010Prop52
140
1.0
102
RTVSPost2010PropOp52
 70
     0
102
RTVSPost2010Prop53
 90
        2
102
RTVSPost2010PropOp53
 70
     1
102
RTVSPost2010Prop54
  1
strokes_ogs.tif
102
RTVSPost2010PropOp54
 70
     1
102
RTVSPost2010Prop55
280
     0
102
RTVSPost2010PropOp55
 70
     1
102
RTVSPost2010Prop56
140
1.0
102
RTVSPost2010PropOp56
 70
     1
102
RTVSPost2010Prop57
140
1.0
102
RTVSPost2010PropOp57
 70
     1
  0
XRECORD
  5
10608
102
{ACAD_REACTORS
330
10607
102
}
330
10607
100
AcDbXrecord
280
     1
102
RTVSPost2010Prop28
280
     0
102
RTVSPost2010PropOp28
 70
     1
102
RTVSPost2010Prop29
280
     1
102
RTVSPost2010PropOp29
 70
     1
102
RTVSPost2010Prop30
280
     1
102
RTVSPost2010PropOp30
 70
     1
102
RTVSPost2010Prop31
280
     0
102
RTVSPost2010PropOp31
 70
     1
102
RTVSPost2010Prop32
280
     0
102
RTVSPost2010PropOp32
 70
     1
102
RTVSPost2010Prop33
280
     0
102
RTVSPost2010PropOp33
 70
     1
102
RTVSPost2010Prop34
280
     0
102
RTVSPost2010PropOp34
 70
     1
102
RTVSPost2010Prop35
280
     0
102
RTVSPost2010PropOp35
 70
     1
102
RTVSPost2010Prop36
280
     0
102
RTVSPost2010PropOp36
 70
     1
102
RTVSPost2010Prop37
 90
       50
102
RTVSPost2010PropOp37
 70
     1
102
RTVSPost2010Prop38
140
0.0
102
RTVSPost2010PropOp38
 70
     1
102
RTVSPost2010Prop39
140
1.0
102
RTVSPost2010PropOp39
 70
     1
102
RTVSPost2010Prop40
 90
        0
102
RTVSPost2010PropOp40
 70
     1
102
RTVSPost2010Prop41ColorIndex
 90
       18
102
RTVSPost2010Prop41ColorRGB
 90
        0
102
RTVSPost2010PropOp41
 70
     1
102
RTVSPost2010Prop42
 90
       50
102
RTVSPost2010PropOp42
 70
     1
102
RTVSPost2010Prop43
 90
        3
102
RTVSPost2010PropOp43
 70
     1
102
RTVSPost2010Prop44ColorIndex
 90
        5
102
RTVSPost2010Prop44ColorRGB
 90
      255
102
RTVSPost2010PropOp44
 70
     1
102
RTVSPost2010Prop45
280
     0
102
RTVSPost2010PropOp45
 70
     1
102
RTVSPost2010Prop46
 90
       50
102
RTVSPost2010PropOp46
 70
     1
102
RTVSPost2010Prop47
 90
       50
102
RTVSPost2010PropOp47
 70
     1
102
RTVSPost2010Prop48
 90
       50
102
RTVSPost2010PropOp48
 70
     1
102
RTVSPost2010Prop49
280
     0
102
RTVSPost2010PropOp49
 70
     1
102
RTVSPost2010Prop50
 90
       50
102
RTVSPost2010PropOp50
 70
     1
102
RTVSPost2010Prop51ColorIndex
 90
      256
102
RTVSPost2010Prop51ColorRGB
 90
-16777216
102
RTVSPost2010PropOp51
 70
     0
102
RTVSPost2010Prop52
140
1.0
102
RTVSPost2010PropOp52
 70
     0
102
RTVSPost2010Prop53
 90
        2
102
RTVSPost2010PropOp53
 70
     1
102
RTVSPost2010Prop54
  1
strokes_ogs.tif
102
RTVSPost2010PropOp54
 70
     1
102
RTVSPost2010Prop55
280
     0
102
RTVSPost2010PropOp55
 70
     1
102
RTVSPost2010Prop56
140
1.0
102
RTVSPost2010PropOp56
 70
     1
102
RTVSPost2010Prop57
140
1.0
102
RTVSPost2010PropOp57
 70
     1
  0
XRECORD
  5
105FA
102
{ACAD_REACTORS
330
105F9
102
}
330
105F9
100
AcDbXrecord
280
     1
102
RTVSPost2010Prop28
280
     0
102
RTVSPost2010PropOp28
 70
     1
102
RTVSPost2010Prop29
280
     1
102
RTVSPost2010PropOp29
 70
     1
102
RTVSPost2010Prop30
280
     1
102
RTVSPost2010PropOp30
 70
     1
102
RTVSPost2010Prop31
280
     0
102
RTVSPost2010PropOp31
 70
     1
102
RTVSPost2010Prop32
280
     0
102
RTVSPost2010PropOp32
 70
     1
102
RTVSPost2010Prop33
280
     0
102
RTVSPost2010PropOp33
 70
     1
102
RTVSPost2010Prop34
280
     0
102
RTVSPost2010PropOp34
 70
     1
102
RTVSPost2010Prop35
280
     0
102
RTVSPost2010PropOp35
 70
     1
102
RTVSPost2010Prop36
280
     0
102
RTVSPost2010PropOp36
 70
     1
102
RTVSPost2010Prop37
 90
       50
102
RTVSPost2010PropOp37
 70
     1
102
RTVSPost2010Prop38
140
0.0
102
RTVSPost2010PropOp38
 70
     1
102
RTVSPost2010Prop39
140
1.0
102
RTVSPost2010PropOp39
 70
     1
102
RTVSPost2010Prop40
 90
        0
102
RTVSPost2010PropOp40
 70
     1
102
RTVSPost2010Prop41ColorIndex
 90
       18
102
RTVSPost2010Prop41ColorRGB
 90
        0
102
RTVSPost2010PropOp41
 70
     1
102
RTVSPost2010Prop42
 90
       50
102
RTVSPost2010PropOp42
 70
     1
102
RTVSPost2010Prop43
 90
        3
102
RTVSPost2010PropOp43
 70
     1
102
RTVSPost2010Prop44ColorIndex
 90
        5
102
RTVSPost2010Prop44ColorRGB
 90
      255
102
RTVSPost2010PropOp44
 70
     1
102
RTVSPost2010Prop45
280
     0
102
RTVSPost2010PropOp45
 70
     1
102
RTVSPost2010Prop46
 90
       50
102
RTVSPost2010PropOp46
 70
     1
102
RTVSPost2010Prop47
 90
       50
102
RTVSPost2010PropOp47
 70
     1
102
RTVSPost2010Prop48
 90
       50
102
RTVSPost2010PropOp48
 70
     1
102
RTVSPost2010Prop49
280
     0
102
RTVSPost2010PropOp49
 70
     1
102
RTVSPost2010Prop50
 90
       50
102
RTVSPost2010PropOp50
 70
     1
102
RTVSPost2010Prop51ColorIndex
 90
      256
102
RTVSPost2010Prop51ColorRGB
 90
-16777216
102
RTVSPost2010PropOp51
 70
     0
102
RTVSPost2010Prop52
140
1.0
102
RTVSPost2010PropOp52
 70
     0
102
RTVSPost2010Prop53
 90
        2
102
RTVSPost2010PropOp53
 70
     1
102
RTVSPost2010Prop54
  1
strokes_ogs.tif
102
RTVSPost2010PropOp54
 70
     1
102
RTVSPost2010Prop55
280
     0
102
RTVSPost2010PropOp55
 70
     1
102
RTVSPost2010Prop56
140
1.0
102
RTVSPost2010PropOp56
 70
     1
102
RTVSPost2010Prop57
140
1.0
102
RTVSPost2010PropOp57
 70
     1
  0
XRECORD
  5
105FE
102
{ACAD_REACTORS
330
105FD
102
}
330
105FD
100
AcDbXrecord
280
     1
102
RTVSPost2010Prop28
280
     0
102
RTVSPost2010PropOp28
 70
     1
102
RTVSPost2010Prop29
280
     1
102
RTVSPost2010PropOp29
 70
     1
102
RTVSPost2010Prop30
280
     1
102
RTVSPost2010PropOp30
 70
     1
102
RTVSPost2010Prop31
280
     0
102
RTVSPost2010PropOp31
 70
     1
102
RTVSPost2010Prop32
280
     0
102
RTVSPost2010PropOp32
 70
     1
102
RTVSPost2010Prop33
280
     0
102
RTVSPost2010PropOp33
 70
     1
102
RTVSPost2010Prop34
280
     0
102
RTVSPost2010PropOp34
 70
     1
102
RTVSPost2010Prop35
280
     0
102
RTVSPost2010PropOp35
 70
     1
102
RTVSPost2010Prop36
280
     0
102
RTVSPost2010PropOp36
 70
     1
102
RTVSPost2010Prop37
 90
       50
102
RTVSPost2010PropOp37
 70
     1
102
RTVSPost2010Prop38
140
0.0
102
RTVSPost2010PropOp38
 70
     1
102
RTVSPost2010Prop39
140
1.0
102
RTVSPost2010PropOp39
 70
     1
102
RTVSPost2010Prop40
 90
        0
102
RTVSPost2010PropOp40
 70
     1
102
RTVSPost2010Prop41ColorIndex
 90
       18
102
RTVSPost2010Prop41ColorRGB
 90
        0
102
RTVSPost2010PropOp41
 70
     1
102
RTVSPost2010Prop42
 90
       50
102
RTVSPost2010PropOp42
 70
     1
102
RTVSPost2010Prop43
 90
        3
102
RTVSPost2010PropOp43
 70
     1
102
RTVSPost2010Prop44ColorIndex
 90
        5
102
RTVSPost2010Prop44ColorRGB
 90
      255
102
RTVSPost2010PropOp44
 70
     1
102
RTVSPost2010Prop45
280
     0
102
RTVSPost2010PropOp45
 70
     1
102
RTVSPost2010Prop46
 90
       50
102
RTVSPost2010PropOp46
 70
     1
102
RTVSPost2010Prop47
 90
       50
102
RTVSPost2010PropOp47
 70
     1
102
RTVSPost2010Prop48
 90
       50
102
RTVSPost2010PropOp48
 70
     1
102
RTVSPost2010Prop49
280
     0
102
RTVSPost2010PropOp49
 70
     1
102
RTVSPost2010Prop50
 90
       50
102
RTVSPost2010PropOp50
 70
     1
102
RTVSPost2010Prop51ColorIndex
 90
      256
102
RTVSPost2010Prop51ColorRGB
 90
-16777216
102
RTVSPost2010PropOp51
 70
     0
102
RTVSPost2010Prop52
140
1.0
102
RTVSPost2010PropOp52
 70
     0
102
RTVSPost2010Prop53
 90
        2
102
RTVSPost2010PropOp53
 70
     1
102
RTVSPost2010Prop54
  1
strokes_ogs.tif
102
RTVSPost2010PropOp54
 70
     1
102
RTVSPost2010Prop55
280
     0
102
RTVSPost2010PropOp55
 70
     1
102
RTVSPost2010Prop56
140
1.0
102
RTVSPost2010PropOp56
 70
     1
102
RTVSPost2010Prop57
140
1.0
102
RTVSPost2010PropOp57
 70
     1
  0
XRECORD
  5
10618
102
{ACAD_REACTORS
330
10617
102
}
330
10617
100
AcDbXrecord
280
     1
102
RTVSPost2010Prop28
280
     0
102
RTVSPost2010PropOp28
 70
     1
102
RTVSPost2010Prop29
280
     1
102
RTVSPost2010PropOp29
 70
     1
102
RTVSPost2010Prop30
280
     1
102
RTVSPost2010PropOp30
 70
     1
102
RTVSPost2010Prop31
280
     0
102
RTVSPost2010PropOp31
 70
     1
102
RTVSPost2010Prop32
280
     0
102
RTVSPost2010PropOp32
 70
     1
102
RTVSPost2010Prop33
280
     0
102
RTVSPost2010PropOp33
 70
     1
102
RTVSPost2010Prop34
280
     0
102
RTVSPost2010PropOp34
 70
     1
102
RTVSPost2010Prop35
280
     0
102
RTVSPost2010PropOp35
 70
     1
102
RTVSPost2010Prop36
280
     0
102
RTVSPost2010PropOp36
 70
     1
102
RTVSPost2010Prop37
 90
       50
102
RTVSPost2010PropOp37
 70
     0
102
RTVSPost2010Prop38
140
0.0
102
RTVSPost2010PropOp38
 70
     0
102
RTVSPost2010Prop39
140
1.0
102
RTVSPost2010PropOp39
 70
     0
102
RTVSPost2010Prop40
 90
        0
102
RTVSPost2010PropOp40
 70
     0
102
RTVSPost2010Prop41ColorIndex
 90
       18
102
RTVSPost2010Prop41ColorRGB
 90
        0
102
RTVSPost2010PropOp41
 70
     0
102
RTVSPost2010Prop42
 90
       50
102
RTVSPost2010PropOp42
 70
     0
102
RTVSPost2010Prop43
 90
        3
102
RTVSPost2010PropOp43
 70
     0
102
RTVSPost2010Prop44ColorIndex
 90
        5
102
RTVSPost2010Prop44ColorRGB
 90
      255
102
RTVSPost2010PropOp44
 70
     0
102
RTVSPost2010Prop45
280
     0
102
RTVSPost2010PropOp45
 70
     1
102
RTVSPost2010Prop46
 90
       50
102
RTVSPost2010PropOp46
 70
     0
102
RTVSPost2010Prop47
 90
       50
102
RTVSPost2010PropOp47
 70
     0
102
RTVSPost2010Prop48
 90
       50
102
RTVSPost2010PropOp48
 70
     0
102
RTVSPost2010Prop49
280
     0
102
RTVSPost2010PropOp49
 70
     1
102
RTVSPost2010Prop50
 90
       50
102
RTVSPost2010PropOp50
 70
     0
102
RTVSPost2010Prop51ColorIndex
 90
      256
102
RTVSPost2010Prop51ColorRGB
 90
-16777216
102
RTVSPost2010PropOp51
 70
     0
102
RTVSPost2010Prop52
140
1.0
102
RTVSPost2010PropOp52
 70
     0
102
RTVSPost2010Prop53
 90
        2
102
RTVSPost2010PropOp53
 70
     0
102
RTVSPost2010Prop54
  1
strokes_ogs.tif
102
RTVSPost2010PropOp54
 70
     0
102
RTVSPost2010Prop55
280
     0
102
RTVSPost2010PropOp55
 70
     1
102
RTVSPost2010Prop56
140
1.0
102
RTVSPost2010PropOp56
 70
     0
102
RTVSPost2010Prop57
140
1.0
102
RTVSPost2010PropOp57
 70
     0
  0
XRECORD
  5
10606
102
{ACAD_REACTORS
330
10605
102
}
330
10605
100
AcDbXrecord
280
     1
102
RTVSPost2010Prop28
280
     0
102
RTVSPost2010PropOp28
 70
     1
102
RTVSPost2010Prop29
280
     1
102
RTVSPost2010PropOp29
 70
     1
102
RTVSPost2010Prop30
280
     1
102
RTVSPost2010PropOp30
 70
     1
102
RTVSPost2010Prop31
280
     0
102
RTVSPost2010PropOp31
 70
     1
102
RTVSPost2010Prop32
280
     0
102
RTVSPost2010PropOp32
 70
     1
102
RTVSPost2010Prop33
280
     0
102
RTVSPost2010PropOp33
 70
     1
102
RTVSPost2010Prop34
280
     0
102
RTVSPost2010PropOp34
 70
     1
102
RTVSPost2010Prop35
280
     0
102
RTVSPost2010PropOp35
 70
     1
102
RTVSPost2010Prop36
280
     0
102
RTVSPost2010PropOp36
 70
     1
102
RTVSPost2010Prop37
 90
       50
102
RTVSPost2010PropOp37
 70
     1
102
RTVSPost2010Prop38
140
0.0
102
RTVSPost2010PropOp38
 70
     1
102
RTVSPost2010Prop39
140
1.0
102
RTVSPost2010PropOp39
 70
     1
102
RTVSPost2010Prop40
 90
        0
102
RTVSPost2010PropOp40
 70
     1
102
RTVSPost2010Prop41ColorIndex
 90
       18
102
RTVSPost2010Prop41ColorRGB
 90
        0
102
RTVSPost2010PropOp41
 70
     1
102
RTVSPost2010Prop42
 90
       50
102
RTVSPost2010PropOp42
 70
     1
102
RTVSPost2010Prop43
 90
        3
102
RTVSPost2010PropOp43
 70
     1
102
RTVSPost2010Prop44ColorIndex
 90
        5
102
RTVSPost2010Prop44ColorRGB
 90
      255
102
RTVSPost2010PropOp44
 70
     1
102
RTVSPost2010Prop45
280
     0
102
RTVSPost2010PropOp45
 70
     1
102
RTVSPost2010Prop46
 90
       50
102
RTVSPost2010PropOp46
 70
     1
102
RTVSPost2010Prop47
 90
       50
102
RTVSPost2010PropOp47
 70
     1
102
RTVSPost2010Prop48
 90
       50
102
RTVSPost2010PropOp48
 70
     1
102
RTVSPost2010Prop49
280
     0
102
RTVSPost2010PropOp49
 70
     1
102
RTVSPost2010Prop50
 90
       50
102
RTVSPost2010PropOp50
 70
     1
102
RTVSPost2010Prop51ColorIndex
 90
      256
102
RTVSPost2010Prop51ColorRGB
 90
-16777216
102
RTVSPost2010PropOp51
 70
     0
102
RTVSPost2010Prop52
140
1.0
102
RTVSPost2010PropOp52
 70
     0
102
RTVSPost2010Prop53
 90
        2
102
RTVSPost2010PropOp53
 70
     1
102
RTVSPost2010Prop54
  1
strokes_ogs.tif
102
RTVSPost2010PropOp54
 70
     1
102
RTVSPost2010Prop55
280
     0
102
RTVSPost2010PropOp55
 70
     1
102
RTVSPost2010Prop56
140
1.0
102
RTVSPost2010PropOp56
 70
     1
102
RTVSPost2010Prop57
140
1.0
102
RTVSPost2010PropOp57
 70
     1
  0
XRECORD
  5
105EA
102
{ACAD_REACTORS
330
105E9
102
}
330
105E9
100
AcDbXrecord
280
     1
102
RTVSPost2010Prop28
280
     0
102
RTVSPost2010PropOp28
 70
     1
102
RTVSPost2010Prop29
280
     1
102
RTVSPost2010PropOp29
 70
     1
102
RTVSPost2010Prop30
280
     1
102
RTVSPost2010PropOp30
 70
     1
102
RTVSPost2010Prop31
280
     0
102
RTVSPost2010PropOp31
 70
     1
102
RTVSPost2010Prop32
280
     0
102
RTVSPost2010PropOp32
 70
     1
102
RTVSPost2010Prop33
280
     0
102
RTVSPost2010PropOp33
 70
     1
102
RTVSPost2010Prop34
280
     0
102
RTVSPost2010PropOp34
 70
     1
102
RTVSPost2010Prop35
280
     0
102
RTVSPost2010PropOp35
 70
     1
102
RTVSPost2010Prop36
280
     0
102
RTVSPost2010PropOp36
 70
     1
102
RTVSPost2010Prop37
 90
       50
102
RTVSPost2010PropOp37
 70
     1
102
RTVSPost2010Prop38
140
0.0
102
RTVSPost2010PropOp38
 70
     1
102
RTVSPost2010Prop39
140
1.0
102
RTVSPost2010PropOp39
 70
     1
102
RTVSPost2010Prop40
 90
        0
102
RTVSPost2010PropOp40
 70
     1
102
RTVSPost2010Prop41ColorIndex
 90
       18
102
RTVSPost2010Prop41ColorRGB
 90
        0
102
RTVSPost2010PropOp41
 70
     1
102
RTVSPost2010Prop42
 90
       50
102
RTVSPost2010PropOp42
 70
     1
102
RTVSPost2010Prop43
 90
        3
102
RTVSPost2010PropOp43
 70
     1
102
RTVSPost2010Prop44ColorIndex
 90
        5
102
RTVSPost2010Prop44ColorRGB
 90
      255
102
RTVSPost2010PropOp44
 70
     1
102
RTVSPost2010Prop45
280
     0
102
RTVSPost2010PropOp45
 70
     1
102
RTVSPost2010Prop46
 90
       50
102
RTVSPost2010PropOp46
 70
     1
102
RTVSPost2010Prop47
 90
       50
102
RTVSPost2010PropOp47
 70
     1
102
RTVSPost2010Prop48
 90
       50
102
RTVSPost2010PropOp48
 70
     1
102
RTVSPost2010Prop49
280
     0
102
RTVSPost2010PropOp49
 70
     1
102
RTVSPost2010Prop50
 90
       50
102
RTVSPost2010PropOp50
 70
     1
102
RTVSPost2010Prop51ColorIndex
 90
      256
102
RTVSPost2010Prop51ColorRGB
 90
-16777216
102
RTVSPost2010PropOp51
 70
     0
102
RTVSPost2010Prop52
140
1.0
102
RTVSPost2010PropOp52
 70
     0
102
RTVSPost2010Prop53
 90
        2
102
RTVSPost2010PropOp53
 70
     1
102
RTVSPost2010Prop54
  1
strokes_ogs.tif
102
RTVSPost2010PropOp54
 70
     1
102
RTVSPost2010Prop55
280
     0
102
RTVSPost2010PropOp55
 70
     1
102
RTVSPost2010Prop56
140
1.0
102
RTVSPost2010PropOp56
 70
     1
102
RTVSPost2010Prop57
140
1.0
102
RTVSPost2010PropOp57
 70
     1
  0
XRECORD
  5
105EC
102
{ACAD_REACTORS
330
105EB
102
}
330
105EB
100
AcDbXrecord
280
     1
102
RTVSPost2010Prop28
280
     0
102
RTVSPost2010PropOp28
 70
     1
102
RTVSPost2010Prop29
280
     1
102
RTVSPost2010PropOp29
 70
     1
102
RTVSPost2010Prop30
280
     1
102
RTVSPost2010PropOp30
 70
     1
102
RTVSPost2010Prop31
280
     0
102
RTVSPost2010PropOp31
 70
     1
102
RTVSPost2010Prop32
280
     0
102
RTVSPost2010PropOp32
 70
     1
102
RTVSPost2010Prop33
280
     0
102
RTVSPost2010PropOp33
 70
     1
102
RTVSPost2010Prop34
280
     0
102
RTVSPost2010PropOp34
 70
     1
102
RTVSPost2010Prop35
280
     0
102
RTVSPost2010PropOp35
 70
     1
102
RTVSPost2010Prop36
280
     0
102
RTVSPost2010PropOp36
 70
     1
102
RTVSPost2010Prop37
 90
       50
102
RTVSPost2010PropOp37
 70
     1
102
RTVSPost2010Prop38
140
0.0
102
RTVSPost2010PropOp38
 70
     1
102
RTVSPost2010Prop39
140
1.0
102
RTVSPost2010PropOp39
 70
     1
102
RTVSPost2010Prop40
 90
        0
102
RTVSPost2010PropOp40
 70
     1
102
RTVSPost2010Prop41ColorIndex
 90
       18
102
RTVSPost2010Prop41ColorRGB
 90
        0
102
RTVSPost2010PropOp41
 70
     1
102
RTVSPost2010Prop42
 90
       50
102
RTVSPost2010PropOp42
 70
     1
102
RTVSPost2010Prop43
 90
        3
102
RTVSPost2010PropOp43
 70
     1
102
RTVSPost2010Prop44ColorIndex
 90
        5
102
RTVSPost2010Prop44ColorRGB
 90
      255
102
RTVSPost2010PropOp44
 70
     1
102
RTVSPost2010Prop45
280
     0
102
RTVSPost2010PropOp45
 70
     1
102
RTVSPost2010Prop46
 90
       50
102
RTVSPost2010PropOp46
 70
     1
102
RTVSPost2010Prop47
 90
       50
102
RTVSPost2010PropOp47
 70
     1
102
RTVSPost2010Prop48
 90
       50
102
RTVSPost2010PropOp48
 70
     1
102
RTVSPost2010Prop49
280
     0
102
RTVSPost2010PropOp49
 70
     1
102
RTVSPost2010Prop50
 90
       50
102
RTVSPost2010PropOp50
 70
     1
102
RTVSPost2010Prop51ColorIndex
 90
      256
102
RTVSPost2010Prop51ColorRGB
 90
-16777216
102
RTVSPost2010PropOp51
 70
     0
102
RTVSPost2010Prop52
140
1.0
102
RTVSPost2010PropOp52
 70
     0
102
RTVSPost2010Prop53
 90
        2
102
RTVSPost2010PropOp53
 70
     1
102
RTVSPost2010Prop54
  1
strokes_ogs.tif
102
RTVSPost2010PropOp54
 70
     1
102
RTVSPost2010Prop55
280
     0
102
RTVSPost2010PropOp55
 70
     1
102
RTVSPost2010Prop56
140
1.0
102
RTVSPost2010PropOp56
 70
     1
102
RTVSPost2010Prop57
140
1.0
102
RTVSPost2010PropOp57
 70
     1
  0
XRECORD
  5
105EE
102
{ACAD_REACTORS
330
105ED
102
}
330
105ED
100
AcDbXrecord
280
     1
102
RTVSPost2010Prop28
280
     0
102
RTVSPost2010PropOp28
 70
     1
102
RTVSPost2010Prop29
280
     1
102
RTVSPost2010PropOp29
 70
     1
102
RTVSPost2010Prop30
280
     1
102
RTVSPost2010PropOp30
 70
     1
102
RTVSPost2010Prop31
280
     0
102
RTVSPost2010PropOp31
 70
     1
102
RTVSPost2010Prop32
280
     0
102
RTVSPost2010PropOp32
 70
     1
102
RTVSPost2010Prop33
280
     0
102
RTVSPost2010PropOp33
 70
     1
102
RTVSPost2010Prop34
280
     0
102
RTVSPost2010PropOp34
 70
     1
102
RTVSPost2010Prop35
280
     0
102
RTVSPost2010PropOp35
 70
     1
102
RTVSPost2010Prop36
280
     0
102
RTVSPost2010PropOp36
 70
     1
102
RTVSPost2010Prop37
 90
       50
102
RTVSPost2010PropOp37
 70
     1
102
RTVSPost2010Prop38
140
0.0
102
RTVSPost2010PropOp38
 70
     1
102
RTVSPost2010Prop39
140
1.0
102
RTVSPost2010PropOp39
 70
     1
102
RTVSPost2010Prop40
 90
        0
102
RTVSPost2010PropOp40
 70
     1
102
RTVSPost2010Prop41ColorIndex
 90
       18
102
RTVSPost2010Prop41ColorRGB
 90
        0
102
RTVSPost2010PropOp41
 70
     1
102
RTVSPost2010Prop42
 90
       50
102
RTVSPost2010PropOp42
 70
     1
102
RTVSPost2010Prop43
 90
        3
102
RTVSPost2010PropOp43
 70
     1
102
RTVSPost2010Prop44ColorIndex
 90
        5
102
RTVSPost2010Prop44ColorRGB
 90
      255
102
RTVSPost2010PropOp44
 70
     1
102
RTVSPost2010Prop45
280
     0
102
RTVSPost2010PropOp45
 70
     1
102
RTVSPost2010Prop46
 90
       50
102
RTVSPost2010PropOp46
 70
     1
102
RTVSPost2010Prop47
 90
       50
102
RTVSPost2010PropOp47
 70
     1
102
RTVSPost2010Prop48
 90
       50
102
RTVSPost2010PropOp48
 70
     1
102
RTVSPost2010Prop49
280
     0
102
RTVSPost2010PropOp49
 70
     1
102
RTVSPost2010Prop50
 90
       50
102
RTVSPost2010PropOp50
 70
     1
102
RTVSPost2010Prop51ColorIndex
 90
      256
102
RTVSPost2010Prop51ColorRGB
 90
-16777216
102
RTVSPost2010PropOp51
 70
     0
102
RTVSPost2010Prop52
140
1.0
102
RTVSPost2010PropOp52
 70
     0
102
RTVSPost2010Prop53
 90
        2
102
RTVSPost2010PropOp53
 70
     1
102
RTVSPost2010Prop54
  1
strokes_ogs.tif
102
RTVSPost2010PropOp54
 70
     1
102
RTVSPost2010Prop55
280
     0
102
RTVSPost2010PropOp55
 70
     1
102
RTVSPost2010Prop56
140
1.0
102
RTVSPost2010PropOp56
 70
     1
102
RTVSPost2010Prop57
140
1.0
102
RTVSPost2010PropOp57
 70
     1
  0
XRECORD
  5
105F0
102
{ACAD_REACTORS
330
105EF
102
}
330
105EF
100
AcDbXrecord
280
     1
102
RTVSPost2010Prop28
280
     0
102
RTVSPost2010PropOp28
 70
     1
102
RTVSPost2010Prop29
280
     1
102
RTVSPost2010PropOp29
 70
     1
102
RTVSPost2010Prop30
280
     1
102
RTVSPost2010PropOp30
 70
     1
102
RTVSPost2010Prop31
280
     0
102
RTVSPost2010PropOp31
 70
     1
102
RTVSPost2010Prop32
280
     0
102
RTVSPost2010PropOp32
 70
     1
102
RTVSPost2010Prop33
280
     0
102
RTVSPost2010PropOp33
 70
     1
102
RTVSPost2010Prop34
280
     0
102
RTVSPost2010PropOp34
 70
     1
102
RTVSPost2010Prop35
280
     0
102
RTVSPost2010PropOp35
 70
     1
102
RTVSPost2010Prop36
280
     0
102
RTVSPost2010PropOp36
 70
     1
102
RTVSPost2010Prop37
 90
       50
102
RTVSPost2010PropOp37
 70
     1
102
RTVSPost2010Prop38
140
0.0
102
RTVSPost2010PropOp38
 70
     1
102
RTVSPost2010Prop39
140
1.0
102
RTVSPost2010PropOp39
 70
     1
102
RTVSPost2010Prop40
 90
        0
102
RTVSPost2010PropOp40
 70
     1
102
RTVSPost2010Prop41ColorIndex
 90
       18
102
RTVSPost2010Prop41ColorRGB
 90
        0
102
RTVSPost2010PropOp41
 70
     1
102
RTVSPost2010Prop42
 90
       50
102
RTVSPost2010PropOp42
 70
     1
102
RTVSPost2010Prop43
 90
        3
102
RTVSPost2010PropOp43
 70
     1
102
RTVSPost2010Prop44ColorIndex
 90
        5
102
RTVSPost2010Prop44ColorRGB
 90
      255
102
RTVSPost2010PropOp44
 70
     1
102
RTVSPost2010Prop45
280
     0
102
RTVSPost2010PropOp45
 70
     1
102
RTVSPost2010Prop46
 90
       50
102
RTVSPost2010PropOp46
 70
     1
102
RTVSPost2010Prop47
 90
       50
102
RTVSPost2010PropOp47
 70
     1
102
RTVSPost2010Prop48
 90
       50
102
RTVSPost2010PropOp48
 70
     1
102
RTVSPost2010Prop49
280
     0
102
RTVSPost2010PropOp49
 70
     1
102
RTVSPost2010Prop50
 90
       50
102
RTVSPost2010PropOp50
 70
     1
102
RTVSPost2010Prop51ColorIndex
 90
      256
102
RTVSPost2010Prop51ColorRGB
 90
-16777216
102
RTVSPost2010PropOp51
 70
     0
102
RTVSPost2010Prop52
140
1.0
102
RTVSPost2010PropOp52
 70
     0
102
RTVSPost2010Prop53
 90
        2
102
RTVSPost2010PropOp53
 70
     1
102
RTVSPost2010Prop54
  1
strokes_ogs.tif
102
RTVSPost2010PropOp54
 70
     1
102
RTVSPost2010Prop55
280
     0
102
RTVSPost2010PropOp55
 70
     1
102
RTVSPost2010Prop56
140
1.0
102
RTVSPost2010PropOp56
 70
     1
102
RTVSPost2010Prop57
140
1.0
102
RTVSPost2010PropOp57
 70
     1
  0
XRECORD
  5
105F8
102
{ACAD_REACTORS
330
105F7
102
}
330
105F7
100
AcDbXrecord
280
     1
102
RTVSPost2010Prop28
280
     0
102
RTVSPost2010PropOp28
 70
     1
102
RTVSPost2010Prop29
280
     1
102
RTVSPost2010PropOp29
 70
     1
102
RTVSPost2010Prop30
280
     1
102
RTVSPost2010PropOp30
 70
     1
102
RTVSPost2010Prop31
280
     0
102
RTVSPost2010PropOp31
 70
     1
102
RTVSPost2010Prop32
280
     0
102
RTVSPost2010PropOp32
 70
     1
102
RTVSPost2010Prop33
280
     0
102
RTVSPost2010PropOp33
 70
     1
102
RTVSPost2010Prop34
280
     0
102
RTVSPost2010PropOp34
 70
     1
102
RTVSPost2010Prop35
280
     0
102
RTVSPost2010PropOp35
 70
     1
102
RTVSPost2010Prop36
280
     0
102
RTVSPost2010PropOp36
 70
     1
102
RTVSPost2010Prop37
 90
       50
102
RTVSPost2010PropOp37
 70
     1
102
RTVSPost2010Prop38
140
0.0
102
RTVSPost2010PropOp38
 70
     1
102
RTVSPost2010Prop39
140
1.0
102
RTVSPost2010PropOp39
 70
     1
102
RTVSPost2010Prop40
 90
        0
102
RTVSPost2010PropOp40
 70
     1
102
RTVSPost2010Prop41ColorIndex
 90
       18
102
RTVSPost2010Prop41ColorRGB
 90
        0
102
RTVSPost2010PropOp41
 70
     1
102
RTVSPost2010Prop42
 90
       50
102
RTVSPost2010PropOp42
 70
     1
102
RTVSPost2010Prop43
 90
        3
102
RTVSPost2010PropOp43
 70
     1
102
RTVSPost2010Prop44ColorIndex
 90
        5
102
RTVSPost2010Prop44ColorRGB
 90
      255
102
RTVSPost2010PropOp44
 70
     1
102
RTVSPost2010Prop45
280
     0
102
RTVSPost2010PropOp45
 70
     1
102
RTVSPost2010Prop46
 90
       50
102
RTVSPost2010PropOp46
 70
     1
102
RTVSPost2010Prop47
 90
       50
102
RTVSPost2010PropOp47
 70
     1
102
RTVSPost2010Prop48
 90
       50
102
RTVSPost2010PropOp48
 70
     1
102
RTVSPost2010Prop49
280
     0
102
RTVSPost2010PropOp49
 70
     1
102
RTVSPost2010Prop50
 90
       50
102
RTVSPost2010PropOp50
 70
     1
102
RTVSPost2010Prop51ColorIndex
 90
      256
102
RTVSPost2010Prop51ColorRGB
 90
-16777216
102
RTVSPost2010PropOp51
 70
     0
102
RTVSPost2010Prop52
140
1.0
102
RTVSPost2010PropOp52
 70
     0
102
RTVSPost2010Prop53
 90
        2
102
RTVSPost2010PropOp53
 70
     1
102
RTVSPost2010Prop54
  1
strokes_ogs.tif
102
RTVSPost2010PropOp54
 70
     1
102
RTVSPost2010Prop55
280
     0
102
RTVSPost2010PropOp55
 70
     1
102
RTVSPost2010Prop56
140
1.0
102
RTVSPost2010PropOp56
 70
     1
102
RTVSPost2010Prop57
140
1.0
102
RTVSPost2010PropOp57
 70
     1
  0
XRECORD
  5
10614
102
{ACAD_REACTORS
330
10613
102
}
330
10613
100
AcDbXrecord
280
     1
102
RTVSPost2010Prop28
280
     0
102
RTVSPost2010PropOp28
 70
     1
102
RTVSPost2010Prop29
280
     1
102
RTVSPost2010PropOp29
 70
     1
102
RTVSPost2010Prop30
280
     1
102
RTVSPost2010PropOp30
 70
     1
102
RTVSPost2010Prop31
280
     0
102
RTVSPost2010PropOp31
 70
     1
102
RTVSPost2010Prop32
280
     0
102
RTVSPost2010PropOp32
 70
     1
102
RTVSPost2010Prop33
280
     0
102
RTVSPost2010PropOp33
 70
     1
102
RTVSPost2010Prop34
280
     0
102
RTVSPost2010PropOp34
 70
     1
102
RTVSPost2010Prop35
280
     0
102
RTVSPost2010PropOp35
 70
     1
102
RTVSPost2010Prop36
280
     0
102
RTVSPost2010PropOp36
 70
     1
102
RTVSPost2010Prop37
 90
       50
102
RTVSPost2010PropOp37
 70
     0
102
RTVSPost2010Prop38
140
0.0
102
RTVSPost2010PropOp38
 70
     0
102
RTVSPost2010Prop39
140
1.0
102
RTVSPost2010PropOp39
 70
     0
102
RTVSPost2010Prop40
 90
        0
102
RTVSPost2010PropOp40
 70
     0
102
RTVSPost2010Prop41ColorIndex
 90
       18
102
RTVSPost2010Prop41ColorRGB
 90
        0
102
RTVSPost2010PropOp41
 70
     0
102
RTVSPost2010Prop42
 90
       50
102
RTVSPost2010PropOp42
 70
     0
102
RTVSPost2010Prop43
 90
        3
102
RTVSPost2010PropOp43
 70
     0
102
RTVSPost2010Prop44ColorIndex
 90
        5
102
RTVSPost2010Prop44ColorRGB
 90
      255
102
RTVSPost2010PropOp44
 70
     0
102
RTVSPost2010Prop45
280
     0
102
RTVSPost2010PropOp45
 70
     1
102
RTVSPost2010Prop46
 90
       50
102
RTVSPost2010PropOp46
 70
     0
102
RTVSPost2010Prop47
 90
       50
102
RTVSPost2010PropOp47
 70
     0
102
RTVSPost2010Prop48
 90
       50
102
RTVSPost2010PropOp48
 70
     0
102
RTVSPost2010Prop49
280
     0
102
RTVSPost2010PropOp49
 70
     1
102
RTVSPost2010Prop50
 90
       50
102
RTVSPost2010PropOp50
 70
     0
102
RTVSPost2010Prop51ColorIndex
 90
      256
102
RTVSPost2010Prop51ColorRGB
 90
-16777216
102
RTVSPost2010PropOp51
 70
     0
102
RTVSPost2010Prop52
140
1.0
102
RTVSPost2010PropOp52
 70
     0
102
RTVSPost2010Prop53
 90
        2
102
RTVSPost2010PropOp53
 70
     0
102
RTVSPost2010Prop54
  1
strokes_ogs.tif
102
RTVSPost2010PropOp54
 70
     0
102
RTVSPost2010Prop55
280
     0
102
RTVSPost2010PropOp55
 70
     1
102
RTVSPost2010Prop56
140
1.0
102
RTVSPost2010PropOp56
 70
     0
102
RTVSPost2010Prop57
140
1.0
102
RTVSPost2010PropOp57
 70
     0
  0
XRECORD
  5
10604
102
{ACAD_REACTORS
330
10603
102
}
330
10603
100
AcDbXrecord
280
     1
102
RTVSPost2010Prop28
280
     0
102
RTVSPost2010PropOp28
 70
     1
102
RTVSPost2010Prop29
280
     1
102
RTVSPost2010PropOp29
 70
     1
102
RTVSPost2010Prop30
280
     1
102
RTVSPost2010PropOp30
 70
     1
102
RTVSPost2010Prop31
280
     0
102
RTVSPost2010PropOp31
 70
     1
102
RTVSPost2010Prop32
280
     0
102
RTVSPost2010PropOp32
 70
     1
102
RTVSPost2010Prop33
280
     0
102
RTVSPost2010PropOp33
 70
     1
102
RTVSPost2010Prop34
280
     0
102
RTVSPost2010PropOp34
 70
     1
102
RTVSPost2010Prop35
280
     0
102
RTVSPost2010PropOp35
 70
     1
102
RTVSPost2010Prop36
280
     0
102
RTVSPost2010PropOp36
 70
     1
102
RTVSPost2010Prop37
 90
       50
102
RTVSPost2010PropOp37
 70
     1
102
RTVSPost2010Prop38
140
0.0
102
RTVSPost2010PropOp38
 70
     1
102
RTVSPost2010Prop39
140
1.0
102
RTVSPost2010PropOp39
 70
     1
102
RTVSPost2010Prop40
 90
        0
102
RTVSPost2010PropOp40
 70
     1
102
RTVSPost2010Prop41ColorIndex
 90
       18
102
RTVSPost2010Prop41ColorRGB
 90
        0
102
RTVSPost2010PropOp41
 70
     1
102
RTVSPost2010Prop42
 90
       50
102
RTVSPost2010PropOp42
 70
     1
102
RTVSPost2010Prop43
 90
        3
102
RTVSPost2010PropOp43
 70
     1
102
RTVSPost2010Prop44ColorIndex
 90
        5
102
RTVSPost2010Prop44ColorRGB
 90
      255
102
RTVSPost2010PropOp44
 70
     1
102
RTVSPost2010Prop45
280
     0
102
RTVSPost2010PropOp45
 70
     1
102
RTVSPost2010Prop46
 90
       50
102
RTVSPost2010PropOp46
 70
     1
102
RTVSPost2010Prop47
 90
       50
102
RTVSPost2010PropOp47
 70
     1
102
RTVSPost2010Prop48
 90
       50
102
RTVSPost2010PropOp48
 70
     1
102
RTVSPost2010Prop49
280
     0
102
RTVSPost2010PropOp49
 70
     1
102
RTVSPost2010Prop50
 90
       50
102
RTVSPost2010PropOp50
 70
     1
102
RTVSPost2010Prop51ColorIndex
 90
      256
102
RTVSPost2010Prop51ColorRGB
 90
-16777216
102
RTVSPost2010PropOp51
 70
     0
102
RTVSPost2010Prop52
140
1.0
102
RTVSPost2010PropOp52
 70
     0
102
RTVSPost2010Prop53
 90
        2
102
RTVSPost2010PropOp53
 70
     1
102
RTVSPost2010Prop54
  1
strokes_ogs.tif
102
RTVSPost2010PropOp54
 70
     1
102
RTVSPost2010Prop55
280
     0
102
RTVSPost2010PropOp55
 70
     1
102
RTVSPost2010Prop56
140
1.0
102
RTVSPost2010PropOp56
 70
     1
102
RTVSPost2010Prop57
140
1.0
102
RTVSPost2010PropOp57
 70
     1
  0
XRECORD
  5
10616
102
{ACAD_REACTORS
330
10615
102
}
330
10615
100
AcDbXrecord
280
     1
102
RTVSPost2010Prop28
280
     0
102
RTVSPost2010PropOp28
 70
     1
102
RTVSPost2010Prop29
280
     1
102
RTVSPost2010PropOp29
 70
     1
102
RTVSPost2010Prop30
280
     1
102
RTVSPost2010PropOp30
 70
     1
102
RTVSPost2010Prop31
280
     0
102
RTVSPost2010PropOp31
 70
     1
102
RTVSPost2010Prop32
280
     0
102
RTVSPost2010PropOp32
 70
     1
102
RTVSPost2010Prop33
280
     0
102
RTVSPost2010PropOp33
 70
     1
102
RTVSPost2010Prop34
280
     0
102
RTVSPost2010PropOp34
 70
     1
102
RTVSPost2010Prop35
280
     0
102
RTVSPost2010PropOp35
 70
     1
102
RTVSPost2010Prop36
280
     0
102
RTVSPost2010PropOp36
 70
     1
102
RTVSPost2010Prop37
 90
       50
102
RTVSPost2010PropOp37
 70
     0
102
RTVSPost2010Prop38
140
0.0
102
RTVSPost2010PropOp38
 70
     0
102
RTVSPost2010Prop39
140
1.0
102
RTVSPost2010PropOp39
 70
     0
102
RTVSPost2010Prop40
 90
        0
102
RTVSPost2010PropOp40
 70
     0
102
RTVSPost2010Prop41ColorIndex
 90
       18
102
RTVSPost2010Prop41ColorRGB
 90
        0
102
RTVSPost2010PropOp41
 70
     0
102
RTVSPost2010Prop42
 90
       50
102
RTVSPost2010PropOp42
 70
     0
102
RTVSPost2010Prop43
 90
        3
102
RTVSPost2010PropOp43
 70
     0
102
RTVSPost2010Prop44ColorIndex
 90
        5
102
RTVSPost2010Prop44ColorRGB
 90
      255
102
RTVSPost2010PropOp44
 70
     0
102
RTVSPost2010Prop45
280
     0
102
RTVSPost2010PropOp45
 70
     1
102
RTVSPost2010Prop46
 90
       50
102
RTVSPost2010PropOp46
 70
     0
102
RTVSPost2010Prop47
 90
       50
102
RTVSPost2010PropOp47
 70
     0
102
RTVSPost2010Prop48
 90
       50
102
RTVSPost2010PropOp48
 70
     0
102
RTVSPost2010Prop49
280
     0
102
RTVSPost2010PropOp49
 70
     1
102
RTVSPost2010Prop50
 90
       50
102
RTVSPost2010PropOp50
 70
     0
102
RTVSPost2010Prop51ColorIndex
 90
      256
102
RTVSPost2010Prop51ColorRGB
 90
-16777216
102
RTVSPost2010PropOp51
 70
     0
102
RTVSPost2010Prop52
140
1.0
102
RTVSPost2010PropOp52
 70
     0
102
RTVSPost2010Prop53
 90
        2
102
RTVSPost2010PropOp53
 70
     0
102
RTVSPost2010Prop54
  1
strokes_ogs.tif
102
RTVSPost2010PropOp54
 70
     0
102
RTVSPost2010Prop55
280
     0
102
RTVSPost2010PropOp55
 70
     1
102
RTVSPost2010Prop56
140
1.0
102
RTVSPost2010PropOp56
 70
     0
102
RTVSPost2010Prop57
140
1.0
102
RTVSPost2010PropOp57
 70
     0
  0
XRECORD
  5
105FC
102
{ACAD_REACTORS
330
105FB
102
}
330
105FB
100
AcDbXrecord
280
     1
102
RTVSPost2010Prop28
280
     0
102
RTVSPost2010PropOp28
 70
     1
102
RTVSPost2010Prop29
280
     1
102
RTVSPost2010PropOp29
 70
     1
102
RTVSPost2010Prop30
280
     1
102
RTVSPost2010PropOp30
 70
     1
102
RTVSPost2010Prop31
280
     0
102
RTVSPost2010PropOp31
 70
     1
102
RTVSPost2010Prop32
280
     0
102
RTVSPost2010PropOp32
 70
     1
102
RTVSPost2010Prop33
280
     0
102
RTVSPost2010PropOp33
 70
     1
102
RTVSPost2010Prop34
280
     0
102
RTVSPost2010PropOp34
 70
     1
102
RTVSPost2010Prop35
280
     0
102
RTVSPost2010PropOp35
 70
     1
102
RTVSPost2010Prop36
280
     0
102
RTVSPost2010PropOp36
 70
     1
102
RTVSPost2010Prop37
 90
       50
102
RTVSPost2010PropOp37
 70
     1
102
RTVSPost2010Prop38
140
0.0
102
RTVSPost2010PropOp38
 70
     1
102
RTVSPost2010Prop39
140
1.0
102
RTVSPost2010PropOp39
 70
     1
102
RTVSPost2010Prop40
 90
        0
102
RTVSPost2010PropOp40
 70
     1
102
RTVSPost2010Prop41ColorIndex
 90
       18
102
RTVSPost2010Prop41ColorRGB
 90
        0
102
RTVSPost2010PropOp41
 70
     1
102
RTVSPost2010Prop42
 90
       50
102
RTVSPost2010PropOp42
 70
     1
102
RTVSPost2010Prop43
 90
        3
102
RTVSPost2010PropOp43
 70
     1
102
RTVSPost2010Prop44ColorIndex
 90
        5
102
RTVSPost2010Prop44ColorRGB
 90
      255
102
RTVSPost2010PropOp44
 70
     1
102
RTVSPost2010Prop45
280
     0
102
RTVSPost2010PropOp45
 70
     1
102
RTVSPost2010Prop46
 90
       50
102
RTVSPost2010PropOp46
 70
     1
102
RTVSPost2010Prop47
 90
       50
102
RTVSPost2010PropOp47
 70
     1
102
RTVSPost2010Prop48
 90
       50
102
RTVSPost2010PropOp48
 70
     1
102
RTVSPost2010Prop49
280
     0
102
RTVSPost2010PropOp49
 70
     1
102
RTVSPost2010Prop50
 90
       50
102
RTVSPost2010PropOp50
 70
     1
102
RTVSPost2010Prop51ColorIndex
 90
      256
102
RTVSPost2010Prop51ColorRGB
 90
-16777216
102
RTVSPost2010PropOp51
 70
     0
102
RTVSPost2010Prop52
140
1.0
102
RTVSPost2010PropOp52
 70
     0
102
RTVSPost2010Prop53
 90
        2
102
RTVSPost2010PropOp53
 70
     1
102
RTVSPost2010Prop54
  1
strokes_ogs.tif
102
RTVSPost2010PropOp54
 70
     1
102
RTVSPost2010Prop55
280
     0
102
RTVSPost2010PropOp55
 70
     1
102
RTVSPost2010Prop56
140
1.0
102
RTVSPost2010PropOp56
 70
     1
102
RTVSPost2010Prop57
140
1.0
102
RTVSPost2010PropOp57
 70
     1
  0
XRECORD
  5
10612
102
{ACAD_REACTORS
330
10611
102
}
330
10611
100
AcDbXrecord
280
     1
102
RTVSPost2010Prop28
280
     0
102
RTVSPost2010PropOp28
 70
     1
102
RTVSPost2010Prop29
280
     1
102
RTVSPost2010PropOp29
 70
     1
102
RTVSPost2010Prop30
280
     1
102
RTVSPost2010PropOp30
 70
     1
102
RTVSPost2010Prop31
280
     0
102
RTVSPost2010PropOp31
 70
     1
102
RTVSPost2010Prop32
280
     0
102
RTVSPost2010PropOp32
 70
     1
102
RTVSPost2010Prop33
280
     0
102
RTVSPost2010PropOp33
 70
     1
102
RTVSPost2010Prop34
280
     0
102
RTVSPost2010PropOp34
 70
     1
102
RTVSPost2010Prop35
280
     0
102
RTVSPost2010PropOp35
 70
     1
102
RTVSPost2010Prop36
280
     0
102
RTVSPost2010PropOp36
 70
     1
102
RTVSPost2010Prop37
 90
       50
102
RTVSPost2010PropOp37
 70
     1
102
RTVSPost2010Prop38
140
0.0
102
RTVSPost2010PropOp38
 70
     1
102
RTVSPost2010Prop39
140
1.0
102
RTVSPost2010PropOp39
 70
     1
102
RTVSPost2010Prop40
 90
        0
102
RTVSPost2010PropOp40
 70
     1
102
RTVSPost2010Prop41ColorIndex
 90
       18
102
RTVSPost2010Prop41ColorRGB
 90
        0
102
RTVSPost2010PropOp41
 70
     1
102
RTVSPost2010Prop42
 90
       50
102
RTVSPost2010PropOp42
 70
     1
102
RTVSPost2010Prop43
 90
        3
102
RTVSPost2010PropOp43
 70
     1
102
RTVSPost2010Prop44ColorIndex
 90
        5
102
RTVSPost2010Prop44ColorRGB
 90
      255
102
RTVSPost2010PropOp44
 70
     1
102
RTVSPost2010Prop45
280
     0
102
RTVSPost2010PropOp45
 70
     1
102
RTVSPost2010Prop46
 90
       50
102
RTVSPost2010PropOp46
 70
     1
102
RTVSPost2010Prop47
 90
       50
102
RTVSPost2010PropOp47
 70
     1
102
RTVSPost2010Prop48
 90
       50
102
RTVSPost2010PropOp48
 70
     1
102
RTVSPost2010Prop49
280
     0
102
RTVSPost2010PropOp49
 70
     1
102
RTVSPost2010Prop50
 90
       50
102
RTVSPost2010PropOp50
 70
     1
102
RTVSPost2010Prop51ColorIndex
 90
      256
102
RTVSPost2010Prop51ColorRGB
 90
-16777216
102
RTVSPost2010PropOp51
 70
     0
102
RTVSPost2010Prop52
140
1.0
102
RTVSPost2010PropOp52
 70
     0
102
RTVSPost2010Prop53
 90
        2
102
RTVSPost2010PropOp53
 70
     1
102
RTVSPost2010Prop54
  1
strokes_ogs.tif
102
RTVSPost2010PropOp54
 70
     1
102
RTVSPost2010Prop55
280
     0
102
RTVSPost2010PropOp55
 70
     1
102
RTVSPost2010Prop56
140
1.0
102
RTVSPost2010PropOp56
 70
     1
102
RTVSPost2010Prop57
140
1.0
102
RTVSPost2010PropOp57
 70
     1
  0
XRECORD
  5
10610
102
{ACAD_REACTORS
330
1060F
102
}
330
1060F
100
AcDbXrecord
280
     1
102
RTVSPost2010Prop28
280
     0
102
RTVSPost2010PropOp28
 70
     1
102
RTVSPost2010Prop29
280
     1
102
RTVSPost2010PropOp29
 70
     1
102
RTVSPost2010Prop30
280
     1
102
RTVSPost2010PropOp30
 70
     1
102
RTVSPost2010Prop31
280
     0
102
RTVSPost2010PropOp31
 70
     1
102
RTVSPost2010Prop32
280
     0
102
RTVSPost2010PropOp32
 70
     1
102
RTVSPost2010Prop33
280
     0
102
RTVSPost2010PropOp33
 70
     1
102
RTVSPost2010Prop34
280
     0
102
RTVSPost2010PropOp34
 70
     1
102
RTVSPost2010Prop35
280
     0
102
RTVSPost2010PropOp35
 70
     1
102
RTVSPost2010Prop36
280
     0
102
RTVSPost2010PropOp36
 70
     1
102
RTVSPost2010Prop37
 90
       50
102
RTVSPost2010PropOp37
 70
     1
102
RTVSPost2010Prop38
140
0.0
102
RTVSPost2010PropOp38
 70
     1
102
RTVSPost2010Prop39
140
1.0
102
RTVSPost2010PropOp39
 70
     1
102
RTVSPost2010Prop40
 90
        0
102
RTVSPost2010PropOp40
 70
     1
102
RTVSPost2010Prop41ColorIndex
 90
       18
102
RTVSPost2010Prop41ColorRGB
 90
        0
102
RTVSPost2010PropOp41
 70
     1
102
RTVSPost2010Prop42
 90
       50
102
RTVSPost2010PropOp42
 70
     1
102
RTVSPost2010Prop43
 90
        3
102
RTVSPost2010PropOp43
 70
     1
102
RTVSPost2010Prop44ColorIndex
 90
        5
102
RTVSPost2010Prop44ColorRGB
 90
      255
102
RTVSPost2010PropOp44
 70
     1
102
RTVSPost2010Prop45
280
     0
102
RTVSPost2010PropOp45
 70
     1
102
RTVSPost2010Prop46
 90
       50
102
RTVSPost2010PropOp46
 70
     1
102
RTVSPost2010Prop47
 90
       50
102
RTVSPost2010PropOp47
 70
     1
102
RTVSPost2010Prop48
 90
       50
102
RTVSPost2010PropOp48
 70
     1
102
RTVSPost2010Prop49
280
     0
102
RTVSPost2010PropOp49
 70
     1
102
RTVSPost2010Prop50
 90
       50
102
RTVSPost2010PropOp50
 70
     1
102
RTVSPost2010Prop51ColorIndex
 90
      256
102
RTVSPost2010Prop51ColorRGB
 90
-16777216
102
RTVSPost2010PropOp51
 70
     0
102
RTVSPost2010Prop52
140
1.0
102
RTVSPost2010PropOp52
 70
     0
102
RTVSPost2010Prop53
 90
        2
102
RTVSPost2010PropOp53
 70
     1
102
RTVSPost2010Prop54
  1
strokes_ogs.tif
102
RTVSPost2010PropOp54
 70
     1
102
RTVSPost2010Prop55
280
     0
102
RTVSPost2010PropOp55
 70
     1
102
RTVSPost2010Prop56
140
1.0
102
RTVSPost2010PropOp56
 70
     1
102
RTVSPost2010Prop57
140
1.0
102
RTVSPost2010PropOp57
 70
     1
  0
XRECORD
  5
1060A
102
{ACAD_REACTORS
330
10609
102
}
330
10609
100
AcDbXrecord
280
     1
102
RTVSPost2010Prop28
280
     0
102
RTVSPost2010PropOp28
 70
     1
102
RTVSPost2010Prop29
280
     1
102
RTVSPost2010PropOp29
 70
     1
102
RTVSPost2010Prop30
280
     1
102
RTVSPost2010PropOp30
 70
     1
102
RTVSPost2010Prop31
280
     0
102
RTVSPost2010PropOp31
 70
     1
102
RTVSPost2010Prop32
280
     0
102
RTVSPost2010PropOp32
 70
     1
102
RTVSPost2010Prop33
280
     0
102
RTVSPost2010PropOp33
 70
     1
102
RTVSPost2010Prop34
280
     0
102
RTVSPost2010PropOp34
 70
     1
102
RTVSPost2010Prop35
280
     0
102
RTVSPost2010PropOp35
 70
     1
102
RTVSPost2010Prop36
280
     0
102
RTVSPost2010PropOp36
 70
     1
102
RTVSPost2010Prop37
 90
       50
102
RTVSPost2010PropOp37
 70
     1
102
RTVSPost2010Prop38
140
0.0
102
RTVSPost2010PropOp38
 70
     1
102
RTVSPost2010Prop39
140
1.0
102
RTVSPost2010PropOp39
 70
     1
102
RTVSPost2010Prop40
 90
        0
102
RTVSPost2010PropOp40
 70
     1
102
RTVSPost2010Prop41ColorIndex
 90
       18
102
RTVSPost2010Prop41ColorRGB
 90
        0
102
RTVSPost2010PropOp41
 70
     1
102
RTVSPost2010Prop42
 90
       50
102
RTVSPost2010PropOp42
 70
     1
102
RTVSPost2010Prop43
 90
        3
102
RTVSPost2010PropOp43
 70
     1
102
RTVSPost2010Prop44ColorIndex
 90
        5
102
RTVSPost2010Prop44ColorRGB
 90
      255
102
RTVSPost2010PropOp44
 70
     1
102
RTVSPost2010Prop45
280
     0
102
RTVSPost2010PropOp45
 70
     1
102
RTVSPost2010Prop46
 90
       50
102
RTVSPost2010PropOp46
 70
     1
102
RTVSPost2010Prop47
 90
       50
102
RTVSPost2010PropOp47
 70
     1
102
RTVSPost2010Prop48
 90
       50
102
RTVSPost2010PropOp48
 70
     1
102
RTVSPost2010Prop49
280
     0
102
RTVSPost2010PropOp49
 70
     1
102
RTVSPost2010Prop50
 90
       50
102
RTVSPost2010PropOp50
 70
     1
102
RTVSPost2010Prop51ColorIndex
 90
      256
102
RTVSPost2010Prop51ColorRGB
 90
-16777216
102
RTVSPost2010PropOp51
 70
     0
102
RTVSPost2010Prop52
140
1.0
102
RTVSPost2010PropOp52
 70
     0
102
RTVSPost2010Prop53
 90
        2
102
RTVSPost2010PropOp53
 70
     1
102
RTVSPost2010Prop54
  1
strokes_ogs.tif
102
RTVSPost2010PropOp54
 70
     1
102
RTVSPost2010Prop55
280
     0
102
RTVSPost2010PropOp55
 70
     1
102
RTVSPost2010Prop56
140
1.0
102
RTVSPost2010PropOp56
 70
     1
102
RTVSPost2010Prop57
140
1.0
102
RTVSPost2010PropOp57
 70
     1
  0
XRECORD
  5
1060C
102
{ACAD_REACTORS
330
1060B
102
}
330
1060B
100
AcDbXrecord
280
     1
102
RTVSPost2010Prop28
280
     0
102
RTVSPost2010PropOp28
 70
     1
102
RTVSPost2010Prop29
280
     1
102
RTVSPost2010PropOp29
 70
     1
102
RTVSPost2010Prop30
280
     1
102
RTVSPost2010PropOp30
 70
     1
102
RTVSPost2010Prop31
280
     0
102
RTVSPost2010PropOp31
 70
     1
102
RTVSPost2010Prop32
280
     0
102
RTVSPost2010PropOp32
 70
     1
102
RTVSPost2010Prop33
280
     0
102
RTVSPost2010PropOp33
 70
     1
102
RTVSPost2010Prop34
280
     0
102
RTVSPost2010PropOp34
 70
     1
102
RTVSPost2010Prop35
280
     0
102
RTVSPost2010PropOp35
 70
     1
102
RTVSPost2010Prop36
280
     0
102
RTVSPost2010PropOp36
 70
     1
102
RTVSPost2010Prop37
 90
       50
102
RTVSPost2010PropOp37
 70
     1
102
RTVSPost2010Prop38
140
0.0
102
RTVSPost2010PropOp38
 70
     1
102
RTVSPost2010Prop39
140
1.0
102
RTVSPost2010PropOp39
 70
     1
102
RTVSPost2010Prop40
 90
        0
102
RTVSPost2010PropOp40
 70
     1
102
RTVSPost2010Prop41ColorIndex
 90
       18
102
RTVSPost2010Prop41ColorRGB
 90
        0
102
RTVSPost2010PropOp41
 70
     1
102
RTVSPost2010Prop42
 90
       50
102
RTVSPost2010PropOp42
 70
     1
102
RTVSPost2010Prop43
 90
        3
102
RTVSPost2010PropOp43
 70
     1
102
RTVSPost2010Prop44ColorIndex
 90
        5
102
RTVSPost2010Prop44ColorRGB
 90
      255
102
RTVSPost2010PropOp44
 70
     1
102
RTVSPost2010Prop45
280
     0
102
RTVSPost2010PropOp45
 70
     1
102
RTVSPost2010Prop46
 90
       50
102
RTVSPost2010PropOp46
 70
     1
102
RTVSPost2010Prop47
 90
       50
102
RTVSPost2010PropOp47
 70
     1
102
RTVSPost2010Prop48
 90
       50
102
RTVSPost2010PropOp48
 70
     1
102
RTVSPost2010Prop49
280
     0
102
RTVSPost2010PropOp49
 70
     1
102
RTVSPost2010Prop50
 90
       50
102
RTVSPost2010PropOp50
 70
     1
102
RTVSPost2010Prop51ColorIndex
 90
      256
102
RTVSPost2010Prop51ColorRGB
 90
-16777216
102
RTVSPost2010PropOp51
 70
     0
102
RTVSPost2010Prop52
140
1.0
102
RTVSPost2010PropOp52
 70
     0
102
RTVSPost2010Prop53
 90
        2
102
RTVSPost2010PropOp53
 70
     1
102
RTVSPost2010Prop54
  1
strokes_ogs.tif
102
RTVSPost2010PropOp54
 70
     1
102
RTVSPost2010Prop55
280
     0
102
RTVSPost2010PropOp55
 70
     1
102
RTVSPost2010Prop56
140
1.0
102
RTVSPost2010PropOp56
 70
     1
102
RTVSPost2010Prop57
140
1.0
102
RTVSPost2010PropOp57
 70
     1
  0
XRECORD
  5
10602
102
{ACAD_REACTORS
330
10601
102
}
330
10601
100
AcDbXrecord
280
     1
102
RTVSPost2010Prop28
280
     0
102
RTVSPost2010PropOp28
 70
     1
102
RTVSPost2010Prop29
280
     1
102
RTVSPost2010PropOp29
 70
     1
102
RTVSPost2010Prop30
280
     1
102
RTVSPost2010PropOp30
 70
     1
102
RTVSPost2010Prop31
280
     0
102
RTVSPost2010PropOp31
 70
     1
102
RTVSPost2010Prop32
280
     0
102
RTVSPost2010PropOp32
 70
     1
102
RTVSPost2010Prop33
280
     0
102
RTVSPost2010PropOp33
 70
     1
102
RTVSPost2010Prop34
280
     0
102
RTVSPost2010PropOp34
 70
     1
102
RTVSPost2010Prop35
280
     0
102
RTVSPost2010PropOp35
 70
     1
102
RTVSPost2010Prop36
280
     0
102
RTVSPost2010PropOp36
 70
     1
102
RTVSPost2010Prop37
 90
       50
102
RTVSPost2010PropOp37
 70
     1
102
RTVSPost2010Prop38
140
0.0
102
RTVSPost2010PropOp38
 70
     1
102
RTVSPost2010Prop39
140
1.0
102
RTVSPost2010PropOp39
 70
     1
102
RTVSPost2010Prop40
 90
        0
102
RTVSPost2010PropOp40
 70
     1
102
RTVSPost2010Prop41ColorIndex
 90
       18
102
RTVSPost2010Prop41ColorRGB
 90
        0
102
RTVSPost2010PropOp41
 70
     1
102
RTVSPost2010Prop42
 90
       50
102
RTVSPost2010PropOp42
 70
     1
102
RTVSPost2010Prop43
 90
        3
102
RTVSPost2010PropOp43
 70
     1
102
RTVSPost2010Prop44ColorIndex
 90
        5
102
RTVSPost2010Prop44ColorRGB
 90
      255
102
RTVSPost2010PropOp44
 70
     1
102
RTVSPost2010Prop45
280
     0
102
RTVSPost2010PropOp45
 70
     1
102
RTVSPost2010Prop46
 90
       50
102
RTVSPost2010PropOp46
 70
     1
102
RTVSPost2010Prop47
 90
       50
102
RTVSPost2010PropOp47
 70
     1
102
RTVSPost2010Prop48
 90
       50
102
RTVSPost2010PropOp48
 70
     1
102
RTVSPost2010Prop49
280
     0
102
RTVSPost2010PropOp49
 70
     1
102
RTVSPost2010Prop50
 90
       50
102
RTVSPost2010PropOp50
 70
     1
102
RTVSPost2010Prop51ColorIndex
 90
      256
102
RTVSPost2010Prop51ColorRGB
 90
-16777216
102
RTVSPost2010PropOp51
 70
     0
102
RTVSPost2010Prop52
140
1.0
102
RTVSPost2010PropOp52
 70
     0
102
RTVSPost2010Prop53
 90
        2
102
RTVSPost2010PropOp53
 70
     1
102
RTVSPost2010Prop54
  1
strokes_ogs.tif
102
RTVSPost2010PropOp54
 70
     1
102
RTVSPost2010Prop55
280
     0
102
RTVSPost2010PropOp55
 70
     1
102
RTVSPost2010Prop56
140
1.0
102
RTVSPost2010PropOp56
 70
     1
102
RTVSPost2010Prop57
140
1.0
102
RTVSPost2010PropOp57
 70
     1
  0
XRECORD
  5
105F6
102
{ACAD_REACTORS
330
105F5
102
}
330
105F5
100
AcDbXrecord
280
     1
102
RTVSPost2010Prop28
280
     0
102
RTVSPost2010PropOp28
 70
     1
102
RTVSPost2010Prop29
280
     1
102
RTVSPost2010PropOp29
 70
     1
102
RTVSPost2010Prop30
280
     1
102
RTVSPost2010PropOp30
 70
     1
102
RTVSPost2010Prop31
280
     0
102
RTVSPost2010PropOp31
 70
     1
102
RTVSPost2010Prop32
280
     0
102
RTVSPost2010PropOp32
 70
     1
102
RTVSPost2010Prop33
280
     0
102
RTVSPost2010PropOp33
 70
     1
102
RTVSPost2010Prop34
280
     0
102
RTVSPost2010PropOp34
 70
     1
102
RTVSPost2010Prop35
280
     0
102
RTVSPost2010PropOp35
 70
     1
102
RTVSPost2010Prop36
280
     0
102
RTVSPost2010PropOp36
 70
     1
102
RTVSPost2010Prop37
 90
       50
102
RTVSPost2010PropOp37
 70
     1
102
RTVSPost2010Prop38
140
0.0
102
RTVSPost2010PropOp38
 70
     1
102
RTVSPost2010Prop39
140
1.0
102
RTVSPost2010PropOp39
 70
     1
102
RTVSPost2010Prop40
 90
        0
102
RTVSPost2010PropOp40
 70
     1
102
RTVSPost2010Prop41ColorIndex
 90
       18
102
RTVSPost2010Prop41ColorRGB
 90
        0
102
RTVSPost2010PropOp41
 70
     1
102
RTVSPost2010Prop42
 90
       50
102
RTVSPost2010PropOp42
 70
     1
102
RTVSPost2010Prop43
 90
        3
102
RTVSPost2010PropOp43
 70
     1
102
RTVSPost2010Prop44ColorIndex
 90
        5
102
RTVSPost2010Prop44ColorRGB
 90
      255
102
RTVSPost2010PropOp44
 70
     1
102
RTVSPost2010Prop45
280
     0
102
RTVSPost2010PropOp45
 70
     1
102
RTVSPost2010Prop46
 90
       50
102
RTVSPost2010PropOp46
 70
     1
102
RTVSPost2010Prop47
 90
       50
102
RTVSPost2010PropOp47
 70
     1
102
RTVSPost2010Prop48
 90
       50
102
RTVSPost2010PropOp48
 70
     1
102
RTVSPost2010Prop49
280
     0
102
RTVSPost2010PropOp49
 70
     1
102
RTVSPost2010Prop50
 90
       50
102
RTVSPost2010PropOp50
 70
     1
102
RTVSPost2010Prop51ColorIndex
 90
      256
102
RTVSPost2010Prop51ColorRGB
 90
-16777216
102
RTVSPost2010PropOp51
 70
     0
102
RTVSPost2010Prop52
140
1.0
102
RTVSPost2010PropOp52
 70
     0
102
RTVSPost2010Prop53
 90
        2
102
RTVSPost2010PropOp53
 70
     1
102
RTVSPost2010Prop54
  1
strokes_ogs.tif
102
RTVSPost2010PropOp54
 70
     1
102
RTVSPost2010Prop55
280
     0
102
RTVSPost2010PropOp55
 70
     1
102
RTVSPost2010Prop56
140
1.0
102
RTVSPost2010PropOp56
 70
     1
102
RTVSPost2010Prop57
140
1.0
102
RTVSPost2010PropOp57
 70
     1
  0
XRECORD
  5
1060E
102
{ACAD_REACTORS
330
1060D
102
}
330
1060D
100
AcDbXrecord
280
     1
102
RTVSPost2010Prop28
280
     0
102
RTVSPost2010PropOp28
 70
     1
102
RTVSPost2010Prop29
280
     1
102
RTVSPost2010PropOp29
 70
     1
102
RTVSPost2010Prop30
280
     1
102
RTVSPost2010PropOp30
 70
     1
102
RTVSPost2010Prop31
280
     0
102
RTVSPost2010PropOp31
 70
     1
102
RTVSPost2010Prop32
280
     0
102
RTVSPost2010PropOp32
 70
     1
102
RTVSPost2010Prop33
280
     0
102
RTVSPost2010PropOp33
 70
     1
102
RTVSPost2010Prop34
280
     0
102
RTVSPost2010PropOp34
 70
     1
102
RTVSPost2010Prop35
280
     0
102
RTVSPost2010PropOp35
 70
     1
102
RTVSPost2010Prop36
280
     0
102
RTVSPost2010PropOp36
 70
     1
102
RTVSPost2010Prop37
 90
       50
102
RTVSPost2010PropOp37
 70
     1
102
RTVSPost2010Prop38
140
0.0
102
RTVSPost2010PropOp38
 70
     1
102
RTVSPost2010Prop39
140
1.0
102
RTVSPost2010PropOp39
 70
     1
102
RTVSPost2010Prop40
 90
        0
102
RTVSPost2010PropOp40
 70
     1
102
RTVSPost2010Prop41ColorIndex
 90
       18
102
RTVSPost2010Prop41ColorRGB
 90
        0
102
RTVSPost2010PropOp41
 70
     1
102
RTVSPost2010Prop42
 90
       50
102
RTVSPost2010PropOp42
 70
     1
102
RTVSPost2010Prop43
 90
        3
102
RTVSPost2010PropOp43
 70
     1
102
RTVSPost2010Prop44ColorIndex
 90
        5
102
RTVSPost2010Prop44ColorRGB
 90
      255
102
RTVSPost2010PropOp44
 70
     1
102
RTVSPost2010Prop45
280
     0
102
RTVSPost2010PropOp45
 70
     1
102
RTVSPost2010Prop46
 90
       50
102
RTVSPost2010PropOp46
 70
     1
102
RTVSPost2010Prop47
 90
       50
102
RTVSPost2010PropOp47
 70
     1
102
RTVSPost2010Prop48
 90
       50
102
RTVSPost2010PropOp48
 70
     1
102
RTVSPost2010Prop49
280
     0
102
RTVSPost2010PropOp49
 70
     1
102
RTVSPost2010Prop50
 90
       50
102
RTVSPost2010PropOp50
 70
     1
102
RTVSPost2010Prop51ColorIndex
 90
      256
102
RTVSPost2010Prop51ColorRGB
 90
-16777216
102
RTVSPost2010PropOp51
 70
     0
102
RTVSPost2010Prop52
140
1.0
102
RTVSPost2010PropOp52
 70
     0
102
RTVSPost2010Prop53
 90
        2
102
RTVSPost2010PropOp53
 70
     1
102
RTVSPost2010Prop54
  1
strokes_ogs.tif
102
RTVSPost2010PropOp54
 70
     1
102
RTVSPost2010Prop55
280
     0
102
RTVSPost2010PropOp55
 70
     1
102
RTVSPost2010Prop56
140
1.0
102
RTVSPost2010PropOp56
 70
     1
102
RTVSPost2010Prop57
140
1.0
102
RTVSPost2010PropOp57
 70
     1
  0
ENDSEC
  0
EOF
