0
SECTION
2
HEADER
9
$INSUNITS
70
4
9
$ACADVER
1
AC1014
9
$HANDSEED
5
FFFF
0
ENDSEC
0
SECTION
2
TABLES
0
TABLE
2
VPORT
5
8
100
AcDbSymbolTable
0
ENDTAB
0
TABLE
2
LTYPE
5
5
100
AcDbSymbolTable
0
LTYPE
5
14
100
AcDbSymbolTableRecord
100
AcDbLinetypeTableRecord
2
BYBLOCK
70
0
0
LTYPE
5
15
100
AcDbSymbolTableRecord
100
AcDbLinetypeTableRecord
2
BYLAYER
70
0
0
ENDTAB
0
TABLE
2
LAYER
5
2
100
AcDbSymbolTable
70
2
0
LAYER
5
50
100
AcDbSymbolTableRecord
100
AcDbLayerTableRecord
2
0
70
0
6
CONTINUOUS
0
ENDTAB
0
TABLE
2
STYLE
5
3
100
AcDbSymbolTable
70
1
0
STYLE
5
11
100
AcDbSymbolTableRecord
100
AcDbTextStyleTableRecord
2
STANDARD
70
0
0
ENDTAB
0
TABLE
2
VIEW
5
6
100
AcDbSymbolTable
70
0
0
ENDTAB
0
TABLE
2
UCS
5
7
100
AcDbSymbolTable
70
0
0
ENDTAB
0
TABLE
2
APPID
5
9
100
AcDbSymbolTable
70
2
0
APPID
5
12
100
AcDbSymbolTableRecord
100
AcDbRegAppTableRecord
2
ACAD
70
0
0
ENDTAB
0
TABLE
2
DIMSTYLE
5
A
100
AcDbSymbolTable
70
1
0
ENDTAB
0
TABLE
2
BLOCK_RECORD
5
1
100
AcDbSymbolTable
70
1
0
BLOCK_RECORD
5
1F
100
AcDbSymbolTableRecord
100
AcDbBlockTableRecord
2
*MODEL_SPACE
0
BLOCK_RECORD
5
1B
100
AcDbSymbolTableRecord
100
AcDbBlockTableRecord
2
*PAPER_SPACE
0
ENDTAB
0
ENDSEC
0
SECTION
2
BLOCKS
0
BLOCK
5
20
100
AcDbEntity
100
AcDbBlockBegin
2
*MODEL_SPACE
0
ENDBLK
5
21
100
AcDbEntity
100
AcDbBlockEnd
0
BLOCK
5
1C
100
AcDbEntity
100
AcDbBlockBegin
2
*PAPER_SPACE
0
ENDBLK
5
1D
100
AcDbEntity
100
AcDbBlockEnd
0
ENDSEC
0
SECTION
2
ENTITIES
0
LWPOLYLINE
5
100
100
AcDbEntity
8
0
100
AcDbPolyline
90
20
70
1
43
0.0
10
-1875
20
-1260
10
-1860
20
-1260
10
-1860
20
-1310
10
-2325
20
-1310
10
-2325
20
-1260
10
-2340
20
-1260
10
-2340
20
-1200
10
-2325
20
-1200
10
-2325
20
-1142.5
10
-2100
20
-1142.5
10
-2100
20
-1127.5
10
-2325
20
-1127.5
10
-2325
20
-1070
10
-2340
20
-1070
10
-2340
20
-1010
10
-2325
20
-1010
10
-2325
20
-960
10
-1860
20
-960
10
-1860
20
-1010
10
-1875
20
-1010
0
LWPOLYLINE
5
101
100
AcDbEntity
8
0
100
AcDbPolyline
90
4
70
1
43
0.0
10
-430
20
-160
10
-530
20
-159.99999999999986
10
-530
20
-174.99999999999986
10
-430
20
-175
0
LWPOLYLINE
5
102
100
AcDbEntity
8
0
100
AcDbPolyline
90
4
70
1
43
0.0
10
-530
20
-267.49999999999994
10
-460
20
-267.49999999999994
10
-460
20
-252.49999999999994
10
-530
20
-252.49999999999994
0
LWPOLYLINE
5
103
100
AcDbEntity
8
0
100
AcDbPolyline
90
4
70
1
43
0.0
10
-1220
20
-435
10
-1205
20
-435
10
-1205
20
-385
10
-1220
20
-385
0
LWPOLYLINE
5
104
100
AcDbEntity
8
0
100
AcDbPolyline
90
4
70
1
43
0.0
10
-1140
20
-1095
10
-1125
20
-1095
10
-1125
20
-1035
10
-1140
20
-1035
0
LWPOLYLINE
5
105
100
AcDbEntity
8
0
100
AcDbPolyline
90
4
70
1
43
0.0
10
-1140
20
-1152.5
10
-1240
20
-1152.5
10
-1240
20
-1167.5
10
-1140
20
-1167.5
0
LWPOLYLINE
5
106
100
AcDbEntity
8
0
100
AcDbPolyline
90
4
70
1
43
0.0
10
-1075
20
-1152.5
10
-1075
20
-1167.5
10
-925
20
-1167.5
10
-925
20
-1152.5
0
LWPOLYLINE
5
107
100
AcDbEntity
8
0
100
AcDbPolyline
90
4
70
1
43
0.0
10
-1125
20
-1225
10
-1140
20
-1225
10
-1140
20
-1285
10
-1125
20
-1285
0
LWPOLYLINE
5
108
100
AcDbEntity
8
0
100
AcDbPolyline
90
4
70
1
43
0.0
10
-1125
20
-175
10
-1025
20
-175
10
-1025
20
-160
10
-1125
20
-160
0
LWPOLYLINE
5
109
100
AcDbEntity
8
0
100
AcDbPolyline
90
4
70
1
43
0.0
10
-1075
20
-252.5
10
-1125
20
-252.5
10
-1125
20
-267.5
10
-1075
20
-267.5
0
LWPOLYLINE
5
110
100
AcDbEntity
8
0
100
AcDbPolyline
90
4
70
1
43
0.0
10
-1025
20
-345
10
-1125
20
-345
10
-1125
20
-360
10
-1025
20
-360
0
LWPOLYLINE
5
111
100
AcDbEntity
8
0
100
AcDbPolyline
90
4
70
1
43
0.0
10
-1140
20
-85
10
-1140
20
-135
10
-1125
20
-135
10
-1125
20
-85
0
LWPOLYLINE
5
112
100
AcDbEntity
8
0
100
AcDbPolyline
90
4
70
1
43
0.0
10
-1220
20
-252.5
10
-1290
20
-252.5
10
-1290
20
-267.5
10
-1220
20
-267.5
0
LWPOLYLINE
5
113
100
AcDbEntity
8
0
100
AcDbPolyline
90
4
70
1
43
0.0
10
-1205
20
-85
10
-1220
20
-85
10
-1220
20
-135
10
-1205
20
-135
0
LWPOLYLINE
5
114
100
AcDbEntity
8
0
100
AcDbPolyline
90
4
70
1
43
0.0
10
-1320
20
-160
10
-1320
20
-175
10
-1220
20
-175
10
-1220
20
-160
0
LWPOLYLINE
5
115
100
AcDbEntity
8
0
100
AcDbPolyline
90
4
70
1
43
0.0
10
-1125
20
-435
10
-1125
20
-385
10
-1140
20
-385
10
-1140
20
-435
0
LWPOLYLINE
5
116
100
AcDbEntity
8
0
100
AcDbPolyline
90
4
70
1
43
0.0
10
-1320
20
-345
10
-1320
20
-360
10
-1220
20
-360
10
-1220
20
-345
0
LWPOLYLINE
5
117
100
AcDbEntity
8
0
100
AcDbPolyline
90
152
70
1
43
0.0
10
-1665
20
-909.11111111111131
10
-1290
20
-909.89542483660125
10
-1290
20
-910
42
0.017246233441122964
10
-1289.8810977141809
20
-913.44617045839755
10
-1657.1117209906026
20
-991.50344908197314
42
0.0041178565291972872
10
-1655.7127303118682
20
-998.36246859754499
10
-1288.90738003669
20
-920.39558454088797
42
0.017246233441122159
10
-1288.074576924243
20
-923.74172673120245
10
-1631.0513092187944
20
-1076.4448063421232
42
0.0041178565292427872
10
-1628.2568194981054
20
-1082.863073307215
10
-1285.6772728821302
20
-930.33683215379006
42
0.017246233441122159
10
-1284.1669664353012
20
-933.43670360573299
10
-1587.900078761752
20
-1154.111726874329
42
0.0041178565291652685
10
-1583.8322226093528
20
-1159.8087322243011
10
-1280.4508497187473
20
-939.3892626146237
42
0.017246233441122964
10
-1278.3290475765175
20
-942.10738407091185
10
-1529.5439454530244
20
-1221.1097935640983
42
0.00411785652922425
10
-1524.3805077025172
20
-1225.8365508278903
10
-1273.4565303179429
20
-947.15724127386989
42
0.017246233441120546
10
-1270.8159654154642
20
-949.37481778386928
10
-1458.5333523420002
20
-1274.5108694046958
42
0.0041178565292293058
10
-1452.5
20
-1278.0607966083862
10
-1265
20
-953.3012701892219
42
0.13165249758739384
10
-1240
20
-960
10
-509.99999999999994
20
-960
42
0.13165249758741507
10
-485
20
-953.3012701892219
10
-297.49999999999989
20
-1278.0607966083862
42
0.0041178565292107686
10
-291.46664765800216
20
-1274.5108694046971
10
-479.18403458453582
20
-949.37481778386939
42
0.017246233441129008
10
-476.54346968205698
20
-947.15724127386966
10
-225.61949229748532
20
-1225.8365508278926
42
0.0041178565291888607
10
-220.45605454697753
20
-1221.1097935641003
10
-471.67095242348233
20
-942.10738407091185
42
0.017246233441127801
10
-469.54915028125276
20
-939.38926261462382
10
-166.1677773906473
20
-1159.8087322243011
42
0.0041178565291770646
10
-162.09992123825
20
-1154.1117268743312
10
-465.83303356469884
20
-933.43670360573299
42
0.017246233441130618
10
-464.32272711786993
20
-930.33683215378983
10
-121.74318050189449
20
-1082.8630733072148
42
0.0041178565292141391
10
-118.94869078120585
20
-1076.4448063421235
10
-461.92542307575695
20
-923.74172673120245
42
0.017246233441130618
10
-461.09261996330963
20
-920.39558454088797
10
-94.287269688132369
20
-998.3624685975476
42
0.0041178565292006569
10
-92.888279009398005
20
-991.50344908197576
10
-460.11890228581905
20
-913.44617045839755
42
0.01724623344113102
10
-460
20
-910
10
-460
20
-909.89542483660125
10
-85
20
-909.11111111111131
10
-85
20
-902.11026424875786
10
-460
20
-896.2769309154246
10
-460
20
-859.72349251575247
10
-85.000000000000071
20
-853.89015918241921
10
-85.000000000000071
20
-846.1098408175809
10
-460
20
-840.27650748424753
10
-460
20
-803.72349251575258
10
-85.000000000000071
20
-797.89015918241921
10
-85.000000000000071
20
-790.10984081758079
10
-460
20
-784.27650748424753
10
-460
20
-747.72306908457551
10
-85.000000000000071
20
-741.88973575124226
10
-85.000000000000071
20
-734.11026424875774
10
-460.00000000000006
20
-728.2769309154246
10
-460.00000000000006
20
-691.7230690845754
10
-85.000000000000071
20
-685.88973575124226
10
-85.000000000000071
20
-678.11026424875774
10
-460
20
-672.27693091542449
10
-460
20
-635.72349251575258
10
-85.000000000000071
20
-629.89015918241921
10
-85.000000000000071
20
-622.10984081758079
10
-460
20
-616.27650748424753
10
-460
20
-579.72349251575247
10
-85.000000000000071
20
-573.8901591824191
10
-85.000000000000071
20
-566.10984081758079
10
-460
20
-560.27650748424742
10
-460
20
-523.72306908457551
10
-85
20
-517.88973575124214
10
-85
20
-510.88888888888874
10
-460
20
-510.10457516339869
10
-460
20
-510
42
0.017246233441121757
10
-460.11890228581905
20
-506.55382954160251
10
-92.888279009397365
20
-428.49655091802703
42
0.0041178565292175097
10
-94.287269688131374
20
-421.63753140245802
10
-461.09261996330974
20
-499.60441545911209
42
0.017246233441121757
10
-461.92542307575701
20
-496.25827326879755
10
-118.94869078120578
20
-343.55519365787671
42
0.0041178565292006569
10
-121.74318050189569
20
-337.13692669278254
10
-464.32272711786993
20
-489.66316784621
42
0.017246233441120948
10
-465.83303356469878
20
-486.56329639426707
10
-162.0999212382481
20
-265.88827312567128
42
0.0041178565292023421
10
-166.16777739064887
20
-260.19126777569687
10
-469.54915028125265
20
-480.61073738537635
42
0.017246233441123773
10
-471.67095242348245
20
-477.89261592908804
10
-220.45605454697534
20
-198.89020643590163
42
0.0041178565291871755
10
-225.61949229748512
20
-194.16344917210756
10
-476.54346968205709
20
-472.84275872613028
42
0.017246233441122562
10
-479.18403458453588
20
-470.62518221613055
10
-291.46664765799972
20
-145.4891305953042
42
0.0041178565291686391
10
-297.49999999999983
20
-141.93920339161366
10
-485
20
-466.6987298107781
42
0.13165249758739395
10
-510
20
-460
10
-1240
20
-460
42
0.13165249758750633
10
-1265
20
-466.6987298107781
10
-1452.5000000000002
20
-141.93920339161389
42
0.0041178565292023421
10
-1458.5333523420002
20
-145.48913059530435
10
-1270.8159654154642
20
-470.62518221613061
42
0.017246233441154384
10
-1273.4565303179429
20
-472.84275872613017
10
-1524.3805077025147
20
-194.16344917210739
42
0.0041178565292006569
10
-1529.5439454530224
20
-198.89020643589973
10
-1278.3290475765175
20
-477.89261592908815
42
0.017246233441162443
10
-1280.4508497187473
20
-480.61073738537635
10
-1583.8322226093528
20
-260.19126777569903
42
0.0041178565292023421
10
-1587.9000787617517
20
-265.88827312567105
10
-1284.1669664353012
20
-486.56329639426707
42
0.017246233441167678
10
-1285.6772728821302
20
-489.66316784621006
10
-1628.2568194981054
20
-337.13692669278532
42
0.0041178565292208803
10
-1631.0513092187941
20
-343.55519365787666
10
-1288.074576924243
20
-496.25827326879755
42
0.017246233441170093
10
-1288.90738003669
20
-499.60441545911203
10
-1655.7127303118673
20
-421.63753140245217
42
0.0041178565291585282
10
-1657.1117209906026
20
-428.49655091802703
10
-1289.8810977141809
20
-506.55382954160245
42
0.017246233441171707
10
-1290
20
-510
10
-1290
20
-510.10457516339869
10
-1665
20
-510.88888888888874
10
-1665
20
-517.88973575124214
10
-1290
20
-523.7230690845754
10
-1290
20
-560.27650748424753
10
-1665
20
-566.10984081758079
10
-1665
20
-573.8901591824191
10
-1290
20
-579.72349251575247
10
-1290
20
-616.27650748424742
10
-1665
20
-622.10984081758079
10
-1665
20
-629.89015918241921
10
-1290
20
-635.72349251575247
10
-1290
20
-672.27693091542449
10
-1665
20
-678.11026424875774
10
-1665
20
-685.88973575124226
10
-1290
20
-691.7230690845754
10
-1290
20
-728.2769309154246
10
-1665
20
-734.11026424875774
10
-1665
20
-741.88973575124226
10
-1290
20
-747.72306908457551
10
-1290
20
-784.27650748424753
10
-1665
20
-790.10984081758079
10
-1665
20
-797.89015918241921
10
-1290
20
-803.72349251575258
10
-1290
20
-840.27650748424753
10
-1665
20
-846.1098408175809
10
-1665
20
-853.89015918241921
10
-1290
20
-859.72349251575247
10
-1290
20
-896.2769309154246
10
-1665
20
-902.11026424875786
0
LWPOLYLINE
5
118
100
AcDbEntity
8
0
100
AcDbPolyline
90
4
70
1
43
0.0
10
-430
20
-345
10
-530
20
-345
10
-530
20
-360
10
-430
20
-360
0
LWPOLYLINE
5
119
100
AcDbEntity
8
0
100
AcDbPolyline
90
4
70
1
43
0.0
10
-545
20
-384.99999999999989
10
-545
20
-434.99999999999989
10
-530
20
-434.99999999999989
10
-530
20
-384.99999999999989
0
LWPOLYLINE
5
120
100
AcDbEntity
8
0
100
AcDbPolyline
90
4
70
1
43
0.0
10
-510
20
-1152.5
10
-610
20
-1152.5
10
-610
20
-1167.5
10
-510
20
-1167.5
0
LWPOLYLINE
5
121
100
AcDbEntity
8
0
100
AcDbPolyline
90
4
70
1
43
0.0
10
-825
20
-1152.5
10
-825
20
-1167.5
10
-675
20
-1167.5
10
-675
20
-1152.5
0
LWPOLYLINE
5
122
100
AcDbEntity
8
0
100
AcDbPolyline
90
4
70
1
43
0.0
10
-625
20
-1225
10
-625
20
-1285
10
-610
20
-1285
10
-610
20
-1225
0
LWPOLYLINE
5
123
100
AcDbEntity
8
0
100
AcDbPolyline
90
4
70
1
43
0.0
10
-610
20
-1095
10
-610
20
-1035
10
-625
20
-1035
10
-625
20
-1095
0
LWPOLYLINE
5
124
100
AcDbEntity
8
0
100
AcDbPolyline
90
4
70
1
43
0.0
10
-625
20
-384.99999999999989
10
-625
20
-435
10
-610
20
-434.99999999999989
10
-610
20
-384.99999999999989
0
LWPOLYLINE
5
125
100
AcDbEntity
8
0
100
AcDbPolyline
90
4
70
1
43
0.0
10
-625
20
-345
10
-725
20
-345
10
-725
20
-360
10
-625
20
-360
0
LWPOLYLINE
5
126
100
AcDbEntity
8
0
100
AcDbPolyline
90
4
70
1
43
0.0
10
-725
20
-160
10
-725
20
-175
10
-625
20
-174.99999999999986
10
-625
20
-159.99999999999986
0
LWPOLYLINE
5
127
100
AcDbEntity
8
0
100
AcDbPolyline
90
4
70
1
43
0.0
10
-625
20
-267.49999999999994
10
-625
20
-252.49999999999994
10
-675
20
-252.49999999999994
10
-675
20
-267.49999999999994
0
LWPOLYLINE
5
128
100
AcDbEntity
8
0
100
AcDbPolyline
90
4
70
1
43
0.0
10
-545
20
-135
10
-530
20
-135
10
-530
20
-85
10
-545
20
-85
0
LWPOLYLINE
5
129
100
AcDbEntity
8
0
100
AcDbPolyline
90
4
70
1
43
0.0
10
-625
20
-134.99999999999986
10
-610
20
-135
10
-610
20
-85
10
-625
20
-84.999999999999858
0
LWPOLYLINE
5
130
100
AcDbEntity
8
0
100
AcDbPolyline
90
160
70
1
43
0.0
10
-1331.5157446920559
20
-1115.5477279695849
42
-0.0077791899269558191
10
-1337.86626307236
20
-1112.6010724360847
10
-1429.4041616972704
20
-1318.1985589535495
42
-0.048508826997154045
10
-1504.5033635316126
20
-1274.0576474687264
10
-1372.2516817658059
20
-1092.0288237343639
42
-0.0077791899269575963
10
-1377.8507819486902
20
-1087.8262126800623
10
-1510.134478914588
20
-1269.8991015570114
42
-0.048508826997154045
10
-1574.4151714648274
20
-1211.1087728614862
10
-1407.2075857324146
20
-1060.5543864307426
42
-0.0077791899269558191
10
-1411.8105601724205
20
-1055.27949412508
10
-1579.0586231542916
20
-1205.8703264349367
42
-0.048508826997154156
10
-1629.7114317029973
20
-1135
10
-1434.8557158514986
20
-1022.5000000000001
42
-0.0077791899269567073
10
-1438.2613924780781
20
-1016.3833645484738
10
-1633.1642785783679
20
-1128.9105983043107
42
-0.048508826997154156
10
-1667.9754323328191
20
-1049.0576474687264
10
-1453.9877161664092
20
-979.52882373436398
42
-0.0077791899269575963
10
-1456.0472505687308
20
-972.8377714570787
10
-1670.0867684170448
20
-1042.3834265781911
42
-0.048508826997154489
10
-1687.5348529157231
20
-957.03780847044413
10
-1463.7674264578618
20
-933.51890423522127
42
-0.0077791899269558191
10
-1464.3908070998007
20
-926.54586622392787
10
-1688.2124026906085
20
-950.07046386444244
42
-0.022294585767423623
10
-1690
20
-910
10
-1690
20
-881.50084686235357
10
-1465
20
-881.50042343117684
10
-1465
20
-874.50000000000023
10
-1690
20
-874.50000000000023
10
-1690
20
-825.50000000000011
10
-1465
20
-825.50000000000011
10
-1465
20
-818.5
10
-1690
20
-818.5
10
-1690
20
-769.49999999999989
10
-1465
20
-769.49999999999989
10
-1465
20
-762.5
10
-1690
20
-762.5
10
-1690
20
-713.5
10
-1465
20
-713.5
10
-1465
20
-706.5
10
-1690
20
-706.5
10
-1690
20
-657.5
10
-1465
20
-657.5
10
-1465
20
-650.50000000000011
10
-1690
20
-650.50000000000011
10
-1690
20
-601.5
10
-1465
20
-601.5
10
-1465
20
-594.49999999999989
10
-1690
20
-594.49999999999989
10
-1690
20
-545.49999999999977
10
-1465
20
-545.49999999999977
10
-1465
20
-538.49957656882316
10
-1690
20
-538.49915313764643
10
-1690.0000000000002
20
-510.00000000000114
42
-0.022294585767431731
10
-1688.2124026906085
20
-469.92953613555687
10
-1464.3908070998007
20
-493.45413377607167
42
-0.0077791899269611491
10
-1463.7674264578616
20
-486.48109576477793
10
-1687.5348529157277
20
-462.96219152955581
42
-0.048508826997169734
10
-1670.0867684170448
20
-377.61657342180939
10
-1456.0472505687321
20
-447.16222854292221
42
-0.0077791899269630364
10
-1453.9877161664094
20
-440.47117626563676
10
-1667.9754323328289
20
-370.94235253127039
42
-0.048508826997168623
10
-1633.1642785783679
20
-291.08940169568893
10
-1438.2613924780794
20
-403.61663545152396
42
-0.0077791899269593727
10
-1434.8557158514986
20
-397.5
10
-1629.7114317030105
20
-284.9999999999925
42
-0.048508826997167291
10
-1579.0586231542916
20
-214.12967356506329
10
-1411.8105601724221
20
-364.7205058749181
42
-0.0077791899269602609
10
-1407.2075857324137
20
-359.44561356925692
10
-1574.4151714648422
20
-208.89122713850065
42
-0.048508826997165175
10
-1510.1344789145878
20
-150.10089844298847
10
-1377.8507819486931
20
-332.17378731993563
42
-0.0077791899269611491
10
-1372.2516817658063
20
-327.97117626563676
10
-1504.5033635316263
20
-145.94235253125444
42
-0.048508826997162281
10
-1429.4041616972704
20
-101.8014410464508
10
-1337.8662630723627
20
-307.39892756391208
42
-0.0077791899269602609
10
-1331.5157446920553
20
-304.45227203041469
10
-1423.0314893841337
20
-98.90454406077663
42
-0.10510423526568446
10
-1240
20
-60
10
-509.99999999999989
20
-59.999999999999964
42
-0.10510423526567617
10
-326.96851061588995
20
-98.904544060829593
10
-418.48425530794424
20
-304.45227203041509
42
-0.0077791899269558191
10
-412.13373692764014
20
-307.39892756391521
10
-320.59583830272976
20
-101.80144104645063
42
-0.048508826997154156
10
-245.49663646838709
20
-145.94235253127366
10
-377.74831823419282
20
-327.97117626563727
42
-0.0077791899269558191
10
-372.14921805130996
20
-332.17378731993767
10
-239.86552108541258
20
-150.10089844298821
42
-0.048508826997154489
10
-175.58482853517262
20
-208.89122713851384
10
-342.79241426758466
20
-359.44561356925868
42
-0.0077791899269540428
10
-338.18943982757963
20
-364.72050587491998
10
-170.94137684570859
20
-214.12967356506311
42
-0.048508826997154378
10
-120.2885682970026
20
-285
10
-315.1442841485013
20
-397.49999999999994
42
-0.0077791899269567073
10
-311.73860752192184
20
-403.61663545152624
10
-116.83572142163177
20
-291.08940169568933
42
-0.048508826997154045
10
-82.024567667180861
20
-370.94235253127363
10
-296.01228383359046
20
-440.47117626563676
42
-0.0077791899269567073
10
-293.95274943126918
20
-447.1622285429213
10
-79.91323158295512
20
-377.61657342180956
42
-0.048508826997154156
10
-62.465147084276964
20
-462.96219152955592
10
-286.23257354213843
20
-486.48109576477873
42
-0.0077791899269558191
10
-285.60919290019945
20
-493.45413377607213
10
-61.787597309391408
20
-469.9295361355563
42
-0.022294585767424289
10
-60
20
-510
10
-60
20
-538.49915313764643
10
-285
20
-538.49957656882316
10
-285
20
-545.49999999999989
10
-60
20
-545.49999999999989
10
-60
20
-594.5
10
-285
20
-594.5
10
-285
20
-601.5
10
-60
20
-601.5
10
-60
20
-650.50000000000011
10
-285
20
-650.50000000000011
10
-285
20
-657.5
10
-60
20
-657.5
10
-60
20
-706.5
10
-285
20
-706.5
10
-285
20
-713.5
10
-60
20
-713.5
10
-60
20
-762.5
10
-285
20
-762.5
10
-285
20
-769.49999999999989
10
-60
20
-769.49999999999989
10
-60
20
-818.5
10
-285
20
-818.5
10
-285
20
-825.50000000000011
10
-60
20
-825.50000000000011
10
-60
20
-874.50000000000023
10
-285
20
-874.50000000000023
10
-285
20
-881.50042343117684
10
-60
20
-881.50084686235357
10
-59.999999999999929
20
-910.00000000000045
42
-0.022294585767424956
10
-61.78759730939138
20
-950.07046386444313
10
-285.6091929001995
20
-926.54586622392935
42
-0.0077791899269558191
10
-286.23257354213843
20
-933.51890423522207
10
-62.46514708427636
20
-957.03780847044436
42
-0.048508826997156827
10
-79.913231582955149
20
-1042.3834265781907
10
-293.9527494312689
20
-972.8377714570787
42
-0.0077791899269575963
10
-296.0122838335904
20
-979.52882373436319
10
-82.024567667178928
20
-1049.0576474687268
42
-0.048508826997156938
10
-116.83572142163193
20
-1128.910598304311
10
-311.73860752192104
20
-1016.3833645484731
42
-0.0077791899269584845
10
-315.14428414850124
20
-1022.5
10
-120.28856829700027
20
-1135.0000000000011
42
-0.048508826997156605
10
-170.94137684570839
20
-1205.8703264349367
10
-338.18943982757912
20
-1055.2794941250802
42
-0.0077791899269575963
10
-342.79241426758625
20
-1060.5543864307431
10
-175.5848285351702
20
-1211.1087728614887
42
-0.04850882699715605
10
-239.86552108541218
20
-1269.8991015570116
10
-372.14921805131007
20
-1087.826212680063
42
-0.0077791899269567073
10
-377.74831823419356
20
-1092.0288237343632
10
-245.49663646838491
20
-1274.0576474687298
42
-0.048508826997155606
10
-320.59583830272982
20
-1318.1985589535493
10
-412.13373692763872
20
-1112.6010724360849
42
-0.0077791899269584845
10
-418.48425530794498
20
-1115.5477279695854
10
-326.96851061588563
20
-1321.0954559391798
42
-0.10510423526567796
10
-510
20
-1360
10
-1240.0000000000002
20
-1360
42
-0.10510423526567617
10
-1423.03148938411
20
-1321.0954559391703
0
LWPOLYLINE
5
131
100
AcDbEntity
8
0
100
AcDbPolyline
90
16
70
1
43
0.0
10
-585
20
-549.99999999999977
10
-585
20
-724.99999999999977
10
-570
20
-724.99999999999977
10
-570
20
-549.99999999999977
10
-545
20
-549.99999999999977
10
-545
20
-534.99999999999977
10
-495
20
-534.99999999999977
10
-495
20
-899.99999999999977
10
-845
20
-899.99999999999977
10
-845
20
-534.99999999999977
10
-795
20
-534.99999999999977
10
-795
20
-549.99999999999977
10
-770
20
-549.99999999999977
10
-770
20
-724.99999999999977
10
-755
20
-724.99999999999977
10
-755
20
-549.99999999999977
0
LWPOLYLINE
5
132
100
AcDbEntity
8
0
100
AcDbPolyline
90
36
70
1
43
0.0
10
-2319.9999999999995
20
-777.49999999999943
10
-2319.9999999999995
20
-712.49999999999943
10
-2334.9999999999995
20
-712.49999999999943
10
-2335
20
-562.49999999999943
10
-2320
20
-562.49999999999943
10
-2320
20
-462.49999999999943
10
-2335
20
-462.49999999999943
10
-2335
20
-312.49999999999943
10
-2320
20
-312.49999999999943
10
-2320
20
-247.49999999999943
10
-2335
20
-247.49999999999943
10
-2335
20
-147.49999999999943
10
-2320
20
-147.49999999999943
10
-2320
20
-97.499999999999432
10
-1854.9999999999998
20
-97.499999999999432
10
-1854.9999999999998
20
-167.49999999999943
10
-1870
20
-167.49999999999943
10
-1870
20
-247.49999999999943
10
-2095
20
-247.49999999999943
10
-2095
20
-262.49999999999943
10
-1854.9999999999998
20
-262.49999999999943
10
-1854.9999999999998
20
-312.49999999999943
10
-2270
20
-312.49999999999943
10
-2269.9999999999995
20
-712.49999999999943
10
-1854.9999999999995
20
-712.49999999999943
10
-1854.9999999999995
20
-762.49999999999943
10
-2094.9999999999995
20
-762.49999999999943
10
-2094.9999999999995
20
-777.49999999999943
10
-1869.9999999999995
20
-777.49999999999943
10
-1869.9999999999995
20
-857.49999999999943
10
-1854.9999999999995
20
-857.49999999999943
10
-1854.9999999999995
20
-927.49999999999943
10
-2319.9999999999995
20
-927.49999999999943
10
-2319.9999999999995
20
-877.49999999999943
10
-2334.9999999999995
20
-877.49999999999943
10
-2334.9999999999995
20
-777.49999999999943
0
LWPOLYLINE
5
133
100
AcDbEntity
8
0
100
AcDbPolyline
90
20
70
1
43
0.0
10
-1775
20
-635
10
-1760
20
-635
10
-1760
20
-685
10
-2225
20
-685
10
-2225
20
-635
10
-2240
20
-635
10
-2240
20
-575
10
-2225
20
-575
10
-2225
20
-517.5
10
-2000
20
-517.5
10
-2000
20
-502.5
10
-2225
20
-502.5
10
-2225
20
-445
10
-2240
20
-445
10
-2240
20
-385
10
-2225
20
-385
10
-2225
20
-335
10
-1760
20
-335
10
-1760
20
-385
10
-1775
20
-385
0
LWPOLYLINE
5
134
100
AcDbEntity
8
0
100
AcDbPolyline
90
32
70
1
43
0.0
10
-2579.9999999999995
20
-684.99999999999943
10
-2579.9999999999995
20
-984.99999999999977
10
-2564.9999999999995
20
-984.99999999999977
10
-2564.9999999999995
20
-1084.9999999999998
10
-2579.9999999999995
20
-1084.9999999999998
10
-2579.9999999999995
20
-1179.9999999999998
10
-2564.9999999999995
20
-1179.9999999999998
10
-2564.9999999999995
20
-1279.9999999999998
10
-2579.9999999999995
20
-1279.9999999999998
10
-2579.9999999999995
20
-1329.9999999999998
10
-2929.9999999999995
20
-1329.9999999999995
10
-2929.9999999999995
20
-1179.9999999999995
10
-2754.9999999999995
20
-1179.9999999999995
10
-2754.9999999999995
20
-1164.9999999999995
10
-2929.9999999999995
20
-1164.9999999999995
10
-2929.9999999999995
20
-1114.9999999999995
10
-2629.9999999999995
20
-1114.9999999999995
10
-2629.9999999999995
20
-554.99999999999943
10
-2929.9999999999995
20
-554.99999999999943
10
-2929.9999999999995
20
-504.99999999999943
10
-2754.9999999999995
20
-504.99999999999943
10
-2754.9999999999995
20
-489.99999999999943
10
-2929.9999999999995
20
-489.99999999999943
10
-2929.9999999999995
20
-339.99999999999943
10
-2579.9999999999995
20
-339.99999999999972
10
-2579.9999999999995
20
-389.99999999999943
10
-2564.9999999999991
20
-389.99999999999972
10
-2564.9999999999991
20
-489.99999999999943
10
-2579.9999999999995
20
-489.99999999999943
10
-2579.9999999999995
20
-584.99999999999943
10
-2564.9999999999991
20
-584.99999999999943
10
-2564.9999999999991
20
-684.99999999999943
0
LWPOLYLINE
5
135
100
AcDbEntity
8
0
100
AcDbPolyline
90
32
70
1
43
0.0
10
-3019.9999999999995
20
-450.00000000000057
10
-3019.9999999999995
20
-350.00000000000057
10
-3004.9999999999995
20
-350.00000000000057
10
-3004.9999999999995
20
-255.00000000000057
10
-3019.9999999999995
20
-255.00000000000057
10
-3019.9999999999995
20
-155.00000000000057
10
-3004.9999999999995
20
-155.00000000000057
10
-3004.9999999999995
20
-105.00000000000057
10
-2654.9999999999995
20
-105.00000000000057
10
-2654.9999999999995
20
-255.00000000000057
10
-2829.9999999999995
20
-255.00000000000057
10
-2829.9999999999995
20
-270.00000000000057
10
-2654.9999999999995
20
-270.00000000000057
10
-2654.9999999999995
20
-320.00000000000057
10
-2954.9999999999995
20
-320.00000000000057
10
-2954.9999999999995
20
-880.00000000000057
10
-2654.9999999999995
20
-880.00000000000057
10
-2654.9999999999995
20
-930.00000000000057
10
-2829.9999999999995
20
-930.00000000000057
10
-2829.9999999999995
20
-945.00000000000057
10
-2654.9999999999995
20
-945.00000000000057
10
-2654.9999999999995
20
-1095.0000000000005
10
-3004.9999999999995
20
-1095.0000000000005
10
-3004.9999999999995
20
-1045.0000000000005
10
-3019.9999999999995
20
-1045.0000000000005
10
-3019.9999999999995
20
-945.00000000000057
10
-3004.9999999999995
20
-945.00000000000057
10
-3004.9999999999995
20
-850.00000000000057
10
-3019.9999999999995
20
-850.00000000000057
10
-3019.9999999999995
20
-750.00000000000057
10
-3004.9999999999995
20
-750.00000000000057
10
-3004.9999999999995
20
-450.00000000000057
0
LWPOLYLINE
5
136
100
AcDbEntity
8
0
100
AcDbPolyline
90
16
70
1
43
0.0
10
-985
20
-549.99999999999977
10
-985
20
-724.99999999999977
10
-970
20
-724.99999999999977
10
-970
20
-549.99999999999977
10
-945
20
-549.99999999999977
10
-945
20
-534.99999999999977
10
-895
20
-534.99999999999977
10
-895
20
-899.99999999999977
10
-1245
20
-899.99999999999977
10
-1245
20
-534.99999999999977
10
-1195
20
-534.99999999999977
10
-1195
20
-549.99999999999977
10
-1170
20
-549.99999999999977
10
-1170
20
-724.99999999999977
10
-1155
20
-724.99999999999977
10
-1155
20
-549.99999999999977
0
ENDSEC
0
SECTION
2
OBJECTS
0
DICTIONARY
5
C
100
AcDbDictionary
3
ACAD_GROUP
350
D
3
ACAD_MLINESTYLE
350
17
0
DICTIONARY
5
D
100
AcDbDictionary
0
DICTIONARY
5
1A
330
C
100
AcDbDictionary
0
DICTIONARY
5
17
100
AcDbDictionary
0
ENDSEC
0
EOF
