  0
SECTION
  2
HEADER
  9
$ACADVER
  1
AC1009
  9
$DWGCODEPAGE
  3
ansi_1252
  9
$INSBASE
 10
0.0
 20
0.0
 30
0.0
  9
$EXTMIN
 10
35.26038595572965
 20
25.44188051441813
 30
0.0
  9
$EXTMAX
 10
2113.729382046906
 20
1184.200968768577
 30
0.0
  9
$LIMMIN
 10
0.0
 20
0.0
  9
$LIMMAX
 10
12.0
 20
9.0
  9
$ORTHOMODE
 70
     0
  9
$REGENMODE
 70
     1
  9
$FILLMODE
 70
     1
  9
$QTEXTMODE
 70
     0
  9
$MIRRTEXT
 70
     1
  9
$DRAGMODE
 70
     2
  9
$LTSCALE
 40
1.0
  9
$OSMODE
 70
    37
  9
$ATTMODE
 70
     1
  9
$TEXTSIZE
 40
0.2
  9
$TRACEWID
 40
0.05
  9
$TEXTSTYLE
  7
STANDARD
  9
$CLAYER
  8
0
  9
$CELTYPE
  6
BYLAYER
  9
$CECOLOR
 62
   256
  9
$DIMSCALE
 40
1.0
  9
$DIMASZ
 40
0.18
  9
$DIMEXO
 40
0.0625
  9
$DIMDLI
 40
0.38
  9
$DIMRND
 40
0.0
  9
$DIMDLE
 40
0.0
  9
$DIMEXE
 40
0.18
  9
$DIMTP
 40
0.0
  9
$DIMTM
 40
0.0
  9
$DIMTXT
 40
0.18
  9
$DIMCEN
 40
0.09
  9
$DIMTSZ
 40
0.0
  9
$DIMTOL
 70
     0
  9
$DIMLIM
 70
     0
  9
$DIMTIH
 70
     1
  9
$DIMTOH
 70
     1
  9
$DIMSE1
 70
     0
  9
$DIMSE2
 70
     0
  9
$DIMTAD
 70
     0
  9
$DIMZIN
 70
     0
  9
$DIMBLK
  1

  9
$DIMASO
 70
     1
  9
$DIMSHO
 70
     1
  9
$DIMPOST
  1

  9
$DIMAPOST
  1

  9
$DIMALT
 70
     0
  9
$DIMALTD
 70
     2
  9
$DIMALTF
 40
25.4
  9
$DIMLFAC
 40
1.0
  9
$DIMTOFL
 70
     0
  9
$DIMTVP
 40
0.0
  9
$DIMTIX
 70
     0
  9
$DIMSOXD
 70
     0
  9
$DIMSAH
 70
     0
  9
$DIMBLK1
  1

  9
$DIMBLK2
  1

  9
$DIMSTYLE
  2
STANDARD
  9
$DIMCLRD
 70
     0
  9
$DIMCLRE
 70
     0
  9
$DIMCLRT
 70
     0
  9
$DIMTFAC
 40
1.0
  9
$DIMGAP
 40
0.09
  9
$LUNITS
 70
     2
  9
$LUPREC
 70
     4
  9
$SKETCHINC
 40
0.1
  9
$FILLETRAD
 40
0.5
  9
$AUNITS
 70
     0
  9
$AUPREC
 70
     0
  9
$MENU
  1
.
  9
$ELEVATION
 40
0.0
  9
$PELEVATION
 40
0.0
  9
$THICKNESS
 40
0.0
  9
$LIMCHECK
 70
     0
  9
$CHAMFERA
 40
0.0
  9
$CHAMFERB
 40
0.0
  9
$SKPOLY
 70
     0
  9
$TDCREATE
 40
2454910.5
  9
$TDUPDATE
 40
2459376.437716586
  9
$TDINDWG
 40
0.0000000116
  9
$TDUSRTIMER
 40
0.0000000116
  9
$USRTIMER
 70
     1
  9
$ANGBASE
 50
0.0
  9
$ANGDIR
 70
     0
  9
$PDMODE
 70
     0
  9
$PDSIZE
 40
0.0
  9
$PLINEWID
 40
0.0
  9
$COORDS
 70
     1
  9
$SPLFRAME
 70
     0
  9
$SPLINETYPE
 70
     6
  9
$SPLINESEGS
 70
     8
  9
$ATTDIA
 70
     0
  9
$ATTREQ
 70
     1
  9
$HANDLING
 70
     1
  9
$HANDSEED
  5
13D6
  9
$SURFTAB1
 70
     6
  9
$SURFTAB2
 70
     6
  9
$SURFTYPE
 70
     6
  9
$SURFU
 70
     6
  9
$SURFV
 70
     6
  9
$UCSNAME
  2

  9
$UCSORG
 10
0.0
 20
0.0
 30
0.0
  9
$UCSXDIR
 10
1.0
 20
0.0
 30
0.0
  9
$UCSYDIR
 10
0.0
 20
1.0
 30
0.0
  9
$PUCSNAME
  2

  9
$PUCSORG
 10
0.0
 20
0.0
 30
0.0
  9
$PUCSXDIR
 10
1.0
 20
0.0
 30
0.0
  9
$PUCSYDIR
 10
0.0
 20
1.0
 30
0.0
  9
$USERI1
 70
     0
  9
$USERI2
 70
     0
  9
$USERI3
 70
     0
  9
$USERI4
 70
     0
  9
$USERI5
 70
     0
  9
$USERR1
 40
0.0
  9
$USERR2
 40
0.0
  9
$USERR3
 40
0.0
  9
$USERR4
 40
0.0
  9
$USERR5
 40
0.0
  9
$WORLDVIEW
 70
     1
  9
$SHADEDGE
 70
     3
  9
$SHADEDIF
 70
    70
  9
$TILEMODE
 70
     1
  9
$MAXACTVP
 70
    64
  9
$PLIMCHECK
 70
     0
  9
$PEXTMIN
 10
1.000000000000000E+20
 20
1.000000000000000E+20
 30
1.000000000000000E+20
  9
$PEXTMAX
 10
-1.000000000000000E+20
 20
-1.000000000000000E+20
 30
-1.000000000000000E+20
  9
$PLIMMIN
 10
0.0
 20
0.0
  9
$PLIMMAX
 10
12.0
 20
9.0
  9
$UNITMODE
 70
     0
  9
$VISRETAIN
 70
     1
  9
$PLINEGEN
 70
     0
  9
$PSLTSCALE
 70
     1
  0
ENDSEC
  0
SECTION
  2
TABLES
  0
TABLE
  2
VPORT
 70
     1
  0
VPORT
  2
*ACTIVE
 70
     0
 10
0.0
 20
0.0
 11
1.0
 21
1.0
 12
10.42990654205607
 22
4.5
 13
0.0
 23
0.0
 14
0.5
 24
0.5
 15
0.5
 25
0.5
 16
0.0
 26
0.0
 36
1.0
 17
0.0
 27
0.0
 37
0.0
 40
9.0
 41
1.972972972850329
 42
50.0
 43
0.0
 44
0.0
 50
0.0
 51
0.0
 71
     0
 72
   100
 73
     1
 74
     3
 75
     0
 76
     0
 77
     0
 78
     0
  0
ENDTAB
  0
TABLE
  2
LTYPE
 70
     2
  0
LTYPE
  2
CONTINUOUS
 70
     0
  3
Solid line
 72
    65
 73
     0
 40
0.0
  0
LTYPE
  2
CONTINUOUS2
 70
     0
  3
Solid Line
 72
    65
 73
     0
 40
0.0
  0
ENDTAB
  0
TABLE
  2
LAYER
 70
     1
  0
LAYER
  2
0
 70
     0
 62
     7
  6
CONTINUOUS
  0
ENDTAB
  0
TABLE
  2
STYLE
 70
     1
  0
STYLE
  2
STANDARD
 70
     0
 40
0.0
 41
1.0
 50
0.0
 71
     0
 42
0.2
  3
txt
  4

  0
ENDTAB
  0
TABLE
  2
VIEW
 70
     0
  0
ENDTAB
  0
TABLE
  2
UCS
 70
     0
  0
ENDTAB
  0
TABLE
  2
APPID
 70
     1
  0
APPID
  2
ACAD
 70
     0
  0
ENDTAB
  0
TABLE
  2
DIMSTYLE
 70
     1
  0
DIMSTYLE
  2
STANDARD
 70
     0
  3

  4

  5

  6

  7

 40
1.0
 41
0.18
 42
0.0625
 43
0.38
 44
0.18
 45
0.0
 46
0.0
 47
0.0
 48
0.0
140
0.18
141
0.09
142
0.0
143
25.4
144
1.0
145
0.0
146
1.0
147
0.09
 71
     0
 72
     0
 73
     1
 74
     1
 75
     0
 76
     0
 77
     0
 78
     0
170
     0
171
     2
172
     0
173
     0
174
     0
175
     0
176
     0
177
     0
178
     0
  0
ENDTAB
  0
ENDSEC
  0
SECTION
  2
BLOCKS
  0
BLOCK
  8
0
  2
$MODEL_SPACE
 70
     0
 10
0.0
 20
0.0
 30
0.0
  3
$MODEL_SPACE
  1

  0
ENDBLK
  5
21
  8
0
  0
BLOCK
 67
     1
  8
0
  2
$PAPER_SPACE
 70
     0
 10
0.0
 20
0.0
 30
0.0
  3
$PAPER_SPACE
  1

  0
ENDBLK
  5
1D
 67
     1
  8
0
  0
ENDSEC
  0
SECTION
  2
ENTITIES
  0
POLYLINE
  5
6F
  8
0
 66
     1
 10
0.0
 20
0.0
 30
0.0
 70
     1
  0
VERTEX
  5
AF
  8
0
 10
714.8273110282316
 20
728.0169565413817
 30
0.0
  0
VERTEX
  5
B0
  8
0
 10
714.8273110282316
 20
1148.016956541382
 30
0.0
  0
VERTEX
  5
B1
  8
0
 10
794.8273110282316
 20
1148.016956541382
 30
0.0
  0
VERTEX
  5
B2
  8
0
 10
844.8273110282316
 20
1148.016956541382
 30
0.0
  0
VERTEX
  5
B3
  8
0
 10
924.8273110282316
 20
1148.016956541382
 30
0.0
  0
VERTEX
  5
B4
  8
0
 10
974.8273110282316
 20
1148.016956541382
 30
0.0
  0
VERTEX
  5
B5
  8
0
 10
1054.827311028232
 20
1148.016956541382
 30
0.0
  0
VERTEX
  5
B6
  8
0
 10
1104.827311028232
 20
1148.016956541382
 30
0.0
  0
VERTEX
  5
B7
  8
0
 10
1184.827311028232
 20
1148.016956541382
 30
0.0
  0
VERTEX
  5
B8
  8
0
 10
1234.827311028232
 20
1148.016956541382
 30
0.0
  0
VERTEX
  5
B9
  8
0
 10
1314.827311028232
 20
1148.016956541382
 30
0.0
  0
VERTEX
  5
BA
  8
0
 10
1314.827311028232
 20
728.0169565413817
 30
0.0
  0
SEQEND
  5
139D
  8
0
  0
POLYLINE
  5
70
  8
0
 66
     1
 10
0.0
 20
0.0
 30
0.0
 70
     1
  0
VERTEX
  5
BB
  8
0
 10
840.287685493014
 20
1138.016956541382
 30
0.0
  0
VERTEX
  5
BC
  8
0
 10
799.3669365634493
 20
1138.016956541382
 30
0.0
 42
1.0
  0
VERTEX
  5
BD
  8
0
 10
794.8273110282316
 20
1133.477331006164
 30
0.0
  0
VERTEX
  5
BE
  8
0
 10
794.8273110282316
 20
1124.556582076599
 30
0.0
 42
1.0
  0
VERTEX
  5
BF
  8
0
 10
799.3669365634493
 20
1120.016956541382
 30
0.0
  0
VERTEX
  5
C0
  8
0
 10
840.287685493014
 20
1120.016956541382
 30
0.0
 42
1.0
  0
VERTEX
  5
C1
  8
0
 10
844.8273110282316
 20
1124.556582076599
 30
0.0
  0
VERTEX
  5
C2
  8
0
 10
844.8273110282316
 20
1133.477331006164
 30
0.0
 42
1.0
  0
SEQEND
  5
139E
  8
0
  0
POLYLINE
  5
71
  8
0
 66
     1
 10
0.0
 20
0.0
 30
0.0
 70
     1
  0
VERTEX
  5
C3
  8
0
 10
970.287685493014
 20
1138.016956541382
 30
0.0
  0
VERTEX
  5
C4
  8
0
 10
929.3669365634493
 20
1138.016956541382
 30
0.0
 42
1.0
  0
VERTEX
  5
C5
  8
0
 10
924.8273110282316
 20
1133.477331006164
 30
0.0
  0
VERTEX
  5
C6
  8
0
 10
924.8273110282316
 20
1124.556582076599
 30
0.0
 42
1.0
  0
VERTEX
  5
C7
  8
0
 10
929.3669365634493
 20
1120.016956541382
 30
0.0
  0
VERTEX
  5
C8
  8
0
 10
970.287685493014
 20
1120.016956541382
 30
0.0
 42
1.0
  0
VERTEX
  5
C9
  8
0
 10
974.8273110282316
 20
1124.556582076599
 30
0.0
  0
VERTEX
  5
CA
  8
0
 10
974.8273110282316
 20
1133.477331006164
 30
0.0
 42
1.0
  0
SEQEND
  5
139F
  8
0
  0
POLYLINE
  5
72
  8
0
 66
     1
 10
0.0
 20
0.0
 30
0.0
 70
     1
  0
VERTEX
  5
CB
  8
0
 10
1100.287685493014
 20
1138.016956541382
 30
0.0
  0
VERTEX
  5
CC
  8
0
 10
1059.366936563449
 20
1138.016956541382
 30
0.0
 42
1.0
  0
VERTEX
  5
CD
  8
0
 10
1054.827311028232
 20
1133.477331006164
 30
0.0
  0
VERTEX
  5
CE
  8
0
 10
1054.827311028232
 20
1124.556582076599
 30
0.0
 42
1.0
  0
VERTEX
  5
CF
  8
0
 10
1059.366936563449
 20
1120.016956541382
 30
0.0
  0
VERTEX
  5
D0
  8
0
 10
1100.287685493014
 20
1120.016956541382
 30
0.0
 42
1.0
  0
VERTEX
  5
D1
  8
0
 10
1104.827311028232
 20
1124.556582076599
 30
0.0
  0
VERTEX
  5
D2
  8
0
 10
1104.827311028232
 20
1133.477331006164
 30
0.0
 42
1.0
  0
SEQEND
  5
13A0
  8
0
  0
POLYLINE
  5
73
  8
0
 66
     1
 10
0.0
 20
0.0
 30
0.0
 70
     1
  0
VERTEX
  5
D3
  8
0
 10
1230.287685493018
 20
1138.016956541382
 30
0.0
  0
VERTEX
  5
D4
  8
0
 10
1189.366936563449
 20
1138.016956541382
 30
0.0
 42
1.0
  0
VERTEX
  5
D5
  8
0
 10
1184.827311028232
 20
1133.477331006164
 30
0.0
  0
VERTEX
  5
D6
  8
0
 10
1184.827311028232
 20
1124.556582076603
 30
0.0
 42
1.0
  0
VERTEX
  5
D7
  8
0
 10
1189.366936563453
 20
1120.016956541388
 30
0.0
  0
VERTEX
  5
D8
  8
0
 10
1230.287685493043
 20
1120.016956541448
 30
0.0
 42
1.0
  0
VERTEX
  5
D9
  8
0
 10
1234.827311028253
 20
1124.556582076672
 30
0.0
  0
VERTEX
  5
DA
  8
0
 10
1234.827311028239
 20
1133.477331006168
 30
0.0
 42
1.0
  0
SEQEND
  5
13A1
  8
0
  0
POLYLINE
  5
74
  8
0
 66
     1
 10
0.0
 20
0.0
 30
0.0
 70
     1
  0
VERTEX
  5
DB
  8
0
 10
840.287685493014
 20
738.0169565413819
 30
0.0
  0
VERTEX
  5
DC
  8
0
 10
799.3669365634493
 20
738.0169565413819
 30
0.0
 42
-1.0
  0
VERTEX
  5
DD
  8
0
 10
794.8273110282316
 20
742.5565820765995
 30
0.0
  0
VERTEX
  5
DE
  8
0
 10
794.8273110282316
 20
751.4773310061643
 30
0.0
 42
-1.0
  0
VERTEX
  5
DF
  8
0
 10
799.3669365634493
 20
756.0169565413819
 30
0.0
  0
VERTEX
  5
E0
  8
0
 10
840.287685493014
 20
756.0169565413819
 30
0.0
 42
-1.0
  0
VERTEX
  5
E1
  8
0
 10
844.8273110282316
 20
751.4773310061643
 30
0.0
  0
VERTEX
  5
E2
  8
0
 10
844.8273110282316
 20
742.5565820765995
 30
0.0
 42
-1.0
  0
SEQEND
  5
13A2
  8
0
  0
POLYLINE
  5
75
  8
0
 66
     1
 10
0.0
 20
0.0
 30
0.0
 70
     1
  0
VERTEX
  5
E3
  8
0
 10
929.3669365634493
 20
756.0169565413819
 30
0.0
  0
VERTEX
  5
E4
  8
0
 10
970.287685493014
 20
756.0169565413817
 30
0.0
 42
-1.0
  0
VERTEX
  5
E5
  8
0
 10
974.8273110282316
 20
751.477331006164
 30
0.0
  0
VERTEX
  5
E6
  8
0
 10
974.8273110282316
 20
742.5565820765993
 30
0.0
 42
-1.0
  0
VERTEX
  5
E7
  8
0
 10
970.287685493014
 20
738.0169565413817
 30
0.0
  0
VERTEX
  5
E8
  8
0
 10
929.3669365634493
 20
738.0169565413819
 30
0.0
 42
-1.0
  0
VERTEX
  5
E9
  8
0
 10
924.8273110282316
 20
742.5565820765995
 30
0.0
  0
VERTEX
  5
EA
  8
0
 10
924.8273110282316
 20
751.4773310061643
 30
0.0
 42
-1.0
  0
SEQEND
  5
13A3
  8
0
  0
POLYLINE
  5
76
  8
0
 66
     1
 10
0.0
 20
0.0
 30
0.0
 70
     1
  0
VERTEX
  5
EB
  8
0
 10
1059.366936563449
 20
756.0169565413817
 30
0.0
  0
VERTEX
  5
EC
  8
0
 10
1100.287685493014
 20
756.0169565413817
 30
0.0
 42
-1.0
  0
VERTEX
  5
ED
  8
0
 10
1104.827311028232
 20
751.477331006164
 30
0.0
  0
VERTEX
  5
EE
  8
0
 10
1104.827311028232
 20
742.5565820765993
 30
0.0
 42
-1.0
  0
VERTEX
  5
EF
  8
0
 10
1100.287685493014
 20
738.0169565413817
 30
0.0
  0
VERTEX
  5
F0
  8
0
 10
1059.366936563449
 20
738.0169565413817
 30
0.0
 42
-1.0
  0
VERTEX
  5
F1
  8
0
 10
1054.827311028232
 20
742.5565820765993
 30
0.0
  0
VERTEX
  5
F2
  8
0
 10
1054.827311028232
 20
751.477331006164
 30
0.0
 42
-1.0
  0
SEQEND
  5
13A4
  8
0
  0
POLYLINE
  5
77
  8
0
 66
     1
 10
0.0
 20
0.0
 30
0.0
 70
     1
  0
VERTEX
  5
F3
  8
0
 10
1189.366936563449
 20
756.0169565413817
 30
0.0
  0
VERTEX
  5
F4
  8
0
 10
1230.287685493014
 20
756.0169565413817
 30
0.0
 42
-1.0
  0
VERTEX
  5
F5
  8
0
 10
1234.827311028232
 20
751.477331006164
 30
0.0
  0
VERTEX
  5
F6
  8
0
 10
1234.827311028232
 20
742.5565820765993
 30
0.0
 42
-1.0
  0
VERTEX
  5
F7
  8
0
 10
1230.287685493014
 20
738.0169565413817
 30
0.0
  0
VERTEX
  5
F8
  8
0
 10
1189.366936563449
 20
738.0169565413817
 30
0.0
 42
-1.0
  0
VERTEX
  5
F9
  8
0
 10
1184.827311028232
 20
742.5565820765993
 30
0.0
  0
VERTEX
  5
FA
  8
0
 10
1184.827311028232
 20
751.477331006164
 30
0.0
 42
-1.0
  0
SEQEND
  5
13A5
  8
0
  0
POLYLINE
  5
78
  8
0
 66
     1
 10
0.0
 20
0.0
 30
0.0
 70
     1
  0
VERTEX
  5
FB
  8
0
 10
140.8190691950658
 20
1156.516050893761
 30
0.0
  0
VERTEX
  5
FC
  8
0
 10
150.8190691950658
 20
1156.516050893761
 30
0.0
  0
VERTEX
  5
FD
  8
0
 10
150.8190691950658
 20
1146.516050893761
 30
0.0
  0
VERTEX
  5
FE
  8
0
 10
140.8190691950658
 20
1146.516050893761
 30
0.0
  0
SEQEND
  5
13A6
  8
0
  0
POLYLINE
  5
79
  8
0
 66
     1
 10
0.0
 20
0.0
 30
0.0
 70
     1
  0
VERTEX
  5
FF
  8
0
 10
1543.708707470914
 20
593.4411734032824
 30
0.0
  0
VERTEX
  5
100
  8
0
 10
1553.708707470914
 20
593.4411734032824
 30
0.0
  0
VERTEX
  5
101
  8
0
 10
1553.708707470914
 20
583.4411734032824
 30
0.0
  0
VERTEX
  5
102
  8
0
 10
1543.708707470914
 20
583.4411734032824
 30
0.0
  0
SEQEND
  5
13A7
  8
0
  0
POLYLINE
  5
7A
  8
0
 66
     1
 10
0.0
 20
0.0
 30
0.0
 70
     1
  0
VERTEX
  5
103
  8
0
 10
270.8190691950658
 20
1156.516050893761
 30
0.0
  0
VERTEX
  5
104
  8
0
 10
280.8190691950658
 20
1156.516050893761
 30
0.0
  0
VERTEX
  5
105
  8
0
 10
280.8190691950658
 20
1146.516050893761
 30
0.0
  0
VERTEX
  5
106
  8
0
 10
270.8190691950658
 20
1146.516050893761
 30
0.0
  0
SEQEND
  5
13A8
  8
0
  0
POLYLINE
  5
7B
  8
0
 66
     1
 10
0.0
 20
0.0
 30
0.0
 70
     1
  0
VERTEX
  5
107
  8
0
 10
400.8190691950658
 20
1156.516050893761
 30
0.0
  0
VERTEX
  5
108
  8
0
 10
410.8190691950658
 20
1156.516050893761
 30
0.0
  0
VERTEX
  5
109
  8
0
 10
410.8190691950658
 20
1146.516050893761
 30
0.0
  0
VERTEX
  5
10A
  8
0
 10
400.8190691950658
 20
1146.516050893761
 30
0.0
  0
SEQEND
  5
13A9
  8
0
  0
POLYLINE
  5
7C
  8
0
 66
     1
 10
0.0
 20
0.0
 30
0.0
 70
     1
  0
VERTEX
  5
10B
  8
0
 10
530.8190691950658
 20
1156.516050893761
 30
0.0
  0
VERTEX
  5
10C
  8
0
 10
540.8190691950658
 20
1156.516050893761
 30
0.0
  0
VERTEX
  5
10D
  8
0
 10
540.8190691950658
 20
1146.516050893761
 30
0.0
  0
VERTEX
  5
10E
  8
0
 10
530.8190691950658
 20
1146.516050893761
 30
0.0
  0
SEQEND
  5
13AA
  8
0
  0
POLYLINE
  5
7D
  8
0
 66
     1
 10
0.0
 20
0.0
 30
0.0
 70
     1
  0
VERTEX
  5
10F
  8
0
 10
140.8190373616483
 20
736.5160508937602
 30
0.0
  0
VERTEX
  5
110
  8
0
 10
150.8190373616483
 20
736.5160508937602
 30
0.0
  0
VERTEX
  5
111
  8
0
 10
150.8190373616483
 20
746.5160508937602
 30
0.0
  0
VERTEX
  5
112
  8
0
 10
140.8190373616483
 20
746.5160508937602
 30
0.0
  0
SEQEND
  5
13AB
  8
0
  0
POLYLINE
  5
7E
  8
0
 66
     1
 10
0.0
 20
0.0
 30
0.0
 70
     1
  0
VERTEX
  5
113
  8
0
 10
270.8190373616483
 20
736.5160508937602
 30
0.0
  0
VERTEX
  5
114
  8
0
 10
280.8190373616483
 20
736.5160508937602
 30
0.0
  0
VERTEX
  5
115
  8
0
 10
280.8190373616483
 20
746.5160508937602
 30
0.0
  0
VERTEX
  5
116
  8
0
 10
270.8190373616483
 20
746.5160508937602
 30
0.0
  0
SEQEND
  5
13AC
  8
0
  0
POLYLINE
  5
7F
  8
0
 66
     1
 10
0.0
 20
0.0
 30
0.0
 70
     1
  0
VERTEX
  5
117
  8
0
 10
400.8190373616483
 20
736.5160508937602
 30
0.0
  0
VERTEX
  5
118
  8
0
 10
410.8190373616483
 20
736.5160508937602
 30
0.0
  0
VERTEX
  5
119
  8
0
 10
410.8190373616483
 20
746.5160508937602
 30
0.0
  0
VERTEX
  5
11A
  8
0
 10
400.8190373616483
 20
746.5160508937602
 30
0.0
  0
SEQEND
  5
13AD
  8
0
  0
POLYLINE
  5
80
  8
0
 66
     1
 10
0.0
 20
0.0
 30
0.0
 70
     1
  0
VERTEX
  5
11B
  8
0
 10
530.8190373616483
 20
736.5160508937602
 30
0.0
  0
VERTEX
  5
11C
  8
0
 10
540.8190373616483
 20
736.5160508937602
 30
0.0
  0
VERTEX
  5
11D
  8
0
 10
540.8190373616483
 20
746.5160508937602
 30
0.0
  0
VERTEX
  5
11E
  8
0
 10
530.8190373616483
 20
746.5160508937602
 30
0.0
  0
SEQEND
  5
13AE
  8
0
  0
POLYLINE
  5
81
  8
0
 66
     1
 10
0.0
 20
0.0
 30
0.0
 70
     1
  0
VERTEX
  5
11F
  8
0
 10
1548.708707470914
 20
389.4411734032823
 30
0.0
 42
0.4142135623730951
  0
VERTEX
  5
120
  8
0
 10
1542.708707470914
 20
383.4411734032823
 30
0.0
 42
0.4142135623730951
  0
VERTEX
  5
121
  8
0
 10
1548.708707470914
 20
377.4411734032823
 30
0.0
 42
0.4142135623730951
  0
VERTEX
  5
122
  8
0
 10
1554.708707470914
 20
383.4411734032823
 30
0.0
 42
0.4142135623730951
  0
SEQEND
  5
13AF
  8
0
  0
POLYLINE
  5
82
  8
0
 66
     1
 10
0.0
 20
0.0
 30
0.0
 70
     1
  0
VERTEX
  5
123
  8
0
 10
1858.051167525211
 20
1071.868251462536
 30
0.0
  0
VERTEX
  5
124
  8
0
 10
1958.051167525211
 20
1071.868251462536
 30
0.0
 42
-0.414213562373095
  0
VERTEX
  5
125
  8
0
 10
1968.051167525211
 20
1061.868251462536
 30
0.0
  0
VERTEX
  5
126
  8
0
 10
1968.051167525211
 20
1021.868251462536
 30
0.0
 42
-0.414213562373095
  0
VERTEX
  5
127
  8
0
 10
1958.051167525211
 20
1011.868251462536
 30
0.0
  0
VERTEX
  5
128
  8
0
 10
1858.051167525211
 20
1011.868251462536
 30
0.0
 42
-0.414213562373095
  0
VERTEX
  5
129
  8
0
 10
1848.051167525211
 20
1021.868251462536
 30
0.0
  0
VERTEX
  5
12A
  8
0
 10
1848.051167525211
 20
1061.868251462536
 30
0.0
 42
-0.414213562373095
  0
SEQEND
  5
13B0
  8
0
  0
POLYLINE
  5
83
  8
0
 66
     1
 10
0.0
 20
0.0
 30
0.0
 70
     1
  0
VERTEX
  5
12B
  8
0
 10
1543.708707470914
 20
173.4411734032823
 30
0.0
  0
VERTEX
  5
12C
  8
0
 10
1553.708707470914
 20
173.4411734032823
 30
0.0
  0
VERTEX
  5
12D
  8
0
 10
1553.708707470914
 20
183.4411734032823
 30
0.0
  0
VERTEX
  5
12E
  8
0
 10
1543.708707470914
 20
183.4411734032823
 30
0.0
  0
SEQEND
  5
13B1
  8
0
  0
POLYLINE
  5
84
  8
0
 66
     1
 10
0.0
 20
0.0
 30
0.0
 70
     1
  0
VERTEX
  5
12F
  8
0
 10
1655.280387112846
 20
1174.200968768577
 30
0.0
  0
VERTEX
  5
130
  8
0
 10
1655.280387112846
 20
694.2009687685768
 30
0.0
  0
VERTEX
  5
131
  8
0
 10
1375.280387112846
 20
694.2009687685768
 30
0.0
  0
VERTEX
  5
132
  8
0
 10
1378.310248512491
 20
1174.200968768577
 30
0.0
  0
SEQEND
  5
13B2
  8
0
  0
POLYLINE
  5
85
  8
0
 66
     1
 10
0.0
 20
0.0
 30
0.0
 70
     1
  0
VERTEX
  5
133
  8
0
 10
1548.956613938755
 20
482.2846743758226
 30
0.0
 42
0.4142135623730951
  0
VERTEX
  5
134
  8
0
 10
1540.956613938755
 20
474.2846743758226
 30
0.0
 42
0.4142135623730951
  0
VERTEX
  5
135
  8
0
 10
1548.956613938755
 20
466.2846743758226
 30
0.0
 42
0.4142135623730951
  0
VERTEX
  5
136
  8
0
 10
1556.956613938755
 20
474.2846743758226
 30
0.0
 42
0.4142135623730951
  0
SEQEND
  5
13B3
  8
0
  0
POLYLINE
  5
86
  8
0
 66
     1
 10
0.0
 20
0.0
 30
0.0
 70
     1
  0
VERTEX
  5
137
  8
0
 10
1548.956613938755
 20
516.4814737701724
 30
0.0
 42
0.4142135623730951
  0
VERTEX
  5
138
  8
0
 10
1540.956613938755
 20
508.4814737701725
 30
0.0
 42
0.4142135623730951
  0
VERTEX
  5
139
  8
0
 10
1548.956613938755
 20
500.4814737701726
 30
0.0
 42
0.4142135623730951
  0
VERTEX
  5
13A
  8
0
 10
1556.956613938755
 20
508.4814737701725
 30
0.0
 42
0.4142135623730951
  0
SEQEND
  5
13B4
  8
0
  0
POLYLINE
  5
87
  8
0
 66
     1
 10
0.0
 20
0.0
 30
0.0
 70
     1
  0
VERTEX
  5
13B
  8
0
 10
1548.956613938755
 20
299.2117876453893
 30
0.0
 42
0.4142135623730951
  0
VERTEX
  5
13C
  8
0
 10
1540.956613938755
 20
291.2117876453893
 30
0.0
 42
0.4142135623730951
  0
VERTEX
  5
13D
  8
0
 10
1548.956613938755
 20
283.2117876453893
 30
0.0
 42
0.4142135623730951
  0
VERTEX
  5
13E
  8
0
 10
1556.956613938755
 20
291.2117876453893
 30
0.0
 42
0.4142135623730951
  0
SEQEND
  5
13B5
  8
0
  0
POLYLINE
  5
88
  8
0
 66
     1
 10
0.0
 20
0.0
 30
0.0
 70
     1
  0
VERTEX
  5
13F
  8
0
 10
1051.840901093035
 20
165.9614617539095
 30
0.0
  0
VERTEX
  5
140
  8
0
 10
1051.840901093035
 20
125.0407128243448
 30
0.0
 42
1.0
  0
VERTEX
  5
141
  8
0
 10
1056.380526628252
 20
120.5010872891271
 30
0.0
  0
VERTEX
  5
142
  8
0
 10
1065.301275557817
 20
120.501087289127
 30
0.0
 42
1.0
  0
VERTEX
  5
143
  8
0
 10
1069.840901093035
 20
125.0407128243446
 30
0.0
  0
VERTEX
  5
144
  8
0
 10
1069.840901093035
 20
165.9614617539093
 30
0.0
 42
1.0
  0
VERTEX
  5
145
  8
0
 10
1065.301275557817
 20
170.501087289127
 30
0.0
  0
VERTEX
  5
146
  8
0
 10
1056.380526628253
 20
170.5010872891271
 30
0.0
 42
1.0
  0
SEQEND
  5
13B6
  8
0
  0
POLYLINE
  5
89
  8
0
 66
     1
 10
0.0
 20
0.0
 30
0.0
 70
     1
  0
VERTEX
  5
147
  8
0
 10
1051.840963790572
 20
295.9614851397359
 30
0.0
  0
VERTEX
  5
148
  8
0
 10
1051.840963790572
 20
255.0407551371445
 30
0.0
 42
1.0
  0
VERTEX
  5
149
  8
0
 10
1056.38058932579
 20
250.5011296019268
 30
0.0
  0
VERTEX
  5
14A
  8
0
 10
1065.301338255355
 20
250.5011296019268
 30
0.0
 42
1.0
  0
VERTEX
  5
14B
  8
0
 10
1069.840963790572
 20
255.0407551371445
 30
0.0
  0
VERTEX
  5
14C
  8
0
 10
1069.840963790572
 20
295.9614851397359
 30
0.0
 42
1.0
  0
VERTEX
  5
14D
  8
0
 10
1065.301338255355
 20
300.5011106749535
 30
0.0
  0
VERTEX
  5
14E
  8
0
 10
1056.38058932579
 20
300.5011106749535
 30
0.0
 42
1.0
  0
SEQEND
  5
13B7
  8
0
  0
POLYLINE
  5
8A
  8
0
 66
     1
 10
0.0
 20
0.0
 30
0.0
 70
     1
  0
VERTEX
  5
14F
  8
0
 10
1051.840904449903
 20
425.9615109891442
 30
0.0
  0
VERTEX
  5
150
  8
0
 10
1051.840904449903
 20
385.0407809318828
 30
0.0
 42
1.0
  0
VERTEX
  5
151
  8
0
 10
1056.380529985121
 20
380.5011553966652
 30
0.0
  0
VERTEX
  5
152
  8
0
 10
1065.301278914685
 20
380.5011553966652
 30
0.0
 42
1.0
  0
VERTEX
  5
153
  8
0
 10
1069.840904449903
 20
385.0407809318828
 30
0.0
  0
VERTEX
  5
154
  8
0
 10
1069.840904449903
 20
425.9615109891442
 30
0.0
 42
1.0
  0
VERTEX
  5
155
  8
0
 10
1065.301278914685
 20
430.5011365243618
 30
0.0
  0
VERTEX
  5
156
  8
0
 10
1056.380529985121
 20
430.5011365243618
 30
0.0
 42
1.0
  0
SEQEND
  5
13B8
  8
0
  0
POLYLINE
  5
8B
  8
0
 66
     1
 10
0.0
 20
0.0
 30
0.0
 70
     1
  0
VERTEX
  5
157
  8
0
 10
1051.840997953302
 20
555.9614861197564
 30
0.0
  0
VERTEX
  5
158
  8
0
 10
1051.840997953302
 20
515.0407781524457
 30
0.0
 42
1.0
  0
VERTEX
  5
159
  8
0
 10
1056.380623488519
 20
510.501152617228
 30
0.0
  0
VERTEX
  5
15A
  8
0
 10
1065.301372418084
 20
510.501152617228
 30
0.0
 42
1.0
  0
VERTEX
  5
15B
  8
0
 10
1069.840997953302
 20
515.0407781524457
 30
0.0
  0
VERTEX
  5
15C
  8
0
 10
1069.840997953302
 20
555.9614861197564
 30
0.0
 42
1.0
  0
VERTEX
  5
15D
  8
0
 10
1065.301372418084
 20
560.501111654974
 30
0.0
  0
VERTEX
  5
15E
  8
0
 10
1056.380623488519
 20
560.501111654974
 30
0.0
 42
1.0
  0
SEQEND
  5
13B9
  8
0
  0
POLYLINE
  5
8C
  8
0
 66
     1
 10
0.0
 20
0.0
 30
0.0
 70
     1
  0
VERTEX
  5
15F
  8
0
 10
786.5093986688294
 20
661.1637728363901
 30
0.0
  0
VERTEX
  5
160
  8
0
 10
757.5740596095019
 20
632.2284337770623
 30
0.0
 42
1.0
  0
VERTEX
  5
161
  8
0
 10
757.574059609502
 20
625.8084337770622
 30
0.0
  0
VERTEX
  5
162
  8
0
 10
763.8819816708597
 20
619.5005117157045
 30
0.0
 42
1.0
  0
VERTEX
  5
163
  8
0
 10
770.3019816708597
 20
619.5005117157045
 30
0.0
  0
VERTEX
  5
164
  8
0
 10
799.2373207301872
 20
648.4358507750318
 30
0.0
 42
1.0
  0
VERTEX
  5
165
  8
0
 10
799.2373207301872
 20
654.8558507750317
 30
0.0
  0
VERTEX
  5
166
  8
0
 10
792.9293986688293
 20
661.16377283639
 30
0.0
 42
1.0
  0
SEQEND
  5
13BA
  8
0
  0
POLYLINE
  5
8D
  8
0
 66
     1
 10
0.0
 20
0.0
 30
0.0
 70
     1
  0
VERTEX
  5
167
  8
0
 10
421.5322347536675
 20
578.4125445208973
 30
0.0
  0
VERTEX
  5
168
  8
0
 10
421.5322347536675
 20
537.4917955913326
 30
0.0
 42
1.0
  0
VERTEX
  5
169
  8
0
 10
426.0718602888851
 20
532.9521700561149
 30
0.0
  0
VERTEX
  5
16A
  8
0
 10
434.9926092184498
 20
532.9521700561148
 30
0.0
 42
1.0
  0
VERTEX
  5
16B
  8
0
 10
439.5322347536675
 20
537.4917955913323
 30
0.0
  0
VERTEX
  5
16C
  8
0
 10
439.5322347536675
 20
578.4125445208971
 30
0.0
 42
1.0
  0
VERTEX
  5
16D
  8
0
 10
434.9926092184499
 20
582.9521700561148
 30
0.0
  0
VERTEX
  5
16E
  8
0
 10
426.0718602888852
 20
582.9521700561149
 30
0.0
 42
1.0
  0
SEQEND
  5
13BB
  8
0
  0
POLYLINE
  5
8E
  8
0
 66
     1
 10
0.0
 20
0.0
 30
0.0
 70
     1
  0
VERTEX
  5
16F
  8
0
 10
421.53217205613
 20
448.4125022080974
 30
0.0
  0
VERTEX
  5
170
  8
0
 10
421.53217205613
 20
407.4917722055059
 30
0.0
 42
1.0
  0
VERTEX
  5
171
  8
0
 10
426.0717975913476
 20
402.9521466702883
 30
0.0
  0
VERTEX
  5
172
  8
0
 10
434.9925465209124
 20
402.9521466702883
 30
0.0
 42
1.0
  0
VERTEX
  5
173
  8
0
 10
439.53217205613
 20
407.4917722055059
 30
0.0
  0
VERTEX
  5
174
  8
0
 10
439.53217205613
 20
448.4125022080974
 30
0.0
 42
1.0
  0
VERTEX
  5
175
  8
0
 10
434.9925465209124
 20
452.952127743315
 30
0.0
  0
VERTEX
  5
176
  8
0
 10
426.0717975913476
 20
452.952127743315
 30
0.0
 42
1.0
  0
SEQEND
  5
13BC
  8
0
  0
POLYLINE
  5
8F
  8
0
 66
     1
 10
0.0
 20
0.0
 30
0.0
 70
     1
  0
VERTEX
  5
177
  8
0
 10
421.5322313967994
 20
318.412476413359
 30
0.0
  0
VERTEX
  5
178
  8
0
 10
421.5322313967994
 20
277.4917463560976
 30
0.0
 42
1.0
  0
VERTEX
  5
179
  8
0
 10
426.071856932017
 20
272.95212082088
 30
0.0
  0
VERTEX
  5
17A
  8
0
 10
434.9926058615818
 20
272.95212082088
 30
0.0
 42
1.0
  0
VERTEX
  5
17B
  8
0
 10
439.5322313967994
 20
277.4917463560976
 30
0.0
  0
VERTEX
  5
17C
  8
0
 10
439.5322313967994
 20
318.412476413359
 30
0.0
 42
1.0
  0
VERTEX
  5
17D
  8
0
 10
434.9926058615818
 20
322.9521019485766
 30
0.0
  0
VERTEX
  5
17E
  8
0
 10
426.071856932017
 20
322.9521019485766
 30
0.0
 42
1.0
  0
SEQEND
  5
13BD
  8
0
  0
POLYLINE
  5
90
  8
0
 66
     1
 10
0.0
 20
0.0
 30
0.0
 70
     1
  0
VERTEX
  5
17F
  8
0
 10
439.5321378934006
 20
147.4917712254854
 30
0.0
  0
VERTEX
  5
180
  8
0
 10
439.5321378933988
 20
188.4124791927947
 30
0.0
 42
1.0
  0
VERTEX
  5
181
  8
0
 10
434.9925123581813
 20
192.9521047280125
 30
0.0
  0
VERTEX
  5
182
  8
0
 10
426.0717634286186
 20
192.9521047280133
 30
0.0
 42
1.0
  0
VERTEX
  5
183
  8
0
 10
421.5321378934008
 20
188.4124791927958
 30
0.0
  0
VERTEX
  5
184
  8
0
 10
421.5321378934008
 20
147.4917712254853
 30
0.0
 42
1.0
  0
VERTEX
  5
185
  8
0
 10
426.0717634286184
 20
142.9521456902676
 30
0.0
  0
VERTEX
  5
186
  8
0
 10
434.992512358183
 20
142.9521456902676
 30
0.0
 42
1.0
  0
SEQEND
  5
13BE
  8
0
  0
POLYLINE
  5
91
  8
0
 66
     1
 10
0.0
 20
0.0
 30
0.0
 70
     1
  0
VERTEX
  5
187
  8
0
 10
721.0711541758428
 20
83.95274562953716
 30
0.0
  0
VERTEX
  5
188
  8
0
 10
692.1358151165152
 20
55.01740657020989
 30
0.0
 42
1.0
  0
VERTEX
  5
189
  8
0
 10
692.1358151165151
 20
48.59740657020988
 30
0.0
  0
VERTEX
  5
18A
  8
0
 10
698.443737177873
 20
42.28948450885166
 30
0.0
 42
1.0
  0
VERTEX
  5
18B
  8
0
 10
704.863737177873
 20
42.28948450885159
 30
0.0
  0
VERTEX
  5
18C
  8
0
 10
733.7990762372004
 20
71.22482356817942
 30
0.0
 42
1.0
  0
VERTEX
  5
18D
  8
0
 10
733.7990762372004
 20
77.6448235681794
 30
0.0
  0
VERTEX
  5
18E
  8
0
 10
727.4911541758428
 20
83.9527456295371
 30
0.0
 42
1.0
  0
SEQEND
  5
13BF
  8
0
  0
POLYLINE
  5
92
  8
0
 66
     1
 10
0.0
 20
0.0
 30
0.0
 70
     1
  0
VERTEX
  5
18F
  8
0
 10
1726.051167525211
 20
870.9549868963863
 30
0.0
  0
VERTEX
  5
190
  8
0
 10
1726.051167525211
 20
884.4153613611683
 30
0.0
 42
1.0
  0
VERTEX
  5
191
  8
0
 10
1721.511541989993
 20
888.954986896386
 30
0.0
  0
VERTEX
  5
192
  8
0
 10
1708.051167525211
 20
888.9549868963863
 30
0.0
  0
VERTEX
  5
193
  8
0
 10
1708.051167525211
 20
920.9549868963859
 30
0.0
  0
VERTEX
  5
194
  8
0
 10
1721.511541989993
 20
920.9549868963859
 30
0.0
 42
1.0
  0
VERTEX
  5
195
  8
0
 10
1726.051167525211
 20
925.4946124316035
 30
0.0
  0
VERTEX
  5
196
  8
0
 10
1726.051167525211
 20
946.4153613611683
 30
0.0
 42
1.0
  0
VERTEX
  5
197
  8
0
 10
1721.511541989993
 20
950.9549868963859
 30
0.0
  0
VERTEX
  5
198
  8
0
 10
1708.051167525211
 20
950.9549868963859
 30
0.0
  0
VERTEX
  5
199
  8
0
 10
1708.051167525211
 20
980.9549868963859
 30
0.0
  0
VERTEX
  5
19A
  8
0
 10
1721.511541989993
 20
980.9549868963859
 30
0.0
 42
1.0
  0
VERTEX
  5
19B
  8
0
 10
1726.051167525211
 20
985.4946124316035
 30
0.0
  0
VERTEX
  5
19C
  8
0
 10
1726.051167525211
 20
1006.415361361168
 30
0.0
 42
1.0
  0
VERTEX
  5
19D
  8
0
 10
1721.511541989993
 20
1010.954986896386
 30
0.0
  0
VERTEX
  5
19E
  8
0
 10
1708.051167525211
 20
1010.954986896386
 30
0.0
  0
VERTEX
  5
19F
  8
0
 10
1708.051167525211
 20
1040.954986896386
 30
0.0
  0
VERTEX
  5
1A0
  8
0
 10
1721.511541989993
 20
1040.954986896386
 30
0.0
 42
1.0
  0
VERTEX
  5
1A1
  8
0
 10
1726.051167525211
 20
1045.494612431604
 30
0.0
  0
VERTEX
  5
1A2
  8
0
 10
1726.051167525211
 20
1066.415361361168
 30
0.0
 42
1.0
  0
VERTEX
  5
1A3
  8
0
 10
1721.511541989993
 20
1070.954986896386
 30
0.0
  0
VERTEX
  5
1A4
  8
0
 10
1708.051167525211
 20
1070.954986896386
 30
0.0
  0
VERTEX
  5
1A5
  8
0
 10
1708.051167525211
 20
1100.954986896386
 30
0.0
  0
VERTEX
  5
1A6
  8
0
 10
1721.511541989993
 20
1100.954986896386
 30
0.0
 42
1.0
  0
VERTEX
  5
1A7
  8
0
 10
1726.051167525211
 20
1105.494612431604
 30
0.0
  0
VERTEX
  5
1A8
  8
0
 10
1726.051167525211
 20
1130.954986896386
 30
0.0
  0
VERTEX
  5
1A9
  8
0
 10
2090.051167525211
 20
1130.954986896386
 30
0.0
  0
VERTEX
  5
1AA
  8
0
 10
2090.051167525211
 20
1105.494612431604
 30
0.0
 42
1.0
  0
VERTEX
  5
1AB
  8
0
 10
2094.590793060428
 20
1100.954986896386
 30
0.0
  0
VERTEX
  5
1AC
  8
0
 10
2108.051167525211
 20
1100.954986896386
 30
0.0
  0
VERTEX
  5
1AD
  8
0
 10
2108.051167525211
 20
1070.954986896386
 30
0.0
  0
VERTEX
  5
1AE
  8
0
 10
2094.590793060428
 20
1070.954986896386
 30
0.0
 42
1.0
  0
VERTEX
  5
1AF
  8
0
 10
2090.051167525211
 20
1066.415361361168
 30
0.0
  0
VERTEX
  5
1B0
  8
0
 10
2090.051167525211
 20
1045.494612431604
 30
0.0
 42
1.0
  0
VERTEX
  5
1B1
  8
0
 10
2094.590793060428
 20
1040.954986896386
 30
0.0
  0
VERTEX
  5
1B2
  8
0
 10
2108.051167525211
 20
1040.954986896386
 30
0.0
  0
VERTEX
  5
1B3
  8
0
 10
2108.051167525211
 20
1010.954986896386
 30
0.0
  0
VERTEX
  5
1B4
  8
0
 10
2094.590793060428
 20
1010.954986896386
 30
0.0
 42
1.0
  0
VERTEX
  5
1B5
  8
0
 10
2090.051167525211
 20
1006.415361361168
 30
0.0
  0
VERTEX
  5
1B6
  8
0
 10
2090.051167525211
 20
985.4946124316035
 30
0.0
 42
1.0
  0
VERTEX
  5
1B7
  8
0
 10
2094.590793060428
 20
980.9549868963859
 30
0.0
  0
VERTEX
  5
1B8
  8
0
 10
2108.051167525211
 20
980.9549868963859
 30
0.0
  0
VERTEX
  5
1B9
  8
0
 10
2108.051167525211
 20
950.9549868963859
 30
0.0
  0
VERTEX
  5
1BA
  8
0
 10
2094.590793060428
 20
950.9549868963859
 30
0.0
 42
1.0
  0
VERTEX
  5
1BB
  8
0
 10
2090.051167525211
 20
946.4153613611683
 30
0.0
  0
VERTEX
  5
1BC
  8
0
 10
2090.051167525211
 20
925.4946124316035
 30
0.0
 42
1.0
  0
VERTEX
  5
1BD
  8
0
 10
2094.590793060428
 20
920.9549868963859
 30
0.0
  0
VERTEX
  5
1BE
  8
0
 10
2108.051167525211
 20
920.9549868963859
 30
0.0
  0
VERTEX
  5
1BF
  8
0
 10
2108.051167525211
 20
888.9549868963863
 30
0.0
  0
VERTEX
  5
1C0
  8
0
 10
2064.590793060428
 20
888.9549868963861
 30
0.0
 42
1.0
  0
VERTEX
  5
1C1
  8
0
 10
2060.051167525211
 20
884.4153613611685
 30
0.0
  0
VERTEX
  5
1C2
  8
0
 10
2060.051167525211
 20
870.9549868963859
 30
0.0
  0
VERTEX
  5
1C3
  8
0
 10
2030.051167525211
 20
870.9549868963859
 30
0.0
  0
VERTEX
  5
1C4
  8
0
 10
2030.051167525211
 20
884.4153613611683
 30
0.0
 42
1.0
  0
VERTEX
  5
1C5
  8
0
 10
2025.511541989993
 20
888.9549868963859
 30
0.0
  0
VERTEX
  5
1C6
  8
0
 10
2004.590793060429
 20
888.9549868963859
 30
0.0
 42
1.0
  0
VERTEX
  5
1C7
  8
0
 10
2000.051167525211
 20
884.4153613611683
 30
0.0
  0
VERTEX
  5
1C8
  8
0
 10
2000.051167525211
 20
870.9549868963859
 30
0.0
  0
VERTEX
  5
1C9
  8
0
 10
1970.051167525211
 20
870.9549868963859
 30
0.0
  0
VERTEX
  5
1CA
  8
0
 10
1970.051167525211
 20
884.4153613611683
 30
0.0
 42
1.0
  0
VERTEX
  5
1CB
  8
0
 10
1965.511541989993
 20
888.9549868963859
 30
0.0
  0
VERTEX
  5
1CC
  8
0
 10
1944.590793060429
 20
888.9549868963859
 30
0.0
 42
1.0
  0
VERTEX
  5
1CD
  8
0
 10
1940.051167525211
 20
884.4153613611683
 30
0.0
  0
VERTEX
  5
1CE
  8
0
 10
1940.051167525211
 20
870.9549868963859
 30
0.0
  0
VERTEX
  5
1CF
  8
0
 10
1910.051167525211
 20
870.9549868963859
 30
0.0
  0
VERTEX
  5
1D0
  8
0
 10
1910.051167525211
 20
884.4153613611683
 30
0.0
 42
1.0
  0
VERTEX
  5
1D1
  8
0
 10
1905.511541989993
 20
888.9549868963859
 30
0.0
  0
VERTEX
  5
1D2
  8
0
 10
1884.590793060429
 20
888.9549868963859
 30
0.0
 42
1.0
  0
VERTEX
  5
1D3
  8
0
 10
1880.051167525211
 20
884.4153613611683
 30
0.0
  0
VERTEX
  5
1D4
  8
0
 10
1880.051167525211
 20
870.9549868963859
 30
0.0
  0
VERTEX
  5
1D5
  8
0
 10
1850.051167525211
 20
870.9549868963859
 30
0.0
  0
VERTEX
  5
1D6
  8
0
 10
1850.051167525211
 20
884.4153613611683
 30
0.0
 42
1.0
  0
VERTEX
  5
1D7
  8
0
 10
1845.511541989993
 20
888.9549868963859
 30
0.0
  0
VERTEX
  5
1D8
  8
0
 10
1824.590793060429
 20
888.9549868963859
 30
0.0
 42
1.0
  0
VERTEX
  5
1D9
  8
0
 10
1820.051167525211
 20
884.4153613611683
 30
0.0
  0
VERTEX
  5
1DA
  8
0
 10
1820.051167525211
 20
870.9549868963859
 30
0.0
  0
VERTEX
  5
1DB
  8
0
 10
1790.051167525211
 20
870.9549868963859
 30
0.0
  0
VERTEX
  5
1DC
  8
0
 10
1790.051167525211
 20
884.4153613611683
 30
0.0
 42
1.0
  0
VERTEX
  5
1DD
  8
0
 10
1785.511541989993
 20
888.9549868963859
 30
0.0
  0
VERTEX
  5
1DE
  8
0
 10
1764.590793060429
 20
888.9549868963859
 30
0.0
 42
1.0
  0
VERTEX
  5
1DF
  8
0
 10
1760.051167525211
 20
884.4153613611683
 30
0.0
  0
VERTEX
  5
1E0
  8
0
 10
1760.051167525211
 20
870.9549868963861
 30
0.0
  0
SEQEND
  5
13C0
  8
0
  0
POLYLINE
  5
93
  8
0
 66
     1
 10
0.0
 20
0.0
 30
0.0
 70
     1
  0
VERTEX
  5
1E1
  8
0
 10
1909.729382046906
 20
625.481666460757
 30
0.0
  0
VERTEX
  5
1E2
  8
0
 10
1909.729382046906
 20
816.8115720375504
 30
0.0
  0
VERTEX
  5
1E3
  8
0
 10
1917.729382046906
 20
816.8115720375504
 30
0.0
  0
VERTEX
  5
1E4
  8
0
 10
1917.729382046906
 20
625.481666460757
 30
0.0
  0
SEQEND
  5
13C1
  8
0
  0
POLYLINE
  5
94
  8
0
 66
     1
 10
0.0
 20
0.0
 30
0.0
 70
     1
  0
VERTEX
  5
1E5
  8
0
 10
1713.729382046906
 20
634.8115720375504
 30
0.0
  0
VERTEX
  5
1E6
  8
0
 10
1757.189756511689
 20
634.8115720375499
 30
0.0
 42
-1.0
  0
VERTEX
  5
1E7
  8
0
 10
1761.729382046906
 20
630.2719465023323
 30
0.0
  0
VERTEX
  5
1E8
  8
0
 10
1761.729382046906
 20
616.8115720375499
 30
0.0
  0
VERTEX
  5
1E9
  8
0
 10
1791.729382046906
 20
616.8115720375499
 30
0.0
  0
VERTEX
  5
1EA
  8
0
 10
1791.729382046906
 20
630.2719465023323
 30
0.0
 42
-1.0
  0
VERTEX
  5
1EB
  8
0
 10
1796.269007582124
 20
634.8115720375499
 30
0.0
  0
VERTEX
  5
1EC
  8
0
 10
1817.189756511689
 20
634.8115720375499
 30
0.0
 42
-1.0
  0
VERTEX
  5
1ED
  8
0
 10
1821.729382046906
 20
630.2719465023323
 30
0.0
  0
VERTEX
  5
1EE
  8
0
 10
1821.729382046906
 20
616.8115720375499
 30
0.0
  0
VERTEX
  5
1EF
  8
0
 10
1851.729382046906
 20
616.8115720375499
 30
0.0
  0
VERTEX
  5
1F0
  8
0
 10
1851.729382046906
 20
630.2719465023323
 30
0.0
 42
-1.0
  0
VERTEX
  5
1F1
  8
0
 10
1856.269007582124
 20
634.8115720375499
 30
0.0
  0
VERTEX
  5
1F2
  8
0
 10
1877.189756511689
 20
634.8115720375499
 30
0.0
 42
-1.0
  0
VERTEX
  5
1F3
  8
0
 10
1881.729382046906
 20
630.2719465023323
 30
0.0
  0
VERTEX
  5
1F4
  8
0
 10
1881.729382046906
 20
616.8115720375499
 30
0.0
  0
VERTEX
  5
1F5
  8
0
 10
1911.729382046906
 20
616.8115720375499
 30
0.0
  0
VERTEX
  5
1F6
  8
0
 10
1911.729382046906
 20
630.2719465023323
 30
0.0
 42
-1.0
  0
VERTEX
  5
1F7
  8
0
 10
1916.269007582124
 20
634.8115720375499
 30
0.0
  0
VERTEX
  5
1F8
  8
0
 10
1937.189756511689
 20
634.8115720375499
 30
0.0
 42
-1.0
  0
VERTEX
  5
1F9
  8
0
 10
1941.729382046906
 20
630.2719465023323
 30
0.0
  0
VERTEX
  5
1FA
  8
0
 10
1941.729382046906
 20
616.8115720375499
 30
0.0
  0
VERTEX
  5
1FB
  8
0
 10
1971.729382046906
 20
616.8115720375499
 30
0.0
  0
VERTEX
  5
1FC
  8
0
 10
1971.729382046906
 20
630.2719465023323
 30
0.0
 42
-1.0
  0
VERTEX
  5
1FD
  8
0
 10
1976.269007582124
 20
634.8115720375499
 30
0.0
  0
VERTEX
  5
1FE
  8
0
 10
1997.189756511689
 20
634.8115720375499
 30
0.0
 42
-1.0
  0
VERTEX
  5
1FF
  8
0
 10
2001.729382046906
 20
630.2719465023323
 30
0.0
  0
VERTEX
  5
200
  8
0
 10
2001.729382046906
 20
616.8115720375499
 30
0.0
  0
VERTEX
  5
201
  8
0
 10
2031.729382046906
 20
616.8115720375499
 30
0.0
  0
VERTEX
  5
202
  8
0
 10
2031.729382046906
 20
630.2719465023323
 30
0.0
 42
-1.0
  0
VERTEX
  5
203
  8
0
 10
2036.269007582124
 20
634.8115720375499
 30
0.0
  0
VERTEX
  5
204
  8
0
 10
2057.189756511689
 20
634.8115720375499
 30
0.0
 42
-1.0
  0
VERTEX
  5
205
  8
0
 10
2061.729382046906
 20
630.2719465023323
 30
0.0
  0
VERTEX
  5
206
  8
0
 10
2061.729382046906
 20
616.8115720375499
 30
0.0
  0
VERTEX
  5
207
  8
0
 10
2095.729382046906
 20
616.8115720375499
 30
0.0
  0
VERTEX
  5
208
  8
0
 10
2095.729382046906
 20
630.2719465023323
 30
0.0
 42
-1.0
  0
VERTEX
  5
209
  8
0
 10
2100.269007582124
 20
634.8115720375499
 30
0.0
  0
VERTEX
  5
20A
  8
0
 10
2113.729382046906
 20
634.8115720375499
 30
0.0
  0
VERTEX
  5
20B
  8
0
 10
2113.729382046906
 20
666.8115720375504
 30
0.0
  0
VERTEX
  5
20C
  8
0
 10
2100.269007582124
 20
666.8115720375504
 30
0.0
 42
-1.0
  0
VERTEX
  5
20D
  8
0
 10
2095.729382046906
 20
671.351197572768
 30
0.0
  0
VERTEX
  5
20E
  8
0
 10
2095.729382046906
 20
692.2719465023328
 30
0.0
 42
-1.0
  0
VERTEX
  5
20F
  8
0
 10
2100.269007582124
 20
696.8115720375504
 30
0.0
  0
VERTEX
  5
210
  8
0
 10
2113.729382046906
 20
696.8115720375504
 30
0.0
  0
VERTEX
  5
211
  8
0
 10
2113.729382046906
 20
726.8115720375504
 30
0.0
  0
VERTEX
  5
212
  8
0
 10
2100.269007582124
 20
726.8115720375504
 30
0.0
 42
-1.0
  0
VERTEX
  5
213
  8
0
 10
2095.729382046906
 20
731.351197572768
 30
0.0
  0
VERTEX
  5
214
  8
0
 10
2095.729382046906
 20
752.2719465023328
 30
0.0
 42
-1.0
  0
VERTEX
  5
215
  8
0
 10
2100.269007582124
 20
756.8115720375504
 30
0.0
  0
VERTEX
  5
216
  8
0
 10
2113.729382046906
 20
756.8115720375504
 30
0.0
  0
VERTEX
  5
217
  8
0
 10
2113.729382046906
 20
786.8115720375504
 30
0.0
  0
VERTEX
  5
218
  8
0
 10
2100.269007582124
 20
786.8115720375504
 30
0.0
 42
-1.0
  0
VERTEX
  5
219
  8
0
 10
2095.729382046906
 20
791.351197572768
 30
0.0
  0
VERTEX
  5
21A
  8
0
 10
2095.729382046906
 20
816.8115720375504
 30
0.0
  0
VERTEX
  5
21B
  8
0
 10
1731.729382046906
 20
816.8115720375504
 30
0.0
  0
VERTEX
  5
21C
  8
0
 10
1731.729382046906
 20
791.351197572768
 30
0.0
 42
-1.0
  0
VERTEX
  5
21D
  8
0
 10
1727.189756511689
 20
786.8115720375504
 30
0.0
  0
VERTEX
  5
21E
  8
0
 10
1713.729382046906
 20
786.8115720375504
 30
0.0
  0
VERTEX
  5
21F
  8
0
 10
1713.729382046906
 20
756.8115720375504
 30
0.0
  0
VERTEX
  5
220
  8
0
 10
1727.189756511689
 20
756.8115720375504
 30
0.0
 42
-1.0
  0
VERTEX
  5
221
  8
0
 10
1731.729382046906
 20
752.2719465023328
 30
0.0
  0
VERTEX
  5
222
  8
0
 10
1731.729382046906
 20
731.351197572768
 30
0.0
 42
-1.0
  0
VERTEX
  5
223
  8
0
 10
1727.189756511689
 20
726.8115720375504
 30
0.0
  0
VERTEX
  5
224
  8
0
 10
1713.729382046906
 20
726.8115720375504
 30
0.0
  0
VERTEX
  5
225
  8
0
 10
1713.729382046906
 20
696.8115720375504
 30
0.0
  0
VERTEX
  5
226
  8
0
 10
1727.189756511689
 20
696.8115720375504
 30
0.0
 42
-1.0
  0
VERTEX
  5
227
  8
0
 10
1731.729382046906
 20
692.2719465023328
 30
0.0
  0
VERTEX
  5
228
  8
0
 10
1731.729382046906
 20
671.351197572768
 30
0.0
 42
-1.0
  0
VERTEX
  5
229
  8
0
 10
1727.189756511689
 20
666.8115720375504
 30
0.0
  0
VERTEX
  5
22A
  8
0
 10
1713.729382046906
 20
666.8115720375504
 30
0.0
  0
SEQEND
  5
13C2
  8
0
  0
POLYLINE
  5
95
  8
0
 66
     1
 10
0.0
 20
0.0
 30
0.0
 70
     1
  0
VERTEX
  5
22B
  8
0
 10
1375.280387112846
 20
684.2009687685768
 30
0.0
  0
VERTEX
  5
22C
  8
0
 10
1655.280387112846
 20
684.2009687685768
 30
0.0
 42
0.4142135623731065
  0
VERTEX
  5
22D
  8
0
 10
1665.280387112846
 20
694.2009687685768
 30
0.0
  0
VERTEX
  5
22E
  8
0
 10
1665.280387112846
 20
1174.200968768577
 30
0.0
 42
0.4142135623731065
  0
VERTEX
  5
22F
  8
0
 10
1655.280387112846
 20
1184.200968768577
 30
0.0
  0
VERTEX
  5
230
  8
0
 10
1375.280387112846
 20
1184.200968768577
 30
0.0
 42
0.4142135623731065
  0
VERTEX
  5
231
  8
0
 10
1365.280387112846
 20
1174.200968768577
 30
0.0
  0
VERTEX
  5
232
  8
0
 10
1365.280387112846
 20
694.2009687685768
 30
0.0
 42
0.4142135623730951
  0
SEQEND
  5
13C3
  8
0
  0
POLYLINE
  5
96
  8
0
 66
     1
 10
0.0
 20
0.0
 30
0.0
 70
     1
  0
VERTEX
  5
233
  8
0
 10
1543.95415113984
 20
291.318303490746
 30
0.0
  0
VERTEX
  5
234
  8
0
 10
1552.814286227989
 20
293.3460226207134
 30
0.0
  0
VERTEX
  5
235
  8
0
 10
1553.06219269583
 20
508.891711371445
 30
0.0
  0
VERTEX
  5
236
  8
0
 10
1543.95415113984
 20
508.934278470503
 30
0.0
  0
SEQEND
  5
13C4
  8
0
  0
POLYLINE
  5
97
  8
0
 66
     1
 10
0.0
 20
0.0
 30
0.0
 70
     1
  0
VERTEX
  5
237
  8
0
 10
1533.708707470914
 20
158.4411734032823
 30
0.0
  0
VERTEX
  5
238
  8
0
 10
1563.708707470914
 20
158.4411734032823
 30
0.0
 42
0.4142135623731008
  0
VERTEX
  5
239
  8
0
 10
1573.708707470914
 20
168.4411734032823
 30
0.0
  0
VERTEX
  5
23A
  8
0
 10
1573.708707470913
 20
196.901547868072
 30
0.0
 42
-1.0
  0
VERTEX
  5
23B
  8
0
 10
1578.248333006132
 20
201.4411734032884
 30
0.0
  0
VERTEX
  5
23C
  8
0
 10
1588.708707470914
 20
201.4411734032823
 30
0.0
  0
VERTEX
  5
23D
  8
0
 10
1588.708707470914
 20
565.4411734032824
 30
0.0
  0
VERTEX
  5
23E
  8
0
 10
1578.248333006132
 20
565.4411734032824
 30
0.0
 42
-1.0
  0
VERTEX
  5
23F
  8
0
 10
1573.708707470914
 20
569.9807989385
 30
0.0
  0
VERTEX
  5
240
  8
0
 10
1573.708707470914
 20
598.4411734032824
 30
0.0
 42
0.4142135623731065
  0
VERTEX
  5
241
  8
0
 10
1563.708707470914
 20
608.4411734032824
 30
0.0
  0
VERTEX
  5
242
  8
0
 10
1533.708707470914
 20
608.4411734032824
 30
0.0
 42
0.4142135623731065
  0
VERTEX
  5
243
  8
0
 10
1523.708707470914
 20
598.4411734032824
 30
0.0
  0
VERTEX
  5
244
  8
0
 10
1523.708707470914
 20
569.9807989385
 30
0.0
 42
-1.0
  0
VERTEX
  5
245
  8
0
 10
1519.169081935697
 20
565.4411734032824
 30
0.0
  0
VERTEX
  5
246
  8
0
 10
1508.708707470914
 20
565.4411734032824
 30
0.0
  0
VERTEX
  5
247
  8
0
 10
1508.708707470914
 20
201.4411734032823
 30
0.0
  0
VERTEX
  5
248
  8
0
 10
1519.169081935697
 20
201.4411734032823
 30
0.0
 42
-1.0
  0
VERTEX
  5
249
  8
0
 10
1523.708707470914
 20
196.9015478680647
 30
0.0
  0
VERTEX
  5
24A
  8
0
 10
1523.708707470914
 20
168.4411734032823
 30
0.0
 42
0.4142135623731008
  0
SEQEND
  5
13C5
  8
0
  0
POLYLINE
  5
98
  8
0
 66
     1
 10
0.0
 20
0.0
 30
0.0
 70
     1
  0
VERTEX
  5
24B
  8
0
 10
1197.595635832191
 20
411.4056201148479
 30
0.0
  0
VERTEX
  5
24C
  8
0
 10
1215.303942153378
 20
411.0959356474269
 30
0.0
  0
VERTEX
  5
24D
  8
0
 10
1225.701522303453
 20
393.0163709322206
 30
0.0
  0
VERTEX
  5
24E
  8
0
 10
1225.461507453223
 20
392.8834973071474
 30
0.0
  0
VERTEX
  5
24F
  8
0
 10
1225.222077259335
 20
392.7500519398159
 30
0.0
  0
VERTEX
  5
250
  8
0
 10
1224.983816378133
 20
392.6154630879674
 30
0.0
  0
VERTEX
  5
251
  8
0
 10
1224.865307134896
 20
392.5475611858938
 30
0.0
  0
VERTEX
  5
252
  8
0
 10
1224.74730946596
 20
392.4791590093439
 30
0.0
  0
VERTEX
  5
253
  8
0
 10
1224.629896453366
 20
392.4101850905357
 30
0.0
  0
VERTEX
  5
254
  8
0
 10
1224.513141179159
 20
392.3405679616866
 30
0.0
  0
VERTEX
  5
255
  8
0
 10
1224.39711672538
 20
392.2702361550147
 30
0.0
  0
VERTEX
  5
256
  8
0
 10
1224.281896174072
 20
392.1991182027375
 30
0.0
  0
VERTEX
  5
257
  8
0
 10
1224.167552607279
 20
392.1271426370724
 30
0.0
  0
VERTEX
  5
258
  8
0
 10
1224.054159107043
 20
392.0542379902377
 30
0.0
  0
VERTEX
  5
259
  8
0
 10
1223.941788755407
 20
391.9803327944506
 30
0.0
  0
VERTEX
  5
25A
  8
0
 10
1223.830514634414
 20
391.9053555819291
 30
0.0
  0
VERTEX
  5
25B
  8
0
 10
1223.720409826107
 20
391.8292348848908
 30
0.0
  0
VERTEX
  5
25C
  8
0
 10
1223.611547412529
 20
391.7518992355531
 30
0.0
  0
VERTEX
  5
25D
  8
0
 10
1223.504000475722
 20
391.6732771661343
 30
0.0
  0
VERTEX
  5
25E
  8
0
 10
1223.39784209773
 20
391.5932972088517
 30
0.0
  0
VERTEX
  5
25F
  8
0
 10
1223.293145360595
 20
391.5118878959231
 30
0.0
  0
VERTEX
  5
260
  8
0
 10
1223.189983346361
 20
391.428977759566
 30
0.0
  0
VERTEX
  5
261
  8
0
 10
1223.088429137069
 20
391.3444953319984
 30
0.0
  0
VERTEX
  5
262
  8
0
 10
1223.038277797415
 20
391.3016421753286
 30
0.0
  0
VERTEX
  5
263
  8
0
 10
1222.988555814763
 20
391.2583691454378
 30
0.0
  0
VERTEX
  5
264
  8
0
 10
1222.939272324369
 20
391.2146673088533
 30
0.0
  0
VERTEX
  5
265
  8
0
 10
1222.890436461486
 20
391.1705277321021
 30
0.0
  0
VERTEX
  5
266
  8
0
 10
1222.842057361372
 20
391.1259414817117
 30
0.0
  0
VERTEX
  5
267
  8
0
 10
1222.794144159281
 20
391.0808996242089
 30
0.0
  0
VERTEX
  5
268
  8
0
 10
1222.746705990468
 20
391.0353932261211
 30
0.0
  0
VERTEX
  5
269
  8
0
 10
1222.69975199019
 20
390.9894133539756
 30
0.0
  0
VERTEX
  5
26A
  8
0
 10
1222.653291293701
 20
390.9429510742997
 30
0.0
  0
VERTEX
  5
26B
  8
0
 10
1222.607332970003
 20
390.8959975260215
 30
0.0
  0
VERTEX
  5
26C
  8
0
 10
1222.561880896741
 20
390.8485495211058
 30
0.0
  0
VERTEX
  5
26D
  8
0
 10
1222.516930114725
 20
390.8006135282764
 30
0.0
  0
VERTEX
  5
26E
  8
0
 10
1222.472474804104
 20
390.7521969567756
 30
0.0
  0
VERTEX
  5
26F
  8
0
 10
1222.428509145026
 20
390.7033072158453
 30
0.0
  0
VERTEX
  5
270
  8
0
 10
1222.38502731764
 20
390.653951714728
 30
0.0
  0
VERTEX
  5
271
  8
0
 10
1222.342023502094
 20
390.6041378626658
 30
0.0
  0
VERTEX
  5
272
  8
0
 10
1222.299491878538
 20
390.5538730689007
 30
0.0
  0
VERTEX
  5
273
  8
0
 10
1222.25742662712
 20
390.503164742675
 30
0.0
  0
VERTEX
  5
274
  8
0
 10
1222.215821927988
 20
390.452020293231
 30
0.0
  0
VERTEX
  5
275
  8
0
 10
1222.174671961291
 20
390.4004471298106
 30
0.0
  0
VERTEX
  5
276
  8
0
 10
1222.133970907177
 20
390.3484526616562
 30
0.0
  0
VERTEX
  5
277
  8
0
 10
1222.093712945796
 20
390.2960442980099
 30
0.0
  0
VERTEX
  5
278
  8
0
 10
1222.014503021824
 20
390.1900155212105
 30
0.0
  0
VERTEX
  5
279
  8
0
 10
1221.936995630563
 20
390.0824200733497
 30
0.0
  0
VERTEX
  5
27A
  8
0
 10
1221.861144213203
 20
389.9733172283649
 30
0.0
  0
VERTEX
  5
27B
  8
0
 10
1221.786902210933
 20
389.862766260194
 30
0.0
  0
VERTEX
  5
27C
  8
0
 10
1221.714223064939
 20
389.750826442774
 30
0.0
  0
VERTEX
  5
27D
  8
0
 10
1221.643060216412
 20
389.6375570500422
 30
0.0
  0
VERTEX
  5
27E
  8
0
 10
1221.573367106541
 20
389.5230173559366
 30
0.0
  0
VERTEX
  5
27F
  8
0
 10
1221.505097176513
 20
389.4072666343942
 30
0.0
  0
VERTEX
  5
280
  8
0
 10
1221.438203867518
 20
389.2903641593526
 30
0.0
  0
VERTEX
  5
281
  8
0
 10
1221.372640620744
 20
389.1723692047495
 30
0.0
  0
VERTEX
  5
282
  8
0
 10
1221.30836087738
 20
389.0533410445219
 30
0.0
  0
VERTEX
  5
283
  8
0
 10
1221.245318078615
 20
388.9333389526075
 30
0.0
  0
VERTEX
  5
284
  8
0
 10
1221.183465665638
 20
388.8124222029437
 30
0.0
  0
VERTEX
  5
285
  8
0
 10
1221.122757079637
 20
388.6906500694681
 30
0.0
  0
VERTEX
  5
286
  8
0
 10
1221.0631457618
 20
388.5680818261179
 30
0.0
  0
VERTEX
  5
287
  8
0
 10
1221.004585153317
 20
388.4447767468305
 30
0.0
  0
VERTEX
  5
288
  8
0
 10
1220.947028695377
 20
388.3207941055438
 30
0.0
  0
VERTEX
  5
289
  8
0
 10
1220.890429829167
 20
388.1961931761948
 30
0.0
  0
VERTEX
  5
28A
  8
0
 10
1220.834741995878
 20
388.0710332327212
 30
0.0
  0
VERTEX
  5
28B
  8
0
 10
1220.779918636697
 20
387.9453735490603
 30
0.0
  0
VERTEX
  5
28C
  8
0
 10
1220.725913192813
 20
387.8192733991496
 30
0.0
  0
VERTEX
  5
28D
  8
0
 10
1220.672679105415
 20
387.6927920569264
 30
0.0
  0
VERTEX
  5
28E
  8
0
 10
1220.620169815692
 20
387.5659887963286
 30
0.0
  0
VERTEX
  5
28F
  8
0
 10
1220.568338764831
 20
387.438922891293
 30
0.0
  0
VERTEX
  5
290
  8
0
 10
1220.517139394023
 20
387.3116536157577
 30
0.0
  0
VERTEX
  5
291
  8
0
 10
1220.466525144456
 20
387.1842402436598
 30
0.0
  0
VERTEX
  5
292
  8
0
 10
1220.366865773799
 20
386.929218305526
 30
0.0
  0
VERTEX
  5
293
  8
0
 10
1220.269010199621
 20
386.6743105321981
 30
0.0
  0
VERTEX
  5
294
  8
0
 10
1220.172941169762
 20
386.4196565649821
 30
0.0
  0
VERTEX
  5
295
  8
0
 10
1220.078899866493
 20
386.1651526475811
 30
0.0
  0
VERTEX
  5
296
  8
0
 10
1220.032717094478
 20
386.0379225439559
 30
0.0
  0
VERTEX
  5
297
  8
0
 10
1219.987134232688
 20
385.910688656458
 30
0.0
  0
VERTEX
  5
298
  8
0
 10
1219.942182273981
 20
385.7834372196455
 30
0.0
  0
VERTEX
  5
299
  8
0
 10
1219.897892211219
 20
385.656154468076
 30
0.0
  0
VERTEX
  5
29A
  8
0
 10
1219.854295037258
 20
385.5288266363077
 30
0.0
  0
VERTEX
  5
29B
  8
0
 10
1219.811421744959
 20
385.401439958898
 30
0.0
  0
VERTEX
  5
29C
  8
0
 10
1219.76930332718
 20
385.2739806704053
 30
0.0
  0
VERTEX
  5
29D
  8
0
 10
1219.727970776781
 20
385.146435005387
 30
0.0
  0
VERTEX
  5
29E
  8
0
 10
1219.687455086621
 20
385.0187891984012
 30
0.0
  0
VERTEX
  5
29F
  8
0
 10
1219.647787249559
 20
384.8910294840059
 30
0.0
  0
VERTEX
  5
2A0
  8
0
 10
1219.608998258454
 20
384.7631420967588
 30
0.0
  0
VERTEX
  5
2A1
  8
0
 10
1219.571119106166
 20
384.6351132712177
 30
0.0
  0
VERTEX
  5
2A2
  8
0
 10
1219.534180785553
 20
384.5069292419406
 30
0.0
  0
VERTEX
  5
2A3
  8
0
 10
1219.498214289474
 20
384.3785762434854
 30
0.0
  0
VERTEX
  5
2A4
  8
0
 10
1219.463250610789
 20
384.2500405104098
 30
0.0
  0
VERTEX
  5
2A5
  8
0
 10
1219.429320742357
 20
384.1213082772719
 30
0.0
  0
VERTEX
  5
2A6
  8
0
 10
1219.396455677037
 20
383.9923657786295
 30
0.0
  0
VERTEX
  5
2A7
  8
0
 10
1219.364686407687
 20
383.8631992490401
 30
0.0
  0
VERTEX
  5
2A8
  8
0
 10
1219.334043927169
 20
383.7337949230622
 30
0.0
  0
VERTEX
  5
2A9
  8
0
 10
1219.304559228339
 20
383.6041390352534
 30
0.0
  0
VERTEX
  5
2AA
  8
0
 10
1219.276263304058
 20
383.4742178201714
 30
0.0
  0
VERTEX
  5
2AB
  8
0
 10
1219.249187147184
 20
383.3440175123741
 30
0.0
  0
VERTEX
  5
2AC
  8
0
 10
1219.223361750577
 20
383.2135243464198
 30
0.0
  0
VERTEX
  5
2AD
  8
0
 10
1219.198809163232
 20
383.0827283705365
 30
0.0
  0
VERTEX
  5
2AE
  8
0
 10
1219.175513363326
 20
382.9516358663801
 30
0.0
  0
VERTEX
  5
2AF
  8
0
 10
1219.153448201146
 20
382.8202574341463
 30
0.0
  0
VERTEX
  5
2B0
  8
0
 10
1219.132587526894
 20
382.688603674067
 30
0.0
  0
VERTEX
  5
2B1
  8
0
 10
1219.112905190774
 20
382.5566851863743
 30
0.0
  0
VERTEX
  5
2B2
  8
0
 10
1219.094375042987
 20
382.4245125713001
 30
0.0
  0
VERTEX
  5
2B3
  8
0
 10
1219.076970933735
 20
382.292096429076
 30
0.0
  0
VERTEX
  5
2B4
  8
0
 10
1219.060666713223
 20
382.1594473599346
 30
0.0
  0
VERTEX
  5
2B5
  8
0
 10
1219.04543623165
 20
382.0265759641073
 30
0.0
  0
VERTEX
  5
2B6
  8
0
 10
1219.031253339221
 20
381.8934928418263
 30
0.0
  0
VERTEX
  5
2B7
  8
0
 10
1219.018091886138
 20
381.7602085933236
 30
0.0
  0
VERTEX
  5
2B8
  8
0
 10
1219.005925722603
 20
381.6267338188308
 30
0.0
  0
VERTEX
  5
2B9
  8
0
 10
1218.994728698818
 20
381.4930791185803
 30
0.0
  0
VERTEX
  5
2BA
  8
0
 10
1218.984474664986
 20
381.3592550928036
 30
0.0
  0
VERTEX
  5
2BB
  8
0
 10
1218.975137471309
 20
381.2252723417331
 30
0.0
  0
VERTEX
  5
2BC
  8
0
 10
1218.966690967991
 20
381.0911414656003
 30
0.0
  0
VERTEX
  5
2BD
  8
0
 10
1218.959109005232
 20
380.9568730646375
 30
0.0
  0
VERTEX
  5
2BE
  8
0
 10
1218.952365433236
 20
380.8224777390765
 30
0.0
  0
VERTEX
  5
2BF
  8
0
 10
1218.946434102206
 20
380.6879660891493
 30
0.0
  0
VERTEX
  5
2C0
  8
0
 10
1218.941288862343
 20
380.5533487150878
 30
0.0
  0
VERTEX
  5
2C1
  8
0
 10
1218.93690356385
 20
380.4186362171238
 30
0.0
  0
VERTEX
  5
2C2
  8
0
 10
1218.933252056929
 20
380.2838391954896
 30
0.0
  0
VERTEX
  5
2C3
  8
0
 10
1218.930308191784
 20
380.1489682504171
 30
0.0
  0
VERTEX
  5
2C4
  8
0
 10
1218.928045818616
 20
380.0140339821378
 30
0.0
  0
VERTEX
  5
2C5
  8
0
 10
1218.926438787627
 20
379.8790469908841
 30
0.0
  0
VERTEX
  5
2C6
  8
0
 10
1218.925460949021
 20
379.7440178768877
 30
0.0
  0
VERTEX
  5
2C7
  8
0
 10
1218.925086152999
 20
379.6089572403807
 30
0.0
  0
VERTEX
  5
2C8
  8
0
 10
1218.926043059769
 20
379.3387837256568
 30
0.0
  0
VERTEX
  5
2C9
  8
0
 10
1218.929233569213
 20
379.0686061687228
 30
0.0
  0
VERTEX
  5
2CA
  8
0
 10
1218.931707558844
 20
378.9335383149171
 30
0.0
  0
VERTEX
  5
2CB
  8
0
 10
1218.934793137801
 20
378.7984962332251
 30
0.0
  0
VERTEX
  5
2CC
  8
0
 10
1218.938509630623
 20
378.6634887904015
 30
0.0
  0
VERTEX
  5
2CD
  8
0
 10
1218.942876361851
 20
378.528524853201
 30
0.0
  0
VERTEX
  5
2CE
  8
0
 10
1218.947912656023
 20
378.3936132883782
 30
0.0
  0
VERTEX
  5
2CF
  8
0
 10
1218.95363783768
 20
378.2587629626876
 30
0.0
  0
VERTEX
  5
2D0
  8
0
 10
1218.960071231361
 20
378.1239827428843
 30
0.0
  0
VERTEX
  5
2D1
  8
0
 10
1218.967232161606
 20
377.9892814957224
 30
0.0
  0
VERTEX
  5
2D2
  8
0
 10
1218.975139952954
 20
377.8546680879571
 30
0.0
  0
VERTEX
  5
2D3
  8
0
 10
1218.983813929945
 20
377.7201513863426
 30
0.0
  0
VERTEX
  5
2D4
  8
0
 10
1218.99327341712
 20
377.5857402576339
 30
0.0
  0
VERTEX
  5
2D5
  8
0
 10
1219.003537739016
 20
377.4514435685854
 30
0.0
  0
VERTEX
  5
2D6
  8
0
 10
1219.014626220175
 20
377.3172701859518
 30
0.0
  0
VERTEX
  5
2D7
  8
0
 10
1219.026558185135
 20
377.183228976488
 30
0.0
  0
VERTEX
  5
2D8
  8
0
 10
1219.039352958437
 20
377.0493288069484
 30
0.0
  0
VERTEX
  5
2D9
  8
0
 10
1219.053029864619
 20
376.9155785440878
 30
0.0
  0
VERTEX
  5
2DA
  8
0
 10
1219.067608228223
 20
376.7819870546609
 30
0.0
  0
VERTEX
  5
2DB
  8
0
 10
1219.083107373787
 20
376.648563205422
 30
0.0
  0
VERTEX
  5
2DC
  8
0
 10
1219.099546625851
 20
376.5153158631263
 30
0.0
  0
VERTEX
  5
2DD
  8
0
 10
1219.116945308954
 20
376.382253894528
 30
0.0
  0
VERTEX
  5
2DE
  8
0
 10
1219.135322747636
 20
376.249386166382
 30
0.0
  0
VERTEX
  5
2DF
  8
0
 10
1219.154698266439
 20
376.1167215454429
 30
0.0
  0
VERTEX
  5
2E0
  8
0
 10
1219.175091189898
 20
375.9842688984654
 30
0.0
  0
VERTEX
  5
2E1
  8
0
 10
1219.196520842557
 20
375.8520370922039
 30
0.0
  0
VERTEX
  5
2E2
  8
0
 10
1219.219006548954
 20
375.7200349934136
 30
0.0
  0
VERTEX
  5
2E3
  8
0
 10
1219.242567633628
 20
375.5882714688486
 30
0.0
  0
VERTEX
  5
2E4
  8
0
 10
1219.267223421119
 20
375.4567553852638
 30
0.0
  0
VERTEX
  5
2E5
  8
0
 10
1219.292993235968
 20
375.325495609414
 30
0.0
  0
VERTEX
  5
2E6
  8
0
 10
1219.319896402713
 20
375.1945010080536
 30
0.0
  0
VERTEX
  5
2E7
  8
0
 10
1219.347952245894
 20
375.0637804479375
 30
0.0
  0
VERTEX
  5
2E8
  8
0
 10
1219.377180090051
 20
374.9333427958201
 30
0.0
  0
VERTEX
  5
2E9
  8
0
 10
1219.407599259723
 20
374.8031969184562
 30
0.0
  0
VERTEX
  5
2EA
  8
0
 10
1219.439229079451
 20
374.6733516826005
 30
0.0
  0
VERTEX
  5
2EB
  8
0
 10
1219.472088873773
 20
374.5438159550075
 30
0.0
  0
VERTEX
  5
2EC
  8
0
 10
1219.50619796723
 20
374.414598602432
 30
0.0
  0
VERTEX
  5
2ED
  8
0
 10
1219.541574327954
 20
374.285708243455
 30
0.0
  0
VERTEX
  5
2EE
  8
0
 10
1219.578215671019
 20
374.1571497910773
 30
0.0
  0
VERTEX
  5
2EF
  8
0
 10
1219.616104142527
 20
374.0289253097392
 30
0.0
  0
VERTEX
  5
2F0
  8
0
 10
1219.655221489356
 20
373.9010367908365
 30
0.0
  0
VERTEX
  5
2F1
  8
0
 10
1219.69554945838
 20
373.7734862257652
 30
0.0
  0
VERTEX
  5
2F2
  8
0
 10
1219.737069796475
 20
373.6462756059212
 30
0.0
  0
VERTEX
  5
2F3
  8
0
 10
1219.779764250518
 20
373.5194069227005
 30
0.0
  0
VERTEX
  5
2F4
  8
0
 10
1219.823614567385
 20
373.3928821674988
 30
0.0
  0
VERTEX
  5
2F5
  8
0
 10
1219.868602493951
 20
373.2667033317125
 30
0.0
  0
VERTEX
  5
2F6
  8
0
 10
1219.914709777091
 20
373.140872406737
 30
0.0
  0
VERTEX
  5
2F7
  8
0
 10
1219.961918163683
 20
373.0153913839687
 30
0.0
  0
VERTEX
  5
2F8
  8
0
 10
1220.010209400601
 20
372.8902622548032
 30
0.0
  0
VERTEX
  5
2F9
  8
0
 10
1220.059565234722
 20
372.7654870106366
 30
0.0
  0
VERTEX
  5
2FA
  8
0
 10
1220.109967412922
 20
372.6410676428649
 30
0.0
  0
VERTEX
  5
2FB
  8
0
 10
1220.161397682075
 20
372.5170061428837
 30
0.0
  0
VERTEX
  5
2FC
  8
0
 10
1220.21383778906
 20
372.3933045020893
 30
0.0
  0
VERTEX
  5
2FD
  8
0
 10
1220.26726948075
 20
372.2699647118775
 30
0.0
  0
VERTEX
  5
2FE
  8
0
 10
1220.321674504023
 20
372.1469887636443
 30
0.0
  0
VERTEX
  5
2FF
  8
0
 10
1220.377034605754
 20
372.0243786487854
 30
0.0
  0
VERTEX
  5
300
  8
0
 10
1220.433331532819
 20
371.9021363586972
 30
0.0
  0
VERTEX
  5
301
  8
0
 10
1220.490547032093
 20
371.7802638847751
 30
0.0
  0
VERTEX
  5
302
  8
0
 10
1220.548662850452
 20
371.6587632184154
 30
0.0
  0
VERTEX
  5
303
  8
0
 10
1220.607660734774
 20
371.537636351014
 30
0.0
  0
VERTEX
  5
304
  8
0
 10
1220.667522431932
 20
371.4168852739666
 30
0.0
  0
VERTEX
  5
305
  8
0
 10
1220.728229688804
 20
371.2965119786694
 30
0.0
  0
VERTEX
  5
306
  8
0
 10
1220.789764252265
 20
371.1765184565182
 30
0.0
  0
VERTEX
  5
307
  8
0
 10
1220.852107869191
 20
371.0569066989089
 30
0.0
  0
VERTEX
  5
308
  8
0
 10
1220.915242286458
 20
370.9376786972375
 30
0.0
  0
VERTEX
  5
309
  8
0
 10
1220.979149250942
 20
370.8188364429001
 30
0.0
  0
VERTEX
  5
30A
  8
0
 10
1221.043810509518
 20
370.7003819272923
 30
0.0
  0
VERTEX
  5
30B
  8
0
 10
1221.109207809063
 20
370.5823171418102
 30
0.0
  0
VERTEX
  5
30C
  8
0
 10
1221.175322896452
 20
370.4646440778499
 30
0.0
  0
VERTEX
  5
30D
  8
0
 10
1221.242137518562
 20
370.347364726807
 30
0.0
  0
VERTEX
  5
30E
  8
0
 10
1221.309633422267
 20
370.2304810800778
 30
0.0
  0
VERTEX
  5
30F
  8
0
 10
1221.377792354445
 20
370.1139951290579
 30
0.0
  0
VERTEX
  5
310
  8
0
 10
1221.44659606197
 20
369.9979088651434
 30
0.0
  0
VERTEX
  5
311
  8
0
 10
1221.51602629172
 20
369.8822242797303
 30
0.0
  0
VERTEX
  5
312
  8
0
 10
1221.586064790568
 20
369.7669433642143
 30
0.0
  0
VERTEX
  5
313
  8
0
 10
1221.656693305393
 20
369.6520681099916
 30
0.0
  0
VERTEX
  5
314
  8
0
 10
1221.72789358307
 20
369.5376005084581
 30
0.0
  0
VERTEX
  5
315
  8
0
 10
1221.799647370784
 20
369.4235425509561
 30
0.0
  0
VERTEX
  5
316
  8
0
 10
1221.871939421801
 20
369.3098957146699
 30
0.0
  0
VERTEX
  5
317
  8
0
 10
1221.944764864149
 20
369.1966597022839
 30
0.0
  0
VERTEX
  5
318
  8
0
 10
1222.018121062417
 20
369.0838338339419
 30
0.0
  0
VERTEX
  5
319
  8
0
 10
1222.092005381194
 20
368.9714174297875
 30
0.0
  0
VERTEX
  5
31A
  8
0
 10
1222.166415185068
 20
368.8594098099647
 30
0.0
  0
VERTEX
  5
31B
  8
0
 10
1222.241347838628
 20
368.7478102946173
 30
0.0
  0
VERTEX
  5
31C
  8
0
 10
1222.316800706463
 20
368.6366182038888
 30
0.0
  0
VERTEX
  5
31D
  8
0
 10
1222.392771153163
 20
368.5258328579233
 30
0.0
  0
VERTEX
  5
31E
  8
0
 10
1222.469256543314
 20
368.4154535768643
 30
0.0
  0
VERTEX
  5
31F
  8
0
 10
1222.546254241507
 20
368.3054796808556
 30
0.0
  0
VERTEX
  5
320
  8
0
 10
1222.623761612331
 20
368.1959104900411
 30
0.0
  0
VERTEX
  5
321
  8
0
 10
1222.701776020373
 20
368.0867453245645
 30
0.0
  0
VERTEX
  5
322
  8
0
 10
1222.780294830223
 20
367.9779835045695
 30
0.0
  0
VERTEX
  5
323
  8
0
 10
1222.859315406469
 20
367.8696243502
 30
0.0
  0
VERTEX
  5
324
  8
0
 10
1222.938835113702
 20
367.7616671815995
 30
0.0
  0
VERTEX
  5
325
  8
0
 10
1223.018851316507
 20
367.654111318912
 30
0.0
  0
VERTEX
  5
326
  8
0
 10
1223.099361379476
 20
367.5469560822813
 30
0.0
  0
VERTEX
  5
327
  8
0
 10
1223.180362667197
 20
367.440200791851
 30
0.0
  0
VERTEX
  5
328
  8
0
 10
1223.261852544257
 20
367.333844767765
 30
0.0
  0
VERTEX
  5
329
  8
0
 10
1223.343828375247
 20
367.2278873301669
 30
0.0
  0
VERTEX
  5
32A
  8
0
 10
1223.426287524755
 20
367.1223277992007
 30
0.0
  0
VERTEX
  5
32B
  8
0
 10
1223.50922735737
 20
367.01716549501
 30
0.0
  0
VERTEX
  5
32C
  8
0
 10
1223.592645237681
 20
366.9123997377385
 30
0.0
  0
VERTEX
  5
32D
  8
0
 10
1223.676538530275
 20
366.8080298475302
 30
0.0
  0
VERTEX
  5
32E
  8
0
 10
1223.760904599743
 20
366.7040551445288
 30
0.0
  0
VERTEX
  5
32F
  8
0
 10
1223.845740810673
 20
366.6004749488777
 30
0.0
  0
VERTEX
  5
330
  8
0
 10
1223.931044527653
 20
366.4972885807213
 30
0.0
  0
VERTEX
  5
331
  8
0
 10
1224.016813115273
 20
366.3944953602028
 30
0.0
  0
VERTEX
  5
332
  8
0
 10
1224.103043938121
 20
366.2920946074663
 30
0.0
  0
VERTEX
  5
333
  8
0
 10
1224.189734360786
 20
366.1900856426554
 30
0.0
  0
VERTEX
  5
334
  8
0
 10
1224.276881747857
 20
366.088467785914
 30
0.0
  0
VERTEX
  5
335
  8
0
 10
1224.364483463922
 20
365.9872403573858
 30
0.0
  0
VERTEX
  5
336
  8
0
 10
1224.541030227694
 20
365.7859452158765
 30
0.0
  0
VERTEX
  5
337
  8
0
 10
1224.719270080357
 20
365.5861137095448
 30
0.0
  0
VERTEX
  5
338
  8
0
 10
1224.899062155851
 20
365.3876240869624
 30
0.0
  0
VERTEX
  5
339
  8
0
 10
1225.080265343007
 20
365.1903543586977
 30
0.0
  0
VERTEX
  5
33A
  8
0
 10
1225.262738530661
 20
364.9941825353187
 30
0.0
  0
VERTEX
  5
33B
  8
0
 10
1225.446340607645
 20
364.7989866273937
 30
0.0
  0
VERTEX
  5
33C
  8
0
 10
1225.630930462794
 20
364.6046446454911
 30
0.0
  0
VERTEX
  5
33D
  8
0
 10
1225.816366984941
 20
364.4110346001789
 30
0.0
  0
VERTEX
  5
33E
  8
0
 10
1226.00250906292
 20
364.2180345020257
 30
0.0
  0
VERTEX
  5
33F
  8
0
 10
1226.376345441706
 20
363.8333761894683
 30
0.0
  0
VERTEX
  5
340
  8
0
 10
1226.751310709824
 20
363.4496937923651
 30
0.0
  0
VERTEX
  5
341
  8
0
 10
1228.010061215274
 20
362.4771554516612
 30
0.0
  0
VERTEX
  5
342
  8
0
 10
1228.640812147692
 20
361.9926807791838
 30
0.0
  0
VERTEX
  5
343
  8
0
 10
1229.27321389574
 20
361.5103595041556
 30
0.0
  0
VERTEX
  5
344
  8
0
 10
1229.590205785587
 20
361.2702307029194
 30
0.0
  0
VERTEX
  5
345
  8
0
 10
1229.907816731295
 20
361.0309094257266
 30
0.0
  0
VERTEX
  5
346
  8
0
 10
1230.22611551685
 20
360.7924853974711
 30
0.0
  0
VERTEX
  5
347
  8
0
 10
1230.545170926236
 20
360.5550483430465
 30
0.0
  0
VERTEX
  5
348
  8
0
 10
1230.865051743436
 20
360.3186879873466
 30
0.0
  0
VERTEX
  5
349
  8
0
 10
1231.185826752437
 20
360.083494055265
 30
0.0
  0
VERTEX
  5
34A
  8
0
 10
1231.507564737223
 20
359.8495562716957
 30
0.0
  0
VERTEX
  5
34B
  8
0
 10
1231.830334481777
 20
359.6169643615322
 30
0.0
  0
VERTEX
  5
34C
  8
0
 10
1232.154204770085
 20
359.3858080496681
 30
0.0
  0
VERTEX
  5
34D
  8
0
 10
1232.479244386131
 20
359.1561770609973
 30
0.0
  0
VERTEX
  5
34E
  8
0
 10
1232.805522113901
 20
358.9281611204137
 30
0.0
  0
VERTEX
  5
34F
  8
0
 10
1233.133106737378
 20
358.7018499528106
 30
0.0
  0
VERTEX
  5
350
  8
0
 10
1233.462067040547
 20
358.4773332830821
 30
0.0
  0
VERTEX
  5
351
  8
0
 10
1233.792465895443
 20
358.2547079460866
 30
0.0
  0
VERTEX
  5
352
  8
0
 10
1234.12434000657
 20
358.0341022468731
 30
0.0
  0
VERTEX
  5
353
  8
0
 10
1234.457718840913
 20
357.8156531946404
 30
0.0
  0
VERTEX
  5
354
  8
0
 10
1234.79263186521
 20
357.5994977988896
 30
0.0
  0
VERTEX
  5
355
  8
0
 10
1235.129108546194
 20
357.3857730691218
 30
0.0
  0
VERTEX
  5
356
  8
0
 10
1235.4671783506
 20
357.1746160148379
 30
0.0
  0
VERTEX
  5
357
  8
0
 10
1235.806870745163
 20
356.9661636455392
 30
0.0
  0
VERTEX
  5
358
  8
0
 10
1236.148215196618
 20
356.7605529707266
 30
0.0
  0
VERTEX
  5
359
  8
0
 10
1236.491241171699
 20
356.5579209999012
 30
0.0
  0
VERTEX
  5
35A
  8
0
 10
1236.835978137143
 20
356.3584047425642
 30
0.0
  0
VERTEX
  5
35B
  8
0
 10
1237.182455559684
 20
356.1621412082166
 30
0.0
  0
VERTEX
  5
35C
  8
0
 10
1237.530702906056
 20
355.9692674063593
 30
0.0
  0
VERTEX
  5
35D
  8
0
 10
1237.705499509033
 20
355.8741444705838
 30
0.0
  0
VERTEX
  5
35E
  8
0
 10
1237.880749642994
 20
355.7799203464937
 30
0.0
  0
VERTEX
  5
35F
  8
0
 10
1238.056456991281
 20
355.6866121602769
 30
0.0
  0
VERTEX
  5
360
  8
0
 10
1238.232625237234
 20
355.5942370381206
 30
0.0
  0
VERTEX
  5
361
  8
0
 10
1238.409258064197
 20
355.502812106213
 30
0.0
  0
VERTEX
  5
362
  8
0
 10
1238.586359155511
 20
355.4123544907414
 30
0.0
  0
VERTEX
  5
363
  8
0
 10
1238.763932194517
 20
355.3228813178935
 30
0.0
  0
VERTEX
  5
364
  8
0
 10
1238.941980864558
 20
355.2344097138568
 30
0.0
  0
VERTEX
  5
365
  8
0
 10
1239.120508848976
 20
355.1469568048191
 30
0.0
  0
VERTEX
  5
366
  8
0
 10
1239.299519831112
 20
355.0605397169682
 30
0.0
  0
VERTEX
  5
367
  8
0
 10
1239.479017494309
 20
354.9751755764913
 30
0.0
  0
VERTEX
  5
368
  8
0
 10
1239.659005521907
 20
354.8908815095764
 30
0.0
  0
VERTEX
  5
369
  8
0
 10
1239.83948759725
 20
354.8076746424104
 30
0.0
  0
VERTEX
  5
36A
  8
0
 10
1240.0204652301
 20
354.7255669510249
 30
0.0
  0
VERTEX
  5
36B
  8
0
 10
1240.201931358833
 20
354.6445501020681
 30
0.0
  0
VERTEX
  5
36C
  8
0
 10
1240.383876809267
 20
354.5646107566262
 30
0.0
  0
VERTEX
  5
36D
  8
0
 10
1240.566292407223
 20
354.4857355757851
 30
0.0
  0
VERTEX
  5
36E
  8
0
 10
1240.749168978521
 20
354.4079112206308
 30
0.0
  0
VERTEX
  5
36F
  8
0
 10
1240.932497348982
 20
354.3311243522493
 30
0.0
  0
VERTEX
  5
370
  8
0
 10
1241.116268344426
 20
354.2553616317268
 30
0.0
  0
VERTEX
  5
371
  8
0
 10
1241.300472790673
 20
354.180609720149
 30
0.0
  0
VERTEX
  5
372
  8
0
 10
1241.485101513543
 20
354.106855278602
 30
0.0
  0
VERTEX
  5
373
  8
0
 10
1241.670145338856
 20
354.0340849681718
 30
0.0
  0
VERTEX
  5
374
  8
0
 10
1241.855595092434
 20
353.9622854499445
 30
0.0
  0
VERTEX
  5
375
  8
0
 10
1242.041441600096
 20
353.8914433850061
 30
0.0
  0
VERTEX
  5
376
  8
0
 10
1242.227675687663
 20
353.8215454344425
 30
0.0
  0
VERTEX
  5
377
  8
0
 10
1242.414288180954
 20
353.7525782593397
 30
0.0
  0
VERTEX
  5
378
  8
0
 10
1242.601269905791
 20
353.6845285207837
 30
0.0
  0
VERTEX
  5
379
  8
0
 10
1242.976304353381
 20
353.5511279976564
 30
0.0
  0
VERTEX
  5
37A
  8
0
 10
1243.352705636993
 20
353.4212371537485
 30
0.0
  0
VERTEX
  5
37B
  8
0
 10
1243.730400363193
 20
353.294749277748
 30
0.0
  0
VERTEX
  5
37C
  8
0
 10
1244.109315138541
 20
353.1715576583428
 30
0.0
  0
VERTEX
  5
37D
  8
0
 10
1244.489376569599
 20
353.0515555842212
 30
0.0
  0
VERTEX
  5
37E
  8
0
 10
1244.870511262931
 20
352.9346363440711
 30
0.0
  0
VERTEX
  5
37F
  8
0
 10
1245.252645825097
 20
352.8206932265803
 30
0.0
  0
VERTEX
  5
380
  8
0
 10
1245.635706862661
 20
352.7096195204371
 30
0.0
  0
VERTEX
  5
381
  8
0
 10
1246.019620982186
 20
352.6013085143296
 30
0.0
  0
VERTEX
  5
382
  8
0
 10
1246.404314790231
 20
352.4956534969454
 30
0.0
  0
VERTEX
  5
383
  8
0
 10
1246.789714999852
 20
352.392548163435
 30
0.0
  0
VERTEX
  5
384
  8
0
 10
1247.175769175496
 20
352.2919657967478
 30
0.0
  0
VERTEX
  5
385
  8
0
 10
1247.562470584196
 20
352.194054122221
 30
0.0
  0
VERTEX
  5
386
  8
0
 10
1247.949818551769
 20
352.0989839910192
 30
0.0
  0
VERTEX
  5
387
  8
0
 10
1248.337812404037
 20
352.006926254307
 30
0.0
  0
VERTEX
  5
388
  8
0
 10
1248.72645146682
 20
351.918051763249
 30
0.0
  0
VERTEX
  5
389
  8
0
 10
1249.115735065939
 20
351.8325313690098
 30
0.0
  0
VERTEX
  5
38A
  8
0
 10
1249.505662527213
 20
351.750535922754
 30
0.0
  0
VERTEX
  5
38B
  8
0
 10
1249.896233176463
 20
351.6722362756463
 30
0.0
  0
VERTEX
  5
38C
  8
0
 10
1250.091759485898
 20
351.6345257677619
 30
0.0
  0
VERTEX
  5
38D
  8
0
 10
1250.28744633951
 20
351.5978032788512
 30
0.0
  0
VERTEX
  5
38E
  8
0
 10
1250.483293653025
 20
351.5620901653099
 30
0.0
  0
VERTEX
  5
38F
  8
0
 10
1250.679301342173
 20
351.5274077835334
 30
0.0
  0
VERTEX
  5
390
  8
0
 10
1250.87546932268
 20
351.4937774899174
 30
0.0
  0
VERTEX
  5
391
  8
0
 10
1251.071797510273
 20
351.4612206408574
 30
0.0
  0
VERTEX
  5
392
  8
0
 10
1251.26828582068
 20
351.4297585927491
 30
0.0
  0
VERTEX
  5
393
  8
0
 10
1251.46493416963
 20
351.3994127019881
 30
0.0
  0
VERTEX
  5
394
  8
0
 10
1251.661742472849
 20
351.3702043249697
 30
0.0
  0
VERTEX
  5
395
  8
0
 10
1251.858710646065
 20
351.3421548180896
 30
0.0
  0
VERTEX
  5
396
  8
0
 10
1252.055838605005
 20
351.3152855377436
 30
0.0
  0
VERTEX
  5
397
  8
0
 10
1252.253126265398
 20
351.289617840327
 30
0.0
  0
VERTEX
  5
398
  8
0
 10
1252.450573542969
 20
351.2651730822355
 30
0.0
  0
VERTEX
  5
399
  8
0
 10
1252.648180353448
 20
351.2419726198647
 30
0.0
  0
VERTEX
  5
39A
  8
0
 10
1252.845946612562
 20
351.2200378096101
 30
0.0
  0
VERTEX
  5
39B
  8
0
 10
1253.043872236038
 20
351.1993900078672
 30
0.0
  0
VERTEX
  5
39C
  8
0
 10
1253.241957139603
 20
351.1800505710319
 30
0.0
  0
VERTEX
  5
39D
  8
0
 10
1253.440201238986
 20
351.1620408554995
 30
0.0
  0
VERTEX
  5
39E
  8
0
 10
1253.638604449913
 20
351.1453822176655
 30
0.0
  0
VERTEX
  5
39F
  8
0
 10
1253.837166688113
 20
351.1300960139257
 30
0.0
  0
VERTEX
  5
3A0
  8
0
 10
1254.03588784072
 20
351.1162035689509
 30
0.0
  0
VERTEX
  5
3A1
  8
0
 10
1254.234763217584
 20
351.1037211287292
 30
0.0
  0
VERTEX
  5
3A2
  8
0
 10
1254.43377856346
 20
351.0926543263899
 30
0.0
  0
VERTEX
  5
3A3
  8
0
 10
1254.632918423625
 20
351.0830074641908
 30
0.0
  0
VERTEX
  5
3A4
  8
0
 10
1254.832167343352
 20
351.0747848443895
 30
0.0
  0
VERTEX
  5
3A5
  8
0
 10
1255.031509867919
 20
351.0679907692437
 30
0.0
  0
VERTEX
  5
3A6
  8
0
 10
1255.230930542599
 20
351.0626295410111
 30
0.0
  0
VERTEX
  5
3A7
  8
0
 10
1255.430413912668
 20
351.0587054619491
 30
0.0
  0
VERTEX
  5
3A8
  8
0
 10
1255.629944523402
 20
351.0562228343157
 30
0.0
  0
VERTEX
  5
3A9
  8
0
 10
1255.829506920076
 20
351.0551859603686
 30
0.0
  0
VERTEX
  5
3AA
  8
0
 10
1256.029085647965
 20
351.055599142365
 30
0.0
  0
VERTEX
  5
3AB
  8
0
 10
1256.228665252345
 20
351.0574666825631
 30
0.0
  0
VERTEX
  5
3AC
  8
0
 10
1256.428230278491
 20
351.0607928832202
 30
0.0
  0
VERTEX
  5
3AD
  8
0
 10
1256.627765271678
 20
351.065582046594
 30
0.0
  0
VERTEX
  5
3AE
  8
0
 10
1256.827254777181
 20
351.0718384749424
 30
0.0
  0
VERTEX
  5
3AF
  8
0
 10
1257.026683340277
 20
351.0795664705228
 30
0.0
  0
VERTEX
  5
3B0
  8
0
 10
1257.22603550624
 20
351.088770335593
 30
0.0
  0
VERTEX
  5
3B1
  8
0
 10
1257.425295820346
 20
351.0994543724105
 30
0.0
  0
VERTEX
  5
3B2
  8
0
 10
1257.624448827869
 20
351.1116228832332
 30
0.0
  0
VERTEX
  5
3B3
  8
0
 10
1257.823479074086
 20
351.1252801703185
 30
0.0
  0
VERTEX
  5
3B4
  8
0
 10
1258.022371104271
 20
351.1404305359243
 30
0.0
  0
VERTEX
  5
3B5
  8
0
 10
1258.221109463701
 20
351.1570782823081
 30
0.0
  0
VERTEX
  5
3B6
  8
0
 10
1258.419678697649
 20
351.1752277117277
 30
0.0
  0
VERTEX
  5
3B7
  8
0
 10
1258.618063351393
 20
351.1948831264406
 30
0.0
  0
VERTEX
  5
3B8
  8
0
 10
1258.816247970207
 20
351.2160488287046
 30
0.0
  0
VERTEX
  5
3B9
  8
0
 10
1259.014217099365
 20
351.2387291207772
 30
0.0
  0
VERTEX
  5
3BA
  8
0
 10
1259.211955284145
 20
351.2629283049162
 30
0.0
  0
VERTEX
  5
3BB
  8
0
 10
1259.40944706982
 20
351.2886506833792
 30
0.0
  0
VERTEX
  5
3BC
  8
0
 10
1259.606677001667
 20
351.3159005584239
 30
0.0
  0
VERTEX
  5
3BD
  8
0
 10
1259.803629624961
 20
351.344682232308
 30
0.0
  0
VERTEX
  5
3BE
  8
0
 10
1260.000289484976
 20
351.375000007289
 30
0.0
  0
VERTEX
  5
3BF
  8
0
 10
1260.196641126989
 20
351.4068581856247
 30
0.0
  0
VERTEX
  5
3C0
  8
0
 10
1260.392669096275
 20
351.4402610695727
 30
0.0
  0
VERTEX
  5
3C1
  8
0
 10
1260.588357968246
 20
351.4752129479168
 30
0.0
  0
VERTEX
  5
3C2
  8
0
 10
1260.783697446988
 20
351.5117158164598
 30
0.0
  0
VERTEX
  5
3C3
  8
0
 10
1260.978688114802
 20
351.5497668074599
 30
0.0
  0
VERTEX
  5
3C4
  8
0
 10
1261.173331942186
 20
351.5893624325259
 30
0.0
  0
VERTEX
  5
3C5
  8
0
 10
1261.367630899638
 20
351.6304992032665
 30
0.0
  0
VERTEX
  5
3C6
  8
0
 10
1261.561586957654
 20
351.6731736312901
 30
0.0
  0
VERTEX
  5
3C7
  8
0
 10
1261.755202086734
 20
351.7173822282058
 30
0.0
  0
VERTEX
  5
3C8
  8
0
 10
1261.948478257374
 20
351.763121505622
 30
0.0
  0
VERTEX
  5
3C9
  8
0
 10
1262.141417440072
 20
351.8103879751475
 30
0.0
  0
VERTEX
  5
3CA
  8
0
 10
1262.334021605325
 20
351.8591781483912
 30
0.0
  0
VERTEX
  5
3CB
  8
0
 10
1262.526292723632
 20
351.9094885369614
 30
0.0
  0
VERTEX
  5
3CC
  8
0
 10
1262.71823276549
 20
351.961315652467
 30
0.0
  0
VERTEX
  5
3CD
  8
0
 10
1262.909843701397
 20
352.0146560065166
 30
0.0
  0
VERTEX
  5
3CE
  8
0
 10
1263.10112750185
 20
352.0695061107191
 30
0.0
  0
VERTEX
  5
3CF
  8
0
 10
1263.292086137347
 20
352.125862476683
 30
0.0
  0
VERTEX
  5
3D0
  8
0
 10
1263.482721578386
 20
352.1837216160171
 30
0.0
  0
VERTEX
  5
3D1
  8
0
 10
1263.673035795464
 20
352.2430800403301
 30
0.0
  0
VERTEX
  5
3D2
  8
0
 10
1263.863030759079
 20
352.3039342612306
 30
0.0
  0
VERTEX
  5
3D3
  8
0
 10
1264.052708439729
 20
352.3662807903273
 30
0.0
  0
VERTEX
  5
3D4
  8
0
 10
1264.242070807911
 20
352.430116139229
 30
0.0
  0
VERTEX
  5
3D5
  8
0
 10
1264.431119834122
 20
352.4954368195443
 30
0.0
  0
VERTEX
  5
3D6
  8
0
 10
1264.619857488861
 20
352.5622393428819
 30
0.0
  0
VERTEX
  5
3D7
  8
0
 10
1264.808285735168
 20
352.6305202250544
 30
0.0
  0
VERTEX
  5
3D8
  8
0
 10
1264.996393362398
 20
352.700283407498
 30
0.0
  0
VERTEX
  5
3D9
  8
0
 10
1265.184128864512
 20
352.7715555449948
 30
0.0
  0
VERTEX
  5
3DA
  8
0
 10
1265.371433057605
 20
352.8443676201181
 30
0.0
  0
VERTEX
  5
3DB
  8
0
 10
1265.558246757771
 20
352.9187506154413
 30
0.0
  0
VERTEX
  5
3DC
  8
0
 10
1265.744510781104
 20
352.9947355135379
 30
0.0
  0
VERTEX
  5
3DD
  8
0
 10
1265.930165943699
 20
353.0723532969809
 30
0.0
  0
VERTEX
  5
3DE
  8
0
 10
1266.115153061649
 20
353.1516349483438
 30
0.0
  0
VERTEX
  5
3DF
  8
0
 10
1266.299412951048
 20
353.2326114502001
 30
0.0
  0
VERTEX
  5
3E0
  8
0
 10
1266.482886427992
 20
353.315313785123
 30
0.0
  0
VERTEX
  5
3E1
  8
0
 10
1266.665514308573
 20
353.3997729356858
 30
0.0
  0
VERTEX
  5
3E2
  8
0
 10
1266.847237408887
 20
353.486019884462
 30
0.0
  0
VERTEX
  5
3E3
  8
0
 10
1267.027996545027
 20
353.574085614025
 30
0.0
  0
VERTEX
  5
3E4
  8
0
 10
1267.207732533087
 20
353.6640011069478
 30
0.0
  0
VERTEX
  5
3E5
  8
0
 10
1267.386386189163
 20
353.7557973458041
 30
0.0
  0
VERTEX
  5
3E6
  8
0
 10
1267.563898329347
 20
353.8495053131671
 30
0.0
  0
VERTEX
  5
3E7
  8
0
 10
1267.740209769734
 20
353.9451559916101
 30
0.0
  0
VERTEX
  5
3E8
  8
0
 10
1267.915261326418
 20
354.0427803637065
 30
0.0
  0
VERTEX
  5
3E9
  8
0
 10
1268.088993815494
 20
354.1424094120298
 30
0.0
  0
VERTEX
  5
3EA
  8
0
 10
1268.261348053055
 20
354.2440741191531
 30
0.0
  0
VERTEX
  5
3EB
  8
0
 10
1268.432264855196
 20
354.3478054676499
 30
0.0
  0
VERTEX
  5
3EC
  8
0
 10
1268.601685038011
 20
354.4536344400935
 30
0.0
  0
VERTEX
  5
3ED
  8
0
 10
1268.769549417594
 20
354.5615920190573
 30
0.0
  0
VERTEX
  5
3EE
  8
0
 10
1268.935798810039
 20
354.6717091871147
 30
0.0
  0
VERTEX
  5
3EF
  8
0
 10
1269.100374031441
 20
354.7840169268388
 30
0.0
  0
VERTEX
  5
3F0
  8
0
 10
1269.263215897893
 20
354.8985462208033
 30
0.0
  0
VERTEX
  5
3F1
  8
0
 10
1269.42426522549
 20
355.0153280515812
 30
0.0
  0
VERTEX
  5
3F2
  8
0
 10
1269.583462830326
 20
355.134393401746
 30
0.0
  0
VERTEX
  5
3F3
  8
0
 10
1269.740749528494
 20
355.255773253871
 30
0.0
  0
VERTEX
  5
3F4
  8
0
 10
1269.896066136091
 20
355.3794985905297
 30
0.0
  0
VERTEX
  5
3F5
  8
0
 10
1270.049353469208
 20
355.5056003942954
 30
0.0
  0
VERTEX
  5
3F6
  8
0
 10
1270.200552343942
 20
355.6341096477412
 30
0.0
  0
VERTEX
  5
3F7
  8
0
 10
1270.349603576385
 20
355.7650573334409
 30
0.0
  0
VERTEX
  5
3F8
  8
0
 10
1270.496449005823
 20
355.8984731240778
 30
0.0
  0
VERTEX
  5
3F9
  8
0
 10
1270.641059448773
 20
356.0343495956497
 30
0.0
  0
VERTEX
  5
3FA
  8
0
 10
1270.783438090848
 20
356.1726378852021
 30
0.0
  0
VERTEX
  5
3FB
  8
0
 10
1270.923589821832
 20
356.3132869481004
 30
0.0
  0
VERTEX
  5
3FC
  8
0
 10
1271.061519531507
 20
356.4562457397105
 30
0.0
  0
VERTEX
  5
3FD
  8
0
 10
1271.197232109656
 20
356.6014632153979
 30
0.0
  0
VERTEX
  5
3FE
  8
0
 10
1271.330732446063
 20
356.7488883305279
 30
0.0
  0
VERTEX
  5
3FF
  8
0
 10
1271.46202543051
 20
356.8984700404664
 30
0.0
  0
VERTEX
  5
400
  8
0
 10
1271.59111595278
 20
357.0501573005789
 30
0.0
  0
VERTEX
  5
401
  8
0
 10
1271.718008902655
 20
357.2038990662309
 30
0.0
  0
VERTEX
  5
402
  8
0
 10
1271.84270916992
 20
357.359644292788
 30
0.0
  0
VERTEX
  5
403
  8
0
 10
1271.965221644356
 20
357.5173419356158
 30
0.0
  0
VERTEX
  5
404
  8
0
 10
1272.085551215748
 20
357.6769409500799
 30
0.0
  0
VERTEX
  5
405
  8
0
 10
1272.203702773877
 20
357.838390291546
 30
0.0
  0
VERTEX
  5
406
  8
0
 10
1272.319681208526
 20
358.0016389153793
 30
0.0
  0
VERTEX
  5
407
  8
0
 10
1272.43349140948
 20
358.1666357769458
 30
0.0
  0
VERTEX
  5
408
  8
0
 10
1272.54513826652
 20
358.3333298316108
 30
0.0
  0
VERTEX
  5
409
  8
0
 10
1272.654626669429
 20
358.50167003474
 30
0.0
  0
VERTEX
  5
40A
  8
0
 10
1272.76196150799
 20
358.671605341699
 30
0.0
  0
VERTEX
  5
40B
  8
0
 10
1272.867147671987
 20
358.8430847078533
 30
0.0
  0
VERTEX
  5
40C
  8
0
 10
1272.970190051202
 20
359.0160570885685
 30
0.0
  0
VERTEX
  5
40D
  8
0
 10
1273.071093535418
 20
359.1904714392103
 30
0.0
  0
VERTEX
  5
40E
  8
0
 10
1273.169863014418
 20
359.3662767151441
 30
0.0
  0
VERTEX
  5
40F
  8
0
 10
1273.266503377985
 20
359.5434218717355
 30
0.0
  0
VERTEX
  5
410
  8
0
 10
1273.361019515903
 20
359.7218558643503
 30
0.0
  0
VERTEX
  5
411
  8
0
 10
1273.453416317953
 20
359.9015276483538
 30
0.0
  0
VERTEX
  5
412
  8
0
 10
1273.543698673918
 20
360.0823861791117
 30
0.0
  0
VERTEX
  5
413
  8
0
 10
1273.631871473583
 20
360.2643804119896
 30
0.0
  0
VERTEX
  5
414
  8
0
 10
1273.717939606729
 20
360.4474593023531
 30
0.0
  0
VERTEX
  5
415
  8
0
 10
1273.80190796314
 20
360.6315718055677
 30
0.0
  0
VERTEX
  5
416
  8
0
 10
1273.883781432598
 20
360.8166668769989
 30
0.0
  0
VERTEX
  5
417
  8
0
 10
1273.963564904886
 20
361.0026934720125
 30
0.0
  0
VERTEX
  5
418
  8
0
 10
1274.041263269788
 20
361.189600545974
 30
0.0
  0
VERTEX
  5
419
  8
0
 10
1274.116881417086
 20
361.3773370542489
 30
0.0
  0
VERTEX
  5
41A
  8
0
 10
1274.190424236564
 20
361.5658519522029
 30
0.0
  0
VERTEX
  5
41B
  8
0
 10
1274.26189633306
 20
361.7550946287168
 30
0.0
  0
VERTEX
  5
41C
  8
0
 10
1274.331294693903
 20
361.9450260620155
 30
0.0
  0
VERTEX
  5
41D
  8
0
 10
1274.398608046379
 20
362.1356197972222
 30
0.0
  0
VERTEX
  5
41E
  8
0
 10
1274.463824704057
 20
362.3268500088885
 30
0.0
  0
VERTEX
  5
41F
  8
0
 10
1274.526932980508
 20
362.518690871566
 30
0.0
  0
VERTEX
  5
420
  8
0
 10
1274.587921189303
 20
362.7111165598064
 30
0.0
  0
VERTEX
  5
421
  8
0
 10
1274.646777644013
 20
362.9041012481612
 30
0.0
  0
VERTEX
  5
422
  8
0
 10
1274.703490658209
 20
363.097619111182
 30
0.0
  0
VERTEX
  5
423
  8
0
 10
1274.758048545459
 20
363.2916443234204
 30
0.0
  0
VERTEX
  5
424
  8
0
 10
1274.810439619337
 20
363.4861510594281
 30
0.0
  0
VERTEX
  5
425
  8
0
 10
1274.860652193411
 20
363.6811134937565
 30
0.0
  0
VERTEX
  5
426
  8
0
 10
1274.908674581253
 20
363.8765058009573
 30
0.0
  0
VERTEX
  5
427
  8
0
 10
1274.954495096433
 20
364.072302155582
 30
0.0
  0
VERTEX
  5
428
  8
0
 10
1274.998102052522
 20
364.2684767321825
 30
0.0
  0
VERTEX
  5
429
  8
0
 10
1275.039483763091
 20
364.46500370531
 30
0.0
  0
VERTEX
  5
42A
  8
0
 10
1275.078628541709
 20
364.6618572495163
 30
0.0
  0
VERTEX
  5
42B
  8
0
 10
1275.115524701948
 20
364.859011539353
 30
0.0
  0
VERTEX
  5
42C
  8
0
 10
1275.150160557379
 20
365.0564407493717
 30
0.0
  0
VERTEX
  5
42D
  8
0
 10
1275.182524421571
 20
365.2541190541239
 30
0.0
  0
VERTEX
  5
42E
  8
0
 10
1275.212604608096
 20
365.4520206281613
 30
0.0
  0
VERTEX
  5
42F
  8
0
 10
1275.240389430524
 20
365.6501196460355
 30
0.0
  0
VERTEX
  5
430
  8
0
 10
1275.265867202425
 20
365.8483902822981
 30
0.0
  0
VERTEX
  5
431
  8
0
 10
1275.289026237371
 20
366.0468067115006
 30
0.0
  0
VERTEX
  5
432
  8
0
 10
1275.309854848932
 20
366.2453431081945
 30
0.0
  0
VERTEX
  5
433
  8
0
 10
1275.328341350679
 20
366.4439736469317
 30
0.0
  0
VERTEX
  5
434
  8
0
 10
1275.344474056182
 20
366.6426725022636
 30
0.0
  0
VERTEX
  5
435
  8
0
 10
1275.358241279012
 20
366.8414138487418
 30
0.0
  0
VERTEX
  5
436
  8
0
 10
1275.369631332738
 20
367.0401718609179
 30
0.0
  0
VERTEX
  5
437
  8
0
 10
1275.378632530934
 20
367.2389207133436
 30
0.0
  0
VERTEX
  5
438
  8
0
 10
1275.385233187167
 20
367.4376345805704
 30
0.0
  0
VERTEX
  5
439
  8
0
 10
1275.38942161501
 20
367.63628763715
 30
0.0
  0
VERTEX
  5
43A
  8
0
 10
1275.391186128033
 20
367.8348540576337
 30
0.0
  0
VERTEX
  5
43B
  8
0
 10
1275.390515039806
 20
368.0333080165735
 30
0.0
  0
VERTEX
  5
43C
  8
0
 10
1275.3873966639
 20
368.2316236885206
 30
0.0
  0
VERTEX
  5
43D
  8
0
 10
1275.381819313886
 20
368.429775248027
 30
0.0
  0
VERTEX
  5
43E
  8
0
 10
1275.373771303334
 20
368.6277368696439
 30
0.0
  0
VERTEX
  5
43F
  8
0
 10
1275.363243085397
 20
368.8254837469883
 30
0.0
  0
VERTEX
  5
440
  8
0
 10
1275.350248343936
 20
369.0230021382721
 30
0.0
  0
VERTEX
  5
441
  8
0
 10
1275.334815005853
 20
369.2202850855492
 30
0.0
  0
VERTEX
  5
442
  8
0
 10
1275.316971204115
 20
369.4173257290221
 30
0.0
  0
VERTEX
  5
443
  8
0
 10
1275.296745071692
 20
369.6141172088937
 30
0.0
  0
VERTEX
  5
444
  8
0
 10
1275.274164741555
 20
369.8106526653668
 30
0.0
  0
VERTEX
  5
445
  8
0
 10
1275.249258346671
 20
370.0069252386438
 30
0.0
  0
VERTEX
  5
446
  8
0
 10
1275.222054020011
 20
370.2029280689277
 30
0.0
  0
VERTEX
  5
447
  8
0
 10
1275.192579894543
 20
370.3986542964213
 30
0.0
  0
VERTEX
  5
448
  8
0
 10
1275.160864103238
 20
370.5940970613272
 30
0.0
  0
VERTEX
  5
449
  8
0
 10
1275.126934779064
 20
370.7892495038482
 30
0.0
  0
VERTEX
  5
44A
  8
0
 10
1275.090820054991
 20
370.984104764187
 30
0.0
  0
VERTEX
  5
44B
  8
0
 10
1275.052548063988
 20
371.1786559825464
 30
0.0
  0
VERTEX
  5
44C
  8
0
 10
1275.012146939024
 20
371.3728962991289
 30
0.0
  0
VERTEX
  5
44D
  8
0
 10
1274.969644813069
 20
371.5668188541375
 30
0.0
  0
VERTEX
  5
44E
  8
0
 10
1274.925069819093
 20
371.7604167877751
 30
0.0
  0
VERTEX
  5
44F
  8
0
 10
1274.878450090064
 20
371.9536832402442
 30
0.0
  0
VERTEX
  5
450
  8
0
 10
1274.829813758952
 20
372.1466113517473
 30
0.0
  0
VERTEX
  5
451
  8
0
 10
1274.779188958726
 20
372.3391942624876
 30
0.0
  0
VERTEX
  5
452
  8
0
 10
1274.726603822356
 20
372.5314251126676
 30
0.0
  0
VERTEX
  5
453
  8
0
 10
1274.67208648281
 20
372.7232970424902
 30
0.0
  0
VERTEX
  5
454
  8
0
 10
1274.615665073059
 20
372.9148031921579
 30
0.0
  0
VERTEX
  5
455
  8
0
 10
1274.557367726071
 20
373.1059367018736
 30
0.0
  0
VERTEX
  5
456
  8
0
 10
1274.497222574817
 20
373.29669071184
 30
0.0
  0
VERTEX
  5
457
  8
0
 10
1274.435257752265
 20
373.4870583622599
 30
0.0
  0
VERTEX
  5
458
  8
0
 10
1274.371501391384
 20
373.677032793336
 30
0.0
  0
VERTEX
  5
459
  8
0
 10
1274.305981625144
 20
373.8666071452709
 30
0.0
  0
VERTEX
  5
45A
  8
0
 10
1274.238726586515
 20
374.0557745582678
 30
0.0
  0
VERTEX
  5
45B
  8
0
 10
1274.169764408465
 20
374.2445281725288
 30
0.0
  0
VERTEX
  5
45C
  8
0
 10
1274.099123223964
 20
374.4328611282571
 30
0.0
  0
VERTEX
  5
45D
  8
0
 10
1274.026831165982
 20
374.6207665656552
 30
0.0
  0
VERTEX
  5
45E
  8
0
 10
1273.952916367487
 20
374.8082376249261
 30
0.0
  0
VERTEX
  5
45F
  8
0
 10
1273.877406961449
 20
374.9952674462724
 30
0.0
  0
VERTEX
  5
460
  8
0
 10
1273.800331080838
 20
375.1818491698966
 30
0.0
  0
VERTEX
  5
461
  8
0
 10
1273.721716858623
 20
375.3679759360019
 30
0.0
  0
VERTEX
  5
462
  8
0
 10
1273.641592427772
 20
375.5536408847906
 30
0.0
  0
VERTEX
  5
463
  8
0
 10
1273.559985921256
 20
375.7388371564658
 30
0.0
  0
VERTEX
  5
464
  8
0
 10
1273.476925472044
 20
375.9235578912298
 30
0.0
  0
VERTEX
  5
465
  8
0
 10
1273.392439213105
 20
376.107796229286
 30
0.0
  0
VERTEX
  5
466
  8
0
 10
1273.306555277408
 20
376.2915453108367
 30
0.0
  0
VERTEX
  5
467
  8
0
 10
1273.219301797924
 20
376.4747982760847
 30
0.0
  0
VERTEX
  5
468
  8
0
 10
1273.13070690762
 20
376.6575482652327
 30
0.0
  0
VERTEX
  5
469
  8
0
 10
1273.040798739467
 20
376.8397884184835
 30
0.0
  0
VERTEX
  5
46A
  8
0
 10
1272.949605426433
 20
377.0215118760397
 30
0.0
  0
VERTEX
  5
46B
  8
0
 10
1272.857155101489
 20
377.2027117781043
 30
0.0
  0
VERTEX
  5
46C
  8
0
 10
1272.763475897604
 20
377.3833812648799
 30
0.0
  0
VERTEX
  5
46D
  8
0
 10
1272.668595947746
 20
377.5635134765693
 30
0.0
  0
VERTEX
  5
46E
  8
0
 10
1272.572543384886
 20
377.7431015533752
 30
0.0
  0
VERTEX
  5
46F
  8
0
 10
1272.475346341992
 20
377.9221386355003
 30
0.0
  0
VERTEX
  5
470
  8
0
 10
1272.377032952034
 20
378.1006178631474
 30
0.0
  0
VERTEX
  5
471
  8
0
 10
1272.277631347982
 20
378.2785323765192
 30
0.0
  0
VERTEX
  5
472
  8
0
 10
1272.177169662803
 20
378.4558753158185
 30
0.0
  0
VERTEX
  5
473
  8
0
 10
1272.075676029469
 20
378.6326398212481
 30
0.0
  0
VERTEX
  5
474
  8
0
 10
1271.973178580949
 20
378.8088190330104
 30
0.0
  0
VERTEX
  5
475
  8
0
 10
1271.869705450211
 20
378.9844060913086
 30
0.0
  0
VERTEX
  5
476
  8
0
 10
1271.765284770225
 20
379.159394136345
 30
0.0
  0
VERTEX
  5
477
  8
0
 10
1271.65994467396
 20
379.3337763083227
 30
0.0
  0
VERTEX
  5
478
  8
0
 10
1271.553713294386
 20
379.5075457474444
 30
0.0
  0
VERTEX
  5
479
  8
0
 10
1271.446618764472
 20
379.6806955939127
 30
0.0
  0
VERTEX
  5
47A
  8
0
 10
1271.33868670271
 20
379.8532192495642
 30
0.0
  0
VERTEX
  5
47B
  8
0
 10
1271.229926413781
 20
380.0251118137039
 30
0.0
  0
VERTEX
  5
47C
  8
0
 10
1271.120340692885
 20
380.1963690629549
 30
0.0
  0
VERTEX
  5
47D
  8
0
 10
1271.009932318269
 20
380.3669867757041
 30
0.0
  0
VERTEX
  5
47E
  8
0
 10
1270.898704068178
 20
380.5369607303384
 30
0.0
  0
VERTEX
  5
47F
  8
0
 10
1270.786658720859
 20
380.7062867052447
 30
0.0
  0
VERTEX
  5
480
  8
0
 10
1270.673799054558
 20
380.8749604788104
 30
0.0
  0
VERTEX
  5
481
  8
0
 10
1270.560127847522
 20
381.0429778294223
 30
0.0
  0
VERTEX
  5
482
  8
0
 10
1270.445647877995
 20
381.2103345354674
 30
0.0
  0
VERTEX
  5
483
  8
0
 10
1270.330361924225
 20
381.3770263753328
 30
0.0
  0
VERTEX
  5
484
  8
0
 10
1270.214272764457
 20
381.5430491274056
 30
0.0
  0
VERTEX
  5
485
  8
0
 10
1270.097383176937
 20
381.7083985700726
 30
0.0
  0
VERTEX
  5
486
  8
0
 10
1269.979695939913
 20
381.8730704817209
 30
0.0
  0
VERTEX
  5
487
  8
0
 10
1269.861213831629
 20
382.0370606407375
 30
0.0
  0
VERTEX
  5
488
  8
0
 10
1269.741939630332
 20
382.2003648255096
 30
0.0
  0
VERTEX
  5
489
  8
0
 10
1269.621876114268
 20
382.362978814424
 30
0.0
  0
VERTEX
  5
48A
  8
0
 10
1269.501026061683
 20
382.5248983858679
 30
0.0
  0
VERTEX
  5
48B
  8
0
 10
1269.379392250823
 20
382.6861193182281
 30
0.0
  0
VERTEX
  5
48C
  8
0
 10
1269.256977459935
 20
382.846637389892
 30
0.0
  0
VERTEX
  5
48D
  8
0
 10
1269.133784467264
 20
383.0064483792461
 30
0.0
  0
VERTEX
  5
48E
  8
0
 10
1269.009816051057
 20
383.1655480646778
 30
0.0
  0
VERTEX
  5
48F
  8
0
 10
1268.88507498956
 20
383.3239322245739
 30
0.0
  0
VERTEX
  5
490
  8
0
 10
1268.759564061019
 20
383.4815966373216
 30
0.0
  0
VERTEX
  5
491
  8
0
 10
1268.633286043679
 20
383.6385370813077
 30
0.0
  0
VERTEX
  5
492
  8
0
 10
1268.506243715788
 20
383.7947493349195
 30
0.0
  0
VERTEX
  5
493
  8
0
 10
1268.378439855591
 20
383.9502291765439
 30
0.0
  0
VERTEX
  5
494
  8
0
 10
1268.249877241334
 20
384.1049723845679
 30
0.0
  0
VERTEX
  5
495
  8
0
 10
1268.120558651264
 20
384.2589747373785
 30
0.0
  0
VERTEX
  5
496
  8
0
 10
1267.990486863626
 20
384.4122320133627
 30
0.0
  0
VERTEX
  5
497
  8
0
 10
1267.859664656667
 20
384.5647399909076
 30
0.0
  0
VERTEX
  5
498
  8
0
 10
1267.728094808633
 20
384.7164944484002
 30
0.0
  0
VERTEX
  5
499
  8
0
 10
1267.59578009777
 20
384.8674911642275
 30
0.0
  0
VERTEX
  5
49A
  8
0
 10
1267.462723302324
 20
385.0177259167765
 30
0.0
  0
VERTEX
  5
49B
  8
0
 10
1267.328927200542
 20
385.1671944844343
 30
0.0
  0
VERTEX
  5
49C
  8
0
 10
1267.194394570668
 20
385.3158926455878
 30
0.0
  0
VERTEX
  5
49D
  8
0
 10
1267.05912819095
 20
385.463816178624
 30
0.0
  0
VERTEX
  5
49E
  8
0
 10
1266.923130839634
 20
385.61096086193
 30
0.0
  0
VERTEX
  5
49F
  8
0
 10
1266.786405294965
 20
385.757322473893
 30
0.0
  0
VERTEX
  5
4A0
  8
0
 10
1266.64895433519
 20
385.9028967928998
 30
0.0
  0
VERTEX
  5
4A1
  8
0
 10
1266.510780738555
 20
386.0476795973374
 30
0.0
  0
VERTEX
  5
4A2
  8
0
 10
1266.371887283306
 20
386.1916666655927
 30
0.0
  0
VERTEX
  5
4A3
  8
0
 10
1266.23227674769
 20
386.334853776053
 30
0.0
  0
VERTEX
  5
4A4
  8
0
 10
1266.091951909951
 20
386.4772367071055
 30
0.0
  0
VERTEX
  5
4A5
  8
0
 10
1265.950915548337
 20
386.6188112371366
 30
0.0
  0
VERTEX
  5
4A6
  8
0
 10
1265.809170441094
 20
386.7595731445338
 30
0.0
  0
VERTEX
  5
4A7
  8
0
 10
1265.666719366467
 20
386.8995182076838
 30
0.0
  0
VERTEX
  5
4A8
  8
0
 10
1265.523565102703
 20
387.0386422049739
 30
0.0
  0
VERTEX
  5
4A9
  8
0
 10
1265.379710428048
 20
387.1769409147911
 30
0.0
  0
VERTEX
  5
4AA
  8
0
 10
1265.235158120749
 20
387.3144101155223
 30
0.0
  0
VERTEX
  5
4AB
  8
0
 10
1265.08991095905
 20
387.4510455855545
 30
0.0
  0
VERTEX
  5
4AC
  8
0
 10
1264.943971721198
 20
387.5868431032749
 30
0.0
  0
VERTEX
  5
4AD
  8
0
 10
1264.79734318544
 20
387.7217984470702
 30
0.0
  0
VERTEX
  5
4AE
  8
0
 10
1264.650028130022
 20
387.8559073953278
 30
0.0
  0
VERTEX
  5
4AF
  8
0
 10
1264.502029333189
 20
387.9891657264345
 30
0.0
  0
VERTEX
  5
4B0
  8
0
 10
1264.353349573188
 20
388.1215692187772
 30
0.0
  0
VERTEX
  5
4B1
  8
0
 10
1264.203991628264
 20
388.2531136507431
 30
0.0
  0
VERTEX
  5
4B2
  8
0
 10
1264.053958276665
 20
388.3837948007192
 30
0.0
  0
VERTEX
  5
4B3
  8
0
 10
1263.903252296636
 20
388.5136084470926
 30
0.0
  0
VERTEX
  5
4B4
  8
0
 10
1263.751876466423
 20
388.6425503682502
 30
0.0
  0
VERTEX
  5
4B5
  8
0
 10
1263.599833564273
 20
388.770616342579
 30
0.0
  0
VERTEX
  5
4B6
  8
0
 10
1263.447126368431
 20
388.8978021484661
 30
0.0
  0
VERTEX
  5
4B7
  8
0
 10
1263.293757657143
 20
389.0241035642986
 30
0.0
  0
VERTEX
  5
4B8
  8
0
 10
1263.139730208656
 20
389.1495163684631
 30
0.0
  0
VERTEX
  5
4B9
  8
0
 10
1262.985046801217
 20
389.2740363393471
 30
0.0
  0
VERTEX
  5
4BA
  8
0
 10
1262.82971021307
 20
389.3976592553375
 30
0.0
  0
VERTEX
  5
4BB
  8
0
 10
1262.673723222462
 20
389.5203808948213
 30
0.0
  0
VERTEX
  5
4BC
  8
0
 10
1262.51708860764
 20
389.6421970361854
 30
0.0
  0
VERTEX
  5
4BD
  8
0
 10
1262.359809146849
 20
389.763103457817
 30
0.0
  0
VERTEX
  5
4BE
  8
0
 10
1262.201887618335
 20
389.8830959381028
 30
0.0
  0
VERTEX
  5
4BF
  8
0
 10
1262.043326800345
 20
390.0021702554303
 30
0.0
  0
VERTEX
  5
4C0
  8
0
 10
1261.884129471125
 20
390.120322188186
 30
0.0
  0
VERTEX
  5
4C1
  8
0
 10
1261.72429840892
 20
390.2375475147574
 30
0.0
  0
VERTEX
  5
4C2
  8
0
 10
1261.563836391977
 20
390.3538420135313
 30
0.0
  0
VERTEX
  5
4C3
  8
0
 10
1261.402746198543
 20
390.4692014628947
 30
0.0
  0
VERTEX
  5
4C4
  8
0
 10
1261.241030606863
 20
390.5836216412346
 30
0.0
  0
VERTEX
  5
4C5
  8
0
 10
1261.078692395183
 20
390.697098326938
 30
0.0
  0
VERTEX
  5
4C6
  8
0
 10
1260.91573434175
 20
390.8096272983921
 30
0.0
  0
VERTEX
  5
4C7
  8
0
 10
1260.752159224809
 20
390.9212043339837
 30
0.0
  0
VERTEX
  5
4C8
  8
0
 10
1260.587969847931
 20
391.0318252832516
 30
0.0
  0
VERTEX
  5
4C9
  8
0
 10
1260.423171326094
 20
391.1414924899396
 30
0.0
  0
VERTEX
  5
4CA
  8
0
 10
1260.257772906572
 20
391.2502199080094
 30
0.0
  0
VERTEX
  5
4CB
  8
0
 10
1260.091784265132
 20
391.358022695342
 30
0.0
  0
VERTEX
  5
4CC
  8
0
 10
1259.925215077545
 20
391.4649160098182
 30
0.0
  0
VERTEX
  5
4CD
  8
0
 10
1259.758075019578
 20
391.5709150093191
 30
0.0
  0
VERTEX
  5
4CE
  8
0
 10
1259.590373767001
 20
391.6760348517255
 30
0.0
  0
VERTEX
  5
4CF
  8
0
 10
1259.422120995584
 20
391.7802906949185
 30
0.0
  0
VERTEX
  5
4D0
  8
0
 10
1259.253326381096
 20
391.8836976967788
 30
0.0
  0
VERTEX
  5
4D1
  8
0
 10
1259.083999599305
 20
391.9862710151876
 30
0.0
  0
VERTEX
  5
4D2
  8
0
 10
1258.743788236892
 20
392.1889772331738
 30
0.0
  0
VERTEX
  5
4D3
  8
0
 10
1258.4015643145
 20
392.388530611925
 30
0.0
  0
VERTEX
  5
4D4
  8
0
 10
1258.05740523828
 20
392.5850524144882
 30
0.0
  0
VERTEX
  5
4D5
  8
0
 10
1257.711388414387
 20
392.7786639039115
 30
0.0
  0
VERTEX
  5
4D6
  8
0
 10
1257.363591248974
 20
392.969486343242
 30
0.0
  0
VERTEX
  5
4D7
  8
0
 10
1257.014091148192
 20
393.1576409955272
 30
0.0
  0
VERTEX
  5
4D8
  8
0
 10
1256.662965518197
 20
393.3432491238148
 30
0.0
  0
VERTEX
  5
4D9
  8
0
 10
1256.310291765139
 20
393.5264319911521
 30
0.0
  0
VERTEX
  5
4DA
  8
0
 10
1255.956147295173
 20
393.7073108605866
 30
0.0
  0
VERTEX
  5
4DB
  8
0
 10
1255.600609514452
 20
393.8860069951661
 30
0.0
  0
VERTEX
  5
4DC
  8
0
 10
1255.243755829129
 20
394.0626416579381
 30
0.0
  0
VERTEX
  5
4DD
  8
0
 10
1254.885663645356
 20
394.2373361119496
 30
0.0
  0
VERTEX
  5
4DE
  8
0
 10
1254.526410369288
 20
394.4102116202487
 30
0.0
  0
VERTEX
  5
4DF
  8
0
 10
1254.166073407076
 20
394.5813894458826
 30
0.0
  0
VERTEX
  5
4E0
  8
0
 10
1253.804730164874
 20
394.7509908518988
 30
0.0
  0
VERTEX
  5
4E1
  8
0
 10
1253.442458048836
 20
394.919137101345
 30
0.0
  0
VERTEX
  5
4E2
  8
0
 10
1253.079334465114
 20
395.0859494572687
 30
0.0
  0
VERTEX
  5
4E3
  8
0
 10
1252.715436819861
 20
395.2515491827173
 30
0.0
  0
VERTEX
  5
4E4
  8
0
 10
1252.35084251923
 20
395.4160575407381
 30
0.0
  0
VERTEX
  5
4E5
  8
0
 10
1251.985628969375
 20
395.5795957943789
 30
0.0
  0
VERTEX
  5
4E6
  8
0
 10
1251.619873576448
 20
395.7422852066871
 30
0.0
  0
VERTEX
  5
4E7
  8
0
 10
1250.887046885992
 20
396.0656025594959
 30
0.0
  0
VERTEX
  5
4E8
  8
0
 10
1250.152981697088
 20
396.3869797035447
 30
0.0
  0
VERTEX
  5
4E9
  8
0
 10
1249.418297258957
 20
396.7073867432132
 30
0.0
  0
VERTEX
  5
4EA
  8
0
 10
1242.014445749849
 20
410.5816119416809
 30
0.0
  0
VERTEX
  5
4EB
  8
0
 10
1266.937445710644
 20
410.9769296849032
 30
0.0
  0
VERTEX
  5
4EC
  8
0
 10
1304.806426830748
 20
345.317454552368
 30
0.0
  0
VERTEX
  5
4ED
  8
0
 10
1312.364395848535
 20
345.4174965893802
 30
0.0
 42
0.5317495947807401
  0
VERTEX
  5
4EE
  8
0
 10
1193.587531863518
 20
418.1646168462216
 30
0.0
  0
SEQEND
  5
13C6
  8
0
  0
POLYLINE
  5
99
  8
0
 66
     1
 10
0.0
 20
0.0
 30
0.0
 70
     1
  0
VERTEX
  5
4EF
  8
0
 10
1282.119169242437
 20
257.3638013890309
 30
0.0
  0
VERTEX
  5
4F0
  8
0
 10
1277.825235835774
 20
264.113774418543
 30
0.0
 42
0.5539112537265676
  0
VERTEX
  5
4F1
  8
0
 10
1276.662162985283
 20
420.0909074467734
 30
0.0
  0
VERTEX
  5
4F2
  8
0
 10
1280.854959622334
 20
426.9041633762348
 30
0.0
 42
-0.5539112537265667
  0
SEQEND
  5
13C7
  8
0
  0
POLYLINE
  5
9A
  8
0
 66
     1
 10
0.0
 20
0.0
 30
0.0
 70
     1
  0
VERTEX
  5
4F3
  8
0
 10
1128.52155610778
 20
345.6506285095884
 30
0.0
 42
-0.5406413868163852
  0
VERTEX
  5
4F4
  8
0
 10
1272.018451402494
 20
431.7459888182468
 30
0.0
  0
VERTEX
  5
4F5
  8
0
 10
1268.53257542303
 20
424.5453868534246
 30
0.0
 42
0.5406413868163849
  0
VERTEX
  5
4F6
  8
0
 10
1136.515431751894
 20
345.3376553694584
 30
0.0
  0
SEQEND
  5
13C8
  8
0
  0
POLYLINE
  5
9B
  8
0
 66
     1
 10
0.0
 20
0.0
 30
0.0
 70
     1
  0
VERTEX
  5
4F7
  8
0
 10
1128.635111489274
 20
335.5752001660675
 30
0.0
 42
0.5381798419671867
  0
VERTEX
  5
4F8
  8
0
 10
1273.355847577309
 20
252.3907395028293
 30
0.0
  0
VERTEX
  5
4F9
  8
0
 10
1269.76297990386
 20
259.5385574832405
 30
0.0
 42
-0.5381798419671872
  0
VERTEX
  5
4FA
  8
0
 10
1136.619902702868
 20
336.0682612934152
 30
0.0
  0
SEQEND
  5
13C9
  8
0
  0
POLYLINE
  5
9C
  8
0
 66
     1
 10
0.0
 20
0.0
 30
0.0
 70
     1
  0
VERTEX
  5
4FB
  8
0
 10
1191.541657190914
 20
266.2789176978769
 30
0.0
 42
0.5302733532162035
  0
VERTEX
  5
4FC
  8
0
 10
1312.206615075283
 20
335.4145321002625
 30
0.0
  0
VERTEX
  5
4FD
  8
0
 10
1304.155897645387
 20
335.3079677349884
 30
0.0
  0
VERTEX
  5
4FE
  8
0
 10
1295.057486749233
 20
320.1126086935215
 30
0.0
  0
VERTEX
  5
4FF
  8
0
 10
1274.201304745473
 20
320.1149527597866
 30
0.0
  0
VERTEX
  5
500
  8
0
 10
1274.210570551403
 20
320.3605005065908
 30
0.0
  0
VERTEX
  5
501
  8
0
 10
1274.219323221957
 20
320.6058428568687
 30
0.0
  0
VERTEX
  5
502
  8
0
 10
1274.22704962176
 20
320.8507744140937
 30
0.0
  0
VERTEX
  5
503
  8
0
 10
1274.230367615324
 20
320.9730219588968
 30
0.0
  0
VERTEX
  5
504
  8
0
 10
1274.233236615434
 20
321.0950897817393
 30
0.0
  0
VERTEX
  5
505
  8
0
 10
1274.235592480169
 20
321.2169522080553
 30
0.0
  0
VERTEX
  5
506
  8
0
 10
1274.237371067606
 20
321.338583563279
 30
0.0
  0
VERTEX
  5
507
  8
0
 10
1274.238508235824
 20
321.4599581728447
 30
0.0
  0
VERTEX
  5
508
  8
0
 10
1274.2389398429
 20
321.5810503621865
 30
0.0
  0
VERTEX
  5
509
  8
0
 10
1274.238601746911
 20
321.7018344567385
 30
0.0
  0
VERTEX
  5
50A
  8
0
 10
1274.237429805938
 20
321.822284781935
 30
0.0
  0
VERTEX
  5
50B
  8
0
 10
1274.235359878056
 20
321.9423756632103
 30
0.0
  0
VERTEX
  5
50C
  8
0
 10
1274.232327821345
 20
322.0620814259983
 30
0.0
  0
VERTEX
  5
50D
  8
0
 10
1274.228269493883
 20
322.1813763957337
 30
0.0
  0
VERTEX
  5
50E
  8
0
 10
1274.223120753747
 20
322.30023489785
 30
0.0
  0
VERTEX
  5
50F
  8
0
 10
1274.216817459015
 20
322.418631257782
 30
0.0
  0
VERTEX
  5
510
  8
0
 10
1274.209295467766
 20
322.5365398009635
 30
0.0
  0
VERTEX
  5
511
  8
0
 10
1274.200490638078
 20
322.6539348528289
 30
0.0
  0
VERTEX
  5
512
  8
0
 10
1274.190338828028
 20
322.7707907388123
 30
0.0
  0
VERTEX
  5
513
  8
0
 10
1274.178775895695
 20
322.887081784348
 30
0.0
  0
VERTEX
  5
514
  8
0
 10
1274.165737699156
 20
323.0027823148699
 30
0.0
  0
VERTEX
  5
515
  8
0
 10
1274.15116009649
 20
323.1178666558126
 30
0.0
  0
VERTEX
  5
516
  8
0
 10
1274.134978945775
 20
323.2323091326101
 30
0.0
  0
VERTEX
  5
517
  8
0
 10
1274.117130105088
 20
323.3460840706965
 30
0.0
  0
VERTEX
  5
518
  8
0
 10
1274.097549432508
 20
323.4591657955061
 30
0.0
  0
VERTEX
  5
519
  8
0
 10
1274.087089614908
 20
323.5154386796302
 30
0.0
  0
VERTEX
  5
51A
  8
0
 10
1274.076172786113
 20
323.5715286324731
 30
0.0
  0
VERTEX
  5
51B
  8
0
 10
1274.064790928385
 20
323.6274324447138
 30
0.0
  0
VERTEX
  5
51C
  8
0
 10
1274.052936023981
 20
323.6831469070315
 30
0.0
  0
VERTEX
  5
51D
  8
0
 10
1274.040600055163
 20
323.7386688101059
 30
0.0
  0
VERTEX
  5
51E
  8
0
 10
1274.02777500419
 20
323.7939949446159
 30
0.0
  0
VERTEX
  5
51F
  8
0
 10
1274.014452853321
 20
323.8491221012409
 30
0.0
  0
VERTEX
  5
520
  8
0
 10
1274.000625584817
 20
323.9040470706601
 30
0.0
  0
VERTEX
  5
521
  8
0
 10
1273.986285180937
 20
323.958766643553
 30
0.0
  0
VERTEX
  5
522
  8
0
 10
1273.971423623941
 20
324.0132776105985
 30
0.0
  0
VERTEX
  5
523
  8
0
 10
1273.956032896089
 20
324.0675767624762
 30
0.0
  0
VERTEX
  5
524
  8
0
 10
1273.94010497964
 20
324.1216608898652
 30
0.0
  0
VERTEX
  5
525
  8
0
 10
1273.923631856854
 20
324.1755267834449
 30
0.0
  0
VERTEX
  5
526
  8
0
 10
1273.906605509992
 20
324.2291712338945
 30
0.0
  0
VERTEX
  5
527
  8
0
 10
1273.889017921312
 20
324.2825910318933
 30
0.0
  0
VERTEX
  5
528
  8
0
 10
1273.870861073075
 20
324.3357829681204
 30
0.0
  0
VERTEX
  5
529
  8
0
 10
1273.85212694754
 20
324.3887438332554
 30
0.0
  0
VERTEX
  5
52A
  8
0
 10
1273.832807526967
 20
324.4414704179773
 30
0.0
  0
VERTEX
  5
52B
  8
0
 10
1273.812894795784
 20
324.4939595135323
 30
0.0
  0
VERTEX
  5
52C
  8
0
 10
1273.792383608133
 20
324.5462086612515
 30
0.0
  0
VERTEX
  5
52D
  8
0
 10
1273.771277342516
 20
324.5982176305615
 30
0.0
  0
VERTEX
  5
52E
  8
0
 10
1273.749580952956
 20
324.6499866026986
 30
0.0
  0
VERTEX
  5
52F
  8
0
 10
1273.727299393479
 20
324.7015157588993
 30
0.0
  0
VERTEX
  5
530
  8
0
 10
1273.704437618109
 20
324.7528052804001
 30
0.0
  0
VERTEX
  5
531
  8
0
 10
1273.68100058087
 20
324.8038553484374
 30
0.0
  0
VERTEX
  5
532
  8
0
 10
1273.656993235788
 20
324.8546661442474
 30
0.0
  0
VERTEX
  5
533
  8
0
 10
1273.632420536886
 20
324.9052378490667
 30
0.0
  0
VERTEX
  5
534
  8
0
 10
1273.60728743819
 20
324.9555706441316
 30
0.0
  0
VERTEX
  5
535
  8
0
 10
1273.581598893723
 20
325.0056647106787
 30
0.0
  0
VERTEX
  5
536
  8
0
 10
1273.555359857511
 20
325.0555202299442
 30
0.0
  0
VERTEX
  5
537
  8
0
 10
1273.528575283577
 20
325.1051373831645
 30
0.0
  0
VERTEX
  5
538
  8
0
 10
1273.501250125946
 20
325.154516351576
 30
0.0
  0
VERTEX
  5
539
  8
0
 10
1273.473389338644
 20
325.2036573164154
 30
0.0
  0
VERTEX
  5
53A
  8
0
 10
1273.444997875693
 20
325.2525604589187
 30
0.0
  0
VERTEX
  5
53B
  8
0
 10
1273.416080691119
 20
325.3012259603227
 30
0.0
  0
VERTEX
  5
53C
  8
0
 10
1273.386642738947
 20
325.3496540018635
 30
0.0
  0
VERTEX
  5
53D
  8
0
 10
1273.356688973201
 20
325.3978447647776
 30
0.0
  0
VERTEX
  5
53E
  8
0
 10
1273.326224347905
 20
325.4457984303015
 30
0.0
  0
VERTEX
  5
53F
  8
0
 10
1273.295253817084
 20
325.4935151796714
 30
0.0
  0
VERTEX
  5
540
  8
0
 10
1273.263782334762
 20
325.540995194124
 30
0.0
  0
VERTEX
  5
541
  8
0
 10
1273.231814854964
 20
325.5882386548954
 30
0.0
  0
VERTEX
  5
542
  8
0
 10
1273.199356331715
 20
325.6352457432222
 30
0.0
  0
VERTEX
  5
543
  8
0
 10
1273.166411719038
 20
325.6820166403408
 30
0.0
  0
VERTEX
  5
544
  8
0
 10
1273.13298597096
 20
325.7285515274876
 30
0.0
  0
VERTEX
  5
545
  8
0
 10
1273.099084041503
 20
325.7748505858988
 30
0.0
  0
VERTEX
  5
546
  8
0
 10
1273.064710884693
 20
325.8209139968112
 30
0.0
  0
VERTEX
  5
547
  8
0
 10
1273.029871454554
 20
325.8667419414609
 30
0.0
  0
VERTEX
  5
548
  8
0
 10
1272.99457070511
 20
325.9123346010844
 30
0.0
  0
VERTEX
  5
549
  8
0
 10
1272.958813590387
 20
325.9576921569181
 30
0.0
  0
VERTEX
  5
54A
  8
0
 10
1272.922605064408
 20
326.0028147901984
 30
0.0
  0
VERTEX
  5
54B
  8
0
 10
1272.885950081199
 20
326.0477026821617
 30
0.0
  0
VERTEX
  5
54C
  8
0
 10
1272.848853594783
 20
326.0923560140445
 30
0.0
  0
VERTEX
  5
54D
  8
0
 10
1272.811320559185
 20
326.136774967083
 30
0.0
  0
VERTEX
  5
54E
  8
0
 10
1272.77335592843
 20
326.1809597225139
 30
0.0
  0
VERTEX
  5
54F
  8
0
 10
1272.696151697546
 20
326.2686273654979
 30
0.0
  0
VERTEX
  5
550
  8
0
 10
1272.617280534328
 20
326.3553603928878
 30
0.0
  0
VERTEX
  5
551
  8
0
 10
1272.53678207097
 20
326.4411602545747
 30
0.0
  0
VERTEX
  5
552
  8
0
 10
1272.454695939671
 20
326.5260284004501
 30
0.0
  0
VERTEX
  5
553
  8
0
 10
1272.371061772625
 20
326.609966280405
 30
0.0
  0
VERTEX
  5
554
  8
0
 10
1272.285919202029
 20
326.692975344331
 30
0.0
  0
VERTEX
  5
555
  8
0
 10
1272.199307860078
 20
326.7750570421189
 30
0.0
  0
VERTEX
  5
556
  8
0
 10
1272.11126737897
 20
326.8562128236604
 30
0.0
  0
VERTEX
  5
557
  8
0
 10
1272.021837390901
 20
326.9364441388465
 30
0.0
  0
VERTEX
  5
558
  8
0
 10
1271.931057528066
 20
327.0157524375684
 30
0.0
  0
VERTEX
  5
559
  8
0
 10
1271.838967422661
 20
327.0941391697177
 30
0.0
  0
VERTEX
  5
55A
  8
0
 10
1271.745606706884
 20
327.1716057851852
 30
0.0
  0
VERTEX
  5
55B
  8
0
 10
1271.651015012929
 20
327.2481537338626
 30
0.0
  0
VERTEX
  5
55C
  8
0
 10
1271.555231972994
 20
327.3237844656409
 30
0.0
  0
VERTEX
  5
55D
  8
0
 10
1271.458297219274
 20
327.3984994304113
 30
0.0
  0
VERTEX
  5
55E
  8
0
 10
1271.360250383965
 20
327.4723000780653
 30
0.0
  0
VERTEX
  5
55F
  8
0
 10
1271.261131099265
 20
327.545187858494
 30
0.0
  0
VERTEX
  5
560
  8
0
 10
1271.160978997368
 20
327.6171642215888
 30
0.0
  0
VERTEX
  5
561
  8
0
 10
1271.05983371047
 20
327.6882306172407
 30
0.0
  0
VERTEX
  5
562
  8
0
 10
1270.95773487077
 20
327.7583884953411
 30
0.0
  0
VERTEX
  5
563
  8
0
 10
1270.854722110462
 20
327.8276393057813
 30
0.0
  0
VERTEX
  5
564
  8
0
 10
1270.750835061742
 20
327.8959844984525
 30
0.0
  0
VERTEX
  5
565
  8
0
 10
1270.646113356807
 20
327.9634255232461
 30
0.0
  0
VERTEX
  5
566
  8
0
 10
1270.540596627853
 20
328.0299638300532
 30
0.0
  0
VERTEX
  5
567
  8
0
 10
1270.434324507076
 20
328.0956008687651
 30
0.0
  0
VERTEX
  5
568
  8
0
 10
1270.327336626672
 20
328.160338089273
 30
0.0
  0
VERTEX
  5
569
  8
0
 10
1270.219672618838
 20
328.2241769414683
 30
0.0
  0
VERTEX
  5
56A
  8
0
 10
1270.111372115769
 20
328.2871188752421
 30
0.0
  0
VERTEX
  5
56B
  8
0
 10
1270.002474749662
 20
328.3491653404858
 30
0.0
  0
VERTEX
  5
56C
  8
0
 10
1269.893020152712
 20
328.4103177870905
 30
0.0
  0
VERTEX
  5
56D
  8
0
 10
1269.783047957117
 20
328.4705776649477
 30
0.0
  0
VERTEX
  5
56E
  8
0
 10
1269.672597795073
 20
328.5299464239484
 30
0.0
  0
VERTEX
  5
56F
  8
0
 10
1269.561709298774
 20
328.588425513984
 30
0.0
  0
VERTEX
  5
570
  8
0
 10
1269.450422100419
 20
328.6460163849458
 30
0.0
  0
VERTEX
  5
571
  8
0
 10
1269.338775832201
 20
328.702720486725
 30
0.0
  0
VERTEX
  5
572
  8
0
 10
1269.226810126319
 20
328.7585392692127
 30
0.0
  0
VERTEX
  5
573
  8
0
 10
1269.114564614968
 20
328.8134741823005
 30
0.0
  0
VERTEX
  5
574
  8
0
 10
1269.002078930344
 20
328.8675266758792
 30
0.0
  0
VERTEX
  5
575
  8
0
 10
1268.889392704644
 20
328.9206981998406
 30
0.0
  0
VERTEX
  5
576
  8
0
 10
1268.776545570063
 20
328.9729902040755
 30
0.0
  0
VERTEX
  5
577
  8
0
 10
1268.663577158798
 20
329.0244041384755
 30
0.0
  0
VERTEX
  5
578
  8
0
 10
1268.550527103046
 20
329.0749414529316
 30
0.0
  0
VERTEX
  5
579
  8
0
 10
1268.437435035001
 20
329.1246035973351
 30
0.0
  0
VERTEX
  5
57A
  8
0
 10
1268.32434058686
 20
329.1733920215774
 30
0.0
  0
VERTEX
  5
57B
  8
0
 10
1268.21128339082
 20
329.2213081755496
 30
0.0
  0
VERTEX
  5
57C
  8
0
 10
1268.098303079076
 20
329.2683535091431
 30
0.0
  0
VERTEX
  5
57D
  8
0
 10
1267.985439027567
 20
329.314529577262
 30
0.0
  0
VERTEX
  5
57E
  8
0
 10
1267.872713538207
 20
329.3598449316128
 30
0.0
  0
VERTEX
  5
57F
  8
0
 10
1267.760121422392
 20
329.4043193893049
 30
0.0
  0
VERTEX
  5
580
  8
0
 10
1267.64765500265
 20
329.4479737873668
 30
0.0
  0
VERTEX
  5
581
  8
0
 10
1267.535306601509
 20
329.4908289628266
 30
0.0
  0
VERTEX
  5
582
  8
0
 10
1267.423068541495
 20
329.5329057527129
 30
0.0
  0
VERTEX
  5
583
  8
0
 10
1267.310933145137
 20
329.574224994054
 30
0.0
  0
VERTEX
  5
584
  8
0
 10
1267.198892734961
 20
329.6148075238783
 30
0.0
  0
VERTEX
  5
585
  8
0
 10
1267.086939633497
 20
329.6546741792143
 30
0.0
  0
VERTEX
  5
586
  8
0
 10
1266.97506616327
 20
329.6938457970901
 30
0.0
  0
VERTEX
  5
587
  8
0
 10
1266.863264646809
 20
329.7323432145344
 30
0.0
  0
VERTEX
  5
588
  8
0
 10
1266.751527406641
 20
329.7701872685753
 30
0.0
  0
VERTEX
  5
589
  8
0
 10
1266.639846765294
 20
329.8073987962414
 30
0.0
  0
VERTEX
  5
58A
  8
0
 10
1266.528215045295
 20
329.8439986345609
 30
0.0
  0
VERTEX
  5
58B
  8
0
 10
1266.416624569172
 20
329.8800076205623
 30
0.0
  0
VERTEX
  5
58C
  8
0
 10
1266.305067659453
 20
329.915446591274
 30
0.0
  0
VERTEX
  5
58D
  8
0
 10
1266.193536638664
 20
329.9503363837241
 30
0.0
  0
VERTEX
  5
58E
  8
0
 10
1266.082023829334
 20
329.9846978349414
 30
0.0
  0
VERTEX
  5
58F
  8
0
 10
1265.97052155399
 20
330.018551781954
 30
0.0
  0
VERTEX
  5
590
  8
0
 10
1265.74751789537
 20
330.0848205114789
 30
0.0
  0
VERTEX
  5
591
  8
0
 10
1265.524464243025
 20
330.1493092685259
 30
0.0
  0
VERTEX
  5
592
  8
0
 10
1265.301299177174
 20
330.2121847493218
 30
0.0
  0
VERTEX
  5
593
  8
0
 10
1265.077961278039
 20
330.2736136500939
 30
0.0
  0
VERTEX
  5
594
  8
0
 10
1264.85438912584
 20
330.3337626670692
 30
0.0
  0
VERTEX
  5
595
  8
0
 10
1264.630521300797
 20
330.3927984964745
 30
0.0
  0
VERTEX
  5
596
  8
0
 10
1264.406296383131
 20
330.4508878345372
 30
0.0
  0
VERTEX
  5
597
  8
0
 10
1264.181652953062
 20
330.5081973774841
 30
0.0
  0
VERTEX
  5
598
  8
0
 10
1263.956530296905
 20
330.5648915542408
 30
0.0
  0
VERTEX
  5
599
  8
0
 10
1263.73089661159
 20
330.6210419604507
 30
0.0
  0
VERTEX
  5
59A
  8
0
 10
1263.504758517849
 20
330.6765968112138
 30
0.0
  0
VERTEX
  5
59B
  8
0
 10
1263.278125293538
 20
330.7314957894764
 30
0.0
  0
VERTEX
  5
59C
  8
0
 10
1263.051006216516
 20
330.7856785781848
 30
0.0
  0
VERTEX
  5
59D
  8
0
 10
1262.82341056464
 20
330.839084860285
 30
0.0
  0
VERTEX
  5
59E
  8
0
 10
1262.595347615767
 20
330.8916543187234
 30
0.0
  0
VERTEX
  5
59F
  8
0
 10
1262.366826647756
 20
330.9433266364462
 30
0.0
  0
VERTEX
  5
5A0
  8
0
 10
1262.137856938463
 20
330.9940414963996
 30
0.0
  0
VERTEX
  5
5A1
  8
0
 10
1261.908447765746
 20
331.0437385815299
 30
0.0
  0
VERTEX
  5
5A2
  8
0
 10
1261.678608407463
 20
331.0923575747833
 30
0.0
  0
VERTEX
  5
5A3
  8
0
 10
1261.448348141472
 20
331.1398381591059
 30
0.0
  0
VERTEX
  5
5A4
  8
0
 10
1261.21767624563
 20
331.186120017444
 30
0.0
  0
VERTEX
  5
5A5
  8
0
 10
1260.986601997795
 20
331.2311428327439
 30
0.0
  0
VERTEX
  5
5A6
  8
0
 10
1260.755134675823
 20
331.2748462879518
 30
0.0
  0
VERTEX
  5
5A7
  8
0
 10
1260.523283557574
 20
331.3171700660138
 30
0.0
  0
VERTEX
  5
5A8
  8
0
 10
1260.291057920904
 20
331.3580538498762
 30
0.0
  0
VERTEX
  5
5A9
  8
0
 10
1260.058467043671
 20
331.3974373224854
 30
0.0
  0
VERTEX
  5
5AA
  8
0
 10
1259.825520203732
 20
331.4352601667873
 30
0.0
  0
VERTEX
  5
5AB
  8
0
 10
1259.592229146157
 20
331.4714646502673
 30
0.0
  0
VERTEX
  5
5AC
  8
0
 10
1259.358616250963
 20
331.5060041810944
 30
0.0
  0
VERTEX
  5
5AD
  8
0
 10
1259.12470676306
 20
331.5388351685737
 30
0.0
  0
VERTEX
  5
5AE
  8
0
 10
1258.890525927405
 20
331.5699140220536
 30
0.0
  0
VERTEX
  5
5AF
  8
0
 10
1258.656098988951
 20
331.5991971508824
 30
0.0
  0
VERTEX
  5
5B0
  8
0
 10
1258.421451192652
 20
331.6266409644086
 30
0.0
  0
VERTEX
  5
5B1
  8
0
 10
1258.186607783462
 20
331.6522018719804
 30
0.0
  0
VERTEX
  5
5B2
  8
0
 10
1258.069120613082
 20
331.6642626139549
 30
0.0
  0
VERTEX
  5
5B3
  8
0
 10
1257.951594006337
 20
331.6758362829462
 30
0.0
  0
VERTEX
  5
5B4
  8
0
 10
1257.834031118846
 20
331.6869174301232
 30
0.0
  0
VERTEX
  5
5B5
  8
0
 10
1257.716435106229
 20
331.6975006066545
 30
0.0
  0
VERTEX
  5
5B6
  8
0
 10
1257.598809124105
 20
331.7075803637083
 30
0.0
  0
VERTEX
  5
5B7
  8
0
 10
1257.481156328093
 20
331.7171512524533
 30
0.0
  0
VERTEX
  5
5B8
  8
0
 10
1257.363479873813
 20
331.7262078240582
 30
0.0
  0
VERTEX
  5
5B9
  8
0
 10
1257.245782916885
 20
331.7347446296913
 30
0.0
  0
VERTEX
  5
5BA
  8
0
 10
1257.128068612926
 20
331.7427562205214
 30
0.0
  0
VERTEX
  5
5BB
  8
0
 10
1257.010340117556
 20
331.7502371477167
 30
0.0
  0
VERTEX
  5
5BC
  8
0
 10
1256.892600586395
 20
331.757181962446
 30
0.0
  0
VERTEX
  5
5BD
  8
0
 10
1256.774853175062
 20
331.7635852158776
 30
0.0
  0
VERTEX
  5
5BE
  8
0
 10
1256.657101039177
 20
331.7694414591806
 30
0.0
  0
VERTEX
  5
5BF
  8
0
 10
1256.539347334358
 20
331.774745243523
 30
0.0
  0
VERTEX
  5
5C0
  8
0
 10
1256.421595216225
 20
331.7794911200735
 30
0.0
  0
VERTEX
  5
5C1
  8
0
 10
1256.303847840397
 20
331.7836736400006
 30
0.0
  0
VERTEX
  5
5C2
  8
0
 10
1256.186108362493
 20
331.7872873544731
 30
0.0
  0
VERTEX
  5
5C3
  8
0
 10
1256.068379938133
 20
331.7903268146591
 30
0.0
  0
VERTEX
  5
5C4
  8
0
 10
1255.950665722936
 20
331.7927865717276
 30
0.0
  0
VERTEX
  5
5C5
  8
0
 10
1255.832968872521
 20
331.7946611768467
 30
0.0
  0
VERTEX
  5
5C6
  8
0
 10
1255.715292542508
 20
331.7959451811853
 30
0.0
  0
VERTEX
  5
5C7
  8
0
 10
1255.597639888515
 20
331.7966331359118
 30
0.0
  0
VERTEX
  5
5C8
  8
0
 10
1255.480014066163
 20
331.7967195921948
 30
0.0
  0
VERTEX
  5
5C9
  8
0
 10
1255.36241823107
 20
331.7961991012028
 30
0.0
  0
VERTEX
  5
5CA
  8
0
 10
1255.244855538855
 20
331.7950662141044
 30
0.0
  0
VERTEX
  5
5CB
  8
0
 10
1255.127329145139
 20
331.7933154820681
 30
0.0
  0
VERTEX
  5
5CC
  8
0
 10
1255.009842205539
 20
331.7909414562624
 30
0.0
  0
VERTEX
  5
5CD
  8
0
 10
1254.892397875676
 20
331.7879386878558
 30
0.0
  0
VERTEX
  5
5CE
  8
0
 10
1254.774999311169
 20
331.784301728017
 30
0.0
  0
VERTEX
  5
5CF
  8
0
 10
1254.657649667636
 20
331.7800251279145
 30
0.0
  0
VERTEX
  5
5D0
  8
0
 10
1254.540352100698
 20
331.7751034387168
 30
0.0
  0
VERTEX
  5
5D1
  8
0
 10
1254.423109765974
 20
331.7695312115924
 30
0.0
  0
VERTEX
  5
5D2
  8
0
 10
1254.305925819082
 20
331.76330299771
 30
0.0
  0
VERTEX
  5
5D3
  8
0
 10
1254.188803415642
 20
331.7564133482379
 30
0.0
  0
VERTEX
  5
5D4
  8
0
 10
1254.071745711274
 20
331.7488568143449
 30
0.0
  0
VERTEX
  5
5D5
  8
0
 10
1253.954755861597
 20
331.7406279471994
 30
0.0
  0
VERTEX
  5
5D6
  8
0
 10
1253.837837022229
 20
331.73172129797
 30
0.0
  0
VERTEX
  5
5D7
  8
0
 10
1253.720992348791
 20
331.7221314178252
 30
0.0
  0
VERTEX
  5
5D8
  8
0
 10
1253.604224996901
 20
331.7118528579335
 30
0.0
  0
VERTEX
  5
5D9
  8
0
 10
1253.487538122179
 20
331.7008801694637
 30
0.0
  0
VERTEX
  5
5DA
  8
0
 10
1253.370934880244
 20
331.689207903584
 30
0.0
  0
VERTEX
  5
5DB
  8
0
 10
1253.254418426715
 20
331.676830611463
 30
0.0
  0
VERTEX
  5
5DC
  8
0
 10
1253.137991917212
 20
331.6637428442696
 30
0.0
  0
VERTEX
  5
5DD
  8
0
 10
1253.021658507354
 20
331.6499391531719
 30
0.0
  0
VERTEX
  5
5DE
  8
0
 10
1252.90542135276
 20
331.6354140893387
 30
0.0
  0
VERTEX
  5
5DF
  8
0
 10
1252.789283609049
 20
331.6201622039384
 30
0.0
  0
VERTEX
  5
5E0
  8
0
 10
1252.673248431841
 20
331.6041780481397
 30
0.0
  0
VERTEX
  5
5E1
  8
0
 10
1252.557318976755
 20
331.587456173111
 30
0.0
  0
VERTEX
  5
5E2
  8
0
 10
1252.441498038342
 20
331.5699929189755
 30
0.0
  0
VERTEX
  5
5E3
  8
0
 10
1252.325783558202
 20
331.5518086703557
 30
0.0
  0
VERTEX
  5
5E4
  8
0
 10
1252.210170004707
 20
331.5329410203753
 30
0.0
  0
VERTEX
  5
5E5
  8
0
 10
1252.094651770821
 20
331.5134279357763
 30
0.0
  0
VERTEX
  5
5E6
  8
0
 10
1251.979223249508
 20
331.4933073833013
 30
0.0
  0
VERTEX
  5
5E7
  8
0
 10
1251.863878833733
 20
331.4726173296924
 30
0.0
  0
VERTEX
  5
5E8
  8
0
 10
1251.748612916459
 20
331.4513957416917
 30
0.0
  0
VERTEX
  5
5E9
  8
0
 10
1251.633419890652
 20
331.4296805860417
 30
0.0
  0
VERTEX
  5
5EA
  8
0
 10
1251.403230085291
 20
331.3849214387627
 30
0.0
  0
VERTEX
  5
5EB
  8
0
 10
1251.173264561363
 20
331.338643621793
 30
0.0
  0
VERTEX
  5
5EC
  8
0
 10
1250.943478462583
 20
331.2911508690712
 30
0.0
  0
VERTEX
  5
5ED
  8
0
 10
1250.713826932662
 20
331.2427469145351
 30
0.0
  0
VERTEX
  5
5EE
  8
0
 10
1250.254748154254
 20
331.1444203357724
 30
0.0
  0
VERTEX
  5
5EF
  8
0
 10
1248.780448532913
 20
330.547156335834
 30
0.0
  0
VERTEX
  5
5F0
  8
0
 10
1248.044155628879
 20
330.2464318664498
 30
0.0
  0
VERTEX
  5
5F1
  8
0
 10
1247.308891012808
 20
329.9431964337674
 30
0.0
  0
VERTEX
  5
5F2
  8
0
 10
1246.941751426089
 20
329.7903755475126
 30
0.0
  0
VERTEX
  5
5F3
  8
0
 10
1246.574997447357
 20
329.6366130500208
 30
0.0
  0
VERTEX
  5
5F4
  8
0
 10
1246.208671921943
 20
329.4818043178217
 30
0.0
  0
VERTEX
  5
5F5
  8
0
 10
1245.842817695178
 20
329.3258447274442
 30
0.0
  0
VERTEX
  5
5F6
  8
0
 10
1245.477477612396
 20
329.1686296554176
 30
0.0
  0
VERTEX
  5
5F7
  8
0
 10
1245.112694518928
 20
329.0100544782713
 30
0.0
  0
VERTEX
  5
5F8
  8
0
 10
1244.748511260105
 20
328.8500145725344
 30
0.0
  0
VERTEX
  5
5F9
  8
0
 10
1244.38497068126
 20
328.6884053147361
 30
0.0
  0
VERTEX
  5
5FA
  8
0
 10
1244.022115627724
 20
328.5251220814059
 30
0.0
  0
VERTEX
  5
5FB
  8
0
 10
1243.659988944829
 20
328.3600602490728
 30
0.0
  0
VERTEX
  5
5FC
  8
0
 10
1243.298633477907
 20
328.1931151942662
 30
0.0
  0
VERTEX
  5
5FD
  8
0
 10
1242.93809207229
 20
328.0241822935151
 30
0.0
  0
VERTEX
  5
5FE
  8
0
 10
1242.57840757331
 20
327.853156923349
 30
0.0
  0
VERTEX
  5
5FF
  8
0
 10
1242.21963194658
 20
327.6799359845076
 30
0.0
  0
VERTEX
  5
600
  8
0
 10
1241.861857525988
 20
327.5044231242043
 30
0.0
  0
VERTEX
  5
601
  8
0
 10
1241.505187810639
 20
327.3265238556194
 30
0.0
  0
VERTEX
  5
602
  8
0
 10
1241.149726300026
 20
327.1461436919976
 30
0.0
  0
VERTEX
  5
603
  8
0
 10
1240.795576493641
 20
326.963188146584
 30
0.0
  0
VERTEX
  5
604
  8
0
 10
1240.442841890977
 20
326.7775627326232
 30
0.0
  0
VERTEX
  5
605
  8
0
 10
1240.091625991525
 20
326.5891729633603
 30
0.0
  0
VERTEX
  5
606
  8
0
 10
1239.74203229478
 20
326.3979243520401
 30
0.0
  0
VERTEX
  5
607
  8
0
 10
1239.394164300233
 20
326.2037224119075
 30
0.0
  0
VERTEX
  5
608
  8
0
 10
1239.048125507377
 20
326.0064726562073
 30
0.0
  0
VERTEX
  5
609
  8
0
 10
1238.704019415704
 20
325.8060805981845
 30
0.0
  0
VERTEX
  5
60A
  8
0
 10
1238.532723476402
 20
325.7046766786912
 30
0.0
  0
VERTEX
  5
60B
  8
0
 10
1238.361949524707
 20
325.6024517510841
 30
0.0
  0
VERTEX
  5
60C
  8
0
 10
1238.191710498054
 20
325.4993940045187
 30
0.0
  0
VERTEX
  5
60D
  8
0
 10
1238.022019333879
 20
325.3954916281507
 30
0.0
  0
VERTEX
  5
60E
  8
0
 10
1237.852888969619
 20
325.2907328111356
 30
0.0
  0
VERTEX
  5
60F
  8
0
 10
1237.684332342712
 20
325.1851057426293
 30
0.0
  0
VERTEX
  5
610
  8
0
 10
1237.516362390592
 20
325.0785986117872
 30
0.0
  0
VERTEX
  5
611
  8
0
 10
1237.348992050698
 20
324.9711996077648
 30
0.0
  0
VERTEX
  5
612
  8
0
 10
1237.182234260465
 20
324.862896919718
 30
0.0
  0
VERTEX
  5
613
  8
0
 10
1237.016101957331
 20
324.7536787368023
 30
0.0
  0
VERTEX
  5
614
  8
0
 10
1236.850608078731
 20
324.6435332481731
 30
0.0
  0
VERTEX
  5
615
  8
0
 10
1236.685765562102
 20
324.5324486429862
 30
0.0
  0
VERTEX
  5
616
  8
0
 10
1236.521587344881
 20
324.4204131103972
 30
0.0
  0
VERTEX
  5
617
  8
0
 10
1236.358086364505
 20
324.3074148395617
 30
0.0
  0
VERTEX
  5
618
  8
0
 10
1236.195275558409
 20
324.1934420196358
 30
0.0
  0
VERTEX
  5
619
  8
0
 10
1236.033164510589
 20
324.0784873122437
 30
0.0
  0
VERTEX
  5
61A
  8
0
 10
1235.87174958091
 20
323.9625610159654
 30
0.0
  0
VERTEX
  5
61B
  8
0
 10
1235.711023869947
 20
323.8456777762823
 30
0.0
  0
VERTEX
  5
61C
  8
0
 10
1235.550980478274
 20
323.7278522386759
 30
0.0
  0
VERTEX
  5
61D
  8
0
 10
1235.391612506466
 20
323.6090990486275
 30
0.0
  0
VERTEX
  5
61E
  8
0
 10
1235.232913055096
 20
323.4894328516184
 30
0.0
  0
VERTEX
  5
61F
  8
0
 10
1235.07487522474
 20
323.3688682931302
 30
0.0
  0
VERTEX
  5
620
  8
0
 10
1234.91749211597
 20
323.2474200186439
 30
0.0
  0
VERTEX
  5
621
  8
0
 10
1234.760756829362
 20
323.1251026736413
 30
0.0
  0
VERTEX
  5
622
  8
0
 10
1234.60466246549
 20
323.0019309036036
 30
0.0
  0
VERTEX
  5
623
  8
0
 10
1234.449202124928
 20
322.8779193540121
 30
0.0
  0
VERTEX
  5
624
  8
0
 10
1234.294368908251
 20
322.7530826703484
 30
0.0
  0
VERTEX
  5
625
  8
0
 10
1234.140155916031
 20
322.6274354980936
 30
0.0
  0
VERTEX
  5
626
  8
0
 10
1233.986556248845
 20
322.5009924827293
 30
0.0
  0
VERTEX
  5
627
  8
0
 10
1233.833563007266
 20
322.3737682697368
 30
0.0
  0
VERTEX
  5
628
  8
0
 10
1233.681169291869
 20
322.2457775045975
 30
0.0
  0
VERTEX
  5
629
  8
0
 10
1233.529368203227
 20
322.1170348327927
 30
0.0
  0
VERTEX
  5
62A
  8
0
 10
1233.227516308508
 20
321.8573523511125
 30
0.0
  0
VERTEX
  5
62B
  8
0
 10
1232.927952127704
 20
321.5948379885471
 30
0.0
  0
VERTEX
  5
62C
  8
0
 10
1232.630620465409
 20
321.3296089089475
 30
0.0
  0
VERTEX
  5
62D
  8
0
 10
1232.335466126216
 20
321.0617822761649
 30
0.0
  0
VERTEX
  5
62E
  8
0
 10
1232.042433914722
 20
320.7914752540503
 30
0.0
  0
VERTEX
  5
62F
  8
0
 10
1231.751468635518
 20
320.5188050064546
 30
0.0
  0
VERTEX
  5
630
  8
0
 10
1231.462515093201
 20
320.2438886972292
 30
0.0
  0
VERTEX
  5
631
  8
0
 10
1231.175518092363
 20
319.9668434902247
 30
0.0
  0
VERTEX
  5
632
  8
0
 10
1230.8904224376
 20
319.6877865492925
 30
0.0
  0
VERTEX
  5
633
  8
0
 10
1230.607173230945
 20
319.4068347414983
 30
0.0
  0
VERTEX
  5
634
  8
0
 10
1230.325773814899
 20
319.124046821547
 30
0.0
  0
VERTEX
  5
635
  8
0
 10
1230.046355184775
 20
318.8393541721198
 30
0.0
  0
VERTEX
  5
636
  8
0
 10
1229.769065258817
 20
318.5526712901891
 30
0.0
  0
VERTEX
  5
637
  8
0
 10
1229.49405195527
 20
318.2639126727269
 30
0.0
  0
VERTEX
  5
638
  8
0
 10
1229.221463192379
 20
317.9729928167054
 30
0.0
  0
VERTEX
  5
639
  8
0
 10
1228.95144688839
 20
317.6798262190968
 30
0.0
  0
VERTEX
  5
63A
  8
0
 10
1228.684150961547
 20
317.3843273768733
 30
0.0
  0
VERTEX
  5
63B
  8
0
 10
1228.551569364006
 20
317.2356766443347
 30
0.0
  0
VERTEX
  5
63C
  8
0
 10
1228.419723330095
 20
317.086410787007
 30
0.0
  0
VERTEX
  5
63D
  8
0
 10
1228.288631349592
 20
316.9365191170116
 30
0.0
  0
VERTEX
  5
63E
  8
0
 10
1228.158311912279
 20
316.7859909464701
 30
0.0
  0
VERTEX
  5
63F
  8
0
 10
1228.028783507936
 20
316.634815587504
 30
0.0
  0
VERTEX
  5
640
  8
0
 10
1227.900064626344
 20
316.4829823522348
 30
0.0
  0
VERTEX
  5
641
  8
0
 10
1227.772173757284
 20
316.3304805527841
 30
0.0
  0
VERTEX
  5
642
  8
0
 10
1227.645129390535
 20
316.1772995012732
 30
0.0
  0
VERTEX
  5
643
  8
0
 10
1227.51895001588
 20
316.0234285098238
 30
0.0
  0
VERTEX
  5
644
  8
0
 10
1227.393654123098
 20
315.8688568905575
 30
0.0
  0
VERTEX
  5
645
  8
0
 10
1227.269260201969
 20
315.7135739555957
 30
0.0
  0
VERTEX
  5
646
  8
0
 10
1227.145786742276
 20
315.55756901706
 30
0.0
  0
VERTEX
  5
647
  8
0
 10
1227.023252233798
 20
315.4008313870718
 30
0.0
  0
VERTEX
  5
648
  8
0
 10
1226.901675166316
 20
315.2433503777527
 30
0.0
  0
VERTEX
  5
649
  8
0
 10
1226.78107402961
 20
315.0851153012242
 30
0.0
  0
VERTEX
  5
64A
  8
0
 10
1226.661467313462
 20
314.9261154696079
 30
0.0
  0
VERTEX
  5
64B
  8
0
 10
1226.54287350765
 20
314.7663401950252
 30
0.0
  0
VERTEX
  5
64C
  8
0
 10
1226.425311101958
 20
314.6057787895977
 30
0.0
  0
VERTEX
  5
64D
  8
0
 10
1226.308798586165
 20
314.4444205654468
 30
0.0
  0
VERTEX
  5
64E
  8
0
 10
1226.193354450051
 20
314.2822548346942
 30
0.0
  0
VERTEX
  5
64F
  8
0
 10
1226.078997183398
 20
314.1192709094612
 30
0.0
  0
VERTEX
  5
650
  8
0
 10
1225.965745275984
 20
313.9554581018696
 30
0.0
  0
VERTEX
  5
651
  8
0
 10
1225.853617204597
 20
313.7908057647232
 30
0.0
  0
VERTEX
  5
652
  8
0
 10
1225.742629365451
 20
313.6253097635681
 30
0.0
  0
VERTEX
  5
653
  8
0
 10
1225.632793807028
 20
313.4589795735414
 30
0.0
  0
VERTEX
  5
654
  8
0
 10
1225.524122032596
 20
313.2918263764482
 30
0.0
  0
VERTEX
  5
655
  8
0
 10
1225.416625545424
 20
313.1238613540937
 30
0.0
  0
VERTEX
  5
656
  8
0
 10
1225.310315848778
 20
312.9550956882828
 30
0.0
  0
VERTEX
  5
657
  8
0
 10
1225.205204445926
 20
312.7855405608208
 30
0.0
  0
VERTEX
  5
658
  8
0
 10
1225.101302840138
 20
312.6152071535127
 30
0.0
  0
VERTEX
  5
659
  8
0
 10
1224.998622534679
 20
312.4441066481635
 30
0.0
  0
VERTEX
  5
65A
  8
0
 10
1224.897175032818
 20
312.2722502265785
 30
0.0
  0
VERTEX
  5
65B
  8
0
 10
1224.796971837823
 20
312.0996490705626
 30
0.0
  0
VERTEX
  5
65C
  8
0
 10
1224.698024452962
 20
311.9263143619209
 30
0.0
  0
VERTEX
  5
65D
  8
0
 10
1224.600344381502
 20
311.7522572824586
 30
0.0
  0
VERTEX
  5
65E
  8
0
 10
1224.503943126711
 20
311.5774890139808
 30
0.0
  0
VERTEX
  5
65F
  8
0
 10
1224.408832191858
 20
311.4020207382925
 30
0.0
  0
VERTEX
  5
660
  8
0
 10
1224.315023080208
 20
311.2258636371989
 30
0.0
  0
VERTEX
  5
661
  8
0
 10
1224.222527295032
 20
311.0490288925051
 30
0.0
  0
VERTEX
  5
662
  8
0
 10
1224.131356339596
 20
310.871527686016
 30
0.0
  0
VERTEX
  5
663
  8
0
 10
1224.041521717169
 20
310.6933711995368
 30
0.0
  0
VERTEX
  5
664
  8
0
 10
1223.953034931017
 20
310.5145706148728
 30
0.0
  0
VERTEX
  5
665
  8
0
 10
1223.865907484409
 20
310.3351371138288
 30
0.0
  0
VERTEX
  5
666
  8
0
 10
1223.780150880613
 20
310.15508187821
 30
0.0
  0
VERTEX
  5
667
  8
0
 10
1223.695776622896
 20
309.9744160898215
 30
0.0
  0
VERTEX
  5
668
  8
0
 10
1223.612796214527
 20
309.7931509304684
 30
0.0
  0
VERTEX
  5
669
  8
0
 10
1223.531221158773
 20
309.6112975819558
 30
0.0
  0
VERTEX
  5
66A
  8
0
 10
1223.451062958902
 20
309.4288672260888
 30
0.0
  0
VERTEX
  5
66B
  8
0
 10
1223.37233311818
 20
309.2458710446725
 30
0.0
  0
VERTEX
  5
66C
  8
0
 10
1223.295043139879
 20
309.062320219512
 30
0.0
  0
VERTEX
  5
66D
  8
0
 10
1223.219204527262
 20
308.8782259324123
 30
0.0
  0
VERTEX
  5
66E
  8
0
 10
1223.144828783601
 20
308.6935993651785
 30
0.0
  0
VERTEX
  5
66F
  8
0
 10
1223.07192741216
 20
308.5084516996159
 30
0.0
  0
VERTEX
  5
670
  8
0
 10
1223.00051191621
 20
308.3227941175293
 30
0.0
  0
VERTEX
  5
671
  8
0
 10
1222.930593799017
 20
308.136637800724
 30
0.0
  0
VERTEX
  5
672
  8
0
 10
1222.862184537026
 20
307.9499939117621
 30
0.0
  0
VERTEX
  5
673
  8
0
 10
1222.795291041898
 20
307.7628703384834
 30
0.0
  0
VERTEX
  5
674
  8
0
 10
1222.729910543123
 20
307.575268022851
 30
0.0
  0
VERTEX
  5
675
  8
0
 10
1222.666039034624
 20
307.3871870204471
 30
0.0
  0
VERTEX
  5
676
  8
0
 10
1222.603672510327
 20
307.198627386854
 30
0.0
  0
VERTEX
  5
677
  8
0
 10
1222.542806964155
 20
307.0095891776538
 30
0.0
  0
VERTEX
  5
678
  8
0
 10
1222.483438390031
 20
306.8200724484286
 30
0.0
  0
VERTEX
  5
679
  8
0
 10
1222.42556278188
 20
306.6300772547606
 30
0.0
  0
VERTEX
  5
67A
  8
0
 10
1222.369176133625
 20
306.439603652232
 30
0.0
  0
VERTEX
  5
67B
  8
0
 10
1222.314274439192
 20
306.2486516964251
 30
0.0
  0
VERTEX
  5
67C
  8
0
 10
1222.260853692502
 20
306.0572214429219
 30
0.0
  0
VERTEX
  5
67D
  8
0
 10
1222.208909887482
 20
305.8653129473047
 30
0.0
  0
VERTEX
  5
67E
  8
0
 10
1222.158439018054
 20
305.6729262651556
 30
0.0
  0
VERTEX
  5
67F
  8
0
 10
1222.109437078141
 20
305.4800614520568
 30
0.0
  0
VERTEX
  5
680
  8
0
 10
1222.061900061669
 20
305.2867185635904
 30
0.0
  0
VERTEX
  5
681
  8
0
 10
1222.015823962561
 20
305.0928976553387
 30
0.0
  0
VERTEX
  5
682
  8
0
 10
1221.971204774742
 20
304.8985987828839
 30
0.0
  0
VERTEX
  5
683
  8
0
 10
1221.928038492134
 20
304.703822001808
 30
0.0
  0
VERTEX
  5
684
  8
0
 10
1221.886321108662
 20
304.5085673676933
 30
0.0
  0
VERTEX
  5
685
  8
0
 10
1221.84604861825
 20
304.312834936122
 30
0.0
  0
VERTEX
  5
686
  8
0
 10
1221.807217014821
 20
304.1166247626761
 30
0.0
  0
VERTEX
  5
687
  8
0
 10
1221.7698222923
 20
303.919936902938
 30
0.0
  0
VERTEX
  5
688
  8
0
 10
1221.733860452
 20
303.7227714168137
 30
0.0
  0
VERTEX
  5
689
  8
0
 10
1221.699340547087
 20
303.5251360019423
 30
0.0
  0
VERTEX
  5
68A
  8
0
 10
1221.666311553466
 20
303.3270617181045
 30
0.0
  0
VERTEX
  5
68B
  8
0
 10
1221.634830053908
 20
303.1285840764932
 30
0.0
  0
VERTEX
  5
68C
  8
0
 10
1221.60495263118
 20
302.9297385883016
 30
0.0
  0
VERTEX
  5
68D
  8
0
 10
1221.576735868053
 20
302.7305607647228
 30
0.0
  0
VERTEX
  5
68E
  8
0
 10
1221.550236347293
 20
302.53108611695
 30
0.0
  0
VERTEX
  5
68F
  8
0
 10
1221.525510651671
 20
302.331350156176
 30
0.0
  0
VERTEX
  5
690
  8
0
 10
1221.502615363955
 20
302.1313883935942
 30
0.0
  0
VERTEX
  5
691
  8
0
 10
1221.481607066914
 20
301.9312363403974
 30
0.0
  0
VERTEX
  5
692
  8
0
 10
1221.462542343316
 20
301.7309295077791
 30
0.0
  0
VERTEX
  5
693
  8
0
 10
1221.445477775931
 20
301.530503406932
 30
0.0
  0
VERTEX
  5
694
  8
0
 10
1221.430469947527
 20
301.3299935490493
 30
0.0
  0
VERTEX
  5
695
  8
0
 10
1221.417575440873
 20
301.1294354453241
 30
0.0
  0
VERTEX
  5
696
  8
0
 10
1221.406850838738
 20
300.9288646069497
 30
0.0
  0
VERTEX
  5
697
  8
0
 10
1221.39835272389
 20
300.7283165451188
 30
0.0
  0
VERTEX
  5
698
  8
0
 10
1221.3921376791
 20
300.5278267710249
 30
0.0
  0
VERTEX
  5
699
  8
0
 10
1221.388262287134
 20
300.3274307958608
 30
0.0
  0
VERTEX
  5
69A
  8
0
 10
1221.386783130763
 20
300.1271641308198
 30
0.0
  0
VERTEX
  5
69B
  8
0
 10
1221.387756792755
 20
299.9270622870948
 30
0.0
  0
VERTEX
  5
69C
  8
0
 10
1221.391239855878
 20
299.727160775879
 30
0.0
  0
VERTEX
  5
69D
  8
0
 10
1221.397288902901
 20
299.5274951083655
 30
0.0
  0
VERTEX
  5
69E
  8
0
 10
1221.405960516594
 20
299.3281007957474
 30
0.0
  0
VERTEX
  5
69F
  8
0
 10
1221.417311279725
 20
299.1290133492176
 30
0.0
  0
VERTEX
  5
6A0
  8
0
 10
1221.431397775063
 20
298.9302682799696
 30
0.0
  0
VERTEX
  5
6A1
  8
0
 10
1221.448276585377
 20
298.7319010991961
 30
0.0
  0
VERTEX
  5
6A2
  8
0
 10
1221.468004293435
 20
298.5339473180903
 30
0.0
  0
VERTEX
  5
6A3
  8
0
 10
1221.490637482006
 20
298.3364424478455
 30
0.0
  0
VERTEX
  5
6A4
  8
0
 10
1221.51623273386
 20
298.1394219996545
 30
0.0
  0
VERTEX
  5
6A5
  8
0
 10
1221.544846631765
 20
297.9429214847107
 30
0.0
  0
VERTEX
  5
6A6
  8
0
 10
1221.576535758489
 20
297.7469764142068
 30
0.0
  0
VERTEX
  5
6A7
  8
0
 10
1221.611356696801
 20
297.5516222993361
 30
0.0
  0
VERTEX
  5
6A8
  8
0
 10
1221.649366029472
 20
297.3568946512919
 30
0.0
  0
VERTEX
  5
6A9
  8
0
 10
1221.690618692259
 20
297.1628287574545
 30
0.0
  0
VERTEX
  5
6AA
  8
0
 10
1221.735122976869
 20
296.9694535667284
 30
0.0
  0
VERTEX
  5
6AB
  8
0
 10
1221.78283507114
 20
296.7767909476067
 30
0.0
  0
VERTEX
  5
6AC
  8
0
 10
1221.833708419744
 20
296.5848623958128
 30
0.0
  0
VERTEX
  5
6AD
  8
0
 10
1221.887696467355
 20
296.3936894070698
 30
0.0
  0
VERTEX
  5
6AE
  8
0
 10
1221.944752658641
 20
296.2032934771007
 30
0.0
  0
VERTEX
  5
6AF
  8
0
 10
1222.004830438278
 20
296.013696101629
 30
0.0
  0
VERTEX
  5
6B0
  8
0
 10
1222.067883250936
 20
295.8249187763778
 30
0.0
  0
VERTEX
  5
6B1
  8
0
 10
1222.133864541287
 20
295.6369829970703
 30
0.0
  0
VERTEX
  5
6B2
  8
0
 10
1222.202727754004
 20
295.4499102594298
 30
0.0
  0
VERTEX
  5
6B3
  8
0
 10
1222.274426333758
 20
295.2637220591794
 30
0.0
  0
VERTEX
  5
6B4
  8
0
 10
1222.348913725221
 20
295.0784398920423
 30
0.0
  0
VERTEX
  5
6B5
  8
0
 10
1222.426143373066
 20
294.8940852537418
 30
0.0
  0
VERTEX
  5
6B6
  8
0
 10
1222.506068721964
 20
294.7106796400011
 30
0.0
  0
VERTEX
  5
6B7
  8
0
 10
1222.588643216587
 20
294.5282445465434
 30
0.0
  0
VERTEX
  5
6B8
  8
0
 10
1222.673820301608
 20
294.3468014690918
 30
0.0
  0
VERTEX
  5
6B9
  8
0
 10
1222.761553421699
 20
294.1663719033696
 30
0.0
  0
VERTEX
  5
6BA
  8
0
 10
1222.851796021531
 20
293.9869773451001
 30
0.0
  0
VERTEX
  5
6BB
  8
0
 10
1222.944501545777
 20
293.8086392900063
 30
0.0
  0
VERTEX
  5
6BC
  8
0
 10
1223.039623439108
 20
293.6313792338117
 30
0.0
  0
VERTEX
  5
6BD
  8
0
 10
1223.137115146197
 20
293.4552186722393
 30
0.0
  0
VERTEX
  5
6BE
  8
0
 10
1223.236930111715
 20
293.2801791010123
 30
0.0
  0
VERTEX
  5
6BF
  8
0
 10
1223.339021780335
 20
293.106282015854
 30
0.0
  0
VERTEX
  5
6C0
  8
0
 10
1223.443343596728
 20
292.9335489124876
 30
0.0
  0
VERTEX
  5
6C1
  8
0
 10
1223.549849005567
 20
292.7620012866363
 30
0.0
  0
VERTEX
  5
6C2
  8
0
 10
1223.658491451524
 20
292.5916606340232
 30
0.0
  0
VERTEX
  5
6C3
  8
0
 10
1223.76922437927
 20
292.4225484503717
 30
0.0
  0
VERTEX
  5
6C4
  8
0
 10
1223.882001233478
 20
292.2546862314048
 30
0.0
  0
VERTEX
  5
6C5
  8
0
 10
1223.996775458819
 20
292.088095472846
 30
0.0
  0
VERTEX
  5
6C6
  8
0
 10
1224.113500499967
 20
291.9227976704183
 30
0.0
  0
VERTEX
  5
6C7
  8
0
 10
1224.232129801592
 20
291.7588143198449
 30
0.0
  0
VERTEX
  5
6C8
  8
0
 10
1224.352616808366
 20
291.5961669168491
 30
0.0
  0
VERTEX
  5
6C9
  8
0
 10
1224.474914964962
 20
291.434876957154
 30
0.0
  0
VERTEX
  5
6CA
  8
0
 10
1224.598977716052
 20
291.274965936483
 30
0.0
  0
VERTEX
  5
6CB
  8
0
 10
1224.724758506308
 20
291.1164553505592
 30
0.0
  0
VERTEX
  5
6CC
  8
0
 10
1224.852211298437
 20
290.9593667228036
 30
0.0
  0
VERTEX
  5
6CD
  8
0
 10
1224.981303904014
 20
290.8037223170961
 30
0.0
  0
VERTEX
  5
6CE
  8
0
 10
1225.112019151622
 20
290.6495452002324
 30
0.0
  0
VERTEX
  5
6CF
  8
0
 10
1225.244340621989
 20
290.4968584792233
 30
0.0
  0
VERTEX
  5
6D0
  8
0
 10
1225.378251895844
 20
290.3456852610794
 30
0.0
  0
VERTEX
  5
6D1
  8
0
 10
1225.513736553917
 20
290.1960486528117
 30
0.0
  0
VERTEX
  5
6D2
  8
0
 10
1225.650778176935
 20
290.0479717614307
 30
0.0
  0
VERTEX
  5
6D3
  8
0
 10
1225.789360345627
 20
289.9014776939473
 30
0.0
  0
VERTEX
  5
6D4
  8
0
 10
1225.929466640722
 20
289.7565895573723
 30
0.0
  0
VERTEX
  5
6D5
  8
0
 10
1226.071080642948
 20
289.6133304587162
 30
0.0
  0
VERTEX
  5
6D6
  8
0
 10
1226.214185933035
 20
289.47172350499
 30
0.0
  0
VERTEX
  5
6D7
  8
0
 10
1226.358766091711
 20
289.3317918032045
 30
0.0
  0
VERTEX
  5
6D8
  8
0
 10
1226.504804699704
 20
289.1935584603702
 30
0.0
  0
VERTEX
  5
6D9
  8
0
 10
1226.652285337743
 20
289.057046583498
 30
0.0
  0
VERTEX
  5
6DA
  8
0
 10
1226.801191586557
 20
288.9222792795987
 30
0.0
  0
VERTEX
  5
6DB
  8
0
 10
1226.951507026875
 20
288.7892796556831
 30
0.0
  0
VERTEX
  5
6DC
  8
0
 10
1227.103215239426
 20
288.6580708187618
 30
0.0
  0
VERTEX
  5
6DD
  8
0
 10
1227.256299804937
 20
288.5286758758455
 30
0.0
  0
VERTEX
  5
6DE
  8
0
 10
1227.410744304137
 20
288.4011179339451
 30
0.0
  0
VERTEX
  5
6DF
  8
0
 10
1227.566532317756
 20
288.2754201000714
 30
0.0
  0
VERTEX
  5
6E0
  8
0
 10
1227.723647426522
 20
288.1516054812351
 30
0.0
  0
VERTEX
  5
6E1
  8
0
 10
1227.882073211163
 20
288.0296971844468
 30
0.0
  0
VERTEX
  5
6E2
  8
0
 10
1228.041793252409
 20
287.9097183167174
 30
0.0
  0
VERTEX
  5
6E3
  8
0
 10
1228.202791130987
 20
287.7916919850577
 30
0.0
  0
VERTEX
  5
6E4
  8
0
 10
1228.365050427627
 20
287.6756412964783
 30
0.0
  0
VERTEX
  5
6E5
  8
0
 10
1228.528554723058
 20
287.5615893579902
 30
0.0
  0
VERTEX
  5
6E6
  8
0
 10
1228.693287598007
 20
287.4495592766039
 30
0.0
  0
VERTEX
  5
6E7
  8
0
 10
1228.859232633203
 20
287.3395741593303
 30
0.0
  0
VERTEX
  5
6E8
  8
0
 10
1229.026373409376
 20
287.2316571131801
 30
0.0
  0
VERTEX
  5
6E9
  8
0
 10
1229.194693507254
 20
287.125831245164
 30
0.0
  0
VERTEX
  5
6EA
  8
0
 10
1229.364176507565
 20
287.0221196622929
 30
0.0
  0
VERTEX
  5
6EB
  8
0
 10
1229.534805991039
 20
286.9205454715774
 30
0.0
  0
VERTEX
  5
6EC
  8
0
 10
1229.706565538404
 20
286.8211317800284
 30
0.0
  0
VERTEX
  5
6ED
  8
0
 10
1229.879438730388
 20
286.7239016946565
 30
0.0
  0
VERTEX
  5
6EE
  8
0
 10
1230.05340914772
 20
286.6288783224726
 30
0.0
  0
VERTEX
  5
6EF
  8
0
 10
1230.228460371129
 20
286.5360847704874
 30
0.0
  0
VERTEX
  5
6F0
  8
0
 10
1230.404575783543
 20
286.4455417841069
 30
0.0
  0
VERTEX
  5
6F1
  8
0
 10
1230.581736620245
 20
286.3572444673873
 30
0.0
  0
VERTEX
  5
6F2
  8
0
 10
1230.759922799774
 20
286.2711722033548
 30
0.0
  0
VERTEX
  5
6F3
  8
0
 10
1230.939114221616
 20
286.1873041475823
 30
0.0
  0
VERTEX
  5
6F4
  8
0
 10
1231.119290785257
 20
286.1056194556424
 30
0.0
  0
VERTEX
  5
6F5
  8
0
 10
1231.300432390184
 20
286.0260972831081
 30
0.0
  0
VERTEX
  5
6F6
  8
0
 10
1231.482518935884
 20
285.9487167855522
 30
0.0
  0
VERTEX
  5
6F7
  8
0
 10
1231.665530321843
 20
285.8734571185475
 30
0.0
  0
VERTEX
  5
6F8
  8
0
 10
1231.849446447548
 20
285.8002974376669
 30
0.0
  0
VERTEX
  5
6F9
  8
0
 10
1232.034247212486
 20
285.7292168984832
 30
0.0
  0
VERTEX
  5
6FA
  8
0
 10
1232.219912516143
 20
285.6601946565692
 30
0.0
  0
VERTEX
  5
6FB
  8
0
 10
1232.406422258005
 20
285.5932098674976
 30
0.0
  0
VERTEX
  5
6FC
  8
0
 10
1232.59375633756
 20
285.5282416868415
 30
0.0
  0
VERTEX
  5
6FD
  8
0
 10
1232.781894654294
 20
285.4652692701735
 30
0.0
  0
VERTEX
  5
6FE
  8
0
 10
1232.970817107693
 20
285.4042717730666
 30
0.0
  0
VERTEX
  5
6FF
  8
0
 10
1233.160503597245
 20
285.3452283510935
 30
0.0
  0
VERTEX
  5
700
  8
0
 10
1233.350934022435
 20
285.288118159827
 30
0.0
  0
VERTEX
  5
701
  8
0
 10
1233.542088282751
 20
285.2329203548401
 30
0.0
  0
VERTEX
  5
702
  8
0
 10
1233.733946277679
 20
285.1796140917054
 30
0.0
  0
VERTEX
  5
703
  8
0
 10
1233.926487906705
 20
285.128178525996
 30
0.0
  0
VERTEX
  5
704
  8
0
 10
1234.119693069317
 20
285.0785928132845
 30
0.0
  0
VERTEX
  5
705
  8
0
 10
1234.313541665001
 20
285.0308361091438
 30
0.0
  0
VERTEX
  5
706
  8
0
 10
1234.508013593243
 20
284.9848875691467
 30
0.0
  0
VERTEX
  5
707
  8
0
 10
1234.70308875353
 20
284.9407263488662
 30
0.0
  0
VERTEX
  5
708
  8
0
 10
1234.898747045349
 20
284.8983316038748
 30
0.0
  0
VERTEX
  5
709
  8
0
 10
1235.094968368186
 20
284.8576824897457
 30
0.0
  0
VERTEX
  5
70A
  8
0
 10
1235.291732621528
 20
284.8187581620514
 30
0.0
  0
VERTEX
  5
70B
  8
0
 10
1235.489019704861
 20
284.781537776365
 30
0.0
  0
VERTEX
  5
70C
  8
0
 10
1235.686809517673
 20
284.7460004882591
 30
0.0
  0
VERTEX
  5
70D
  8
0
 10
1235.88508195945
 20
284.7121254533067
 30
0.0
  0
VERTEX
  5
70E
  8
0
 10
1236.083816929677
 20
284.6798918270806
 30
0.0
  0
VERTEX
  5
70F
  8
0
 10
1236.282994327843
 20
284.6492787651534
 30
0.0
  0
VERTEX
  5
710
  8
0
 10
1236.482594053433
 20
284.6202654230984
 30
0.0
  0
VERTEX
  5
711
  8
0
 10
1236.682596005935
 20
284.5928309564879
 30
0.0
  0
VERTEX
  5
712
  8
0
 10
1236.882980084834
 20
284.566954520895
 30
0.0
  0
VERTEX
  5
713
  8
0
 10
1237.083726189618
 20
284.5426152718926
 30
0.0
  0
VERTEX
  5
714
  8
0
 10
1237.284814219773
 20
284.5197923650534
 30
0.0
  0
VERTEX
  5
715
  8
0
 10
1237.486224074785
 20
284.4984649559502
 30
0.0
  0
VERTEX
  5
716
  8
0
 10
1237.687935654142
 20
284.4786122001559
 30
0.0
  0
VERTEX
  5
717
  8
0
 10
1237.889928857329
 20
284.4602132532434
 30
0.0
  0
VERTEX
  5
718
  8
0
 10
1238.092183583834
 20
284.4432472707853
 30
0.0
  0
VERTEX
  5
719
  8
0
 10
1238.294679733143
 20
284.4276934083546
 30
0.0
  0
VERTEX
  5
71A
  8
0
 10
1238.497397204743
 20
284.4135308215241
 30
0.0
  0
VERTEX
  5
71B
  8
0
 10
1238.70031589812
 20
284.4007386658666
 30
0.0
  0
VERTEX
  5
71C
  8
0
 10
1238.903415712761
 20
284.389296096955
 30
0.0
  0
VERTEX
  5
71D
  8
0
 10
1239.106676548153
 20
284.3791822703621
 30
0.0
  0
VERTEX
  5
71E
  8
0
 10
1239.310078303781
 20
284.3703763416606
 30
0.0
  0
VERTEX
  5
71F
  8
0
 10
1239.513600879133
 20
284.3628574664236
 30
0.0
  0
VERTEX
  5
720
  8
0
 10
1239.717224173696
 20
284.3566048002236
 30
0.0
  0
VERTEX
  5
721
  8
0
 10
1239.920928086956
 20
284.3515974986336
 30
0.0
  0
VERTEX
  5
722
  8
0
 10
1240.124692518399
 20
284.3478147172265
 30
0.0
  0
VERTEX
  5
723
  8
0
 10
1240.328497367513
 20
284.345235611575
 30
0.0
  0
VERTEX
  5
724
  8
0
 10
1240.532322533782
 20
284.343839337252
 30
0.0
  0
VERTEX
  5
725
  8
0
 10
1240.736147916696
 20
284.3436050498302
 30
0.0
  0
VERTEX
  5
726
  8
0
 10
1240.93995341574
 20
284.3445119048827
 30
0.0
  0
VERTEX
  5
727
  8
0
 10
1241.1437189304
 20
284.3465390579819
 30
0.0
  0
VERTEX
  5
728
  8
0
 10
1241.347424360164
 20
284.3496656647011
 30
0.0
  0
VERTEX
  5
729
  8
0
 10
1241.551049604517
 20
284.3538708806129
 30
0.0
  0
VERTEX
  5
72A
  8
0
 10
1241.754574562947
 20
284.35913386129
 30
0.0
  0
VERTEX
  5
72B
  8
0
 10
1241.957980627884
 20
284.365435802444
 30
0.0
  0
VERTEX
  5
72C
  8
0
 10
1242.161258877912
 20
284.3727711361112
 30
0.0
  0
VERTEX
  5
72D
  8
0
 10
1242.36440425655
 20
284.3811395758393
 30
0.0
  0
VERTEX
  5
72E
  8
0
 10
1242.567411717381
 20
284.3905408489322
 30
0.0
  0
VERTEX
  5
72F
  8
0
 10
1242.770276213992
 20
284.4009746826943
 30
0.0
  0
VERTEX
  5
730
  8
0
 10
1242.972992699968
 20
284.4124408044297
 30
0.0
  0
VERTEX
  5
731
  8
0
 10
1243.175556128892
 20
284.4249389414423
 30
0.0
  0
VERTEX
  5
732
  8
0
 10
1243.377961454351
 20
284.4384688210365
 30
0.0
  0
VERTEX
  5
733
  8
0
 10
1243.580203629929
 20
284.4530301705162
 30
0.0
  0
VERTEX
  5
734
  8
0
 10
1243.78227760921
 20
284.4686227171857
 30
0.0
  0
VERTEX
  5
735
  8
0
 10
1243.984178345781
 20
284.485246188349
 30
0.0
  0
VERTEX
  5
736
  8
0
 10
1244.185900793226
 20
284.5029003113104
 30
0.0
  0
VERTEX
  5
737
  8
0
 10
1244.38743990513
 20
284.5215848133738
 30
0.0
  0
VERTEX
  5
738
  8
0
 10
1244.588790635079
 20
284.5412994218434
 30
0.0
  0
VERTEX
  5
739
  8
0
 10
1244.789947936656
 20
284.5620438640234
 30
0.0
  0
VERTEX
  5
73A
  8
0
 10
1244.990906763446
 20
284.5838178672178
 30
0.0
  0
VERTEX
  5
73B
  8
0
 10
1245.191662069036
 20
284.6066211587309
 30
0.0
  0
VERTEX
  5
73C
  8
0
 10
1245.39220880701
 20
284.6304534658667
 30
0.0
  0
VERTEX
  5
73D
  8
0
 10
1245.592541930953
 20
284.6553145159294
 30
0.0
  0
VERTEX
  5
73E
  8
0
 10
1245.792656394449
 20
284.6812040362231
 30
0.0
  0
VERTEX
  5
73F
  8
0
 10
1245.992547151085
 20
284.7081217540518
 30
0.0
  0
VERTEX
  5
740
  8
0
 10
1246.192209154444
 20
284.7360673967197
 30
0.0
  0
VERTEX
  5
741
  8
0
 10
1246.391637358111
 20
284.7650406915311
 30
0.0
  0
VERTEX
  5
742
  8
0
 10
1246.590826715673
 20
284.7950413657899
 30
0.0
  0
VERTEX
  5
743
  8
0
 10
1246.789772180713
 20
284.8260691468002
 30
0.0
  0
VERTEX
  5
744
  8
0
 10
1246.988468706817
 20
284.8581237618664
 30
0.0
  0
VERTEX
  5
745
  8
0
 10
1247.18691124757
 20
284.8912049382923
 30
0.0
  0
VERTEX
  5
746
  8
0
 10
1247.385094756556
 20
284.9253124033823
 30
0.0
  0
VERTEX
  5
747
  8
0
 10
1247.583014187361
 20
284.9604458844404
 30
0.0
  0
VERTEX
  5
748
  8
0
 10
1247.780664493569
 20
284.9966051087707
 30
0.0
  0
VERTEX
  5
749
  8
0
 10
1247.978040628766
 20
285.0337898036774
 30
0.0
  0
VERTEX
  5
74A
  8
0
 10
1248.175137546536
 20
285.0719996964646
 30
0.0
  0
VERTEX
  5
74B
  8
0
 10
1248.371950200466
 20
285.1112345144363
 30
0.0
  0
VERTEX
  5
74C
  8
0
 10
1248.568473544138
 20
285.1514939848968
 30
0.0
  0
VERTEX
  5
74D
  8
0
 10
1248.764702531138
 20
285.1927778351501
 30
0.0
  0
VERTEX
  5
74E
  8
0
 10
1248.960632115052
 20
285.2350857925005
 30
0.0
  0
VERTEX
  5
74F
  8
0
 10
1249.156257249465
 20
285.2784175842519
 30
0.0
  0
VERTEX
  5
750
  8
0
 10
1249.351572887961
 20
285.3227729377086
 30
0.0
  0
VERTEX
  5
751
  8
0
 10
1249.546573984125
 20
285.3681515801746
 30
0.0
  0
VERTEX
  5
752
  8
0
 10
1249.741255491543
 20
285.4145532389541
 30
0.0
  0
VERTEX
  5
753
  8
0
 10
1249.935612363798
 20
285.4619776413512
 30
0.0
  0
VERTEX
  5
754
  8
0
 10
1250.129639554478
 20
285.5104245146701
 30
0.0
  0
VERTEX
  5
755
  8
0
 10
1250.323332017165
 20
285.5598935862149
 30
0.0
  0
VERTEX
  5
756
  8
0
 10
1250.516684705445
 20
285.6103845832895
 30
0.0
  0
VERTEX
  5
757
  8
0
 10
1250.709692572904
 20
285.6618972331983
 30
0.0
  0
VERTEX
  5
758
  8
0
 10
1250.902350573125
 20
285.7144312632454
 30
0.0
  0
VERTEX
  5
759
  8
0
 10
1251.094653659695
 20
285.7679864007348
 30
0.0
  0
VERTEX
  5
75A
  8
0
 10
1251.286596786198
 20
285.8225623729707
 30
0.0
  0
VERTEX
  5
75B
  8
0
 10
1251.478174906219
 20
285.8781589072572
 30
0.0
  0
VERTEX
  5
75C
  8
0
 10
1251.669382973343
 20
285.9347757308984
 30
0.0
  0
VERTEX
  5
75D
  8
0
 10
1251.860215941155
 20
285.9924125711985
 30
0.0
  0
VERTEX
  5
75E
  8
0
 10
1252.050668763239
 20
286.0510691554616
 30
0.0
  0
VERTEX
  5
75F
  8
0
 10
1252.240736393182
 20
286.1107452109919
 30
0.0
  0
VERTEX
  5
760
  8
0
 10
1252.430413784568
 20
286.1714404650933
 30
0.0
  0
VERTEX
  5
761
  8
0
 10
1252.619695890982
 20
286.2331546450702
 30
0.0
  0
VERTEX
  5
762
  8
0
 10
1252.808577666008
 20
286.2958874782263
 30
0.0
  0
VERTEX
  5
763
  8
0
 10
1252.997054063232
 20
286.3596386918663
 30
0.0
  0
VERTEX
  5
764
  8
0
 10
1253.185120036239
 20
286.4244080132939
 30
0.0
  0
VERTEX
  5
765
  8
0
 10
1253.372770538614
 20
286.4901951698134
 30
0.0
  0
VERTEX
  5
766
  8
0
 10
1253.560000523942
 20
286.556999888729
 30
0.0
  0
VERTEX
  5
767
  8
0
 10
1253.746804945807
 20
286.6248218973446
 30
0.0
  0
VERTEX
  5
768
  8
0
 10
1253.933178757795
 20
286.6936609229645
 30
0.0
  0
VERTEX
  5
769
  8
0
 10
1254.119116913491
 20
286.7635166928927
 30
0.0
  0
VERTEX
  5
76A
  8
0
 10
1254.304614366479
 20
286.8343889344334
 30
0.0
  0
VERTEX
  5
76B
  8
0
 10
1254.489666070345
 20
286.9062773748906
 30
0.0
  0
VERTEX
  5
76C
  8
0
 10
1254.674266978673
 20
286.9791817415687
 30
0.0
  0
VERTEX
  5
76D
  8
0
 10
1254.858412045049
 20
287.0531017617717
 30
0.0
  0
VERTEX
  5
76E
  8
0
 10
1255.042096223058
 20
287.1280371628036
 30
0.0
  0
VERTEX
  5
76F
  8
0
 10
1255.225314466284
 20
287.2039876719685
 30
0.0
  0
VERTEX
  5
770
  8
0
 10
1255.408061728312
 20
287.2809530165708
 30
0.0
  0
VERTEX
  5
771
  8
0
 10
1255.590332962728
 20
287.3589329239146
 30
0.0
  0
VERTEX
  5
772
  8
0
 10
1255.772123123116
 20
287.4379271213036
 30
0.0
  0
VERTEX
  5
773
  8
0
 10
1255.953427163062
 20
287.5179353360423
 30
0.0
  0
VERTEX
  5
774
  8
0
 10
1256.13424003615
 20
287.5989572954349
 30
0.0
  0
VERTEX
  5
775
  8
0
 10
1256.314556695966
 20
287.6809927267852
 30
0.0
  0
VERTEX
  5
776
  8
0
 10
1256.494372096093
 20
287.7640413573976
 30
0.0
  0
VERTEX
  5
777
  8
0
 10
1256.673681190118
 20
287.8481029145761
 30
0.0
  0
VERTEX
  5
778
  8
0
 10
1256.852478931626
 20
287.9331771256249
 30
0.0
  0
VERTEX
  5
779
  8
0
 10
1257.0307603229
 20
288.0192636601228
 30
0.0
  0
VERTEX
  5
77A
  8
0
 10
1257.208524811187
 20
288.1063569189083
 30
0.0
  0
VERTEX
  5
77B
  8
0
 10
1257.385779790355
 20
288.1944418834653
 30
0.0
  0
VERTEX
  5
77C
  8
0
 10
1257.562533478291
 20
288.2835025585393
 30
0.0
  0
VERTEX
  5
77D
  8
0
 10
1257.738794092885
 20
288.3735229488761
 30
0.0
  0
VERTEX
  5
77E
  8
0
 10
1257.914569852025
 20
288.4644870592213
 30
0.0
  0
VERTEX
  5
77F
  8
0
 10
1258.089868973602
 20
288.5563788943203
 30
0.0
  0
VERTEX
  5
780
  8
0
 10
1258.264699675503
 20
288.649182458919
 30
0.0
  0
VERTEX
  5
781
  8
0
 10
1258.439070175617
 20
288.7428817577628
 30
0.0
  0
VERTEX
  5
782
  8
0
 10
1258.612988691835
 20
288.8374607955975
 30
0.0
  0
VERTEX
  5
783
  8
0
 10
1258.786463442045
 20
288.9329035771686
 30
0.0
  0
VERTEX
  5
784
  8
0
 10
1258.959502644135
 20
289.0291941072218
 30
0.0
  0
VERTEX
  5
785
  8
0
 10
1259.304307275515
 20
289.2242544317566
 30
0.0
  0
VERTEX
  5
786
  8
0
 10
1259.647468329087
 20
289.4225138071673
 30
0.0
  0
VERTEX
  5
787
  8
0
 10
1259.989051547964
 20
289.6238442714185
 30
0.0
  0
VERTEX
  5
788
  8
0
 10
1260.329122675257
 20
289.8281178624754
 30
0.0
  0
VERTEX
  5
789
  8
0
 10
1260.667747454079
 20
290.0352066183029
 30
0.0
  0
VERTEX
  5
78A
  8
0
 10
1261.004991627543
 20
290.2449825768659
 30
0.0
  0
VERTEX
  5
78B
  8
0
 10
1261.340920938761
 20
290.4573177761296
 30
0.0
  0
VERTEX
  5
78C
  8
0
 10
1261.675601130845
 20
290.6720842540587
 30
0.0
  0
VERTEX
  5
78D
  8
0
 10
1262.009097946907
 20
290.8891540486184
 30
0.0
  0
VERTEX
  5
78E
  8
0
 10
1262.34147713006
 20
291.1083991977735
 30
0.0
  0
VERTEX
  5
78F
  8
0
 10
1262.672804423415
 20
291.329691739489
 30
0.0
  0
VERTEX
  5
790
  8
0
 10
1263.003145570086
 20
291.55290371173
 30
0.0
  0
VERTEX
  5
791
  8
0
 10
1263.332566313185
 20
291.7779071524612
 30
0.0
  0
VERTEX
  5
792
  8
0
 10
1263.661132395824
 20
292.004574099648
 30
0.0
  0
VERTEX
  5
793
  8
0
 10
1263.988909561115
 20
292.2327765912549
 30
0.0
  0
VERTEX
  5
794
  8
0
 10
1264.31596355217
 20
292.4623866652473
 30
0.0
  0
VERTEX
  5
795
  8
0
 10
1264.642360112103
 20
292.6932763595899
 30
0.0
  0
VERTEX
  5
796
  8
0
 10
1264.968164984024
 20
292.9253177122477
 30
0.0
  0
VERTEX
  5
797
  8
0
 10
1265.293443911047
 20
293.1583827611857
 30
0.0
  0
VERTEX
  5
798
  8
0
 10
1265.618262636284
 20
293.3923435443689
 30
0.0
  0
VERTEX
  5
799
  8
0
 10
1266.266782453848
 20
293.8624404653308
 30
0.0
  0
VERTEX
  5
79A
  8
0
 10
1266.914250381616
 20
294.3345847788532
 30
0.0
  0
VERTEX
  5
79B
  8
0
 10
1267.561192364485
 20
294.8077527886558
 30
0.0
  0
VERTEX
  5
79C
  8
0
 10
1283.27604797633
 20
294.2123914483091
 30
0.0
  0
VERTEX
  5
79D
  8
0
 10
1271.059769855389
 20
272.4851101633504
 30
0.0
  0
VERTEX
  5
79E
  8
0
 10
1195.263414250464
 20
272.8577799454625
 30
0.0
  0
SEQEND
  5
13CA
  8
0
  0
POLYLINE
  5
9D
  8
0
 66
     1
 10
0.0
 20
0.0
 30
0.0
 70
     1
  0
VERTEX
  5
79F
  8
0
 10
1182.83580876141
 20
271.1991027410699
 30
0.0
 42
-0.5529637660410934
  0
VERTEX
  5
7A0
  8
0
 10
1184.741049141945
 20
413.4773276829694
 30
0.0
  0
VERTEX
  5
7A1
  8
0
 10
1188.594912863441
 20
406.9784313219332
 30
0.0
  0
VERTEX
  5
7A2
  8
0
 10
1150.563250419723
 20
341.413051299227
 30
0.0
  0
VERTEX
  5
7A3
  8
0
 10
1163.333384496585
 20
320.0066065027914
 30
0.0
  0
VERTEX
  5
7A4
  8
0
 10
1171.667918236209
 20
333.3425237704487
 30
0.0
  0
VERTEX
  5
7A5
  8
0
 10
1171.579311999298
 20
334.1391233119244
 30
0.0
  0
VERTEX
  5
7A6
  8
0
 10
1171.491855439864
 20
334.9356698080507
 30
0.0
  0
VERTEX
  5
7A7
  8
0
 10
1171.406698235384
 20
335.7321102134778
 30
0.0
  0
VERTEX
  5
7A8
  8
0
 10
1171.365341165464
 20
336.1302740555074
 30
0.0
  0
VERTEX
  5
7A9
  8
0
 10
1171.324990063337
 20
336.5283914828564
 30
0.0
  0
VERTEX
  5
7AA
  8
0
 10
1171.285788638685
 20
336.9264558648555
 30
0.0
  0
VERTEX
  5
7AB
  8
0
 10
1171.247880601196
 20
337.3244605708364
 30
0.0
  0
VERTEX
  5
7AC
  8
0
 10
1171.211409660553
 20
337.7223989701305
 30
0.0
  0
VERTEX
  5
7AD
  8
0
 10
1171.176519526441
 20
338.120264432069
 30
0.0
  0
VERTEX
  5
7AE
  8
0
 10
1171.143353908545
 20
338.5180503259829
 30
0.0
  0
VERTEX
  5
7AF
  8
0
 10
1171.112056516549
 20
338.915750021204
 30
0.0
  0
VERTEX
  5
7B0
  8
0
 10
1171.082771060138
 20
339.3133568870633
 30
0.0
  0
VERTEX
  5
7B1
  8
0
 10
1171.055641248996
 20
339.7108642928923
 30
0.0
  0
VERTEX
  5
7B2
  8
0
 10
1171.030810792808
 20
340.108265608022
 30
0.0
  0
VERTEX
  5
7B3
  8
0
 10
1171.00842340126
 20
340.5055542017839
 30
0.0
  0
VERTEX
  5
7B4
  8
0
 10
1170.988622784034
 20
340.9027234435094
 30
0.0
  0
VERTEX
  5
7B5
  8
0
 10
1170.971552650817
 20
341.2997667025296
 30
0.0
  0
VERTEX
  5
7B6
  8
0
 10
1170.957356711293
 20
341.6966773481761
 30
0.0
  0
VERTEX
  5
7B7
  8
0
 10
1170.946178675145
 20
342.0934487497798
 30
0.0
  0
VERTEX
  5
7B8
  8
0
 10
1170.93816225206
 20
342.4900742766724
 30
0.0
  0
VERTEX
  5
7B9
  8
0
 10
1170.933451151721
 20
342.8865472981848
 30
0.0
  0
VERTEX
  5
7BA
  8
0
 10
1170.932380006858
 20
343.0847245473398
 30
0.0
  0
VERTEX
  5
7BB
  8
0
 10
1170.932189083813
 20
343.2828611836487
 30
0.0
  0
VERTEX
  5
7BC
  8
0
 10
1170.932896346298
 20
343.4809563782786
 30
0.0
  0
VERTEX
  5
7BD
  8
0
 10
1170.934519758021
 20
343.6790093023953
 30
0.0
  0
VERTEX
  5
7BE
  8
0
 10
1170.937077282695
 20
343.8770191271656
 30
0.0
  0
VERTEX
  5
7BF
  8
0
 10
1170.94058688403
 20
344.0749850237557
 30
0.0
  0
VERTEX
  5
7C0
  8
0
 10
1170.945066525736
 20
344.2729061633322
 30
0.0
  0
VERTEX
  5
7C1
  8
0
 10
1170.950534171524
 20
344.4707817170614
 30
0.0
  0
VERTEX
  5
7C2
  8
0
 10
1170.957007785104
 20
344.6686108561098
 30
0.0
  0
VERTEX
  5
7C3
  8
0
 10
1170.964505330187
 20
344.8663927516437
 30
0.0
  0
VERTEX
  5
7C4
  8
0
 10
1170.973044770484
 20
345.0641265748296
 30
0.0
  0
VERTEX
  5
7C5
  8
0
 10
1170.982644069705
 20
345.2618114968337
 30
0.0
  0
VERTEX
  5
7C6
  8
0
 10
1170.993321191561
 20
345.4594466888228
 30
0.0
  0
VERTEX
  5
7C7
  8
0
 10
1171.005094099762
 20
345.6570313219631
 30
0.0
  0
VERTEX
  5
7C8
  8
0
 10
1171.017980758019
 20
345.8545645674209
 30
0.0
  0
VERTEX
  5
7C9
  8
0
 10
1171.031997872807
 20
346.0520453674738
 30
0.0
  0
VERTEX
  5
7CA
  8
0
 10
1171.047150026217
 20
346.2494704570666
 30
0.0
  0
VERTEX
  5
7CB
  8
0
 10
1171.063435018535
 20
346.4468353364665
 30
0.0
  0
VERTEX
  5
7CC
  8
0
 10
1171.080850575743
 20
346.6441354924137
 30
0.0
  0
VERTEX
  5
7CD
  8
0
 10
1171.099394423826
 20
346.8413664116483
 30
0.0
  0
VERTEX
  5
7CE
  8
0
 10
1171.119064288767
 20
347.0385235809103
 30
0.0
  0
VERTEX
  5
7CF
  8
0
 10
1171.139857896547
 20
347.2356024869398
 30
0.0
  0
VERTEX
  5
7D0
  8
0
 10
1171.161772973151
 20
347.432598616477
 30
0.0
  0
VERTEX
  5
7D1
  8
0
 10
1171.184807244562
 20
347.6295074562617
 30
0.0
  0
VERTEX
  5
7D2
  8
0
 10
1171.208958436763
 20
347.8263244930342
 30
0.0
  0
VERTEX
  5
7D3
  8
0
 10
1171.234224275737
 20
348.0230452135347
 30
0.0
  0
VERTEX
  5
7D4
  8
0
 10
1171.260602487467
 20
348.219665104503
 30
0.0
  0
VERTEX
  5
7D5
  8
0
 10
1171.288090797937
 20
348.4161796526793
 30
0.0
  0
VERTEX
  5
7D6
  8
0
 10
1171.31668693313
 20
348.6125843448037
 30
0.0
  0
VERTEX
  5
7D7
  8
0
 10
1171.346388619028
 20
348.8088746676161
 30
0.0
  0
VERTEX
  5
7D8
  8
0
 10
1171.377193581615
 20
349.005046107857
 30
0.0
  0
VERTEX
  5
7D9
  8
0
 10
1171.409099546874
 20
349.2010941522661
 30
0.0
  0
VERTEX
  5
7DA
  8
0
 10
1171.442104240789
 20
349.3970142875837
 30
0.0
  0
VERTEX
  5
7DB
  8
0
 10
1171.476205389342
 20
349.5928020005496
 30
0.0
  0
VERTEX
  5
7DC
  8
0
 10
1171.511400718516
 20
349.7884527779041
 30
0.0
  0
VERTEX
  5
7DD
  8
0
 10
1171.547687954296
 20
349.9839621063873
 30
0.0
  0
VERTEX
  5
7DE
  8
0
 10
1171.585064822663
 20
350.1793254727392
 30
0.0
  0
VERTEX
  5
7DF
  8
0
 10
1171.623529049602
 20
350.3745383636999
 30
0.0
  0
VERTEX
  5
7E0
  8
0
 10
1171.663078361094
 20
350.5695962660095
 30
0.0
  0
VERTEX
  5
7E1
  8
0
 10
1171.703710483124
 20
350.764494666408
 30
0.0
  0
VERTEX
  5
7E2
  8
0
 10
1171.745423141675
 20
350.9592290516355
 30
0.0
  0
VERTEX
  5
7E3
  8
0
 10
1171.788214062729
 20
351.1537949084322
 30
0.0
  0
VERTEX
  5
7E4
  8
0
 10
1171.832080972271
 20
351.348187723538
 30
0.0
  0
VERTEX
  5
7E5
  8
0
 10
1171.877021596282
 20
351.5424029836932
 30
0.0
  0
VERTEX
  5
7E6
  8
0
 10
1171.923033660747
 20
351.7364361756377
 30
0.0
  0
VERTEX
  5
7E7
  8
0
 10
1171.970114891648
 20
351.9302827861117
 30
0.0
  0
VERTEX
  5
7E8
  8
0
 10
1172.018263014969
 20
352.1239383018551
 30
0.0
  0
VERTEX
  5
7E9
  8
0
 10
1172.067475756693
 20
352.317398209608
 30
0.0
  0
VERTEX
  5
7EA
  8
0
 10
1172.117750842802
 20
352.5106579961109
 30
0.0
  0
VERTEX
  5
7EB
  8
0
 10
1172.169085999281
 20
352.7037131481032
 30
0.0
  0
VERTEX
  5
7EC
  8
0
 10
1172.221478952112
 20
352.8965591523256
 30
0.0
  0
VERTEX
  5
7ED
  8
0
 10
1172.274927427278
 20
353.0891914955179
 30
0.0
  0
VERTEX
  5
7EE
  8
0
 10
1172.329429150763
 20
353.2816056644202
 30
0.0
  0
VERTEX
  5
7EF
  8
0
 10
1172.384981848549
 20
353.4737971457724
 30
0.0
  0
VERTEX
  5
7F0
  8
0
 10
1172.441583246621
 20
353.6657614263149
 30
0.0
  0
VERTEX
  5
7F1
  8
0
 10
1172.499231070961
 20
353.8574939927876
 30
0.0
  0
VERTEX
  5
7F2
  8
0
 10
1172.557923047552
 20
354.0489903319306
 30
0.0
  0
VERTEX
  5
7F3
  8
0
 10
1172.617656902377
 20
354.240245930484
 30
0.0
  0
VERTEX
  5
7F4
  8
0
 10
1172.67843036142
 20
354.4312562751879
 30
0.0
  0
VERTEX
  5
7F5
  8
0
 10
1172.740241150664
 20
354.6220168527823
 30
0.0
  0
VERTEX
  5
7F6
  8
0
 10
1172.803086996091
 20
354.8125231500074
 30
0.0
  0
VERTEX
  5
7F7
  8
0
 10
1172.866965623686
 20
355.0027706536032
 30
0.0
  0
VERTEX
  5
7F8
  8
0
 10
1172.931874759431
 20
355.1927548503098
 30
0.0
  0
VERTEX
  5
7F9
  8
0
 10
1172.99781212931
 20
355.3824712268672
 30
0.0
  0
VERTEX
  5
7FA
  8
0
 10
1173.064775459304
 20
355.5719152700157
 30
0.0
  0
VERTEX
  5
7FB
  8
0
 10
1173.132762475399
 20
355.7610824664951
 30
0.0
  0
VERTEX
  5
7FC
  8
0
 10
1173.201770903577
 20
355.9499683030456
 30
0.0
  0
VERTEX
  5
7FD
  8
0
 10
1173.27179846982
 20
356.1385682664074
 30
0.0
  0
VERTEX
  5
7FE
  8
0
 10
1173.342842900114
 20
356.3268778433205
 30
0.0
  0
VERTEX
  5
7FF
  8
0
 10
1173.414901920439
 20
356.5148925205248
 30
0.0
  0
VERTEX
  5
800
  8
0
 10
1173.48797325678
 20
356.7026077847606
 30
0.0
  0
VERTEX
  5
801
  8
0
 10
1173.56205463512
 20
356.890019122768
 30
0.0
  0
VERTEX
  5
802
  8
0
 10
1173.637143781441
 20
357.0771220212869
 30
0.0
  0
VERTEX
  5
803
  8
0
 10
1173.713238421728
 20
357.2639119670575
 30
0.0
  0
VERTEX
  5
804
  8
0
 10
1173.790336281962
 20
357.4503844468198
 30
0.0
  0
VERTEX
  5
805
  8
0
 10
1173.868435088129
 20
357.636534947314
 30
0.0
  0
VERTEX
  5
806
  8
0
 10
1173.94753256621
 20
357.8223589552801
 30
0.0
  0
VERTEX
  5
807
  8
0
 10
1174.027626442188
 20
358.0078519574583
 30
0.0
  0
VERTEX
  5
808
  8
0
 10
1174.108714442048
 20
358.1930094405885
 30
0.0
  0
VERTEX
  5
809
  8
0
 10
1174.190794291771
 20
358.3778268914108
 30
0.0
  0
VERTEX
  5
80A
  8
0
 10
1174.273863717342
 20
358.5622997966653
 30
0.0
  0
VERTEX
  5
80B
  8
0
 10
1174.357920444743
 20
358.7464236430922
 30
0.0
  0
VERTEX
  5
80C
  8
0
 10
1174.442962199958
 20
358.9301939174315
 30
0.0
  0
VERTEX
  5
80D
  8
0
 10
1174.52898670897
 20
359.1136061064232
 30
0.0
  0
VERTEX
  5
80E
  8
0
 10
1174.615991697761
 20
359.2966556968075
 30
0.0
  0
VERTEX
  5
80F
  8
0
 10
1174.703974892316
 20
359.4793381753244
 30
0.0
  0
VERTEX
  5
810
  8
0
 10
1174.792934018617
 20
359.6616490287141
 30
0.0
  0
VERTEX
  5
811
  8
0
 10
1174.882866802647
 20
359.8435837437164
 30
0.0
  0
VERTEX
  5
812
  8
0
 10
1174.973770970389
 20
360.0251378070718
 30
0.0
  0
VERTEX
  5
813
  8
0
 10
1175.065644247828
 20
360.20630670552
 30
0.0
  0
VERTEX
  5
814
  8
0
 10
1175.158484360945
 20
360.3870859258013
 30
0.0
  0
VERTEX
  5
815
  8
0
 10
1175.252289035724
 20
360.5674709546557
 30
0.0
  0
VERTEX
  5
816
  8
0
 10
1175.347055998149
 20
360.7474572788233
 30
0.0
  0
VERTEX
  5
817
  8
0
 10
1175.442782981127
 20
360.9270403694678
 30
0.0
  0
VERTEX
  5
818
  8
0
 10
1175.53947037631
 20
361.1062097175219
 30
0.0
  0
VERTEX
  5
819
  8
0
 10
1175.637125238593
 20
361.2849398264889
 30
0.0
  0
VERTEX
  5
81A
  8
0
 10
1175.735755649889
 20
361.4632028898316
 30
0.0
  0
VERTEX
  5
81B
  8
0
 10
1175.835369692109
 20
361.640971101014
 30
0.0
  0
VERTEX
  5
81C
  8
0
 10
1175.935975447167
 20
361.8182166534993
 30
0.0
  0
VERTEX
  5
81D
  8
0
 10
1176.037580996974
 20
361.9949117407511
 30
0.0
  0
VERTEX
  5
81E
  8
0
 10
1176.140194423443
 20
362.1710285562327
 30
0.0
  0
VERTEX
  5
81F
  8
0
 10
1176.243823808485
 20
362.3465392934075
 30
0.0
  0
VERTEX
  5
820
  8
0
 10
1176.348477234016
 20
362.5214161457393
 30
0.0
  0
VERTEX
  5
821
  8
0
 10
1176.454162781944
 20
362.695631306691
 30
0.0
  0
VERTEX
  5
822
  8
0
 10
1176.560888534184
 20
362.8691569697266
 30
0.0
  0
VERTEX
  5
823
  8
0
 10
1176.668662572649
 20
363.0419653283093
 30
0.0
  0
VERTEX
  5
824
  8
0
 10
1176.777492979249
 20
363.2140285759025
 30
0.0
  0
VERTEX
  5
825
  8
0
 10
1176.887387835898
 20
363.3853189059697
 30
0.0
  0
VERTEX
  5
826
  8
0
 10
1176.998355224507
 20
363.5558085119744
 30
0.0
  0
VERTEX
  5
827
  8
0
 10
1177.11040322699
 20
363.72546958738
 30
0.0
  0
VERTEX
  5
828
  8
0
 10
1177.223539925259
 20
363.8942743256499
 30
0.0
  0
VERTEX
  5
829
  8
0
 10
1177.337773401226
 20
364.0621949202476
 30
0.0
  0
VERTEX
  5
82A
  8
0
 10
1177.453111736803
 20
364.2292035646366
 30
0.0
  0
VERTEX
  5
82B
  8
0
 10
1177.569563013903
 20
364.3952724522804
 30
0.0
  0
VERTEX
  5
82C
  8
0
 10
1177.687135314438
 20
364.5603737766422
 30
0.0
  0
VERTEX
  5
82D
  8
0
 10
1177.805836720321
 20
364.7244797311857
 30
0.0
  0
VERTEX
  5
82E
  8
0
 10
1177.925675313464
 20
364.8875625093741
 30
0.0
  0
VERTEX
  5
82F
  8
0
 10
1178.046659175779
 20
365.0495943046711
 30
0.0
  0
VERTEX
  5
830
  8
0
 10
1178.168796389179
 20
365.2105473105401
 30
0.0
  0
VERTEX
  5
831
  8
0
 10
1178.292095035576
 20
365.3703937204445
 30
0.0
  0
VERTEX
  5
832
  8
0
 10
1178.416563196882
 20
365.5291057278478
 30
0.0
  0
VERTEX
  5
833
  8
0
 10
1178.54220895501
 20
365.6866555262133
 30
0.0
  0
VERTEX
  5
834
  8
0
 10
1178.669040391873
 20
365.8430153090045
 30
0.0
  0
VERTEX
  5
835
  8
0
 10
1178.797065589382
 20
365.998157269685
 30
0.0
  0
VERTEX
  5
836
  8
0
 10
1178.92629262945
 20
366.1520536017181
 30
0.0
  0
VERTEX
  5
837
  8
0
 10
1179.056729593989
 20
366.3046764985673
 30
0.0
  0
VERTEX
  5
838
  8
0
 10
1179.188384564912
 20
366.4559981536961
 30
0.0
  0
VERTEX
  5
839
  8
0
 10
1179.321265624131
 20
366.6059907605679
 30
0.0
  0
VERTEX
  5
83A
  8
0
 10
1179.455380853559
 20
366.7546265126462
 30
0.0
  0
VERTEX
  5
83B
  8
0
 10
1179.590738335108
 20
366.9018776033942
 30
0.0
  0
VERTEX
  5
83C
  8
0
 10
1179.72734615069
 20
367.0477162262756
 30
0.0
  0
VERTEX
  5
83D
  8
0
 10
1179.865212382218
 20
367.192114574754
 30
0.0
  0
VERTEX
  5
83E
  8
0
 10
1180.004345111603
 20
367.3350448422925
 30
0.0
  0
VERTEX
  5
83F
  8
0
 10
1180.144752420759
 20
367.4764792223546
 30
0.0
  0
VERTEX
  5
840
  8
0
 10
1180.286442391598
 20
367.616389908404
 30
0.0
  0
VERTEX
  5
841
  8
0
 10
1180.429423106032
 20
367.754749093904
 30
0.0
  0
VERTEX
  5
842
  8
0
 10
1180.573702645974
 20
367.891528972318
 30
0.0
  0
VERTEX
  5
843
  8
0
 10
1180.719289093335
 20
368.0267017371095
 30
0.0
  0
VERTEX
  5
844
  8
0
 10
1180.866190530029
 20
368.1602395817419
 30
0.0
  0
VERTEX
  5
845
  8
0
 10
1181.014415037967
 20
368.2921146996788
 30
0.0
  0
VERTEX
  5
846
  8
0
 10
1181.163970699063
 20
368.4222992843834
 30
0.0
  0
VERTEX
  5
847
  8
0
 10
1181.314865595228
 20
368.5507655293194
 30
0.0
  0
VERTEX
  5
848
  8
0
 10
1181.467107808375
 20
368.6774856279501
 30
0.0
  0
VERTEX
  5
849
  8
0
 10
1181.620705420416
 20
368.802431773739
 30
0.0
  0
VERTEX
  5
84A
  8
0
 10
1181.775666513263
 20
368.9255761601495
 30
0.0
  0
VERTEX
  5
84B
  8
0
 10
1181.93199916883
 20
369.0468909806452
 30
0.0
  0
VERTEX
  5
84C
  8
0
 10
1182.089711469027
 20
369.1663484286893
 30
0.0
  0
VERTEX
  5
84D
  8
0
 10
1182.248811495769
 20
369.2839206977454
 30
0.0
  0
VERTEX
  5
84E
  8
0
 10
1182.409307330967
 20
369.3995799812771
 30
0.0
  0
VERTEX
  5
84F
  8
0
 10
1182.571207056533
 20
369.5132984727476
 30
0.0
  0
VERTEX
  5
850
  8
0
 10
1182.73451875438
 20
369.6250483656204
 30
0.0
  0
VERTEX
  5
851
  8
0
 10
1182.89925050642
 20
369.734801853359
 30
0.0
  0
VERTEX
  5
852
  8
0
 10
1183.065410206735
 20
369.8425312591099
 30
0.0
  0
VERTEX
  5
853
  8
0
 10
1183.232992767021
 20
369.9482178694028
 30
0.0
  0
VERTEX
  5
854
  8
0
 10
1183.40197192441
 20
370.0518575902443
 30
0.0
  0
VERTEX
  5
855
  8
0
 10
1183.572319465828
 20
370.1534476741161
 30
0.0
  0
VERTEX
  5
856
  8
0
 10
1183.7440071782
 20
370.2529853734995
 30
0.0
  0
VERTEX
  5
857
  8
0
 10
1183.917006848453
 20
370.3504679408761
 30
0.0
  0
VERTEX
  5
858
  8
0
 10
1184.091290263512
 20
370.4458926287273
 30
0.0
  0
VERTEX
  5
859
  8
0
 10
1184.266829210303
 20
370.5392566895346
 30
0.0
  0
VERTEX
  5
85A
  8
0
 10
1184.443595475752
 20
370.6305573757795
 30
0.0
  0
VERTEX
  5
85B
  8
0
 10
1184.621560846784
 20
370.7197919399433
 30
0.0
  0
VERTEX
  5
85C
  8
0
 10
1184.800697110325
 20
370.8069576345076
 30
0.0
  0
VERTEX
  5
85D
  8
0
 10
1184.980976053301
 20
370.8920517119539
 30
0.0
  0
VERTEX
  5
85E
  8
0
 10
1185.162369462638
 20
370.9750714247635
 30
0.0
  0
VERTEX
  5
85F
  8
0
 10
1185.344849125262
 20
371.0560140254181
 30
0.0
  0
VERTEX
  5
860
  8
0
 10
1185.528386828097
 20
371.134876766399
 30
0.0
  0
VERTEX
  5
861
  8
0
 10
1185.71295435807
 20
371.2116569001877
 30
0.0
  0
VERTEX
  5
862
  8
0
 10
1185.898523502107
 20
371.2863516792657
 30
0.0
  0
VERTEX
  5
863
  8
0
 10
1186.085066047133
 20
371.3589583561144
 30
0.0
  0
VERTEX
  5
864
  8
0
 10
1186.272553780075
 20
371.4294741832155
 30
0.0
  0
VERTEX
  5
865
  8
0
 10
1186.460958487857
 20
371.49789641305
 30
0.0
  0
VERTEX
  5
866
  8
0
 10
1186.650251957406
 20
371.5642222980998
 30
0.0
  0
VERTEX
  5
867
  8
0
 10
1186.840405975647
 20
371.6284490908462
 30
0.0
  0
VERTEX
  5
868
  8
0
 10
1187.031392329505
 20
371.6905740437706
 30
0.0
  0
VERTEX
  5
869
  8
0
 10
1187.223182805909
 20
371.7505944093546
 30
0.0
  0
VERTEX
  5
86A
  8
0
 10
1187.415749191781
 20
371.8085074400796
 30
0.0
  0
VERTEX
  5
86B
  8
0
 10
1187.609063274049
 20
371.864310388427
 30
0.0
  0
VERTEX
  5
86C
  8
0
 10
1187.803096839637
 20
371.9180005068784
 30
0.0
  0
VERTEX
  5
86D
  8
0
 10
1187.997821675473
 20
371.9695750479152
 30
0.0
  0
VERTEX
  5
86E
  8
0
 10
1188.193209568481
 20
372.0190312640189
 30
0.0
  0
VERTEX
  5
86F
  8
0
 10
1188.389232305587
 20
372.066366407671
 30
0.0
  0
VERTEX
  5
870
  8
0
 10
1188.585861673718
 20
372.1115777313528
 30
0.0
  0
VERTEX
  5
871
  8
0
 10
1188.783069459798
 20
372.1546624875458
 30
0.0
  0
VERTEX
  5
872
  8
0
 10
1188.980827450754
 20
372.1956179287316
 30
0.0
  0
VERTEX
  5
873
  8
0
 10
1189.179107433511
 20
372.2344413073916
 30
0.0
  0
VERTEX
  5
874
  8
0
 10
1189.377881194995
 20
372.2711298760073
 30
0.0
  0
VERTEX
  5
875
  8
0
 10
1189.577120522131
 20
372.3056808870601
 30
0.0
  0
VERTEX
  5
876
  8
0
 10
1189.776796862542
 20
372.3380909205642
 30
0.0
  0
VERTEX
  5
877
  8
0
 10
1189.97687488945
 20
372.3683431303368
 30
0.0
  0
VERTEX
  5
878
  8
0
 10
1190.177313028643
 20
372.3964082883957
 30
0.0
  0
VERTEX
  5
879
  8
0
 10
1190.378069472217
 20
372.4222567036009
 30
0.0
  0
VERTEX
  5
87A
  8
0
 10
1190.579102412269
 20
372.4458586848121
 30
0.0
  0
VERTEX
  5
87B
  8
0
 10
1190.780370040892
 20
372.4671845408886
 30
0.0
  0
VERTEX
  5
87C
  8
0
 10
1190.981830550184
 20
372.486204580691
 30
0.0
  0
VERTEX
  5
87D
  8
0
 10
1191.18344213224
 20
372.5028891130782
 30
0.0
  0
VERTEX
  5
87E
  8
0
 10
1191.385162979155
 20
372.5172084469104
 30
0.0
  0
VERTEX
  5
87F
  8
0
 10
1191.586951283025
 20
372.5291328910473
 30
0.0
  0
VERTEX
  5
880
  8
0
 10
1191.788765235945
 20
372.5386327543487
 30
0.0
  0
VERTEX
  5
881
  8
0
 10
1191.990563030012
 20
372.545678345674
 30
0.0
  0
VERTEX
  5
882
  8
0
 10
1192.192302857319
 20
372.5502399738833
 30
0.0
  0
VERTEX
  5
883
  8
0
 10
1192.393942909965
 20
372.5522879478362
 30
0.0
  0
VERTEX
  5
884
  8
0
 10
1192.595441380043
 20
372.5517925763927
 30
0.0
  0
VERTEX
  5
885
  8
0
 10
1192.79675645965
 20
372.5487241684121
 30
0.0
  0
VERTEX
  5
886
  8
0
 10
1192.997846340881
 20
372.5430530327545
 30
0.0
  0
VERTEX
  5
887
  8
0
 10
1193.198669215831
 20
372.5347494782795
 30
0.0
  0
VERTEX
  5
888
  8
0
 10
1193.399183276597
 20
372.5237838138468
 30
0.0
  0
VERTEX
  5
889
  8
0
 10
1193.599346715273
 20
372.5101263483164
 30
0.0
  0
VERTEX
  5
88A
  8
0
 10
1193.799117723956
 20
372.4937473905476
 30
0.0
  0
VERTEX
  5
88B
  8
0
 10
1193.998454494741
 20
372.4746172494005
 30
0.0
  0
VERTEX
  5
88C
  8
0
 10
1194.197315219724
 20
372.4527062337349
 30
0.0
  0
VERTEX
  5
88D
  8
0
 10
1194.395658090999
 20
372.4279846524103
 30
0.0
  0
VERTEX
  5
88E
  8
0
 10
1194.593441300664
 20
372.4004228142866
 30
0.0
  0
VERTEX
  5
88F
  8
0
 10
1194.790623040813
 20
372.3699910282235
 30
0.0
  0
VERTEX
  5
890
  8
0
 10
1194.987161503542
 20
372.3366596030808
 30
0.0
  0
VERTEX
  5
891
  8
0
 10
1195.183014880947
 20
372.3003988477181
 30
0.0
  0
VERTEX
  5
892
  8
0
 10
1195.378141365123
 20
372.2611790709952
 30
0.0
  0
VERTEX
  5
893
  8
0
 10
1195.572499148166
 20
372.218970581772
 30
0.0
  0
VERTEX
  5
894
  8
0
 10
1195.766046422171
 20
372.1737436889081
 30
0.0
  0
VERTEX
  5
895
  8
0
 10
1195.958741379234
 20
372.1254687012633
 30
0.0
  0
VERTEX
  5
896
  8
0
 10
1196.150542211451
 20
372.0741159276973
 30
0.0
  0
VERTEX
  5
897
  8
0
 10
1196.341407110917
 20
372.0196556770699
 30
0.0
  0
VERTEX
  5
898
  8
0
 10
1196.531294269728
 20
371.9620582582409
 30
0.0
  0
VERTEX
  5
899
  8
0
 10
1196.720162921328
 20
371.9012965451261
 30
0.0
  0
VERTEX
  5
89A
  8
0
 10
1196.90799207861
 20
371.8373921324643
 30
0.0
  0
VERTEX
  5
89B
  8
0
 10
1197.094778461282
 20
371.770410230505
 30
0.0
  0
VERTEX
  5
89C
  8
0
 10
1197.280519414284
 20
371.7004175895684
 30
0.0
  0
VERTEX
  5
89D
  8
0
 10
1197.465212282554
 20
371.6274809599742
 30
0.0
  0
VERTEX
  5
89E
  8
0
 10
1197.648854411033
 20
371.5516670920424
 30
0.0
  0
VERTEX
  5
89F
  8
0
 10
1197.831443144658
 20
371.4730427360929
 30
0.0
  0
VERTEX
  5
8A0
  8
0
 10
1198.012975828369
 20
371.3916746424458
 30
0.0
  0
VERTEX
  5
8A1
  8
0
 10
1198.193449807106
 20
371.3076295614208
 30
0.0
  0
VERTEX
  5
8A2
  8
0
 10
1198.372862425808
 20
371.220974243338
 30
0.0
  0
VERTEX
  5
8A3
  8
0
 10
1198.551211029413
 20
371.1317754385174
 30
0.0
  0
VERTEX
  5
8A4
  8
0
 10
1198.728492962861
 20
371.0400998972789
 30
0.0
  0
VERTEX
  5
8A5
  8
0
 10
1198.904705571092
 20
370.9460143699424
 30
0.0
  0
VERTEX
  5
8A6
  8
0
 10
1199.079846199043
 20
370.8495856068277
 30
0.0
  0
VERTEX
  5
8A7
  8
0
 10
1199.253912191655
 20
370.750880358255
 30
0.0
  0
VERTEX
  5
8A8
  8
0
 10
1199.426900893867
 20
370.6499653745441
 30
0.0
  0
VERTEX
  5
8A9
  8
0
 10
1199.598809650617
 20
370.546907406015
 30
0.0
  0
VERTEX
  5
8AA
  8
0
 10
1199.769635806846
 20
370.4417732029875
 30
0.0
  0
VERTEX
  5
8AB
  8
0
 10
1199.939376707491
 20
370.3346295157818
 30
0.0
  0
VERTEX
  5
8AC
  8
0
 10
1200.108029697493
 20
370.2255430947176
 30
0.0
  0
VERTEX
  5
8AD
  8
0
 10
1200.275592121791
 20
370.1145806901151
 30
0.0
  0
VERTEX
  5
8AE
  8
0
 10
1200.442061325323
 20
370.0018090522939
 30
0.0
  0
VERTEX
  5
8AF
  8
0
 10
1200.607434653029
 20
369.8872949315743
 30
0.0
  0
VERTEX
  5
8B0
  8
0
 10
1200.771709449849
 20
369.771105078276
 30
0.0
  0
VERTEX
  5
8B1
  8
0
 10
1200.93488306072
 20
369.6533062427189
 30
0.0
  0
VERTEX
  5
8B2
  8
0
 10
1201.096952830583
 20
369.5339651752232
 30
0.0
  0
VERTEX
  5
8B3
  8
0
 10
1201.257916104377
 20
369.4131486261086
 30
0.0
  0
VERTEX
  5
8B4
  8
0
 10
1201.41777022704
 20
369.2909233456952
 30
0.0
  0
VERTEX
  5
8B5
  8
0
 10
1201.576512543512
 20
369.1673560843029
 30
0.0
  0
VERTEX
  5
8B6
  8
0
 10
1201.734140398733
 20
369.0425135922516
 30
0.0
  0
VERTEX
  5
8B7
  8
0
 10
1201.89065113764
 20
368.9164626198612
 30
0.0
  0
VERTEX
  5
8B8
  8
0
 10
1202.046042105174
 20
368.7892699174517
 30
0.0
  0
VERTEX
  5
8B9
  8
0
 10
1202.200310646275
 20
368.6610022353431
 30
0.0
  0
VERTEX
  5
8BA
  8
0
 10
1202.353454182946
 20
368.5317175105991
 30
0.0
  0
VERTEX
  5
8BB
  8
0
 10
1202.505470541661
 20
368.4014274260804
 30
0.0
  0
VERTEX
  5
8BC
  8
0
 10
1202.656357681121
 20
368.2701285428639
 30
0.0
  0
VERTEX
  5
8BD
  8
0
 10
1202.806113560105
 20
368.1378174134658
 30
0.0
  0
VERTEX
  5
8BE
  8
0
 10
1202.95473613739
 20
368.004490590402
 30
0.0
  0
VERTEX
  5
8BF
  8
0
 10
1203.102223371752
 20
367.8701446261885
 30
0.0
  0
VERTEX
  5
8C0
  8
0
 10
1203.248573221971
 20
367.7347760733415
 30
0.0
  0
VERTEX
  5
8C1
  8
0
 10
1203.393783646824
 20
367.5983814843769
 30
0.0
  0
VERTEX
  5
8C2
  8
0
 10
1203.537852605086
 20
367.4609574118109
 30
0.0
  0
VERTEX
  5
8C3
  8
0
 10
1203.680778055537
 20
367.3225004081594
 30
0.0
  0
VERTEX
  5
8C4
  8
0
 10
1203.822557956954
 20
367.1830070259386
 30
0.0
  0
VERTEX
  5
8C5
  8
0
 10
1203.963190268114
 20
367.0424738176643
 30
0.0
  0
VERTEX
  5
8C6
  8
0
 10
1204.102672947796
 20
366.9008973358529
 30
0.0
  0
VERTEX
  5
8C7
  8
0
 10
1204.241003954775
 20
366.7582741330201
 30
0.0
  0
VERTEX
  5
8C8
  8
0
 10
1204.37818124783
 20
366.6146007616821
 30
0.0
  0
VERTEX
  5
8C9
  8
0
 10
1204.514202785738
 20
366.469873774355
 30
0.0
  0
VERTEX
  5
8CA
  8
0
 10
1204.649066527278
 20
366.3240897235549
 30
0.0
  0
VERTEX
  5
8CB
  8
0
 10
1204.782770431225
 20
366.1772451617975
 30
0.0
  0
VERTEX
  5
8CC
  8
0
 10
1204.915312456358
 20
366.0293366415992
 30
0.0
  0
VERTEX
  5
8CD
  8
0
 10
1205.046690561455
 20
365.8803607154759
 30
0.0
  0
VERTEX
  5
8CE
  8
0
 10
1205.176902705293
 20
365.7303139359437
 30
0.0
  0
VERTEX
  5
8CF
  8
0
 10
1205.305946846648
 20
365.5791928555186
 30
0.0
  0
VERTEX
  5
8D0
  8
0
 10
1205.433820790084
 20
365.4269955395
 30
0.0
  0
VERTEX
  5
8D1
  8
0
 10
1205.560521131688
 20
365.2737319076894
 30
0.0
  0
VERTEX
  5
8D2
  8
0
 10
1205.686043897799
 20
365.1194174688449
 30
0.0
  0
VERTEX
  5
8D3
  8
0
 10
1205.810385111408
 20
364.9640677645668
 30
0.0
  0
VERTEX
  5
8D4
  8
0
 10
1205.933540795507
 20
364.8076983364552
 30
0.0
  0
VERTEX
  5
8D5
  8
0
 10
1206.055506973086
 20
364.6503247261103
 30
0.0
  0
VERTEX
  5
8D6
  8
0
 10
1206.176279667137
 20
364.4919624751323
 30
0.0
  0
VERTEX
  5
8D7
  8
0
 10
1206.29585490065
 20
364.3326271251212
 30
0.0
  0
VERTEX
  5
8D8
  8
0
 10
1206.414228696617
 20
364.1723342176771
 30
0.0
  0
VERTEX
  5
8D9
  8
0
 10
1206.531397078027
 20
364.0110992944002
 30
0.0
  0
VERTEX
  5
8DA
  8
0
 10
1206.647356067874
 20
363.8489378968907
 30
0.0
  0
VERTEX
  5
8DB
  8
0
 10
1206.762101689147
 20
363.6858655667486
 30
0.0
  0
VERTEX
  5
8DC
  8
0
 10
1206.875629964838
 20
363.5218978455744
 30
0.0
  0
VERTEX
  5
8DD
  8
0
 10
1206.987936917937
 20
363.3570502749679
 30
0.0
  0
VERTEX
  5
8DE
  8
0
 10
1207.099018571435
 20
363.1913383965292
 30
0.0
  0
VERTEX
  5
8DF
  8
0
 10
1207.208870948324
 20
363.0247777518586
 30
0.0
  0
VERTEX
  5
8E0
  8
0
 10
1207.317490071596
 20
362.8573838825563
 30
0.0
  0
VERTEX
  5
8E1
  8
0
 10
1207.424871964239
 20
362.6891723302223
 30
0.0
  0
VERTEX
  5
8E2
  8
0
 10
1207.531012649246
 20
362.5201586364568
 30
0.0
  0
VERTEX
  5
8E3
  8
0
 10
1207.635908149608
 20
362.3503583428598
 30
0.0
  0
VERTEX
  5
8E4
  8
0
 10
1207.739554488315
 20
362.1797869910317
 30
0.0
  0
VERTEX
  5
8E5
  8
0
 10
1207.84194768836
 20
362.0084601225724
 30
0.0
  0
VERTEX
  5
8E6
  8
0
 10
1207.943083772732
 20
361.8363932790822
 30
0.0
  0
VERTEX
  5
8E7
  8
0
 10
1208.042958764422
 20
361.6636020021613
 30
0.0
  0
VERTEX
  5
8E8
  8
0
 10
1208.141568686423
 20
361.4901018334097
 30
0.0
  0
VERTEX
  5
8E9
  8
0
 10
1208.238909561724
 20
361.3159083144273
 30
0.0
  0
VERTEX
  5
8EA
  8
0
 10
1208.334977413318
 20
361.1410369868148
 30
0.0
  0
VERTEX
  5
8EB
  8
0
 10
1208.429768264193
 20
360.9655033921718
 30
0.0
  0
VERTEX
  5
8EC
  8
0
 10
1208.523278137344
 20
360.7893230720989
 30
0.0
  0
VERTEX
  5
8ED
  8
0
 10
1208.615503055758
 20
360.6125115681959
 30
0.0
  0
VERTEX
  5
8EE
  8
0
 10
1208.706439042428
 20
360.4350844220631
 30
0.0
  0
VERTEX
  5
8EF
  8
0
 10
1208.796082120346
 20
360.2570571753007
 30
0.0
  0
VERTEX
  5
8F0
  8
0
 10
1208.884428312502
 20
360.0784453695087
 30
0.0
  0
VERTEX
  5
8F1
  8
0
 10
1208.971475393605
 20
359.8992641701815
 30
0.0
  0
VERTEX
  5
8F2
  8
0
 10
1209.057235107207
 20
359.7195257436097
 30
0.0
  0
VERTEX
  5
8F3
  8
0
 10
1209.141725881518
 20
359.5392408208426
 30
0.0
  0
VERTEX
  5
8F4
  8
0
 10
1209.224966186504
 20
359.3584201239645
 30
0.0
  0
VERTEX
  5
8F5
  8
0
 10
1209.306974492131
 20
359.1770743750596
 30
0.0
  0
VERTEX
  5
8F6
  8
0
 10
1209.387769268365
 20
358.9952142962123
 30
0.0
  0
VERTEX
  5
8F7
  8
0
 10
1209.467368985171
 20
358.8128506095062
 30
0.0
  0
VERTEX
  5
8F8
  8
0
 10
1209.545792112516
 20
358.6299940370259
 30
0.0
  0
VERTEX
  5
8F9
  8
0
 10
1209.623057120367
 20
358.4466553008555
 30
0.0
  0
VERTEX
  5
8FA
  8
0
 10
1209.699182478689
 20
358.2628451230792
 30
0.0
  0
VERTEX
  5
8FB
  8
0
 10
1209.774186657447
 20
358.078574225781
 30
0.0
  0
VERTEX
  5
8FC
  8
0
 10
1209.848088126608
 20
357.8938533310452
 30
0.0
  0
VERTEX
  5
8FD
  8
0
 10
1209.920905356139
 20
357.708693160956
 30
0.0
  0
VERTEX
  5
8FE
  8
0
 10
1209.992656816004
 20
357.5231044375975
 30
0.0
  0
VERTEX
  5
8FF
  8
0
 10
1210.063360976171
 20
357.337097883054
 30
0.0
  0
VERTEX
  5
900
  8
0
 10
1210.133036306605
 20
357.1506842194094
 30
0.0
  0
VERTEX
  5
901
  8
0
 10
1210.201701277272
 20
356.9638741687482
 30
0.0
  0
VERTEX
  5
902
  8
0
 10
1210.269374358138
 20
356.7766784531544
 30
0.0
  0
VERTEX
  5
903
  8
0
 10
1210.336074019169
 20
356.5891077947122
 30
0.0
  0
VERTEX
  5
904
  8
0
 10
1210.401818730332
 20
356.4011729155056
 30
0.0
  0
VERTEX
  5
905
  8
0
 10
1210.466626961591
 20
356.2128845376191
 30
0.0
  0
VERTEX
  5
906
  8
0
 10
1210.530517182914
 20
356.0242533831367
 30
0.0
  0
VERTEX
  5
907
  8
0
 10
1210.593507864266
 20
355.8352901741426
 30
0.0
  0
VERTEX
  5
908
  8
0
 10
1210.655617475614
 20
355.6460056327209
 30
0.0
  0
VERTEX
  5
909
  8
0
 10
1210.716864486923
 20
355.4564104809558
 30
0.0
  0
VERTEX
  5
90A
  8
0
 10
1210.777267368159
 20
355.2665154409315
 30
0.0
  0
VERTEX
  5
90B
  8
0
 10
1210.836844589289
 20
355.0763312347322
 30
0.0
  0
VERTEX
  5
90C
  8
0
 10
1210.953595931092
 20
354.6951382121453
 30
0.0
  0
VERTEX
  5
90D
  8
0
 10
1211.06726627206
 20
354.3129171898682
 30
0.0
  0
VERTEX
  5
90E
  8
0
 10
1211.178003371923
 20
353.9297539445745
 30
0.0
  0
VERTEX
  5
90F
  8
0
 10
1211.285954990408
 20
353.5457342529376
 30
0.0
  0
VERTEX
  5
910
  8
0
 10
1211.391268887242
 20
353.1609438916307
 30
0.0
  0
VERTEX
  5
911
  8
0
 10
1211.494069755281
 20
352.7754623578264
 30
0.0
  0
VERTEX
  5
912
  8
0
 10
1211.59430828968
 20
352.3893217812628
 30
0.0
  0
VERTEX
  5
913
  8
0
 10
1211.691855800683
 20
352.0025326807041
 30
0.0
  0
VERTEX
  5
914
  8
0
 10
1211.786583193107
 20
351.6151054645453
 30
0.0
  0
VERTEX
  5
915
  8
0
 10
1211.87836137177
 20
351.2270505411812
 30
0.0
  0
VERTEX
  5
916
  8
0
 10
1211.96706124149
 20
350.838378319007
 30
0.0
  0
VERTEX
  5
917
  8
0
 10
1212.052553707083
 20
350.4490992064177
 30
0.0
  0
VERTEX
  5
918
  8
0
 10
1212.094056821089
 20
350.2542353188406
 30
0.0
  0
VERTEX
  5
919
  8
0
 10
1212.134709673369
 20
350.0592236118079
 30
0.0
  0
VERTEX
  5
91A
  8
0
 10
1212.174496127027
 20
349.864065386369
 30
0.0
  0
VERTEX
  5
91B
  8
0
 10
1212.213400045164
 20
349.6687619435731
 30
0.0
  0
VERTEX
  5
91C
  8
0
 10
1212.251405290883
 20
349.4733145844696
 30
0.0
  0
VERTEX
  5
91D
  8
0
 10
1212.288495727286
 20
349.277724610108
 30
0.0
  0
VERTEX
  5
91E
  8
0
 10
1212.324655217476
 20
349.0819933215375
 30
0.0
  0
VERTEX
  5
91F
  8
0
 10
1212.359867624554
 20
348.8861220198076
 30
0.0
  0
VERTEX
  5
920
  8
0
 10
1212.394116811622
 20
348.6901120059675
 30
0.0
  0
VERTEX
  5
921
  8
0
 10
1212.427386641783
 20
348.4939645810669
 30
0.0
  0
VERTEX
  5
922
  8
0
 10
1212.459660978138
 20
348.2976810461549
 30
0.0
  0
VERTEX
  5
923
  8
0
 10
1212.490923683791
 20
348.1012627022809
 30
0.0
  0
VERTEX
  5
924
  8
0
 10
1212.521158621844
 20
347.9047108504943
 30
0.0
  0
VERTEX
  5
925
  8
0
 10
1212.550349655397
 20
347.7080267918445
 30
0.0
  0
VERTEX
  5
926
  8
0
 10
1212.578480647555
 20
347.511211827381
 30
0.0
  0
VERTEX
  5
927
  8
0
 10
1212.605535461418
 20
347.3142672581529
 30
0.0
  0
VERTEX
  5
928
  8
0
 10
1212.63149796009
 20
347.1171943852099
 30
0.0
  0
VERTEX
  5
929
  8
0
 10
1212.656352006672
 20
346.9199945096009
 30
0.0
  0
VERTEX
  5
92A
  8
0
 10
1212.680081464267
 20
346.7226689323758
 30
0.0
  0
VERTEX
  5
92B
  8
0
 10
1212.702670195976
 20
346.5252189545836
 30
0.0
  0
VERTEX
  5
92C
  8
0
 10
1212.724102064902
 20
346.3276458772739
 30
0.0
  0
VERTEX
  5
92D
  8
0
 10
1212.744360934148
 20
346.1299510014958
 30
0.0
  0
VERTEX
  5
92E
  8
0
 10
1212.763430666814
 20
345.932135628299
 30
0.0
  0
VERTEX
  5
92F
  8
0
 10
1212.781300518279
 20
345.7342017234923
 30
0.0
  0
VERTEX
  5
930
  8
0
 10
1212.797981622336
 20
345.5361539500553
 30
0.0
  0
VERTEX
  5
931
  8
0
 10
1212.813490660814
 20
345.3379976549301
 30
0.0
  0
VERTEX
  5
932
  8
0
 10
1212.827844315547
 20
345.1397381850584
 30
0.0
  0
VERTEX
  5
933
  8
0
 10
1212.841059268367
 20
344.9413808873823
 30
0.0
  0
VERTEX
  5
934
  8
0
 10
1212.853152201106
 20
344.7429311088437
 30
0.0
  0
VERTEX
  5
935
  8
0
 10
1212.864139795596
 20
344.5443941963845
 30
0.0
  0
VERTEX
  5
936
  8
0
 10
1212.874038733669
 20
344.3457754969468
 30
0.0
  0
VERTEX
  5
937
  8
0
 10
1212.882865697157
 20
344.1470803574724
 30
0.0
  0
VERTEX
  5
938
  8
0
 10
1212.890637367892
 20
343.9483141249033
 30
0.0
  0
VERTEX
  5
939
  8
0
 10
1212.897370427706
 20
343.7494821461814
 30
0.0
  0
VERTEX
  5
93A
  8
0
 10
1212.903081558432
 20
343.5505897682486
 30
0.0
  0
VERTEX
  5
93B
  8
0
 10
1212.907787441901
 20
343.351642338047
 30
0.0
  0
VERTEX
  5
93C
  8
0
 10
1212.911504759946
 20
343.1526452025185
 30
0.0
  0
VERTEX
  5
93D
  8
0
 10
1212.914250194399
 20
342.9536037086049
 30
0.0
  0
VERTEX
  5
93E
  8
0
 10
1212.916040427091
 20
342.7545232032483
 30
0.0
  0
VERTEX
  5
93F
  8
0
 10
1212.916892139855
 20
342.5554090333904
 30
0.0
  0
VERTEX
  5
940
  8
0
 10
1212.916822014524
 20
342.3562665459735
 30
0.0
  0
VERTEX
  5
941
  8
0
 10
1212.915846732928
 20
342.1571010879394
 30
0.0
  0
VERTEX
  5
942
  8
0
 10
1212.913982976901
 20
341.9579180062299
 30
0.0
  0
VERTEX
  5
943
  8
0
 10
1212.911247428273
 20
341.7587226477872
 30
0.0
  0
VERTEX
  5
944
  8
0
 10
1212.903227680548
 20
341.3603164884692
 30
0.0
  0
VERTEX
  5
945
  8
0
 10
1212.891920944408
 20
340.9619253855212
 30
0.0
  0
VERTEX
  5
946
  8
0
 10
1212.877460674512
 20
340.5635921144788
 30
0.0
  0
VERTEX
  5
947
  8
0
 10
1212.859980325515
 20
340.1653594508773
 30
0.0
  0
VERTEX
  5
948
  8
0
 10
1212.839613352075
 20
339.7672701702524
 30
0.0
  0
VERTEX
  5
949
  8
0
 10
1212.816493208848
 20
339.3693670481396
 30
0.0
  0
VERTEX
  5
94A
  8
0
 10
1212.79075335049
 20
338.9716928600744
 30
0.0
  0
VERTEX
  5
94B
  8
0
 10
1212.762527231523
 20
338.5742903812237
 30
0.0
  0
VERTEX
  5
94C
  8
0
 10
1212.731944370478
 20
338.1771917729946
 30
0.0
  0
VERTEX
  5
94D
  8
0
 10
1212.699120055171
 20
337.7803908223341
 30
0.0
  0
VERTEX
  5
94E
  8
0
 10
1212.664166358314
 20
337.3838726463638
 30
0.0
  0
VERTEX
  5
94F
  8
0
 10
1212.627195352623
 20
336.9876223622054
 30
0.0
  0
VERTEX
  5
950
  8
0
 10
1212.588319110808
 20
336.5916250869802
 30
0.0
  0
VERTEX
  5
951
  8
0
 10
1212.547649705583
 20
336.19586593781
 30
0.0
  0
VERTEX
  5
952
  8
0
 10
1212.505299209663
 20
335.8003300318163
 30
0.0
  0
VERTEX
  5
953
  8
0
 10
1212.461379695759
 20
335.4050024861206
 30
0.0
  0
VERTEX
  5
954
  8
0
 10
1212.416003236584
 20
335.0098684178446
 30
0.0
  0
VERTEX
  5
955
  8
0
 10
1212.369281904852
 20
334.6149129441097
 30
0.0
  0
VERTEX
  5
956
  8
0
 10
1212.321327773276
 20
334.2201211820377
 30
0.0
  0
VERTEX
  5
957
  8
0
 10
1212.27225291457
 20
333.82547824875
 30
0.0
  0
VERTEX
  5
958
  8
0
 10
1212.222169401445
 20
333.4309692613681
 30
0.0
  0
VERTEX
  5
959
  8
0
 10
1212.119424702794
 20
332.6422935928082
 30
0.0
  0
VERTEX
  5
95A
  8
0
 10
1212.013990259029
 20
331.8539751133308
 30
0.0
  0
VERTEX
  5
95B
  8
0
 10
1211.906762651854
 20
331.0658947599084
 30
0.0
  0
VERTEX
  5
95C
  8
0
 10
1211.798638462974
 20
330.2779334695134
 30
0.0
  0
VERTEX
  5
95D
  8
0
 10
1211.66676589873
 20
329.7627370658715
 30
0.0
  0
VERTEX
  5
95E
  8
0
 10
1211.534210290666
 20
329.2478868585434
 30
0.0
  0
VERTEX
  5
95F
  8
0
 10
1211.467462894009
 20
328.990699764845
 30
0.0
  0
VERTEX
  5
960
  8
0
 10
1211.400288594966
 20
328.7337290438429
 30
0.0
  0
VERTEX
  5
961
  8
0
 10
1211.332602013059
 20
328.477017970076
 30
0.0
  0
VERTEX
  5
962
  8
0
 10
1211.26431776781
 20
328.2206098180837
 30
0.0
  0
VERTEX
  5
963
  8
0
 10
1211.195350478743
 20
327.9645478624051
 30
0.0
  0
VERTEX
  5
964
  8
0
 10
1211.12561476538
 20
327.7088753775797
 30
0.0
  0
VERTEX
  5
965
  8
0
 10
1211.055025247244
 20
327.4536356381464
 30
0.0
  0
VERTEX
  5
966
  8
0
 10
1210.983496543857
 20
327.1988719186446
 30
0.0
  0
VERTEX
  5
967
  8
0
 10
1210.910943274742
 20
326.9446274936133
 30
0.0
  0
VERTEX
  5
968
  8
0
 10
1210.837280059422
 20
326.6909456375921
 30
0.0
  0
VERTEX
  5
969
  8
0
 10
1210.76242151742
 20
326.43786962512
 30
0.0
  0
VERTEX
  5
96A
  8
0
 10
1210.686282268258
 20
326.1854427307362
 30
0.0
  0
VERTEX
  5
96B
  8
0
 10
1210.608776931459
 20
325.9337082289799
 30
0.0
  0
VERTEX
  5
96C
  8
0
 10
1210.529820126545
 20
325.6827093943904
 30
0.0
  0
VERTEX
  5
96D
  8
0
 10
1210.449326473039
 20
325.432489501507
 30
0.0
  0
VERTEX
  5
96E
  8
0
 10
1210.408476646665
 20
325.3076851814986
 30
0.0
  0
VERTEX
  5
96F
  8
0
 10
1210.367210590465
 20
325.1830918248688
 30
0.0
  0
VERTEX
  5
970
  8
0
 10
1210.325517631877
 20
325.0587148409352
 30
0.0
  0
VERTEX
  5
971
  8
0
 10
1210.283387098344
 20
324.934559639015
 30
0.0
  0
VERTEX
  5
972
  8
0
 10
1210.240808317304
 20
324.8106316284259
 30
0.0
  0
VERTEX
  5
973
  8
0
 10
1210.197770616199
 20
324.6869362184851
 30
0.0
  0
VERTEX
  5
974
  8
0
 10
1210.154263322468
 20
324.5634788185098
 30
0.0
  0
VERTEX
  5
975
  8
0
 10
1210.110275763552
 20
324.4402648378178
 30
0.0
  0
VERTEX
  5
976
  8
0
 10
1210.065797266893
 20
324.3172996857263
 30
0.0
  0
VERTEX
  5
977
  8
0
 10
1210.020817159928
 20
324.1945887715528
 30
0.0
  0
VERTEX
  5
978
  8
0
 10
1209.9753247701
 20
324.0721375046146
 30
0.0
  0
VERTEX
  5
979
  8
0
 10
1209.929309424848
 20
323.9499512942291
 30
0.0
  0
VERTEX
  5
97A
  8
0
 10
1209.882760451613
 20
323.8280355497138
 30
0.0
  0
VERTEX
  5
97B
  8
0
 10
1209.835667177835
 20
323.706395680386
 30
0.0
  0
VERTEX
  5
97C
  8
0
 10
1209.788018930954
 20
323.5850370955632
 30
0.0
  0
VERTEX
  5
97D
  8
0
 10
1209.739805038412
 20
323.4639652045627
 30
0.0
  0
VERTEX
  5
97E
  8
0
 10
1209.691014827647
 20
323.3431854167019
 30
0.0
  0
VERTEX
  5
97F
  8
0
 10
1209.641637626101
 20
323.2227031412984
 30
0.0
  0
VERTEX
  5
980
  8
0
 10
1209.591662761213
 20
323.1025237876694
 30
0.0
  0
VERTEX
  5
981
  8
0
 10
1209.541079560425
 20
322.9826527651324
 30
0.0
  0
VERTEX
  5
982
  8
0
 10
1209.489877351176
 20
322.8630954830047
 30
0.0
  0
VERTEX
  5
983
  8
0
 10
1209.438045460906
 20
322.7438573506037
 30
0.0
  0
VERTEX
  5
984
  8
0
 10
1209.385573217057
 20
322.624943777247
 30
0.0
  0
VERTEX
  5
985
  8
0
 10
1209.332449947068
 20
322.5063601722519
 30
0.0
  0
VERTEX
  5
986
  8
0
 10
1209.27866497838
 20
322.3881119449356
 30
0.0
  0
VERTEX
  5
987
  8
0
 10
1209.224207638433
 20
322.2702045046159
 30
0.0
  0
VERTEX
  5
988
  8
0
 10
1209.169067254667
 20
322.1526432606098
 30
0.0
  0
VERTEX
  5
989
  8
0
 10
1209.113233154524
 20
322.035433622235
 30
0.0
  0
VERTEX
  5
98A
  8
0
 10
1209.056694665442
 20
321.9185809988088
 30
0.0
  0
VERTEX
  5
98B
  8
0
 10
1208.999441114863
 20
321.8020907996485
 30
0.0
  0
VERTEX
  5
98C
  8
0
 10
1208.941461830226
 20
321.6859684340716
 30
0.0
  0
VERTEX
  5
98D
  8
0
 10
1208.882746138973
 20
321.5702193113955
 30
0.0
  0
VERTEX
  5
98E
  8
0
 10
1208.823283368543
 20
321.4548488409377
 30
0.0
  0
VERTEX
  5
98F
  8
0
 10
1208.763062846377
 20
321.3398624320155
 30
0.0
  0
VERTEX
  5
990
  8
0
 10
1208.702073899915
 20
321.2252654939462
 30
0.0
  0
VERTEX
  5
991
  8
0
 10
1208.640305856597
 20
321.1110634360473
 30
0.0
  0
VERTEX
  5
992
  8
0
 10
1208.577748043864
 20
320.9972616676363
 30
0.0
  0
VERTEX
  5
993
  8
0
 10
1208.514389789157
 20
320.8838655980305
 30
0.0
  0
VERTEX
  5
994
  8
0
 10
1208.450220419915
 20
320.7708806365473
 30
0.0
  0
VERTEX
  5
995
  8
0
 10
1208.385229343637
 20
320.6583121738415
 30
0.0
  0
VERTEX
  5
996
  8
0
 10
1208.319412384315
 20
320.5461641048229
 30
0.0
  0
VERTEX
  5
997
  8
0
 10
1208.25277637002
 20
320.4344377592445
 30
0.0
  0
VERTEX
  5
998
  8
0
 10
1208.185329210944
 20
320.3231342146075
 30
0.0
  0
VERTEX
  5
999
  8
0
 10
1208.117078817276
 20
320.2122545484131
 30
0.0
  0
VERTEX
  5
99A
  8
0
 10
1208.048033099206
 20
320.1017998381625
 30
0.0
  0
VERTEX
  5
99B
  8
0
 10
1207.978199966924
 20
319.991771161357
 30
0.0
  0
VERTEX
  5
99C
  8
0
 10
1207.90758733062
 20
319.8821695954976
 30
0.0
  0
VERTEX
  5
99D
  8
0
 10
1207.836203100485
 20
319.7729962180856
 30
0.0
  0
VERTEX
  5
99E
  8
0
 10
1207.764055186708
 20
319.6642521066223
 30
0.0
  0
VERTEX
  5
99F
  8
0
 10
1207.69115149948
 20
319.5559383386088
 30
0.0
  0
VERTEX
  5
9A0
  8
0
 10
1207.617499948991
 20
319.4480559915463
 30
0.0
  0
VERTEX
  5
9A1
  8
0
 10
1207.543108445431
 20
319.3406061429359
 30
0.0
  0
VERTEX
  5
9A2
  8
0
 10
1207.467984898989
 20
319.2335898702789
 30
0.0
  0
VERTEX
  5
9A3
  8
0
 10
1207.392137219856
 20
319.1270082510766
 30
0.0
  0
VERTEX
  5
9A4
  8
0
 10
1207.315573318222
 20
319.02086236283
 30
0.0
  0
VERTEX
  5
9A5
  8
0
 10
1207.238301104278
 20
318.9151532830406
 30
0.0
  0
VERTEX
  5
9A6
  8
0
 10
1207.160328488213
 20
318.8098820892092
 30
0.0
  0
VERTEX
  5
9A7
  8
0
 10
1207.081663380217
 20
318.7050498588373
 30
0.0
  0
VERTEX
  5
9A8
  8
0
 10
1207.00231369048
 20
318.6006576694259
 30
0.0
  0
VERTEX
  5
9A9
  8
0
 10
1206.922287329193
 20
318.4967065984764
 30
0.0
  0
VERTEX
  5
9AA
  8
0
 10
1206.841592206546
 20
318.3931977234898
 30
0.0
  0
VERTEX
  5
9AB
  8
0
 10
1206.760236232728
 20
318.2901321219675
 30
0.0
  0
VERTEX
  5
9AC
  8
0
 10
1206.67822731793
 20
318.1875108714105
 30
0.0
  0
VERTEX
  5
9AD
  8
0
 10
1206.595573372341
 20
318.0853350493201
 30
0.0
  0
VERTEX
  5
9AE
  8
0
 10
1206.512282306153
 20
317.9836057331976
 30
0.0
  0
VERTEX
  5
9AF
  8
0
 10
1206.428362029555
 20
317.882324000544
 30
0.0
  0
VERTEX
  5
9B0
  8
0
 10
1206.343820452737
 20
317.7814909288606
 30
0.0
  0
VERTEX
  5
9B1
  8
0
 10
1206.258665485889
 20
317.6811075956487
 30
0.0
  0
VERTEX
  5
9B2
  8
0
 10
1206.172905039202
 20
317.5811750784093
 30
0.0
  0
VERTEX
  5
9B3
  8
0
 10
1206.086547022865
 20
317.4816944546437
 30
0.0
  0
VERTEX
  5
9B4
  8
0
 10
1205.999599347068
 20
317.3826668018531
 30
0.0
  0
VERTEX
  5
9B5
  8
0
 10
1205.912069922002
 20
317.2840931975387
 30
0.0
  0
VERTEX
  5
9B6
  8
0
 10
1205.823966657857
 20
317.1859747192016
 30
0.0
  0
VERTEX
  5
9B7
  8
0
 10
1205.735297464822
 20
317.0883124443432
 30
0.0
  0
VERTEX
  5
9B8
  8
0
 10
1205.646070253088
 20
316.9911074504645
 30
0.0
  0
VERTEX
  5
9B9
  8
0
 10
1205.556292932845
 20
316.8943608150669
 30
0.0
  0
VERTEX
  5
9BA
  8
0
 10
1205.465973414284
 20
316.7980736156514
 30
0.0
  0
VERTEX
  5
9BB
  8
0
 10
1205.375119607593
 20
316.7022469297193
 30
0.0
  0
VERTEX
  5
9BC
  8
0
 10
1205.283739422963
 20
316.6068818347717
 30
0.0
  0
VERTEX
  5
9BD
  8
0
 10
1205.191840770585
 20
316.5119794083101
 30
0.0
  0
VERTEX
  5
9BE
  8
0
 10
1205.099431560648
 20
316.4175407278353
 30
0.0
  0
VERTEX
  5
9BF
  8
0
 10
1205.006519703343
 20
316.3235668708488
 30
0.0
  0
VERTEX
  5
9C0
  8
0
 10
1204.91311310886
 20
316.2300589148517
 30
0.0
  0
VERTEX
  5
9C1
  8
0
 10
1204.819219687387
 20
316.137017937345
 30
0.0
  0
VERTEX
  5
9C2
  8
0
 10
1204.724847349117
 20
316.0444450158302
 30
0.0
  0
VERTEX
  5
9C3
  8
0
 10
1204.630004004239
 20
315.9523412278085
 30
0.0
  0
VERTEX
  5
9C4
  8
0
 10
1204.534697562942
 20
315.8607076507808
 30
0.0
  0
VERTEX
  5
9C5
  8
0
 10
1204.43893553463
 20
315.7695457356238
 30
0.0
  0
VERTEX
  5
9C6
  8
0
 10
1204.342720462324
 20
315.6788615599141
 30
0.0
  0
VERTEX
  5
9C7
  8
0
 10
1204.246051532745
 20
315.5886643279732
 30
0.0
  0
VERTEX
  5
9C8
  8
0
 10
1204.14892786942
 20
315.4989633029909
 30
0.0
  0
VERTEX
  5
9C9
  8
0
 10
1204.051348595878
 20
315.4097677481575
 30
0.0
  0
VERTEX
  5
9CA
  8
0
 10
1203.953312835649
 20
315.3210869266634
 30
0.0
  0
VERTEX
  5
9CB
  8
0
 10
1203.85481971226
 20
315.2329301016985
 30
0.0
  0
VERTEX
  5
9CC
  8
0
 10
1203.75586834924
 20
315.1453065364529
 30
0.0
  0
VERTEX
  5
9CD
  8
0
 10
1203.65645787012
 20
315.0582254941171
 30
0.0
  0
VERTEX
  5
9CE
  8
0
 10
1203.556587398426
 20
314.971696237881
 30
0.0
  0
VERTEX
  5
9CF
  8
0
 10
1203.456256057688
 20
314.885728030935
 30
0.0
  0
VERTEX
  5
9D0
  8
0
 10
1203.355462971434
 20
314.8003301364691
 30
0.0
  0
VERTEX
  5
9D1
  8
0
 10
1203.254207263194
 20
314.7155118176736
 30
0.0
  0
VERTEX
  5
9D2
  8
0
 10
1203.152488056495
 20
314.6312823377388
 30
0.0
  0
VERTEX
  5
9D3
  8
0
 10
1203.050304474867
 20
314.5476509598544
 30
0.0
  0
VERTEX
  5
9D4
  8
0
 10
1202.947655641839
 20
314.4646269472109
 30
0.0
  0
VERTEX
  5
9D5
  8
0
 10
1202.844540680938
 20
314.3822195629986
 30
0.0
  0
VERTEX
  5
9D6
  8
0
 10
1202.740958715694
 20
314.3004380704075
 30
0.0
  0
VERTEX
  5
9D7
  8
0
 10
1202.636908869636
 20
314.2192917326277
 30
0.0
  0
VERTEX
  5
9D8
  8
0
 10
1202.532390266291
 20
314.1387898128496
 30
0.0
  0
VERTEX
  5
9D9
  8
0
 10
1202.42740202919
 20
314.0589415742631
 30
0.0
  0
VERTEX
  5
9DA
  8
0
 10
1202.321943281861
 20
313.9797562800587
 30
0.0
  0
VERTEX
  5
9DB
  8
0
 10
1202.216013147831
 20
313.9012431934263
 30
0.0
  0
VERTEX
  5
9DC
  8
0
 10
1202.109610750631
 20
313.8234115775563
 30
0.0
  0
VERTEX
  5
9DD
  8
0
 10
1202.002735213789
 20
313.7462706956388
 30
0.0
  0
VERTEX
  5
9DE
  8
0
 10
1201.895385660833
 20
313.6698298108637
 30
0.0
  0
VERTEX
  5
9DF
  8
0
 10
1201.787561215292
 20
313.5940981864216
 30
0.0
  0
VERTEX
  5
9E0
  8
0
 10
1201.679261000695
 20
313.5190850855025
 30
0.0
  0
VERTEX
  5
9E1
  8
0
 10
1201.570484140571
 20
313.4447997712965
 30
0.0
  0
VERTEX
  5
9E2
  8
0
 10
1201.461229758449
 20
313.3712515069939
 30
0.0
  0
VERTEX
  5
9E3
  8
0
 10
1201.351496977856
 20
313.2984495557847
 30
0.0
  0
VERTEX
  5
9E4
  8
0
 10
1201.241284922321
 20
313.2264031808593
 30
0.0
  0
VERTEX
  5
9E5
  8
0
 10
1201.130592715376
 20
313.1551216454077
 30
0.0
  0
VERTEX
  5
9E6
  8
0
 10
1201.019419480545
 20
313.0846142126203
 30
0.0
  0
VERTEX
  5
9E7
  8
0
 10
1200.90776434136
 20
313.014890145687
 30
0.0
  0
VERTEX
  5
9E8
  8
0
 10
1200.795626421349
 20
312.9459587077982
 30
0.0
  0
VERTEX
  5
9E9
  8
0
 10
1200.68300484404
 20
312.8778291621439
 30
0.0
  0
VERTEX
  5
9EA
  8
0
 10
1200.569898732962
 20
312.8105107719144
 30
0.0
  0
VERTEX
  5
9EB
  8
0
 10
1200.456307211645
 20
312.7440128002999
 30
0.0
  0
VERTEX
  5
9EC
  8
0
 10
1200.342229403615
 20
312.6783445104904
 30
0.0
  0
VERTEX
  5
9ED
  8
0
 10
1200.227664432403
 20
312.6135151656763
 30
0.0
  0
VERTEX
  5
9EE
  8
0
 10
1200.112611421537
 20
312.5495340290476
 30
0.0
  0
VERTEX
  5
9EF
  8
0
 10
1199.997069494545
 20
312.4864103637945
 30
0.0
  0
VERTEX
  5
9F0
  8
0
 10
1199.881037774957
 20
312.4241534331073
 30
0.0
  0
VERTEX
  5
9F1
  8
0
 10
1199.764515386302
 20
312.362772500176
 30
0.0
  0
VERTEX
  5
9F2
  8
0
 10
1199.647501452107
 20
312.3022768281911
 30
0.0
  0
VERTEX
  5
9F3
  8
0
 10
1199.529995095902
 20
312.2426756803422
 30
0.0
  0
VERTEX
  5
9F4
  8
0
 10
1199.411995441215
 20
312.1839783198201
 30
0.0
  0
VERTEX
  5
9F5
  8
0
 10
1199.293501611575
 20
312.1261940098146
 30
0.0
  0
VERTEX
  5
9F6
  8
0
 10
1199.174512730511
 20
312.069332013516
 30
0.0
  0
VERTEX
  5
9F7
  8
0
 10
1199.055027921551
 20
312.0134015941144
 30
0.0
  0
VERTEX
  5
9F8
  8
0
 10
1198.935046308224
 20
311.9584120148001
 30
0.0
  0
VERTEX
  5
9F9
  8
0
 10
1198.81456701406
 20
311.9043725387631
 30
0.0
  0
VERTEX
  5
9FA
  8
0
 10
1198.693589162586
 20
311.8512924291938
 30
0.0
  0
VERTEX
  5
9FB
  8
0
 10
1198.572111877332
 20
311.7991809492822
 30
0.0
  0
VERTEX
  5
9FC
  8
0
 10
1198.450134281825
 20
311.7480473622187
 30
0.0
  0
VERTEX
  5
9FD
  8
0
 10
1198.327655499595
 20
311.697900931193
 30
0.0
  0
VERTEX
  5
9FE
  8
0
 10
1198.204674654171
 20
311.6487509193959
 30
0.0
  0
VERTEX
  5
9FF
  8
0
 10
1198.081190869081
 20
311.6006065900171
 30
0.0
  0
VERTEX
  5
A00
  8
0
 10
1197.957203267854
 20
311.553477206247
 30
0.0
  0
VERTEX
  5
A01
  8
0
 10
1197.832710974019
 20
311.5073720312757
 30
0.0
  0
VERTEX
  5
A02
  8
0
 10
1197.707713111104
 20
311.4623003282935
 30
0.0
  0
VERTEX
  5
A03
  8
0
 10
1197.582208802638
 20
311.4182713604903
 30
0.0
  0
VERTEX
  5
A04
  8
0
 10
1197.45619717215
 20
311.3752943910565
 30
0.0
  0
VERTEX
  5
A05
  8
0
 10
1197.329677343169
 20
311.3333786831823
 30
0.0
  0
VERTEX
  5
A06
  8
0
 10
1197.202648439222
 20
311.2925335000577
 30
0.0
  0
VERTEX
  5
A07
  8
0
 10
1197.07510958384
 20
311.252768104873
 30
0.0
  0
VERTEX
  5
A08
  8
0
 10
1196.947064350092
 20
311.2140948701123
 30
0.0
  0
VERTEX
  5
A09
  8
0
 10
1196.818534490405
 20
311.1765388718055
 30
0.0
  0
VERTEX
  5
A0A
  8
0
 10
1196.689546399373
 20
311.1401284298817
 30
0.0
  0
VERTEX
  5
A0B
  8
0
 10
1196.560126471591
 20
311.104891864271
 30
0.0
  0
VERTEX
  5
A0C
  8
0
 10
1196.430301101656
 20
311.0708574949037
 30
0.0
  0
VERTEX
  5
A0D
  8
0
 10
1196.300096684163
 20
311.03805364171
 30
0.0
  0
VERTEX
  5
A0E
  8
0
 10
1196.169539613708
 20
311.0065086246202
 30
0.0
  0
VERTEX
  5
A0F
  8
0
 10
1196.038656284886
 20
310.9762507635642
 30
0.0
  0
VERTEX
  5
A10
  8
0
 10
1195.907473092294
 20
310.9473083784724
 30
0.0
  0
VERTEX
  5
A11
  8
0
 10
1195.776016430528
 20
310.9197097892751
 30
0.0
  0
VERTEX
  5
A12
  8
0
 10
1195.644312694182
 20
310.8934833159022
 30
0.0
  0
VERTEX
  5
A13
  8
0
 10
1195.512388277853
 20
310.8686572782842
 30
0.0
  0
VERTEX
  5
A14
  8
0
 10
1195.380269576137
 20
310.845259996351
 30
0.0
  0
VERTEX
  5
A15
  8
0
 10
1195.24798298363
 20
310.8233197900331
 30
0.0
  0
VERTEX
  5
A16
  8
0
 10
1195.115554894926
 20
310.8028649792604
 30
0.0
  0
VERTEX
  5
A17
  8
0
 10
1194.983011704623
 20
310.7839238839634
 30
0.0
  0
VERTEX
  5
A18
  8
0
 10
1194.850379807315
 20
310.7665248240721
 30
0.0
  0
VERTEX
  5
A19
  8
0
 10
1194.717685597599
 20
310.7506961195167
 30
0.0
  0
VERTEX
  5
A1A
  8
0
 10
1194.58495547007
 20
310.7364660902274
 30
0.0
  0
VERTEX
  5
A1B
  8
0
 10
1194.452215819324
 20
310.7238630561345
 30
0.0
  0
VERTEX
  5
A1C
  8
0
 10
1194.319493039958
 20
310.7129153371682
 30
0.0
  0
VERTEX
  5
A1D
  8
0
 10
1194.186813526566
 20
310.7036512532586
 30
0.0
  0
VERTEX
  5
A1E
  8
0
 10
1194.054203673744
 20
310.6960991243359
 30
0.0
  0
VERTEX
  5
A1F
  8
0
 10
1193.921689876089
 20
310.6902872703303
 30
0.0
  0
VERTEX
  5
A20
  8
0
 10
1193.789298528195
 20
310.686244011172
 30
0.0
  0
VERTEX
  5
A21
  8
0
 10
1193.65705602466
 20
310.6839976667912
 30
0.0
  0
VERTEX
  5
A22
  8
0
 10
1193.590998837837
 20
310.6835571876206
 30
0.0
  0
VERTEX
  5
A23
  8
0
 10
1193.524988760078
 20
310.6835765571183
 30
0.0
  0
VERTEX
  5
A24
  8
0
 10
1193.459029090706
 20
310.6840593152754
 30
0.0
  0
VERTEX
  5
A25
  8
0
 10
1193.393123129045
 20
310.6850090020832
 30
0.0
  0
VERTEX
  5
A26
  8
0
 10
1193.327274174421
 20
310.686429157533
 30
0.0
  0
VERTEX
  5
A27
  8
0
 10
1193.261485526158
 20
310.6883233216162
 30
0.0
  0
VERTEX
  5
A28
  8
0
 10
1193.19576048358
 20
310.6906950343238
 30
0.0
  0
VERTEX
  5
A29
  8
0
 10
1193.130102346011
 20
310.6935478356475
 30
0.0
  0
VERTEX
  5
A2A
  8
0
 10
1193.064514412777
 20
310.6968852655782
 30
0.0
  0
VERTEX
  5
A2B
  8
0
 10
1192.998999983202
 20
310.7007108641072
 30
0.0
  0
VERTEX
  5
A2C
  8
0
 10
1192.933562356609
 20
310.705028171226
 30
0.0
  0
VERTEX
  5
A2D
  8
0
 10
1192.868204832325
 20
310.7098407269258
 30
0.0
  0
VERTEX
  5
A2E
  8
0
 10
1192.802930709671
 20
310.7151520711977
 30
0.0
  0
VERTEX
  5
A2F
  8
0
 10
1192.737743287975
 20
310.7209657440332
 30
0.0
  0
VERTEX
  5
A30
  8
0
 10
1192.67264586656
 20
310.7272852854235
 30
0.0
  0
VERTEX
  5
A31
  8
0
 10
1192.60764174475
 20
310.7341142353597
 30
0.0
  0
VERTEX
  5
A32
  8
0
 10
1192.542734221871
 20
310.7414561338333
 30
0.0
  0
VERTEX
  5
A33
  8
0
 10
1192.477926597245
 20
310.7493145208355
 30
0.0
  0
VERTEX
  5
A34
  8
0
 10
1192.413222170199
 20
310.7576929363576
 30
0.0
  0
VERTEX
  5
A35
  8
0
 10
1192.348624240056
 20
310.7665949203907
 30
0.0
  0
VERTEX
  5
A36
  8
0
 10
1192.284136106141
 20
310.7760240129264
 30
0.0
  0
VERTEX
  5
A37
  8
0
 10
1192.219761067778
 20
310.7859837539557
 30
0.0
  0
VERTEX
  5
A38
  8
0
 10
1192.155502424292
 20
310.7964776834701
 30
0.0
  0
VERTEX
  5
A39
  8
0
 10
1192.091363475007
 20
310.8075093414606
 30
0.0
  0
VERTEX
  5
A3A
  8
0
 10
1192.027347519248
 20
310.8190822679186
 30
0.0
  0
VERTEX
  5
A3B
  8
0
 10
1191.963457856339
 20
310.8312000028355
 30
0.0
  0
VERTEX
  5
A3C
  8
0
 10
1191.899697785605
 20
310.8438660862025
 30
0.0
  0
VERTEX
  5
A3D
  8
0
 10
1191.83607060637
 20
310.8570840580107
 30
0.0
  0
VERTEX
  5
A3E
  8
0
 10
1191.772579617959
 20
310.8708574582516
 30
0.0
  0
VERTEX
  5
A3F
  8
0
 10
1191.709228119695
 20
310.8851898269164
 30
0.0
  0
VERTEX
  5
A40
  8
0
 10
1191.646019410905
 20
310.9000847039965
 30
0.0
  0
VERTEX
  5
A41
  8
0
 10
1191.582956790911
 20
310.9155456294828
 30
0.0
  0
VERTEX
  5
A42
  8
0
 10
1191.520043559039
 20
310.931576143367
 30
0.0
  0
VERTEX
  5
A43
  8
0
 10
1191.457282938519
 20
310.9481795982589
 30
0.0
  0
VERTEX
  5
A44
  8
0
 10
1191.394675255754
 20
310.9653522133527
 30
0.0
  0
VERTEX
  5
A45
  8
0
 10
1191.332217109168
 20
310.9830810277174
 30
0.0
  0
VERTEX
  5
A46
  8
0
 10
1191.269904851538
 20
311.0013524755174
 30
0.0
  0
VERTEX
  5
A47
  8
0
 10
1191.207734835638
 20
311.0201529909167
 30
0.0
  0
VERTEX
  5
A48
  8
0
 10
1191.145703414246
 20
311.0394690080793
 30
0.0
  0
VERTEX
  5
A49
  8
0
 10
1191.083806940137
 20
311.0592869611695
 30
0.0
  0
VERTEX
  5
A4A
  8
0
 10
1191.022041766088
 20
311.0795932843512
 30
0.0
  0
VERTEX
  5
A4B
  8
0
 10
1190.960404244875
 20
311.1003744117888
 30
0.0
  0
VERTEX
  5
A4C
  8
0
 10
1190.898890729273
 20
311.1216167776463
 30
0.0
  0
VERTEX
  5
A4D
  8
0
 10
1190.83749757206
 20
311.1433068160877
 30
0.0
  0
VERTEX
  5
A4E
  8
0
 10
1190.715057743901
 20
311.187975647379
 30
0.0
  0
VERTEX
  5
A4F
  8
0
 10
1190.593055582607
 20
311.2342723789758
 30
0.0
  0
VERTEX
  5
A50
  8
0
 10
1190.471461910388
 20
311.282088484191
 30
0.0
  0
VERTEX
  5
A51
  8
0
 10
1190.350247549452
 20
311.3313154363377
 30
0.0
  0
VERTEX
  5
A52
  8
0
 10
1190.229383322007
 20
311.3818447087287
 30
0.0
  0
VERTEX
  5
A53
  8
0
 10
1190.108840050264
 20
311.433567774677
 30
0.0
  0
VERTEX
  5
A54
  8
0
 10
1189.988588556432
 20
311.4863761074957
 30
0.0
  0
VERTEX
  5
A55
  8
0
 10
1189.868599662718
 20
311.5401611804975
 30
0.0
  0
VERTEX
  5
A56
  8
0
 10
1189.748844191333
 20
311.5948144669958
 30
0.0
  0
VERTEX
  5
A57
  8
0
 10
1189.629292964485
 20
311.6502274403031
 30
0.0
  0
VERTEX
  5
A58
  8
0
 10
1189.509916804383
 20
311.7062915737327
 30
0.0
  0
VERTEX
  5
A59
  8
0
 10
1189.390686533236
 20
311.7628983405974
 30
0.0
  0
VERTEX
  5
A5A
  8
0
 10
1189.152546946643
 20
311.8773056678842
 30
0.0
  0
VERTEX
  5
A5B
  8
0
 10
1188.914640782378
 20
311.9925812086672
 30
0.0
  0
VERTEX
  5
A5C
  8
0
 10
1178.403982814492
 20
293.9785199688829
 30
0.0
  0
VERTEX
  5
A5D
  8
0
 10
1186.945153605262
 20
278.4630947811148
 30
0.0
  0
SEQEND
  5
13CB
  8
0
  0
POLYLINE
  5
9E
  8
0
 66
     1
 10
0.0
 20
0.0
 30
0.0
 70
     1
  0
VERTEX
  5
A5E
  8
0
 10
340.8190691950658
 20
942.5160508937606
 30
0.0
  0
VERTEX
  5
A5F
  8
0
 10
630.8190691950658
 20
942.5160508937606
 30
0.0
  0
VERTEX
  5
A60
  8
0
 10
630.8190691950658
 20
950.5160508937606
 30
0.0
  0
VERTEX
  5
A61
  8
0
 10
340.8190691950658
 20
950.5160508937606
 30
0.0
  0
SEQEND
  5
13CC
  8
0
  0
POLYLINE
  5
9F
  8
0
 66
     1
 10
0.0
 20
0.0
 30
0.0
 70
     1
  0
VERTEX
  5
A62
  8
0
 10
809.840901093035
 20
40.5010872891267
 30
0.0
  0
VERTEX
  5
A63
  8
0
 10
740.7827687140799
 20
631.8275434487589
 30
0.0
 42
-0.6119104740995991
  0
VERTEX
  5
A64
  8
0
 10
809.8409010930682
 20
670.567743951497
 30
0.0
 42
-0.0265371573213204
  0
VERTEX
  5
A65
  8
0
 10
834.6610915540132
 20
652.7882777137763
 30
0.0
 42
0.0536378114465064
  0
VERTEX
  5
A66
  8
0
 10
853.7211150998687
 20
640.501087289128
 30
0.0
  0
VERTEX
  5
A67
  8
0
 10
899.840901093035
 20
640.5010872891271
 30
0.0
  0
VERTEX
  5
A68
  8
0
 10
899.840901093035
 20
627.0407128243447
 30
0.0
 42
1.0
  0
VERTEX
  5
A69
  8
0
 10
904.3805266282526
 20
622.5010872891271
 30
0.0
  0
VERTEX
  5
A6A
  8
0
 10
925.3012755578173
 20
622.5010872891271
 30
0.0
 42
1.0
  0
VERTEX
  5
A6B
  8
0
 10
929.840901093035
 20
627.0407128243447
 30
0.0
  0
VERTEX
  5
A6C
  8
0
 10
929.840901093035
 20
640.5010872891271
 30
0.0
  0
VERTEX
  5
A6D
  8
0
 10
959.840901093035
 20
640.5010872891271
 30
0.0
  0
VERTEX
  5
A6E
  8
0
 10
959.840901093035
 20
627.0407128243447
 30
0.0
 42
1.0
  0
VERTEX
  5
A6F
  8
0
 10
964.3805266282526
 20
622.5010872891271
 30
0.0
  0
VERTEX
  5
A70
  8
0
 10
985.3012755578173
 20
622.5010872891271
 30
0.0
 42
1.0
  0
VERTEX
  5
A71
  8
0
 10
989.840901093035
 20
627.0407128243447
 30
0.0
  0
VERTEX
  5
A72
  8
0
 10
989.840901093035
 20
640.5010872891271
 30
0.0
  0
VERTEX
  5
A73
  8
0
 10
1019.840901093035
 20
640.5010872891271
 30
0.0
  0
VERTEX
  5
A74
  8
0
 10
1019.840901093035
 20
627.0407128243447
 30
0.0
 42
1.0
  0
VERTEX
  5
A75
  8
0
 10
1024.380526628253
 20
622.5010872891271
 30
0.0
  0
VERTEX
  5
A76
  8
0
 10
1047.301275557817
 20
622.5010872891271
 30
0.0
 42
1.0
  0
VERTEX
  5
A77
  8
0
 10
1051.840901093035
 20
627.0407128243447
 30
0.0
  0
VERTEX
  5
A78
  8
0
 10
1051.840901093035
 20
640.5010872891271
 30
0.0
  0
VERTEX
  5
A79
  8
0
 10
1126.697828822878
 20
640.5010872891271
 30
0.0
 42
-0.3320883461091694
  0
VERTEX
  5
A7A
  8
0
 10
1169.840901093041
 20
608.294652667533
 30
0.0
 42
0.7278992055525265
  0
VERTEX
  5
A7B
  8
0
 10
1356.112749890967
 20
608.2946526675328
 30
0.0
 42
-0.3320883461091694
  0
VERTEX
  5
A7C
  8
0
 10
1399.25582216113
 20
640.5010872891269
 30
0.0
  0
VERTEX
  5
A7D
  8
0
 10
1438.112749890973
 20
640.5010872891266
 30
0.0
  0
VERTEX
  5
A7E
  8
0
 10
1438.112749890973
 20
565.0407128243445
 30
0.0
 42
1.0
  0
VERTEX
  5
A7F
  8
0
 10
1442.65237542619
 20
560.5010872891268
 30
0.0
  0
VERTEX
  5
A80
  8
0
 10
1456.112749890973
 20
560.5010872891266
 30
0.0
  0
VERTEX
  5
A81
  8
0
 10
1456.112749890973
 20
510.5010872891267
 30
0.0
  0
VERTEX
  5
A82
  8
0
 10
1442.65237542619
 20
510.5010872891269
 30
0.0
 42
1.0
  0
VERTEX
  5
A83
  8
0
 10
1438.112749890973
 20
505.9614617539092
 30
0.0
  0
VERTEX
  5
A84
  8
0
 10
1438.112749890973
 20
435.0407128243446
 30
0.0
 42
1.0
  0
VERTEX
  5
A85
  8
0
 10
1442.65237542619
 20
430.5010872891269
 30
0.0
  0
VERTEX
  5
A86
  8
0
 10
1456.112749890973
 20
430.5010872891269
 30
0.0
  0
VERTEX
  5
A87
  8
0
 10
1456.112749890973
 20
380.5010872891269
 30
0.0
  0
VERTEX
  5
A88
  8
0
 10
1442.65237542619
 20
380.5010872891269
 30
0.0
 42
1.0
  0
VERTEX
  5
A89
  8
0
 10
1438.112749890973
 20
375.9614617539093
 30
0.0
  0
VERTEX
  5
A8A
  8
0
 10
1438.112749890973
 20
305.0407128243446
 30
0.0
 42
1.0
  0
VERTEX
  5
A8B
  8
0
 10
1442.65237542619
 20
300.5010872891269
 30
0.0
  0
VERTEX
  5
A8C
  8
0
 10
1456.112749890973
 20
300.5010872891269
 30
0.0
  0
VERTEX
  5
A8D
  8
0
 10
1456.112749890973
 20
250.5010872891269
 30
0.0
  0
VERTEX
  5
A8E
  8
0
 10
1442.65237542619
 20
250.5010872891269
 30
0.0
 42
1.0
  0
VERTEX
  5
A8F
  8
0
 10
1438.112749890973
 20
245.9614617539093
 30
0.0
  0
VERTEX
  5
A90
  8
0
 10
1438.112749890973
 20
175.0407128243446
 30
0.0
 42
1.0
  0
VERTEX
  5
A91
  8
0
 10
1442.65237542619
 20
170.5010872891269
 30
0.0
  0
VERTEX
  5
A92
  8
0
 10
1456.112749890973
 20
170.5010872891269
 30
0.0
  0
VERTEX
  5
A93
  8
0
 10
1456.112749890973
 20
120.5010872891269
 30
0.0
  0
VERTEX
  5
A94
  8
0
 10
1442.65237542619
 20
120.5010872891269
 30
0.0
 42
1.0
  0
VERTEX
  5
A95
  8
0
 10
1438.112749890973
 20
115.9614617539093
 30
0.0
  0
VERTEX
  5
A96
  8
0
 10
1438.112749890972
 20
40.50108728912693
 30
0.0
  0
VERTEX
  5
A97
  8
0
 10
1399.255822161129
 20
40.50108728912693
 30
0.0
 42
-0.3320883461090484
  0
VERTEX
  5
A98
  8
0
 10
1356.112749890973
 20
72.7075219107009
 30
0.0
 42
0.7278992055527019
  0
VERTEX
  5
A99
  8
0
 10
1169.840901093034
 20
72.70752191070102
 30
0.0
 42
-0.3320883461090491
  0
VERTEX
  5
A9A
  8
0
 10
1126.697828822878
 20
40.50108728912716
 30
0.0
  0
VERTEX
  5
A9B
  8
0
 10
1051.840901093035
 20
40.50108728912716
 30
0.0
  0
VERTEX
  5
A9C
  8
0
 10
1051.840901093035
 20
53.96146175390949
 30
0.0
 42
1.0
  0
VERTEX
  5
A9D
  8
0
 10
1047.301275557818
 20
58.50108728912709
 30
0.0
  0
VERTEX
  5
A9E
  8
0
 10
1024.380526628253
 20
58.50108728912677
 30
0.0
 42
1.0
  0
VERTEX
  5
A9F
  8
0
 10
1019.840901093035
 20
53.9614617539091
 30
0.0
  0
VERTEX
  5
AA0
  8
0
 10
1019.840901093035
 20
40.5010872891267
 30
0.0
  0
VERTEX
  5
AA1
  8
0
 10
989.8409010930354
 20
40.5010872891267
 30
0.0
  0
VERTEX
  5
AA2
  8
0
 10
989.8409010930354
 20
53.96146175390906
 30
0.0
 42
1.0
  0
VERTEX
  5
AA3
  8
0
 10
985.3012755578178
 20
58.5010872891267
 30
0.0
  0
VERTEX
  5
AA4
  8
0
 10
964.380526628253
 20
58.5010872891267
 30
0.0
 42
1.0
  0
VERTEX
  5
AA5
  8
0
 10
959.8409010930354
 20
53.96146175390906
 30
0.0
  0
VERTEX
  5
AA6
  8
0
 10
959.8409010930354
 20
40.5010872891267
 30
0.0
  0
VERTEX
  5
AA7
  8
0
 10
929.8409010930354
 20
40.5010872891267
 30
0.0
  0
VERTEX
  5
AA8
  8
0
 10
929.8409010930354
 20
53.96146175390906
 30
0.0
 42
1.0
  0
VERTEX
  5
AA9
  8
0
 10
925.3012755578178
 20
58.5010872891267
 30
0.0
  0
VERTEX
  5
AAA
  8
0
 10
904.380526628253
 20
58.5010872891267
 30
0.0
 42
1.0
  0
VERTEX
  5
AAB
  8
0
 10
899.8409010930354
 20
53.96146175390906
 30
0.0
  0
VERTEX
  5
AAC
  8
0
 10
899.8409010930354
 20
40.5010872891267
 30
0.0
  0
VERTEX
  5
AAD
  8
0
 10
869.8409010930354
 20
40.5010872891267
 30
0.0
  0
VERTEX
  5
AAE
  8
0
 10
869.8409010930354
 20
53.96146175390906
 30
0.0
 42
1.0
  0
VERTEX
  5
AAF
  8
0
 10
865.3012755578178
 20
58.5010872891267
 30
0.0
  0
VERTEX
  5
AB0
  8
0
 10
844.380526628253
 20
58.5010872891267
 30
0.0
 42
1.0
  0
VERTEX
  5
AB1
  8
0
 10
839.8409010930353
 20
53.96146175390909
 30
0.0
  0
VERTEX
  5
AB2
  8
0
 10
839.8409010930352
 20
40.5010872891267
 30
0.0
  0
SEQEND
  5
13CD
  8
0
  0
POLYLINE
  5
A0
  8
0
 66
     1
 10
0.0
 20
0.0
 30
0.0
 70
     1
  0
VERTEX
  5
AB3
  8
0
 10
40.81906919506582
 20
798.5160508937602
 30
0.0
  0
VERTEX
  5
AB4
  8
0
 10
54.27944365984818
 20
798.5160508937602
 30
0.0
 42
-1.0
  0
VERTEX
  5
AB5
  8
0
 10
58.81906919506582
 20
793.9764253585425
 30
0.0
  0
VERTEX
  5
AB6
  8
0
 10
58.81906919506582
 20
764.5160508937606
 30
0.0
  0
VERTEX
  5
AB7
  8
0
 10
116.2794118264306
 20
764.5160508937602
 30
0.0
 42
-1.0
  0
VERTEX
  5
AB8
  8
0
 10
120.8190373616483
 20
759.9764253585425
 30
0.0
  0
VERTEX
  5
AB9
  8
0
 10
120.8190373616483
 20
731.5160508937602
 30
0.0
 42
0.4142135623730894
  0
VERTEX
  5
ABA
  8
0
 10
130.8190373616483
 20
721.5160508937602
 30
0.0
  0
VERTEX
  5
ABB
  8
0
 10
160.8190373616483
 20
721.5160508937602
 30
0.0
 42
0.4142135623731008
  0
VERTEX
  5
ABC
  8
0
 10
170.8190373616483
 20
731.5160508937602
 30
0.0
  0
VERTEX
  5
ABD
  8
0
 10
170.8190373616483
 20
759.9764253585425
 30
0.0
 42
-1.0
  0
VERTEX
  5
ABE
  8
0
 10
175.3586628968659
 20
764.5160508937602
 30
0.0
  0
VERTEX
  5
ABF
  8
0
 10
246.2794118264306
 20
764.5160508937602
 30
0.0
 42
-1.0
  0
VERTEX
  5
AC0
  8
0
 10
250.8190373616483
 20
759.9764253585425
 30
0.0
  0
VERTEX
  5
AC1
  8
0
 10
250.8190373616483
 20
731.5160508937602
 30
0.0
 42
0.4142135623730894
  0
VERTEX
  5
AC2
  8
0
 10
260.8190373616483
 20
721.5160508937602
 30
0.0
  0
VERTEX
  5
AC3
  8
0
 10
290.8190373616483
 20
721.5160508937602
 30
0.0
 42
0.4142135623731008
  0
VERTEX
  5
AC4
  8
0
 10
300.8190373616483
 20
731.5160508937602
 30
0.0
  0
VERTEX
  5
AC5
  8
0
 10
300.8190373616483
 20
759.9764253585425
 30
0.0
 42
-1.0
  0
VERTEX
  5
AC6
  8
0
 10
305.3586628968659
 20
764.5160508937602
 30
0.0
  0
VERTEX
  5
AC7
  8
0
 10
376.2794118264306
 20
764.5160508937602
 30
0.0
 42
-1.0
  0
VERTEX
  5
AC8
  8
0
 10
380.8190373616483
 20
759.9764253585425
 30
0.0
  0
VERTEX
  5
AC9
  8
0
 10
380.8190373616483
 20
731.5160508937602
 30
0.0
 42
0.4142135623730894
  0
VERTEX
  5
ACA
  8
0
 10
390.8190373616483
 20
721.5160508937602
 30
0.0
  0
VERTEX
  5
ACB
  8
0
 10
420.8190373616483
 20
721.5160508937602
 30
0.0
 42
0.4142135623730951
  0
VERTEX
  5
ACC
  8
0
 10
430.8190373616483
 20
731.5160508937602
 30
0.0
  0
VERTEX
  5
ACD
  8
0
 10
430.8190373616483
 20
759.9764253585425
 30
0.0
 42
-1.0
  0
VERTEX
  5
ACE
  8
0
 10
435.3586628968659
 20
764.5160508937602
 30
0.0
  0
VERTEX
  5
ACF
  8
0
 10
506.2794118264306
 20
764.5160508937602
 30
0.0
 42
-1.0
  0
VERTEX
  5
AD0
  8
0
 10
510.8190373616483
 20
759.9764253585425
 30
0.0
  0
VERTEX
  5
AD1
  8
0
 10
510.8190373616483
 20
731.5160508937602
 30
0.0
 42
0.4142135623730951
  0
VERTEX
  5
AD2
  8
0
 10
520.8190373616483
 20
721.5160508937602
 30
0.0
  0
VERTEX
  5
AD3
  8
0
 10
550.8190373616483
 20
721.5160508937602
 30
0.0
 42
0.4142135623730951
  0
VERTEX
  5
AD4
  8
0
 10
560.8190373616483
 20
731.5160508937602
 30
0.0
  0
VERTEX
  5
AD5
  8
0
 10
560.8190373616483
 20
759.9764253585425
 30
0.0
 42
-1.0
  0
VERTEX
  5
AD6
  8
0
 10
565.3586628968659
 20
764.5160508937602
 30
0.0
  0
VERTEX
  5
AD7
  8
0
 10
622.8190691950658
 20
764.5160508937604
 30
0.0
  0
VERTEX
  5
AD8
  8
0
 10
622.8190691950658
 20
793.976425358543
 30
0.0
 42
-1.0
  0
VERTEX
  5
AD9
  8
0
 10
627.3586947302834
 20
798.5160508937606
 30
0.0
  0
VERTEX
  5
ADA
  8
0
 10
640.8190691950658
 20
798.5160508937606
 30
0.0
  0
VERTEX
  5
ADB
  8
0
 10
640.8190691950658
 20
828.5160508937606
 30
0.0
  0
VERTEX
  5
ADC
  8
0
 10
627.3586947302834
 20
828.5160508937606
 30
0.0
 42
-1.0
  0
VERTEX
  5
ADD
  8
0
 10
622.8190691950658
 20
833.0556764289782
 30
0.0
  0
VERTEX
  5
ADE
  8
0
 10
622.8190691950658
 20
853.976425358543
 30
0.0
 42
-1.0
  0
VERTEX
  5
ADF
  8
0
 10
627.3586947302834
 20
858.5160508937606
 30
0.0
  0
VERTEX
  5
AE0
  8
0
 10
640.8190691950658
 20
858.5160508937606
 30
0.0
  0
VERTEX
  5
AE1
  8
0
 10
640.8190691950658
 20
888.5160508937606
 30
0.0
  0
VERTEX
  5
AE2
  8
0
 10
627.3586947302834
 20
888.5160508937606
 30
0.0
 42
-1.0
  0
VERTEX
  5
AE3
  8
0
 10
622.8190691950658
 20
893.0556764289782
 30
0.0
  0
VERTEX
  5
AE4
  8
0
 10
622.8190691950658
 20
913.976425358543
 30
0.0
 42
-1.0
  0
VERTEX
  5
AE5
  8
0
 10
627.3586947302834
 20
918.5160508937606
 30
0.0
  0
VERTEX
  5
AE6
  8
0
 10
640.8190691950658
 20
918.5160508937606
 30
0.0
  0
VERTEX
  5
AE7
  8
0
 10
640.8190691950658
 20
948.5160508937606
 30
0.0
  0
VERTEX
  5
AE8
  8
0
 10
627.3586947302834
 20
948.5160508937606
 30
0.0
 42
-1.0
  0
VERTEX
  5
AE9
  8
0
 10
622.8190691950658
 20
953.0556764289782
 30
0.0
  0
VERTEX
  5
AEA
  8
0
 10
622.8190691950658
 20
973.976425358543
 30
0.0
 42
-1.0
  0
VERTEX
  5
AEB
  8
0
 10
627.3586947302834
 20
978.5160508937606
 30
0.0
  0
VERTEX
  5
AEC
  8
0
 10
640.8190691950658
 20
978.5160508937606
 30
0.0
  0
VERTEX
  5
AED
  8
0
 10
640.8190691950658
 20
1008.516050893761
 30
0.0
  0
VERTEX
  5
AEE
  8
0
 10
627.3586947302834
 20
1008.516050893761
 30
0.0
 42
-1.0
  0
VERTEX
  5
AEF
  8
0
 10
622.8190691950658
 20
1013.055676428978
 30
0.0
  0
VERTEX
  5
AF0
  8
0
 10
622.8190691950658
 20
1033.976425358543
 30
0.0
 42
-1.0
  0
VERTEX
  5
AF1
  8
0
 10
627.3586947302834
 20
1038.516050893761
 30
0.0
  0
VERTEX
  5
AF2
  8
0
 10
640.8190691950658
 20
1038.516050893761
 30
0.0
  0
VERTEX
  5
AF3
  8
0
 10
640.8190691950658
 20
1068.516050893761
 30
0.0
  0
VERTEX
  5
AF4
  8
0
 10
627.3586947302834
 20
1068.516050893761
 30
0.0
 42
-1.0
  0
VERTEX
  5
AF5
  8
0
 10
622.8190691950658
 20
1073.055676428978
 30
0.0
  0
VERTEX
  5
AF6
  8
0
 10
622.8190691950658
 20
1093.976425358543
 30
0.0
 42
-1.0
  0
VERTEX
  5
AF7
  8
0
 10
627.3586947302834
 20
1098.516050893761
 30
0.0
  0
VERTEX
  5
AF8
  8
0
 10
640.8190691950658
 20
1098.516050893761
 30
0.0
  0
VERTEX
  5
AF9
  8
0
 10
640.8190691950658
 20
1128.516050893761
 30
0.0
  0
VERTEX
  5
AFA
  8
0
 10
565.3586947302834
 20
1128.516050893761
 30
0.0
 42
-1.0
  0
VERTEX
  5
AFB
  8
0
 10
560.8190691950658
 20
1133.055676428978
 30
0.0
  0
VERTEX
  5
AFC
  8
0
 10
560.8190691950658
 20
1161.516050893761
 30
0.0
 42
0.4142135623731065
  0
VERTEX
  5
AFD
  8
0
 10
550.8190691950658
 20
1171.516050893761
 30
0.0
  0
VERTEX
  5
AFE
  8
0
 10
520.8190691950658
 20
1171.516050893761
 30
0.0
 42
0.4142135623730951
  0
VERTEX
  5
AFF
  8
0
 10
510.8190691950658
 20
1161.516050893761
 30
0.0
  0
VERTEX
  5
B00
  8
0
 10
510.8190691950658
 20
1133.055676428978
 30
0.0
 42
-1.0
  0
VERTEX
  5
B01
  8
0
 10
506.2794436598482
 20
1128.516050893761
 30
0.0
  0
VERTEX
  5
B02
  8
0
 10
435.3586947302834
 20
1128.516050893761
 30
0.0
 42
-1.0
  0
VERTEX
  5
B03
  8
0
 10
430.8190691950658
 20
1133.055676428978
 30
0.0
  0
VERTEX
  5
B04
  8
0
 10
430.8190691950658
 20
1161.516050893761
 30
0.0
 42
0.4142135623731065
  0
VERTEX
  5
B05
  8
0
 10
420.8190691950658
 20
1171.516050893761
 30
0.0
  0
VERTEX
  5
B06
  8
0
 10
390.8190691950658
 20
1171.516050893761
 30
0.0
 42
0.4142135623731008
  0
VERTEX
  5
B07
  8
0
 10
380.8190691950658
 20
1161.516050893761
 30
0.0
  0
VERTEX
  5
B08
  8
0
 10
380.8190691950658
 20
1133.055676428978
 30
0.0
 42
-1.0
  0
VERTEX
  5
B09
  8
0
 10
376.2794436598482
 20
1128.516050893761
 30
0.0
  0
VERTEX
  5
B0A
  8
0
 10
305.3586947302834
 20
1128.516050893761
 30
0.0
 42
-1.0
  0
VERTEX
  5
B0B
  8
0
 10
300.8190691950658
 20
1133.055676428978
 30
0.0
  0
VERTEX
  5
B0C
  8
0
 10
300.8190691950658
 20
1161.516050893761
 30
0.0
 42
0.4142135623731008
  0
VERTEX
  5
B0D
  8
0
 10
290.8190691950658
 20
1171.516050893761
 30
0.0
  0
VERTEX
  5
B0E
  8
0
 10
260.8190691950658
 20
1171.516050893761
 30
0.0
 42
0.4142135623731008
  0
VERTEX
  5
B0F
  8
0
 10
250.8190691950658
 20
1161.516050893761
 30
0.0
  0
VERTEX
  5
B10
  8
0
 10
250.8190691950658
 20
1133.055676428978
 30
0.0
 42
-1.0
  0
VERTEX
  5
B11
  8
0
 10
246.2794436598482
 20
1128.516050893761
 30
0.0
  0
VERTEX
  5
B12
  8
0
 10
175.3586947302834
 20
1128.516050893761
 30
0.0
 42
-1.0
  0
VERTEX
  5
B13
  8
0
 10
170.8190691950658
 20
1133.055676428978
 30
0.0
  0
VERTEX
  5
B14
  8
0
 10
170.8190691950658
 20
1161.516050893761
 30
0.0
 42
0.4142135623731008
  0
VERTEX
  5
B15
  8
0
 10
160.8190691950658
 20
1171.516050893761
 30
0.0
  0
VERTEX
  5
B16
  8
0
 10
130.8190691950658
 20
1171.516050893761
 30
0.0
 42
0.4142135623731008
  0
VERTEX
  5
B17
  8
0
 10
120.8190691950658
 20
1161.516050893761
 30
0.0
  0
VERTEX
  5
B18
  8
0
 10
120.8190691950658
 20
1133.27424579212
 30
0.0
 42
-1.0
  0
VERTEX
  5
B19
  8
0
 10
116.2858302163851
 20
1128.728242672657
 30
0.0
  0
VERTEX
  5
B1A
  8
0
 10
40.81922731007819
 20
1128.516051338336
 30
0.0
  0
VERTEX
  5
B1B
  8
0
 10
40.81906919506103
 20
1098.516050893762
 30
0.0
  0
VERTEX
  5
B1C
  8
0
 10
54.27944365984848
 20
1098.516050893761
 30
0.0
 42
-1.0
  0
VERTEX
  5
B1D
  8
0
 10
58.81906919506582
 20
1093.976425358543
 30
0.0
  0
VERTEX
  5
B1E
  8
0
 10
58.81906919506582
 20
1073.055676428978
 30
0.0
 42
-1.0
  0
VERTEX
  5
B1F
  8
0
 10
54.27944365984818
 20
1068.51605089376
 30
0.0
  0
VERTEX
  5
B20
  8
0
 10
40.81906919506582
 20
1068.51605089376
 30
0.0
  0
VERTEX
  5
B21
  8
0
 10
40.81906919506582
 20
1038.51605089376
 30
0.0
  0
VERTEX
  5
B22
  8
0
 10
54.27944365984818
 20
1038.51605089376
 30
0.0
 42
-1.0
  0
VERTEX
  5
B23
  8
0
 10
58.81906919506582
 20
1033.976425358542
 30
0.0
  0
VERTEX
  5
B24
  8
0
 10
58.81906919506582
 20
1013.055676428978
 30
0.0
 42
-1.0
  0
VERTEX
  5
B25
  8
0
 10
54.27944365984818
 20
1008.51605089376
 30
0.0
  0
VERTEX
  5
B26
  8
0
 10
40.81906919506582
 20
1008.51605089376
 30
0.0
  0
VERTEX
  5
B27
  8
0
 10
40.81906919506582
 20
978.5160508937602
 30
0.0
  0
VERTEX
  5
B28
  8
0
 10
54.27944365984818
 20
978.5160508937602
 30
0.0
 42
-1.0
  0
VERTEX
  5
B29
  8
0
 10
58.81906919506582
 20
973.9764253585425
 30
0.0
  0
VERTEX
  5
B2A
  8
0
 10
58.81906919506582
 20
953.0556764289778
 30
0.0
 42
-1.0
  0
VERTEX
  5
B2B
  8
0
 10
54.27944365984818
 20
948.5160508937602
 30
0.0
  0
VERTEX
  5
B2C
  8
0
 10
40.81906919506582
 20
948.5160508937602
 30
0.0
  0
VERTEX
  5
B2D
  8
0
 10
40.81906919506582
 20
918.5160508937602
 30
0.0
  0
VERTEX
  5
B2E
  8
0
 10
54.27944365984818
 20
918.5160508937602
 30
0.0
 42
-1.0
  0
VERTEX
  5
B2F
  8
0
 10
58.81906919506582
 20
913.9764253585425
 30
0.0
  0
VERTEX
  5
B30
  8
0
 10
58.81906919506582
 20
893.0556764289778
 30
0.0
 42
-1.0
  0
VERTEX
  5
B31
  8
0
 10
54.27944365984818
 20
888.5160508937602
 30
0.0
  0
VERTEX
  5
B32
  8
0
 10
40.81906919506582
 20
888.5160508937602
 30
0.0
  0
VERTEX
  5
B33
  8
0
 10
40.81906919506582
 20
858.5160508937602
 30
0.0
  0
VERTEX
  5
B34
  8
0
 10
54.27944365984818
 20
858.5160508937602
 30
0.0
 42
-1.0
  0
VERTEX
  5
B35
  8
0
 10
58.81906919506582
 20
853.9764253585425
 30
0.0
  0
VERTEX
  5
B36
  8
0
 10
58.81906919506582
 20
833.0556764289778
 30
0.0
 42
-1.0
  0
VERTEX
  5
B37
  8
0
 10
54.27944365984818
 20
828.5160508937602
 30
0.0
  0
VERTEX
  5
B38
  8
0
 10
40.81906919506582
 20
828.5160508937602
 30
0.0
  0
SEQEND
  5
13CE
  8
0
  0
POLYLINE
  5
A1
  8
0
 66
     1
 10
0.0
 20
0.0
 30
0.0
 70
     1
  0
VERTEX
  5
B39
  8
0
 10
221.6101559428325
 20
443.9146998619964
 30
0.0
  0
VERTEX
  5
B3A
  8
0
 10
218.0172882693944
 20
451.0625178424128
 30
0.0
 42
-0.538179841967185
  0
VERTEX
  5
B3B
  8
0
 10
362.7380243574286
 20
367.8780571791791
 30
0.0
  0
VERTEX
  5
B3C
  8
0
 10
354.7532331438341
 20
367.3849960518265
 30
0.0
 42
0.538179841967185
  0
SEQEND
  5
13CF
  8
0
  0
POLYLINE
  5
A2
  8
0
 66
     1
 10
0.0
 20
0.0
 30
0.0
 70
     1
  0
VERTEX
  5
B3D
  8
0
 10
179.1665207714194
 20
368.0387252449783
 30
0.0
 42
-0.5302733532162031
  0
VERTEX
  5
B3E
  8
0
 10
299.8314786557802
 20
437.1743396473692
 30
0.0
  0
VERTEX
  5
B3F
  8
0
 10
296.1097215962381
 20
430.5954773997793
 30
0.0
  0
VERTEX
  5
B40
  8
0
 10
220.3133659913132
 20
430.9681471818914
 30
0.0
  0
VERTEX
  5
B41
  8
0
 10
208.0970878703724
 20
409.2408658969327
 30
0.0
  0
VERTEX
  5
B42
  8
0
 10
223.8119434822178
 20
408.645504556586
 30
0.0
  0
VERTEX
  5
B43
  8
0
 10
224.4588854650868
 20
409.1186725663886
 30
0.0
  0
VERTEX
  5
B44
  8
0
 10
225.1063533928541
 20
409.590816879911
 30
0.0
  0
VERTEX
  5
B45
  8
0
 10
225.7548732104185
 20
410.0609138008729
 30
0.0
  0
VERTEX
  5
B46
  8
0
 10
226.0796919356553
 20
410.2948745840562
 30
0.0
  0
VERTEX
  5
B47
  8
0
 10
226.4049708626785
 20
410.5279396329942
 30
0.0
  0
VERTEX
  5
B48
  8
0
 10
226.7307757346
 20
410.759980985652
 30
0.0
  0
VERTEX
  5
B49
  8
0
 10
227.0571722945323
 20
410.9908706799947
 30
0.0
  0
VERTEX
  5
B4A
  8
0
 10
227.3842262855878
 20
411.2204807539869
 30
0.0
  0
VERTEX
  5
B4B
  8
0
 10
227.7120034508787
 20
411.4486832455939
 30
0.0
  0
VERTEX
  5
B4C
  8
0
 10
228.0405695335173
 20
411.6753501927806
 30
0.0
  0
VERTEX
  5
B4D
  8
0
 10
228.3699902766161
 20
411.900353633512
 30
0.0
  0
VERTEX
  5
B4E
  8
0
 10
228.7003314232873
 20
412.1235656057529
 30
0.0
  0
VERTEX
  5
B4F
  8
0
 10
229.031658716643
 20
412.3448581474684
 30
0.0
  0
VERTEX
  5
B50
  8
0
 10
229.3640378997958
 20
412.5641032966235
 30
0.0
  0
VERTEX
  5
B51
  8
0
 10
229.6975347158579
 20
412.7811730911832
 30
0.0
  0
VERTEX
  5
B52
  8
0
 10
230.0322149079416
 20
412.9959395691123
 30
0.0
  0
VERTEX
  5
B53
  8
0
 10
230.3681442191592
 20
413.2082747683758
 30
0.0
  0
VERTEX
  5
B54
  8
0
 10
230.7053883926231
 20
413.4180507269389
 30
0.0
  0
VERTEX
  5
B55
  8
0
 10
231.0440131714456
 20
413.6251394827664
 30
0.0
  0
VERTEX
  5
B56
  8
0
 10
231.384084298739
 20
413.8294130738234
 30
0.0
  0
VERTEX
  5
B57
  8
0
 10
231.7256675176156
 20
414.0307435380747
 30
0.0
  0
VERTEX
  5
B58
  8
0
 10
232.0688285711875
 20
414.2290029134852
 30
0.0
  0
VERTEX
  5
B59
  8
0
 10
232.4136332025674
 20
414.4240632380202
 30
0.0
  0
VERTEX
  5
B5A
  8
0
 10
232.5866724046578
 20
414.5203537680733
 30
0.0
  0
VERTEX
  5
B5B
  8
0
 10
232.7601471548674
 20
414.6157965496443
 30
0.0
  0
VERTEX
  5
B5C
  8
0
 10
232.934065671085
 20
414.7103755874789
 30
0.0
  0
VERTEX
  5
B5D
  8
0
 10
233.1084361711998
 20
414.8040748863229
 30
0.0
  0
VERTEX
  5
B5E
  8
0
 10
233.2832668731007
 20
414.8968784509215
 30
0.0
  0
VERTEX
  5
B5F
  8
0
 10
233.4585659946769
 20
414.9887702860204
 30
0.0
  0
VERTEX
  5
B60
  8
0
 10
233.6343417538174
 20
415.0797343963657
 30
0.0
  0
VERTEX
  5
B61
  8
0
 10
233.8106023684112
 20
415.1697547867025
 30
0.0
  0
VERTEX
  5
B62
  8
0
 10
233.9873560563473
 20
415.2588154617765
 30
0.0
  0
VERTEX
  5
B63
  8
0
 10
234.1646110355147
 20
415.3469004263335
 30
0.0
  0
VERTEX
  5
B64
  8
0
 10
234.3423755238027
 20
415.4339936851191
 30
0.0
  0
VERTEX
  5
B65
  8
0
 10
234.5206569150769
 20
415.5200802196171
 30
0.0
  0
VERTEX
  5
B66
  8
0
 10
234.6994546565841
 20
415.6051544306658
 30
0.0
  0
VERTEX
  5
B67
  8
0
 10
234.8787637506091
 20
415.6892159878441
 30
0.0
  0
VERTEX
  5
B68
  8
0
 10
235.0585791507368
 20
415.7722646184565
 30
0.0
  0
VERTEX
  5
B69
  8
0
 10
235.2388958105522
 20
415.8543000498069
 30
0.0
  0
VERTEX
  5
B6A
  8
0
 10
235.4197086836403
 20
415.9353220091993
 30
0.0
  0
VERTEX
  5
B6B
  8
0
 10
235.601012723586
 20
416.0153302239381
 30
0.0
  0
VERTEX
  5
B6C
  8
0
 10
235.7828028839744
 20
416.0943244213274
 30
0.0
  0
VERTEX
  5
B6D
  8
0
 10
235.9650741183903
 20
416.1723043286709
 30
0.0
  0
VERTEX
  5
B6E
  8
0
 10
236.1478213804188
 20
416.2492696732731
 30
0.0
  0
VERTEX
  5
B6F
  8
0
 10
236.3310396236448
 20
416.3252201824383
 30
0.0
  0
VERTEX
  5
B70
  8
0
 10
236.5147238016534
 20
416.4001555834703
 30
0.0
  0
VERTEX
  5
B71
  8
0
 10
236.6988688680294
 20
416.474075603673
 30
0.0
  0
VERTEX
  5
B72
  8
0
 10
236.8834697763578
 20
416.5469799703511
 30
0.0
  0
VERTEX
  5
B73
  8
0
 10
237.0685214802237
 20
416.6188684108085
 30
0.0
  0
VERTEX
  5
B74
  8
0
 10
237.254018933212
 20
416.6897406523493
 30
0.0
  0
VERTEX
  5
B75
  8
0
 10
237.4399570889076
 20
416.7595964222775
 30
0.0
  0
VERTEX
  5
B76
  8
0
 10
237.6263309008955
 20
416.8284354478973
 30
0.0
  0
VERTEX
  5
B77
  8
0
 10
237.8131353227608
 20
416.896257456513
 30
0.0
  0
VERTEX
  5
B78
  8
0
 10
238.0003653080883
 20
416.9630621754283
 30
0.0
  0
VERTEX
  5
B79
  8
0
 10
238.1880158104632
 20
417.0288493319479
 30
0.0
  0
VERTEX
  5
B7A
  8
0
 10
238.3760817834702
 20
417.0936186533755
 30
0.0
  0
VERTEX
  5
B7B
  8
0
 10
238.5645581806945
 20
417.1573698670154
 30
0.0
  0
VERTEX
  5
B7C
  8
0
 10
238.753439955721
 20
417.2201027001718
 30
0.0
  0
VERTEX
  5
B7D
  8
0
 10
238.9427220621345
 20
417.2818168801485
 30
0.0
  0
VERTEX
  5
B7E
  8
0
 10
239.1323994535203
 20
417.3425121342501
 30
0.0
  0
VERTEX
  5
B7F
  8
0
 10
239.322467083463
 20
417.4021881897801
 30
0.0
  0
VERTEX
  5
B80
  8
0
 10
239.5129199055478
 20
417.4608447740433
 30
0.0
  0
VERTEX
  5
B81
  8
0
 10
239.7037528733597
 20
417.5184816143434
 30
0.0
  0
VERTEX
  5
B82
  8
0
 10
239.8949609404837
 20
417.5750984379847
 30
0.0
  0
VERTEX
  5
B83
  8
0
 10
240.0865390605045
 20
417.6306949722712
 30
0.0
  0
VERTEX
  5
B84
  8
0
 10
240.2784821870074
 20
417.685270944507
 30
0.0
  0
VERTEX
  5
B85
  8
0
 10
240.4707852735771
 20
417.7388260819965
 30
0.0
  0
VERTEX
  5
B86
  8
0
 10
240.6634432737989
 20
417.7913601120435
 30
0.0
  0
VERTEX
  5
B87
  8
0
 10
240.8564511412574
 20
417.8428727619524
 30
0.0
  0
VERTEX
  5
B88
  8
0
 10
241.0498038295378
 20
417.8933637590271
 30
0.0
  0
VERTEX
  5
B89
  8
0
 10
241.243496292225
 20
417.9428328305718
 30
0.0
  0
VERTEX
  5
B8A
  8
0
 10
241.4375234829039
 20
417.9912797038905
 30
0.0
  0
VERTEX
  5
B8B
  8
0
 10
241.6318803551598
 20
418.0387041062878
 30
0.0
  0
VERTEX
  5
B8C
  8
0
 10
241.8265618625773
 20
418.0851057650673
 30
0.0
  0
VERTEX
  5
B8D
  8
0
 10
242.0215629587415
 20
418.1304844075333
 30
0.0
  0
VERTEX
  5
B8E
  8
0
 10
242.2168785972374
 20
418.17483976099
 30
0.0
  0
VERTEX
  5
B8F
  8
0
 10
242.41250373165
 20
418.2181715527414
 30
0.0
  0
VERTEX
  5
B90
  8
0
 10
242.6084333155642
 20
418.2604795100918
 30
0.0
  0
VERTEX
  5
B91
  8
0
 10
242.8046623025649
 20
418.3017633603451
 30
0.0
  0
VERTEX
  5
B92
  8
0
 10
243.0011856462372
 20
418.3420228308056
 30
0.0
  0
VERTEX
  5
B93
  8
0
 10
243.1979983001661
 20
418.3812576487773
 30
0.0
  0
VERTEX
  5
B94
  8
0
 10
243.3950952179366
 20
418.4194675415645
 30
0.0
  0
VERTEX
  5
B95
  8
0
 10
243.5924713531335
 20
418.4566522364713
 30
0.0
  0
VERTEX
  5
B96
  8
0
 10
243.7901216593419
 20
418.4928114608016
 30
0.0
  0
VERTEX
  5
B97
  8
0
 10
243.9880410901466
 20
418.5279449418595
 30
0.0
  0
VERTEX
  5
B98
  8
0
 10
244.1862245991329
 20
418.5620524069495
 30
0.0
  0
VERTEX
  5
B99
  8
0
 10
244.3846671398855
 20
418.5951335833756
 30
0.0
  0
VERTEX
  5
B9A
  8
0
 10
244.5833636659894
 20
418.6271881984417
 30
0.0
  0
VERTEX
  5
B9B
  8
0
 10
244.7823091310297
 20
418.6582159794522
 30
0.0
  0
VERTEX
  5
B9C
  8
0
 10
244.9814984885913
 20
418.6882166537109
 30
0.0
  0
VERTEX
  5
B9D
  8
0
 10
245.1809266922591
 20
418.7171899485222
 30
0.0
  0
VERTEX
  5
B9E
  8
0
 10
245.3805886956182
 20
418.7451355911902
 30
0.0
  0
VERTEX
  5
B9F
  8
0
 10
245.5804794522535
 20
418.772053309019
 30
0.0
  0
VERTEX
  5
BA0
  8
0
 10
245.78059391575
 20
418.7979428293126
 30
0.0
  0
VERTEX
  5
BA1
  8
0
 10
245.9809270396926
 20
418.8228038793752
 30
0.0
  0
VERTEX
  5
BA2
  8
0
 10
246.1814737776664
 20
418.8466361865109
 30
0.0
  0
VERTEX
  5
BA3
  8
0
 10
246.3822290832563
 20
418.869439478024
 30
0.0
  0
VERTEX
  5
BA4
  8
0
 10
246.5831879100473
 20
418.8912134812186
 30
0.0
  0
VERTEX
  5
BA5
  8
0
 10
246.7843452116243
 20
418.9119579233986
 30
0.0
  0
VERTEX
  5
BA6
  8
0
 10
246.9856959415724
 20
418.9316725318682
 30
0.0
  0
VERTEX
  5
BA7
  8
0
 10
247.1872350534764
 20
418.9503570339317
 30
0.0
  0
VERTEX
  5
BA8
  8
0
 10
247.3889575009214
 20
418.9680111568928
 30
0.0
  0
VERTEX
  5
BA9
  8
0
 10
247.5908582374925
 20
418.9846346280563
 30
0.0
  0
VERTEX
  5
BAA
  8
0
 10
247.7929322167743
 20
419.0002271747258
 30
0.0
  0
VERTEX
  5
BAB
  8
0
 10
247.9951743923521
 20
419.0147885242055
 30
0.0
  0
VERTEX
  5
BAC
  8
0
 10
248.1975797178106
 20
419.0283184037996
 30
0.0
  0
VERTEX
  5
BAD
  8
0
 10
248.4001431467351
 20
419.0408165408123
 30
0.0
  0
VERTEX
  5
BAE
  8
0
 10
248.6028596327104
 20
419.0522826625476
 30
0.0
  0
VERTEX
  5
BAF
  8
0
 10
248.8057241293215
 20
419.0627164963097
 30
0.0
  0
VERTEX
  5
BB0
  8
0
 10
249.0087315901532
 20
419.0721177694028
 30
0.0
  0
VERTEX
  5
BB1
  8
0
 10
249.2118769687908
 20
419.0804862091308
 30
0.0
  0
VERTEX
  5
BB2
  8
0
 10
249.4151552188189
 20
419.0878215427979
 30
0.0
  0
VERTEX
  5
BB3
  8
0
 10
249.6185612837561
 20
419.0941234839519
 30
0.0
  0
VERTEX
  5
BB4
  8
0
 10
249.8220862421859
 20
419.0993864646292
 30
0.0
  0
VERTEX
  5
BB5
  8
0
 10
250.0257114865393
 20
419.1035916805409
 30
0.0
  0
VERTEX
  5
BB6
  8
0
 10
250.2294169163028
 20
419.1067182872599
 30
0.0
  0
VERTEX
  5
BB7
  8
0
 10
250.4331824309632
 20
419.1087454403594
 30
0.0
  0
VERTEX
  5
BB8
  8
0
 10
250.6369879300067
 20
419.1096522954116
 30
0.0
  0
VERTEX
  5
BB9
  8
0
 10
250.8408133129204
 20
419.10941800799
 30
0.0
  0
VERTEX
  5
BBA
  8
0
 10
251.0446384791907
 20
419.108021733667
 30
0.0
  0
VERTEX
  5
BBB
  8
0
 10
251.2484433283041
 20
419.1054426280155
 30
0.0
  0
VERTEX
  5
BBC
  8
0
 10
251.4522077597473
 20
419.1016598466083
 30
0.0
  0
VERTEX
  5
BBD
  8
0
 10
251.655911673007
 20
419.0966525450184
 30
0.0
  0
VERTEX
  5
BBE
  8
0
 10
251.8595349675697
 20
419.0903998788185
 30
0.0
  0
VERTEX
  5
BBF
  8
0
 10
252.063057542922
 20
419.0828810035812
 30
0.0
  0
VERTEX
  5
BC0
  8
0
 10
252.2664592985506
 20
419.0740750748799
 30
0.0
  0
VERTEX
  5
BC1
  8
0
 10
252.4697201339421
 20
419.063961248287
 30
0.0
  0
VERTEX
  5
BC2
  8
0
 10
252.672819948583
 20
419.0525186793752
 30
0.0
  0
VERTEX
  5
BC3
  8
0
 10
252.8757386419601
 20
419.0397265237178
 30
0.0
  0
VERTEX
  5
BC4
  8
0
 10
253.0784561135598
 20
419.0255639368873
 30
0.0
  0
VERTEX
  5
BC5
  8
0
 10
253.2809522628688
 20
419.0100100744566
 30
0.0
  0
VERTEX
  5
BC6
  8
0
 10
253.4832069893738
 20
418.9930440919985
 30
0.0
  0
VERTEX
  5
BC7
  8
0
 10
253.6852001925613
 20
418.9746451450861
 30
0.0
  0
VERTEX
  5
BC8
  8
0
 10
253.8869117719179
 20
418.9547923892918
 30
0.0
  0
VERTEX
  5
BC9
  8
0
 10
254.0883216269303
 20
418.9334649801886
 30
0.0
  0
VERTEX
  5
BCA
  8
0
 10
254.2894096570851
 20
418.9106420733494
 30
0.0
  0
VERTEX
  5
BCB
  8
0
 10
254.4901557618688
 20
418.8863028243468
 30
0.0
  0
VERTEX
  5
BCC
  8
0
 10
254.6905398407682
 20
418.8604263887542
 30
0.0
  0
VERTEX
  5
BCD
  8
0
 10
254.8905417932697
 20
418.8329919221436
 30
0.0
  0
VERTEX
  5
BCE
  8
0
 10
255.09014151886
 20
418.8039785800884
 30
0.0
  0
VERTEX
  5
BCF
  8
0
 10
255.2893189170258
 20
418.7733655181614
 30
0.0
  0
VERTEX
  5
BD0
  8
0
 10
255.4880538872536
 20
418.7411318919353
 30
0.0
  0
VERTEX
  5
BD1
  8
0
 10
255.68632632903
 20
418.7072568569828
 30
0.0
  0
VERTEX
  5
BD2
  8
0
 10
255.8841161418417
 20
418.671719568877
 30
0.0
  0
VERTEX
  5
BD3
  8
0
 10
256.0814032251752
 20
418.6344991831905
 30
0.0
  0
VERTEX
  5
BD4
  8
0
 10
256.2781674785173
 20
418.5955748554964
 30
0.0
  0
VERTEX
  5
BD5
  8
0
 10
256.4743888013544
 20
418.5549257413672
 30
0.0
  0
VERTEX
  5
BD6
  8
0
 10
256.6700470931733
 20
418.5125309963759
 30
0.0
  0
VERTEX
  5
BD7
  8
0
 10
256.8651222534604
 20
418.4683697760952
 30
0.0
  0
VERTEX
  5
BD8
  8
0
 10
257.0595941817024
 20
418.4224212360983
 30
0.0
  0
VERTEX
  5
BD9
  8
0
 10
257.253442777386
 20
418.3746645319575
 30
0.0
  0
VERTEX
  5
BDA
  8
0
 10
257.4466479399977
 20
418.325078819246
 30
0.0
  0
VERTEX
  5
BDB
  8
0
 10
257.6391895690242
 20
418.2736432535365
 30
0.0
  0
VERTEX
  5
BDC
  8
0
 10
257.831047563952
 20
418.2203369904018
 30
0.0
  0
VERTEX
  5
BDD
  8
0
 10
258.0222018242678
 20
418.1651391854149
 30
0.0
  0
VERTEX
  5
BDE
  8
0
 10
258.2126322494582
 20
418.1080289941485
 30
0.0
  0
VERTEX
  5
BDF
  8
0
 10
258.4023187390098
 20
418.0489855721754
 30
0.0
  0
VERTEX
  5
BE0
  8
0
 10
258.5912411924092
 20
417.9879880750685
 30
0.0
  0
VERTEX
  5
BE1
  8
0
 10
258.779379509143
 20
417.9250156584005
 30
0.0
  0
VERTEX
  5
BE2
  8
0
 10
258.9667135886979
 20
417.8600474777442
 30
0.0
  0
VERTEX
  5
BE3
  8
0
 10
259.1532233305604
 20
417.7930626886728
 30
0.0
  0
VERTEX
  5
BE4
  8
0
 10
259.3388886342171
 20
417.7240404467587
 30
0.0
  0
VERTEX
  5
BE5
  8
0
 10
259.5236893991548
 20
417.6529599075749
 30
0.0
  0
VERTEX
  5
BE6
  8
0
 10
259.7076055248598
 20
417.5798002266943
 30
0.0
  0
VERTEX
  5
BE7
  8
0
 10
259.890616910819
 20
417.5045405596896
 30
0.0
  0
VERTEX
  5
BE8
  8
0
 10
260.0727034565189
 20
417.4271600621337
 30
0.0
  0
VERTEX
  5
BE9
  8
0
 10
260.2538450614461
 20
417.3476378895995
 30
0.0
  0
VERTEX
  5
BEA
  8
0
 10
260.4340216250872
 20
417.2659531976598
 30
0.0
  0
VERTEX
  5
BEB
  8
0
 10
260.6132130469288
 20
417.1820851418871
 30
0.0
  0
VERTEX
  5
BEC
  8
0
 10
260.7913992264577
 20
417.0960128778545
 30
0.0
  0
VERTEX
  5
BED
  8
0
 10
260.9685600631601
 20
417.007715561135
 30
0.0
  0
VERTEX
  5
BEE
  8
0
 10
261.1446754755738
 20
416.9171725747545
 30
0.0
  0
VERTEX
  5
BEF
  8
0
 10
261.319726698983
 20
416.8243790227693
 30
0.0
  0
VERTEX
  5
BF0
  8
0
 10
261.4936971163153
 20
416.7293556505854
 30
0.0
  0
VERTEX
  5
BF1
  8
0
 10
261.6665703082993
 20
416.6321255652135
 30
0.0
  0
VERTEX
  5
BF2
  8
0
 10
261.8383298556637
 20
416.5327118736644
 30
0.0
  0
VERTEX
  5
BF3
  8
0
 10
262.0089593391373
 20
416.431137682949
 30
0.0
  0
VERTEX
  5
BF4
  8
0
 10
262.1784423394487
 20
416.3274261000778
 30
0.0
  0
VERTEX
  5
BF5
  8
0
 10
262.3467624373265
 20
416.2216002320619
 30
0.0
  0
VERTEX
  5
BF6
  8
0
 10
262.5139032134994
 20
416.1136831859116
 30
0.0
  0
VERTEX
  5
BF7
  8
0
 10
262.679848248696
 20
416.003698068638
 30
0.0
  0
VERTEX
  5
BF8
  8
0
 10
262.8445811236451
 20
415.8916679872516
 30
0.0
  0
VERTEX
  5
BF9
  8
0
 10
263.0080854190753
 20
415.7776160487634
 30
0.0
  0
VERTEX
  5
BFA
  8
0
 10
263.1703447157153
 20
415.6615653601841
 30
0.0
  0
VERTEX
  5
BFB
  8
0
 10
263.3313425942937
 20
415.5435390285244
 30
0.0
  0
VERTEX
  5
BFC
  8
0
 10
263.4910626355393
 20
415.423560160795
 30
0.0
  0
VERTEX
  5
BFD
  8
0
 10
263.6494884201806
 20
415.3016518640068
 30
0.0
  0
VERTEX
  5
BFE
  8
0
 10
263.8066035289463
 20
415.1778372451703
 30
0.0
  0
VERTEX
  5
BFF
  8
0
 10
263.9623915425651
 20
415.0521394112967
 30
0.0
  0
VERTEX
  5
C00
  8
0
 10
264.1168360417657
 20
414.9245814693963
 30
0.0
  0
VERTEX
  5
C01
  8
0
 10
264.2699206072768
 20
414.7951865264801
 30
0.0
  0
VERTEX
  5
C02
  8
0
 10
264.4216288198269
 20
414.6639776895586
 30
0.0
  0
VERTEX
  5
C03
  8
0
 10
264.5719442601448
 20
414.530978065643
 30
0.0
  0
VERTEX
  5
C04
  8
0
 10
264.7208505089592
 20
414.3962107617436
 30
0.0
  0
VERTEX
  5
C05
  8
0
 10
264.8683311469987
 20
414.2596988848716
 30
0.0
  0
VERTEX
  5
C06
  8
0
 10
265.0143697549919
 20
414.1214655420374
 30
0.0
  0
VERTEX
  5
C07
  8
0
 10
265.1589499136676
 20
413.9815338402518
 30
0.0
  0
VERTEX
  5
C08
  8
0
 10
265.3020552037544
 20
413.8399268865256
 30
0.0
  0
VERTEX
  5
C09
  8
0
 10
265.4436692059809
 20
413.6966677878696
 30
0.0
  0
VERTEX
  5
C0A
  8
0
 10
265.5837755010759
 20
413.5517796512945
 30
0.0
  0
VERTEX
  5
C0B
  8
0
 10
265.722357669768
 20
413.4052855838111
 30
0.0
  0
VERTEX
  5
C0C
  8
0
 10
265.8593992927858
 20
413.2572086924301
 30
0.0
  0
VERTEX
  5
C0D
  8
0
 10
265.9948839508581
 20
413.1075720841624
 30
0.0
  0
VERTEX
  5
C0E
  8
0
 10
266.1287952247135
 20
412.9563988660185
 30
0.0
  0
VERTEX
  5
C0F
  8
0
 10
266.2611166950806
 20
412.8037121450093
 30
0.0
  0
VERTEX
  5
C10
  8
0
 10
266.3918319426882
 20
412.6495350281456
 30
0.0
  0
VERTEX
  5
C11
  8
0
 10
266.5209245482649
 20
412.4938906224381
 30
0.0
  0
VERTEX
  5
C12
  8
0
 10
266.6483773403943
 20
412.3368019946825
 30
0.0
  0
VERTEX
  5
C13
  8
0
 10
266.77415813065
 20
412.1782914087588
 30
0.0
  0
VERTEX
  5
C14
  8
0
 10
266.89822088174
 20
412.0183803880877
 30
0.0
  0
VERTEX
  5
C15
  8
0
 10
267.0205190383363
 20
411.8570904283926
 30
0.0
  0
VERTEX
  5
C16
  8
0
 10
267.1410060451109
 20
411.6944430253969
 30
0.0
  0
VERTEX
  5
C17
  8
0
 10
267.2596353467358
 20
411.5304596748236
 30
0.0
  0
VERTEX
  5
C18
  8
0
 10
267.3763603878829
 20
411.3651618723958
 30
0.0
  0
VERTEX
  5
C19
  8
0
 10
267.4911346132243
 20
411.1985711138369
 30
0.0
  0
VERTEX
  5
C1A
  8
0
 10
267.6039114674322
 20
411.0307088948701
 30
0.0
  0
VERTEX
  5
C1B
  8
0
 10
267.7146443951784
 20
410.8615967112185
 30
0.0
  0
VERTEX
  5
C1C
  8
0
 10
267.8232868411351
 20
410.6912560586056
 30
0.0
  0
VERTEX
  5
C1D
  8
0
 10
267.9297922499741
 20
410.5197084327542
 30
0.0
  0
VERTEX
  5
C1E
  8
0
 10
268.0341140663675
 20
410.3469753293878
 30
0.0
  0
VERTEX
  5
C1F
  8
0
 10
268.1362057349873
 20
410.1730782442295
 30
0.0
  0
VERTEX
  5
C20
  8
0
 10
268.2360207005054
 20
409.9980386730026
 30
0.0
  0
VERTEX
  5
C21
  8
0
 10
268.3335124075941
 20
409.8218781114301
 30
0.0
  0
VERTEX
  5
C22
  8
0
 10
268.4286343009253
 20
409.6446180552354
 30
0.0
  0
VERTEX
  5
C23
  8
0
 10
268.5213398251709
 20
409.4662800001417
 30
0.0
  0
VERTEX
  5
C24
  8
0
 10
268.611582425003
 20
409.2868854418721
 30
0.0
  0
VERTEX
  5
C25
  8
0
 10
268.6993155450937
 20
409.10645587615
 30
0.0
  0
VERTEX
  5
C26
  8
0
 10
268.7844926301148
 20
408.9250127986984
 30
0.0
  0
VERTEX
  5
C27
  8
0
 10
268.8670671247385
 20
408.7425777052406
 30
0.0
  0
VERTEX
  5
C28
  8
0
 10
268.9469924736367
 20
408.5591720915
 30
0.0
  0
VERTEX
  5
C29
  8
0
 10
269.0242221214815
 20
408.3748174531995
 30
0.0
  0
VERTEX
  5
C2A
  8
0
 10
269.0987095129449
 20
408.1895352860624
 30
0.0
  0
VERTEX
  5
C2B
  8
0
 10
269.1704080926989
 20
408.0033470858122
 30
0.0
  0
VERTEX
  5
C2C
  8
0
 10
269.2392713054154
 20
407.8162743481716
 30
0.0
  0
VERTEX
  5
C2D
  8
0
 10
269.3052525957666
 20
407.6283385688641
 30
0.0
  0
VERTEX
  5
C2E
  8
0
 10
269.3683054084244
 20
407.4395612436128
 30
0.0
  0
VERTEX
  5
C2F
  8
0
 10
269.4283831880608
 20
407.2499638681411
 30
0.0
  0
VERTEX
  5
C30
  8
0
 10
269.485439379348
 20
407.0595679381722
 30
0.0
  0
VERTEX
  5
C31
  8
0
 10
269.5394274269577
 20
406.868394949429
 30
0.0
  0
VERTEX
  5
C32
  8
0
 10
269.5903007755622
 20
406.6764663976351
 30
0.0
  0
VERTEX
  5
C33
  8
0
 10
269.6380128698335
 20
406.4838037785135
 30
0.0
  0
VERTEX
  5
C34
  8
0
 10
269.6825171544434
 20
406.2904285877875
 30
0.0
  0
VERTEX
  5
C35
  8
0
 10
269.723769817231
 20
406.09636269395
 30
0.0
  0
VERTEX
  5
C36
  8
0
 10
269.761779149901
 20
405.9016350459057
 30
0.0
  0
VERTEX
  5
C37
  8
0
 10
269.7966000882138
 20
405.7062809310351
 30
0.0
  0
VERTEX
  5
C38
  8
0
 10
269.8282892149381
 20
405.5103358605313
 30
0.0
  0
VERTEX
  5
C39
  8
0
 10
269.8569031128425
 20
405.3138353455873
 30
0.0
  0
VERTEX
  5
C3A
  8
0
 10
269.8824983646962
 20
405.1168148973965
 30
0.0
  0
VERTEX
  5
C3B
  8
0
 10
269.9051315532676
 20
404.9193100271514
 30
0.0
  0
VERTEX
  5
C3C
  8
0
 10
269.9248592613258
 20
404.7213562460458
 30
0.0
  0
VERTEX
  5
C3D
  8
0
 10
269.9417380716395
 20
404.5229890652724
 30
0.0
  0
VERTEX
  5
C3E
  8
0
 10
269.9558245669774
 20
404.3242439960241
 30
0.0
  0
VERTEX
  5
C3F
  8
0
 10
269.9671753301085
 20
404.1251565494946
 30
0.0
  0
VERTEX
  5
C40
  8
0
 10
269.9758469438014
 20
403.9257622368763
 30
0.0
  0
VERTEX
  5
C41
  8
0
 10
269.9818959908251
 20
403.7260965693629
 30
0.0
  0
VERTEX
  5
C42
  8
0
 10
269.9853790539482
 20
403.5261950581471
 30
0.0
  0
VERTEX
  5
C43
  8
0
 10
269.9863527159397
 20
403.3260932144222
 30
0.0
  0
VERTEX
  5
C44
  8
0
 10
269.9848735595682
 20
403.1258265493811
 30
0.0
  0
VERTEX
  5
C45
  8
0
 10
269.9809981676028
 20
402.9254305742171
 30
0.0
  0
VERTEX
  5
C46
  8
0
 10
269.9747831228119
 20
402.7249408001229
 30
0.0
  0
VERTEX
  5
C47
  8
0
 10
269.9662850079646
 20
402.5243927382924
 30
0.0
  0
VERTEX
  5
C48
  8
0
 10
269.9555604058297
 20
402.3238218999177
 30
0.0
  0
VERTEX
  5
C49
  8
0
 10
269.9426658991759
 20
402.1232637961926
 30
0.0
  0
VERTEX
  5
C4A
  8
0
 10
269.927658070772
 20
401.9227539383101
 30
0.0
  0
VERTEX
  5
C4B
  8
0
 10
269.9105935033868
 20
401.7223278374628
 30
0.0
  0
VERTEX
  5
C4C
  8
0
 10
269.8915287797892
 20
401.5220210048444
 30
0.0
  0
VERTEX
  5
C4D
  8
0
 10
269.870520482748
 20
401.3218689516477
 30
0.0
  0
VERTEX
  5
C4E
  8
0
 10
269.8476251950318
 20
401.1219071890658
 30
0.0
  0
VERTEX
  5
C4F
  8
0
 10
269.8228994994096
 20
400.922171228292
 30
0.0
  0
VERTEX
  5
C50
  8
0
 10
269.7963999786502
 20
400.722696580519
 30
0.0
  0
VERTEX
  5
C51
  8
0
 10
269.7681832155224
 20
400.5235187569403
 30
0.0
  0
VERTEX
  5
C52
  8
0
 10
269.7383057927948
 20
400.3246732687487
 30
0.0
  0
VERTEX
  5
C53
  8
0
 10
269.7068242932365
 20
400.1261956271375
 30
0.0
  0
VERTEX
  5
C54
  8
0
 10
269.6737952996161
 20
399.9281213432996
 30
0.0
  0
VERTEX
  5
C55
  8
0
 10
269.6392753947025
 20
399.7304859284282
 30
0.0
  0
VERTEX
  5
C56
  8
0
 10
269.6033135544023
 20
399.5333204423039
 30
0.0
  0
VERTEX
  5
C57
  8
0
 10
269.5659188318816
 20
399.3366325825656
 30
0.0
  0
VERTEX
  5
C58
  8
0
 10
269.5270872284532
 20
399.1404224091199
 30
0.0
  0
VERTEX
  5
C59
  8
0
 10
269.486814738041
 20
398.9446899775485
 30
0.0
  0
VERTEX
  5
C5A
  8
0
 10
269.445097354569
 20
398.7494353434338
 30
0.0
  0
VERTEX
  5
C5B
  8
0
 10
269.4019310719613
 20
398.554658562358
 30
0.0
  0
VERTEX
  5
C5C
  8
0
 10
269.3573118841413
 20
398.3603596899031
 30
0.0
  0
VERTEX
  5
C5D
  8
0
 10
269.3112357850335
 20
398.1665387816514
 30
0.0
  0
VERTEX
  5
C5E
  8
0
 10
269.2636987685615
 20
397.9731958931851
 30
0.0
  0
VERTEX
  5
C5F
  8
0
 10
269.2146968286493
 20
397.7803310800863
 30
0.0
  0
VERTEX
  5
C60
  8
0
 10
269.1642259592209
 20
397.5879443979372
 30
0.0
  0
VERTEX
  5
C61
  8
0
 10
269.1122821542
 20
397.3960359023199
 30
0.0
  0
VERTEX
  5
C62
  8
0
 10
269.0588614075109
 20
397.2046056488169
 30
0.0
  0
VERTEX
  5
C63
  8
0
 10
269.0039597130771
 20
397.0136536930099
 30
0.0
  0
VERTEX
  5
C64
  8
0
 10
268.9475730648228
 20
396.8231800904813
 30
0.0
  0
VERTEX
  5
C65
  8
0
 10
268.8896974566719
 20
396.6331848968134
 30
0.0
  0
VERTEX
  5
C66
  8
0
 10
268.8303288825483
 20
396.4436681675882
 30
0.0
  0
VERTEX
  5
C67
  8
0
 10
268.7694633363758
 20
396.254629958388
 30
0.0
  0
VERTEX
  5
C68
  8
0
 10
268.7070968120784
 20
396.0660703247947
 30
0.0
  0
VERTEX
  5
C69
  8
0
 10
268.6432253035801
 20
395.877989322391
 30
0.0
  0
VERTEX
  5
C6A
  8
0
 10
268.5778448048047
 20
395.6903870067585
 30
0.0
  0
VERTEX
  5
C6B
  8
0
 10
268.5109513096763
 20
395.5032634334798
 30
0.0
  0
VERTEX
  5
C6C
  8
0
 10
268.4425420476853
 20
395.3166195445179
 30
0.0
  0
VERTEX
  5
C6D
  8
0
 10
268.3726239304925
 20
395.1304632277127
 30
0.0
  0
VERTEX
  5
C6E
  8
0
 10
268.3012084345421
 20
394.944805645626
 30
0.0
  0
VERTEX
  5
C6F
  8
0
 10
268.2283070631021
 20
394.7596579800634
 30
0.0
  0
VERTEX
  5
C70
  8
0
 10
268.1539313194402
 20
394.5750314128296
 30
0.0
  0
VERTEX
  5
C71
  8
0
 10
268.0780927068242
 20
394.39093712573
 30
0.0
  0
VERTEX
  5
C72
  8
0
 10
268.0008027285219
 20
394.2073863005694
 30
0.0
  0
VERTEX
  5
C73
  8
0
 10
267.9220728878011
 20
394.0243901191531
 30
0.0
  0
VERTEX
  5
C74
  8
0
 10
267.8419146879296
 20
393.841959763286
 30
0.0
  0
VERTEX
  5
C75
  8
0
 10
267.7603396321753
 20
393.6601064147735
 30
0.0
  0
VERTEX
  5
C76
  8
0
 10
267.677359223806
 20
393.4788412554204
 30
0.0
  0
VERTEX
  5
C77
  8
0
 10
267.5929849660893
 20
393.2981754670319
 30
0.0
  0
VERTEX
  5
C78
  8
0
 10
267.5072283622932
 20
393.1181202314131
 30
0.0
  0
VERTEX
  5
C79
  8
0
 10
267.4201009156855
 20
392.9386867303691
 30
0.0
  0
VERTEX
  5
C7A
  8
0
 10
267.3316141295339
 20
392.759886145705
 30
0.0
  0
VERTEX
  5
C7B
  8
0
 10
267.2417795071063
 20
392.5817296592259
 30
0.0
  0
VERTEX
  5
C7C
  8
0
 10
267.1506085516704
 20
392.4042284527368
 30
0.0
  0
VERTEX
  5
C7D
  8
0
 10
267.0581127664941
 20
392.2273937080429
 30
0.0
  0
VERTEX
  5
C7E
  8
0
 10
266.9643036548453
 20
392.0512366069494
 30
0.0
  0
VERTEX
  5
C7F
  8
0
 10
266.8691927199914
 20
391.8757683312611
 30
0.0
  0
VERTEX
  5
C80
  8
0
 10
266.7727914652007
 20
391.7010000627833
 30
0.0
  0
VERTEX
  5
C81
  8
0
 10
266.6751113937408
 20
391.5269429833211
 30
0.0
  0
VERTEX
  5
C82
  8
0
 10
266.5761640088794
 20
391.3536082746794
 30
0.0
  0
VERTEX
  5
C83
  8
0
 10
266.4759608138845
 20
391.1810071186634
 30
0.0
  0
VERTEX
  5
C84
  8
0
 10
266.3745133120237
 20
391.0091506970783
 30
0.0
  0
VERTEX
  5
C85
  8
0
 10
266.271833006565
 20
390.8380501917292
 30
0.0
  0
VERTEX
  5
C86
  8
0
 10
266.167931400776
 20
390.667716784421
 30
0.0
  0
VERTEX
  5
C87
  8
0
 10
266.0628199979247
 20
390.498161656959
 30
0.0
  0
VERTEX
  5
C88
  8
0
 10
265.9565103012789
 20
390.3293959911482
 30
0.0
  0
VERTEX
  5
C89
  8
0
 10
265.8490138141062
 20
390.1614309687936
 30
0.0
  0
VERTEX
  5
C8A
  8
0
 10
265.7403420396746
 20
389.9942777717005
 30
0.0
  0
VERTEX
  5
C8B
  8
0
 10
265.6305064812519
 20
389.8279475816738
 30
0.0
  0
VERTEX
  5
C8C
  8
0
 10
265.5195186421057
 20
389.6624515805186
 30
0.0
  0
VERTEX
  5
C8D
  8
0
 10
265.4073905707181
 20
389.4977992433722
 30
0.0
  0
VERTEX
  5
C8E
  8
0
 10
265.2941386633054
 20
389.3339864357807
 30
0.0
  0
VERTEX
  5
C8F
  8
0
 10
265.1797813966518
 20
389.1710025105477
 30
0.0
  0
VERTEX
  5
C90
  8
0
 10
265.0643372605379
 20
389.008836779795
 30
0.0
  0
VERTEX
  5
C91
  8
0
 10
264.9478247447445
 20
388.8474785556443
 30
0.0
  0
VERTEX
  5
C92
  8
0
 10
264.830262339052
 20
388.6869171502167
 30
0.0
  0
VERTEX
  5
C93
  8
0
 10
264.7116685332412
 20
388.527141875634
 30
0.0
  0
VERTEX
  5
C94
  8
0
 10
264.5920618170925
 20
388.3681420440175
 30
0.0
  0
VERTEX
  5
C95
  8
0
 10
264.4714606803868
 20
388.2099069674891
 30
0.0
  0
VERTEX
  5
C96
  8
0
 10
264.3498836129045
 20
388.0524259581699
 30
0.0
  0
VERTEX
  5
C97
  8
0
 10
264.2273491044264
 20
387.8956883281818
 30
0.0
  0
VERTEX
  5
C98
  8
0
 10
264.1038756447329
 20
387.739683389646
 30
0.0
  0
VERTEX
  5
C99
  8
0
 10
263.9794817236049
 20
387.5844004546842
 30
0.0
  0
VERTEX
  5
C9A
  8
0
 10
263.8541858308228
 20
387.4298288354178
 30
0.0
  0
VERTEX
  5
C9B
  8
0
 10
263.7280064561673
 20
387.2759578439685
 30
0.0
  0
VERTEX
  5
C9C
  8
0
 10
263.6009620894191
 20
387.1227767924579
 30
0.0
  0
VERTEX
  5
C9D
  8
0
 10
263.4730712203586
 20
386.970274993007
 30
0.0
  0
VERTEX
  5
C9E
  8
0
 10
263.3443523387667
 20
386.8184417577378
 30
0.0
  0
VERTEX
  5
C9F
  8
0
 10
263.2148239344239
 20
386.6672663987717
 30
0.0
  0
VERTEX
  5
CA0
  8
0
 10
263.0845044971107
 20
386.5167382282302
 30
0.0
  0
VERTEX
  5
CA1
  8
0
 10
262.953412516608
 20
386.3668465582349
 30
0.0
  0
VERTEX
  5
CA2
  8
0
 10
262.8215664826961
 20
386.2175807009071
 30
0.0
  0
VERTEX
  5
CA3
  8
0
 10
262.6889848851559
 20
386.0689299683685
 30
0.0
  0
VERTEX
  5
CA4
  8
0
 10
262.4216889583125
 20
385.7734311261449
 30
0.0
  0
VERTEX
  5
CA5
  8
0
 10
262.1516726543231
 20
385.4802645285363
 30
0.0
  0
VERTEX
  5
CA6
  8
0
 10
261.8790838914325
 20
385.1893446725149
 30
0.0
  0
VERTEX
  5
CA7
  8
0
 10
261.6040705878856
 20
384.9005860550528
 30
0.0
  0
VERTEX
  5
CA8
  8
0
 10
261.3267806619275
 20
384.6139031731219
 30
0.0
  0
VERTEX
  5
CA9
  8
0
 10
261.0473620318031
 20
384.3292105236948
 30
0.0
  0
VERTEX
  5
CAA
  8
0
 10
260.7659626157575
 20
384.0464226037435
 30
0.0
  0
VERTEX
  5
CAB
  8
0
 10
260.4827134091025
 20
383.7654707959494
 30
0.0
  0
VERTEX
  5
CAC
  8
0
 10
260.1976177543393
 20
383.4864138550169
 30
0.0
  0
VERTEX
  5
CAD
  8
0
 10
259.9106207535018
 20
383.2093686480126
 30
0.0
  0
VERTEX
  5
CAE
  8
0
 10
259.6216672111842
 20
382.9344523387871
 30
0.0
  0
VERTEX
  5
CAF
  8
0
 10
259.3307019319808
 20
382.6617820911915
 30
0.0
  0
VERTEX
  5
CB0
  8
0
 10
259.0376697204857
 20
382.3914750690768
 30
0.0
  0
VERTEX
  5
CB1
  8
0
 10
258.7425153812934
 20
382.1236484362942
 30
0.0
  0
VERTEX
  5
CB2
  8
0
 10
258.445183718998
 20
381.8584193566947
 30
0.0
  0
VERTEX
  5
CB3
  8
0
 10
258.1456195381938
 20
381.5959049941292
 30
0.0
  0
VERTEX
  5
CB4
  8
0
 10
257.843767643475
 20
381.3362225124489
 30
0.0
  0
VERTEX
  5
CB5
  8
0
 10
257.6919665548335
 20
381.2074798406443
 30
0.0
  0
VERTEX
  5
CB6
  8
0
 10
257.539572839436
 20
381.0794890755049
 30
0.0
  0
VERTEX
  5
CB7
  8
0
 10
257.3865795978572
 20
380.9522648625125
 30
0.0
  0
VERTEX
  5
CB8
  8
0
 10
257.232979930671
 20
380.8258218471482
 30
0.0
  0
VERTEX
  5
CB9
  8
0
 10
257.078766938452
 20
380.7001746748934
 30
0.0
  0
VERTEX
  5
CBA
  8
0
 10
256.9239337217742
 20
380.5753379912297
 30
0.0
  0
VERTEX
  5
CBB
  8
0
 10
256.7684733812122
 20
380.4513264416381
 30
0.0
  0
VERTEX
  5
CBC
  8
0
 10
256.6123790173401
 20
380.3281546716005
 30
0.0
  0
VERTEX
  5
CBD
  8
0
 10
256.455643730732
 20
380.2058373265978
 30
0.0
  0
VERTEX
  5
CBE
  8
0
 10
256.2982606219626
 20
380.0843890521116
 30
0.0
  0
VERTEX
  5
CBF
  8
0
 10
256.1402227916058
 20
379.9638244936233
 30
0.0
  0
VERTEX
  5
CC0
  8
0
 10
255.9815233402362
 20
379.8441582966143
 30
0.0
  0
VERTEX
  5
CC1
  8
0
 10
255.8221553684278
 20
379.7254051065658
 30
0.0
  0
VERTEX
  5
CC2
  8
0
 10
255.662111976755
 20
379.6075795689594
 30
0.0
  0
VERTEX
  5
CC3
  8
0
 10
255.5013862657922
 20
379.4906963292763
 30
0.0
  0
VERTEX
  5
CC4
  8
0
 10
255.3399713361135
 20
379.374770032998
 30
0.0
  0
VERTEX
  5
CC5
  8
0
 10
255.1778602882933
 20
379.2598153256058
 30
0.0
  0
VERTEX
  5
CC6
  8
0
 10
255.0150494821974
 20
379.1458425056799
 30
0.0
  0
VERTEX
  5
CC7
  8
0
 10
254.851548501821
 20
379.0328442348444
 30
0.0
  0
VERTEX
  5
CC8
  8
0
 10
254.6873702846002
 20
378.9208087022555
 30
0.0
  0
VERTEX
  5
CC9
  8
0
 10
254.5225277679716
 20
378.8097240970686
 30
0.0
  0
VERTEX
  5
CCA
  8
0
 10
254.3570338893716
 20
378.6995786084394
 30
0.0
  0
VERTEX
  5
CCB
  8
0
 10
254.190901586237
 20
378.5903604255237
 30
0.0
  0
VERTEX
  5
CCC
  8
0
 10
254.0241437960042
 20
378.4820577374767
 30
0.0
  0
VERTEX
  5
CCD
  8
0
 10
253.85677345611
 20
378.3746587334545
 30
0.0
  0
VERTEX
  5
CCE
  8
0
 10
253.6888035039907
 20
378.2681516026123
 30
0.0
  0
VERTEX
  5
CCF
  8
0
 10
253.5202468770831
 20
378.162524534106
 30
0.0
  0
VERTEX
  5
CD0
  8
0
 10
253.3511165128236
 20
378.057765717091
 30
0.0
  0
VERTEX
  5
CD1
  8
0
 10
253.1814253486489
 20
377.9538633407231
 30
0.0
  0
VERTEX
  5
CD2
  8
0
 10
253.0111863219954
 20
377.8508055941577
 30
0.0
  0
VERTEX
  5
CD3
  8
0
 10
252.8404123702998
 20
377.7485806665504
 30
0.0
  0
VERTEX
  5
CD4
  8
0
 10
252.6691164309986
 20
377.6471767470571
 30
0.0
  0
VERTEX
  5
CD5
  8
0
 10
252.3250103393258
 20
377.4467846890344
 30
0.0
  0
VERTEX
  5
CD6
  8
0
 10
251.9789715464697
 20
377.2495349333342
 30
0.0
  0
VERTEX
  5
CD7
  8
0
 10
251.6311035519226
 20
377.0553329932017
 30
0.0
  0
VERTEX
  5
CD8
  8
0
 10
251.2815098551772
 20
376.8640843818815
 30
0.0
  0
VERTEX
  5
CD9
  8
0
 10
250.9302939557261
 20
376.6756946126187
 30
0.0
  0
VERTEX
  5
CDA
  8
0
 10
250.5775593530617
 20
376.4900691986578
 30
0.0
  0
VERTEX
  5
CDB
  8
0
 10
250.2234095466766
 20
376.307113653244
 30
0.0
  0
VERTEX
  5
CDC
  8
0
 10
249.8679480360636
 20
376.1267334896223
 30
0.0
  0
VERTEX
  5
CDD
  8
0
 10
249.5112783207148
 20
375.9488342210374
 30
0.0
  0
VERTEX
  5
CDE
  8
0
 10
249.1535039001232
 20
375.7733213607342
 30
0.0
  0
VERTEX
  5
CDF
  8
0
 10
248.7947282733932
 20
375.6001004218928
 30
0.0
  0
VERTEX
  5
CE0
  8
0
 10
248.4350437744128
 20
375.4290750517266
 30
0.0
  0
VERTEX
  5
CE1
  8
0
 10
248.0745023687957
 20
375.2601421509756
 30
0.0
  0
VERTEX
  5
CE2
  8
0
 10
247.713146901874
 20
375.0931970961691
 30
0.0
  0
VERTEX
  5
CE3
  8
0
 10
247.3510202189791
 20
374.9281352638359
 30
0.0
  0
VERTEX
  5
CE4
  8
0
 10
246.9881651654432
 20
374.7648520305057
 30
0.0
  0
VERTEX
  5
CE5
  8
0
 10
246.6246245865979
 20
374.6032427727074
 30
0.0
  0
VERTEX
  5
CE6
  8
0
 10
246.2604413277753
 20
374.4432028669706
 30
0.0
  0
VERTEX
  5
CE7
  8
0
 10
245.8956582343069
 20
374.2846276898243
 30
0.0
  0
VERTEX
  5
CE8
  8
0
 10
245.5303181515247
 20
374.1274126177977
 30
0.0
  0
VERTEX
  5
CE9
  8
0
 10
245.1644639247606
 20
373.9714530274203
 30
0.0
  0
VERTEX
  5
CEA
  8
0
 10
244.7981383993463
 20
373.8166442952211
 30
0.0
  0
VERTEX
  5
CEB
  8
0
 10
244.4313844206138
 20
373.6628817977294
 30
0.0
  0
VERTEX
  5
CEC
  8
0
 10
244.0642448338946
 20
373.5100609114746
 30
0.0
  0
VERTEX
  5
CED
  8
0
 10
243.3289802178243
 20
373.2068254787922
 30
0.0
  0
VERTEX
  5
CEE
  8
0
 10
242.59268731379
 20
372.9061010094078
 30
0.0
  0
VERTEX
  5
CEF
  8
0
 10
241.1183876924483
 20
372.3088370094694
 30
0.0
  0
VERTEX
  5
CF0
  8
0
 10
240.6593089140403
 20
372.2105104307067
 30
0.0
  0
VERTEX
  5
CF1
  8
0
 10
240.4296573841197
 20
372.1621064761707
 30
0.0
  0
VERTEX
  5
CF2
  8
0
 10
240.1998712853389
 20
372.1146137234486
 30
0.0
  0
VERTEX
  5
CF3
  8
0
 10
239.9699057614114
 20
372.0683359064791
 30
0.0
  0
VERTEX
  5
CF4
  8
0
 10
239.7397159560505
 20
372.0235767592001
 30
0.0
  0
VERTEX
  5
CF5
  8
0
 10
239.6245229302429
 20
372.0018616035501
 30
0.0
  0
VERTEX
  5
CF6
  8
0
 10
239.5092570129695
 20
371.9806400155495
 30
0.0
  0
VERTEX
  5
CF7
  8
0
 10
239.3939125971943
 20
371.9599499619406
 30
0.0
  0
VERTEX
  5
CF8
  8
0
 10
239.2784840758816
 20
371.9398294094655
 30
0.0
  0
VERTEX
  5
CF9
  8
0
 10
239.1629658419955
 20
371.9203163248666
 30
0.0
  0
VERTEX
  5
CFA
  8
0
 10
239.0473522885002
 20
371.9014486748862
 30
0.0
  0
VERTEX
  5
CFB
  8
0
 10
238.9316378083599
 20
371.8832644262664
 30
0.0
  0
VERTEX
  5
CFC
  8
0
 10
238.8158168699469
 20
371.8658011721309
 30
0.0
  0
VERTEX
  5
CFD
  8
0
 10
238.6998874148611
 20
371.8490792971022
 30
0.0
  0
VERTEX
  5
CFE
  8
0
 10
238.5838522376531
 20
371.8330951413034
 30
0.0
  0
VERTEX
  5
CFF
  8
0
 10
238.4677144939425
 20
371.8178432559033
 30
0.0
  0
VERTEX
  5
D00
  8
0
 10
238.3514773393485
 20
371.80331819207
 30
0.0
  0
VERTEX
  5
D01
  8
0
 10
238.2351439294903
 20
371.7895145009724
 30
0.0
  0
VERTEX
  5
D02
  8
0
 10
238.1187174199872
 20
371.7764267337788
 30
0.0
  0
VERTEX
  5
D03
  8
0
 10
238.0022009664585
 20
371.7640494416579
 30
0.0
  0
VERTEX
  5
D04
  8
0
 10
237.8855977245235
 20
371.7523771757783
 30
0.0
  0
VERTEX
  5
D05
  8
0
 10
237.7689108498014
 20
371.7414044873083
 30
0.0
  0
VERTEX
  5
D06
  8
0
 10
237.6521434979115
 20
371.7311259274167
 30
0.0
  0
VERTEX
  5
D07
  8
0
 10
237.5352988244732
 20
371.7215360472719
 30
0.0
  0
VERTEX
  5
D08
  8
0
 10
237.4183799851056
 20
371.7126293980426
 30
0.0
  0
VERTEX
  5
D09
  8
0
 10
237.3013901354281
 20
371.7044005308971
 30
0.0
  0
VERTEX
  5
D0A
  8
0
 10
237.1843324310599
 20
371.696843997004
 30
0.0
  0
VERTEX
  5
D0B
  8
0
 10
237.0672100276203
 20
371.689954347532
 30
0.0
  0
VERTEX
  5
D0C
  8
0
 10
236.9500260807287
 20
371.6837261336495
 30
0.0
  0
VERTEX
  5
D0D
  8
0
 10
236.8327837460042
 20
371.6781539065252
 30
0.0
  0
VERTEX
  5
D0E
  8
0
 10
236.715486179066
 20
371.6732322173274
 30
0.0
  0
VERTEX
  5
D0F
  8
0
 10
236.5981365355337
 20
371.6689556172249
 30
0.0
  0
VERTEX
  5
D10
  8
0
 10
236.4807379710264
 20
371.6653186573861
 30
0.0
  0
VERTEX
  5
D11
  8
0
 10
236.3632936411633
 20
371.6623158889796
 30
0.0
  0
VERTEX
  5
D12
  8
0
 10
236.2458067015639
 20
371.6599418631739
 30
0.0
  0
VERTEX
  5
D13
  8
0
 10
236.1282803078472
 20
371.6581911311375
 30
0.0
  0
VERTEX
  5
D14
  8
0
 10
236.0107176156326
 20
371.6570582440391
 30
0.0
  0
VERTEX
  5
D15
  8
0
 10
235.8931217805394
 20
371.6565377530471
 30
0.0
  0
VERTEX
  5
D16
  8
0
 10
235.7754959581869
 20
371.6566242093301
 30
0.0
  0
VERTEX
  5
D17
  8
0
 10
235.6578433041944
 20
371.6573121640566
 30
0.0
  0
VERTEX
  5
D18
  8
0
 10
235.5401669741811
 20
371.6585961683953
 30
0.0
  0
VERTEX
  5
D19
  8
0
 10
235.4224701237663
 20
371.6604707735145
 30
0.0
  0
VERTEX
  5
D1A
  8
0
 10
235.3047559085692
 20
371.6629305305828
 30
0.0
  0
VERTEX
  5
D1B
  8
0
 10
235.1870274842093
 20
371.665969990769
 30
0.0
  0
VERTEX
  5
D1C
  8
0
 10
235.0692880063056
 20
371.6695837052414
 30
0.0
  0
VERTEX
  5
D1D
  8
0
 10
234.9515406304776
 20
371.6737662251685
 30
0.0
  0
VERTEX
  5
D1E
  8
0
 10
234.8337885123445
 20
371.678512101719
 30
0.0
  0
VERTEX
  5
D1F
  8
0
 10
234.7160348075255
 20
371.6838158860614
 30
0.0
  0
VERTEX
  5
D20
  8
0
 10
234.59828267164
 20
371.6896721293642
 30
0.0
  0
VERTEX
  5
D21
  8
0
 10
234.4805352603072
 20
371.696075382796
 30
0.0
  0
VERTEX
  5
D22
  8
0
 10
234.3627957291465
 20
371.7030201975253
 30
0.0
  0
VERTEX
  5
D23
  8
0
 10
234.245067233777
 20
371.7105011247208
 30
0.0
  0
VERTEX
  5
D24
  8
0
 10
234.127352929818
 20
371.7185127155506
 30
0.0
  0
VERTEX
  5
D25
  8
0
 10
234.009655972889
 20
371.7270495211837
 30
0.0
  0
VERTEX
  5
D26
  8
0
 10
233.8919795186089
 20
371.7361060927886
 30
0.0
  0
VERTEX
  5
D27
  8
0
 10
233.7743267225974
 20
371.7456769815336
 30
0.0
  0
VERTEX
  5
D28
  8
0
 10
233.6567007404735
 20
371.7557567385875
 30
0.0
  0
VERTEX
  5
D29
  8
0
 10
233.5391047278566
 20
371.7663399151186
 30
0.0
  0
VERTEX
  5
D2A
  8
0
 10
233.4215418403658
 20
371.7774210622957
 30
0.0
  0
VERTEX
  5
D2B
  8
0
 10
233.3040152336206
 20
371.7889947312871
 30
0.0
  0
VERTEX
  5
D2C
  8
0
 10
233.1865280632402
 20
371.8010554732615
 30
0.0
  0
VERTEX
  5
D2D
  8
0
 10
232.9516846540507
 20
371.8266163808333
 30
0.0
  0
VERTEX
  5
D2E
  8
0
 10
232.7170368577518
 20
371.8540601943595
 30
0.0
  0
VERTEX
  5
D2F
  8
0
 10
232.4826099192975
 20
371.8833433231883
 30
0.0
  0
VERTEX
  5
D30
  8
0
 10
232.2484290836422
 20
371.9144221766682
 30
0.0
  0
VERTEX
  5
D31
  8
0
 10
232.0145195957401
 20
371.9472531641475
 30
0.0
  0
VERTEX
  5
D32
  8
0
 10
231.7809067005452
 20
371.9817926949744
 30
0.0
  0
VERTEX
  5
D33
  8
0
 10
231.5476156429709
 20
372.0179971784546
 30
0.0
  0
VERTEX
  5
D34
  8
0
 10
231.3146688030322
 20
372.0558200227566
 30
0.0
  0
VERTEX
  5
D35
  8
0
 10
231.082077925799
 20
372.0952034953656
 30
0.0
  0
VERTEX
  5
D36
  8
0
 10
230.8498522891287
 20
372.136087279228
 30
0.0
  0
VERTEX
  5
D37
  8
0
 10
230.6180011708792
 20
372.1784110572901
 30
0.0
  0
VERTEX
  5
D38
  8
0
 10
230.3865338489079
 20
372.2221145124979
 30
0.0
  0
VERTEX
  5
D39
  8
0
 10
230.1554596010723
 20
372.2671373277979
 30
0.0
  0
VERTEX
  5
D3A
  8
0
 10
229.9247877052301
 20
372.3134191861358
 30
0.0
  0
VERTEX
  5
D3B
  8
0
 10
229.6945274392389
 20
372.3608997704584
 30
0.0
  0
VERTEX
  5
D3C
  8
0
 10
229.4646880809563
 20
372.4095187637119
 30
0.0
  0
VERTEX
  5
D3D
  8
0
 10
229.2352789082397
 20
372.4592158488421
 30
0.0
  0
VERTEX
  5
D3E
  8
0
 10
229.0063091989469
 20
372.5099307087955
 30
0.0
  0
VERTEX
  5
D3F
  8
0
 10
228.7777882309353
 20
372.5616030265184
 30
0.0
  0
VERTEX
  5
D40
  8
0
 10
228.5497252820626
 20
372.6141724849567
 30
0.0
  0
VERTEX
  5
D41
  8
0
 10
228.3221296301864
 20
372.667578767057
 30
0.0
  0
VERTEX
  5
D42
  8
0
 10
228.0950105531642
 20
372.7217615557653
 30
0.0
  0
VERTEX
  5
D43
  8
0
 10
227.8683773288536
 20
372.7766605340278
 30
0.0
  0
VERTEX
  5
D44
  8
0
 10
227.6422392351123
 20
372.832215384791
 30
0.0
  0
VERTEX
  5
D45
  8
0
 10
227.4166055497977
 20
372.888365791001
 30
0.0
  0
VERTEX
  5
D46
  8
0
 10
227.1914828936404
 20
372.9450599677576
 30
0.0
  0
VERTEX
  5
D47
  8
0
 10
226.9668394635712
 20
373.0023695107044
 30
0.0
  0
VERTEX
  5
D48
  8
0
 10
226.742614545905
 20
373.0604588487671
 30
0.0
  0
VERTEX
  5
D49
  8
0
 10
226.5187467208622
 20
373.1194946781726
 30
0.0
  0
VERTEX
  5
D4A
  8
0
 10
226.2951745686631
 20
373.1796436951478
 30
0.0
  0
VERTEX
  5
D4B
  8
0
 10
226.0718366695282
 20
373.2410725959198
 30
0.0
  0
VERTEX
  5
D4C
  8
0
 10
225.848671603678
 20
373.303948076716
 30
0.0
  0
VERTEX
  5
D4D
  8
0
 10
225.6256179513326
 20
373.3684368337628
 30
0.0
  0
VERTEX
  5
D4E
  8
0
 10
225.4026142927125
 20
373.4347055632877
 30
0.0
  0
VERTEX
  5
D4F
  8
0
 10
225.2911120173684
 20
373.4685595103002
 30
0.0
  0
VERTEX
  5
D50
  8
0
 10
225.1795992080381
 20
373.5029209615175
 30
0.0
  0
VERTEX
  5
D51
  8
0
 10
225.0680681872495
 20
373.5378107539678
 30
0.0
  0
VERTEX
  5
D52
  8
0
 10
224.95651127753
 20
373.5732497246795
 30
0.0
  0
VERTEX
  5
D53
  8
0
 10
224.844920801407
 20
373.6092587106808
 30
0.0
  0
VERTEX
  5
D54
  8
0
 10
224.7332890814082
 20
373.6458585490004
 30
0.0
  0
VERTEX
  5
D55
  8
0
 10
224.6216084400611
 20
373.6830700766664
 30
0.0
  0
VERTEX
  5
D56
  8
0
 10
224.5098711998933
 20
373.7209141307073
 30
0.0
  0
VERTEX
  5
D57
  8
0
 10
224.3980696834323
 20
373.7594115481516
 30
0.0
  0
VERTEX
  5
D58
  8
0
 10
224.2861962132056
 20
373.7985831660275
 30
0.0
  0
VERTEX
  5
D59
  8
0
 10
224.1742431117409
 20
373.8384498213634
 30
0.0
  0
VERTEX
  5
D5A
  8
0
 10
224.0622027015657
 20
373.8790323511878
 30
0.0
  0
VERTEX
  5
D5B
  8
0
 10
223.9500673052074
 20
373.920351592529
 30
0.0
  0
VERTEX
  5
D5C
  8
0
 10
223.8378292451936
 20
373.9624283824152
 30
0.0
  0
VERTEX
  5
D5D
  8
0
 10
223.725480844052
 20
374.0052835578751
 30
0.0
  0
VERTEX
  5
D5E
  8
0
 10
223.6130144243101
 20
374.0489379559369
 30
0.0
  0
VERTEX
  5
D5F
  8
0
 10
223.5004223084953
 20
374.0934124136289
 30
0.0
  0
VERTEX
  5
D60
  8
0
 10
223.3876968191353
 20
374.1387277679798
 30
0.0
  0
VERTEX
  5
D61
  8
0
 10
223.2748327676259
 20
374.1849038360987
 30
0.0
  0
VERTEX
  5
D62
  8
0
 10
223.1618524558823
 20
374.2319491696921
 30
0.0
  0
VERTEX
  5
D63
  8
0
 10
223.0487952598423
 20
374.2798653236645
 30
0.0
  0
VERTEX
  5
D64
  8
0
 10
222.9357008117017
 20
374.3286537479067
 30
0.0
  0
VERTEX
  5
D65
  8
0
 10
222.8226087436568
 20
374.3783158923104
 30
0.0
  0
VERTEX
  5
D66
  8
0
 10
222.7095586879038
 20
374.4288532067665
 30
0.0
  0
VERTEX
  5
D67
  8
0
 10
222.5965902766389
 20
374.4802671411663
 30
0.0
  0
VERTEX
  5
D68
  8
0
 10
222.4837431420582
 20
374.5325591454013
 30
0.0
  0
VERTEX
  5
D69
  8
0
 10
222.3710569163579
 20
374.5857306693626
 30
0.0
  0
VERTEX
  5
D6A
  8
0
 10
222.2585712317342
 20
374.6397831629415
 30
0.0
  0
VERTEX
  5
D6B
  8
0
 10
222.1463257203832
 20
374.6947180760291
 30
0.0
  0
VERTEX
  5
D6C
  8
0
 10
222.0343600145011
 20
374.7505368585169
 30
0.0
  0
VERTEX
  5
D6D
  8
0
 10
221.922713746284
 20
374.8072409602961
 30
0.0
  0
VERTEX
  5
D6E
  8
0
 10
221.8114265479282
 20
374.8648318312578
 30
0.0
  0
VERTEX
  5
D6F
  8
0
 10
221.7005380516298
 20
374.9233109212935
 30
0.0
  0
VERTEX
  5
D70
  8
0
 10
221.590087889585
 20
374.9826796802942
 30
0.0
  0
VERTEX
  5
D71
  8
0
 10
221.4801156939899
 20
375.0429395581512
 30
0.0
  0
VERTEX
  5
D72
  8
0
 10
221.3706610970408
 20
375.1040920047561
 30
0.0
  0
VERTEX
  5
D73
  8
0
 10
221.2617637309337
 20
375.1661384699997
 30
0.0
  0
VERTEX
  5
D74
  8
0
 10
221.1534632278648
 20
375.2290804037736
 30
0.0
  0
VERTEX
  5
D75
  8
0
 10
221.0457992200304
 20
375.2929192559688
 30
0.0
  0
VERTEX
  5
D76
  8
0
 10
220.9388113396267
 20
375.3576564764768
 30
0.0
  0
VERTEX
  5
D77
  8
0
 10
220.8325392188496
 20
375.4232935151887
 30
0.0
  0
VERTEX
  5
D78
  8
0
 10
220.7270224898956
 20
375.4898318219959
 30
0.0
  0
VERTEX
  5
D79
  8
0
 10
220.6223007849606
 20
375.5572728467893
 30
0.0
  0
VERTEX
  5
D7A
  8
0
 10
220.5184137362409
 20
375.6256180394605
 30
0.0
  0
VERTEX
  5
D7B
  8
0
 10
220.4154009759326
 20
375.6948688499007
 30
0.0
  0
VERTEX
  5
D7C
  8
0
 10
220.313302136232
 20
375.7650267280012
 30
0.0
  0
VERTEX
  5
D7D
  8
0
 10
220.2121568493352
 20
375.8360931236533
 30
0.0
  0
VERTEX
  5
D7E
  8
0
 10
220.1120047474382
 20
375.9080694867478
 30
0.0
  0
VERTEX
  5
D7F
  8
0
 10
220.0128854627374
 20
375.9809572671765
 30
0.0
  0
VERTEX
  5
D80
  8
0
 10
219.914838627429
 20
376.0547579148305
 30
0.0
  0
VERTEX
  5
D81
  8
0
 10
219.817903873709
 20
376.1294728796011
 30
0.0
  0
VERTEX
  5
D82
  8
0
 10
219.7221208337736
 20
376.2051036113793
 30
0.0
  0
VERTEX
  5
D83
  8
0
 10
219.627529139819
 20
376.2816515600566
 30
0.0
  0
VERTEX
  5
D84
  8
0
 10
219.5341684240414
 20
376.3591181755243
 30
0.0
  0
VERTEX
  5
D85
  8
0
 10
219.442078318637
 20
376.4375049076734
 30
0.0
  0
VERTEX
  5
D86
  8
0
 10
219.3512984558018
 20
376.5168132063955
 30
0.0
  0
VERTEX
  5
D87
  8
0
 10
219.2618684677321
 20
376.5970445215815
 30
0.0
  0
VERTEX
  5
D88
  8
0
 10
219.1738279866242
 20
376.6782003031229
 30
0.0
  0
VERTEX
  5
D89
  8
0
 10
219.087216644674
 20
376.7602820009109
 30
0.0
  0
VERTEX
  5
D8A
  8
0
 10
219.0020740740778
 20
376.8432910648368
 30
0.0
  0
VERTEX
  5
D8B
  8
0
 10
218.9184399070318
 20
376.9272289447918
 30
0.0
  0
VERTEX
  5
D8C
  8
0
 10
218.8363537757321
 20
377.0120970906671
 30
0.0
  0
VERTEX
  5
D8D
  8
0
 10
218.7558553123749
 20
377.0978969523541
 30
0.0
  0
VERTEX
  5
D8E
  8
0
 10
218.6769841491564
 20
377.184629979744
 30
0.0
  0
VERTEX
  5
D8F
  8
0
 10
218.5997799182727
 20
377.272297622728
 30
0.0
  0
VERTEX
  5
D90
  8
0
 10
218.5618152875177
 20
377.3164823781587
 30
0.0
  0
VERTEX
  5
D91
  8
0
 10
218.5242822519201
 20
377.3609013311975
 30
0.0
  0
VERTEX
  5
D92
  8
0
 10
218.4871857655041
 20
377.4055546630801
 30
0.0
  0
VERTEX
  5
D93
  8
0
 10
218.4505307822946
 20
377.4504425550435
 30
0.0
  0
VERTEX
  5
D94
  8
0
 10
218.4143222563158
 20
377.4955651883238
 30
0.0
  0
VERTEX
  5
D95
  8
0
 10
218.3785651415924
 20
377.5409227441575
 30
0.0
  0
VERTEX
  5
D96
  8
0
 10
218.3432643921489
 20
377.586515403781
 30
0.0
  0
VERTEX
  5
D97
  8
0
 10
218.3084249620097
 20
377.6323433484305
 30
0.0
  0
VERTEX
  5
D98
  8
0
 10
218.2740518051996
 20
377.6784067593429
 30
0.0
  0
VERTEX
  5
D99
  8
0
 10
218.2401498757429
 20
377.7247058177543
 30
0.0
  0
VERTEX
  5
D9A
  8
0
 10
218.2067241276641
 20
377.7712407049011
 30
0.0
  0
VERTEX
  5
D9B
  8
0
 10
218.1737795149878
 20
377.8180116020196
 30
0.0
  0
VERTEX
  5
D9C
  8
0
 10
218.1413209917385
 20
377.8650186903464
 30
0.0
  0
VERTEX
  5
D9D
  8
0
 10
218.1093535119408
 20
377.9122621511179
 30
0.0
  0
VERTEX
  5
D9E
  8
0
 10
218.077882029619
 20
377.9597421655704
 30
0.0
  0
VERTEX
  5
D9F
  8
0
 10
218.0469114987979
 20
378.0074589149403
 30
0.0
  0
VERTEX
  5
DA0
  8
0
 10
218.0164468735019
 20
378.0554125804642
 30
0.0
  0
VERTEX
  5
DA1
  8
0
 10
217.9864931077555
 20
378.1036033433784
 30
0.0
  0
VERTEX
  5
DA2
  8
0
 10
217.9570551555832
 20
378.1520313849192
 30
0.0
  0
VERTEX
  5
DA3
  8
0
 10
217.9281379710096
 20
378.2006968863232
 30
0.0
  0
VERTEX
  5
DA4
  8
0
 10
217.8997465080591
 20
378.2496000288265
 30
0.0
  0
VERTEX
  5
DA5
  8
0
 10
217.8718857207563
 20
378.2987409936657
 30
0.0
  0
VERTEX
  5
DA6
  8
0
 10
217.8445605631258
 20
378.3481199620774
 30
0.0
  0
VERTEX
  5
DA7
  8
0
 10
217.8177759891921
 20
378.3977371152978
 30
0.0
  0
VERTEX
  5
DA8
  8
0
 10
217.7915369529795
 20
378.4475926345633
 30
0.0
  0
VERTEX
  5
DA9
  8
0
 10
217.7658484085127
 20
378.4976867011101
 30
0.0
  0
VERTEX
  5
DAA
  8
0
 10
217.7407153098163
 20
378.5480194961751
 30
0.0
  0
VERTEX
  5
DAB
  8
0
 10
217.7161426109147
 20
378.5985912009944
 30
0.0
  0
VERTEX
  5
DAC
  8
0
 10
217.6921352658325
 20
378.6494019968046
 30
0.0
  0
VERTEX
  5
DAD
  8
0
 10
217.6686982285941
 20
378.7004520648418
 30
0.0
  0
VERTEX
  5
DAE
  8
0
 10
217.645836453224
 20
378.7517415863425
 30
0.0
  0
VERTEX
  5
DAF
  8
0
 10
217.6235548937469
 20
378.8032707425432
 30
0.0
  0
VERTEX
  5
DB0
  8
0
 10
217.6018585041872
 20
378.8550397146805
 30
0.0
  0
VERTEX
  5
DB1
  8
0
 10
217.5807522385695
 20
378.9070486839904
 30
0.0
  0
VERTEX
  5
DB2
  8
0
 10
217.5602410509182
 20
378.9592978317094
 30
0.0
  0
VERTEX
  5
DB3
  8
0
 10
217.5403283197357
 20
379.0117869272646
 30
0.0
  0
VERTEX
  5
DB4
  8
0
 10
217.5210088991626
 20
379.0645135119865
 30
0.0
  0
VERTEX
  5
DB5
  8
0
 10
217.5022747736276
 20
379.1174743771214
 30
0.0
  0
VERTEX
  5
DB6
  8
0
 10
217.4841179253904
 20
379.1706663133486
 30
0.0
  0
VERTEX
  5
DB7
  8
0
 10
217.4665303367105
 20
379.2240861113472
 30
0.0
  0
VERTEX
  5
DB8
  8
0
 10
217.449503989848
 20
379.2777305617968
 30
0.0
  0
VERTEX
  5
DB9
  8
0
 10
217.4330308670626
 20
379.3315964553765
 30
0.0
  0
VERTEX
  5
DBA
  8
0
 10
217.4171029506139
 20
379.3856805827656
 30
0.0
  0
VERTEX
  5
DBB
  8
0
 10
217.4017122227616
 20
379.4399797346433
 30
0.0
  0
VERTEX
  5
DBC
  8
0
 10
217.3868506657657
 20
379.4944907016888
 30
0.0
  0
VERTEX
  5
DBD
  8
0
 10
217.3725102618858
 20
379.5492102745815
 30
0.0
  0
VERTEX
  5
DBE
  8
0
 10
217.3586829933817
 20
379.604135244001
 30
0.0
  0
VERTEX
  5
DBF
  8
0
 10
217.3453608425131
 20
379.6592624006258
 30
0.0
  0
VERTEX
  5
DC0
  8
0
 10
217.3325357915398
 20
379.7145885351359
 30
0.0
  0
VERTEX
  5
DC1
  8
0
 10
217.3201998227216
 20
379.7701104382102
 30
0.0
  0
VERTEX
  5
DC2
  8
0
 10
217.3083449183181
 20
379.8258249005281
 30
0.0
  0
VERTEX
  5
DC3
  8
0
 10
217.2969630605892
 20
379.8817287127687
 30
0.0
  0
VERTEX
  5
DC4
  8
0
 10
217.2860462317946
 20
379.9378186656115
 30
0.0
  0
VERTEX
  5
DC5
  8
0
 10
217.2755864141941
 20
379.9940915497357
 30
0.0
  0
VERTEX
  5
DC6
  8
0
 10
217.2560057416142
 20
380.1071732745453
 30
0.0
  0
VERTEX
  5
DC7
  8
0
 10
217.2381569009276
 20
380.2209482126318
 30
0.0
  0
VERTEX
  5
DC8
  8
0
 10
217.2219757502123
 20
380.3353906894293
 30
0.0
  0
VERTEX
  5
DC9
  8
0
 10
217.2073981475463
 20
380.4504750303718
 30
0.0
  0
VERTEX
  5
DCA
  8
0
 10
217.1943599510076
 20
380.566175560894
 30
0.0
  0
VERTEX
  5
DCB
  8
0
 10
217.1827970186743
 20
380.6824666064296
 30
0.0
  0
VERTEX
  5
DCC
  8
0
 10
217.1726452086245
 20
380.799322492413
 30
0.0
  0
VERTEX
  5
DCD
  8
0
 10
217.163840378936
 20
380.9167175442783
 30
0.0
  0
VERTEX
  5
DCE
  8
0
 10
217.156318387687
 20
381.0346260874599
 30
0.0
  0
VERTEX
  5
DCF
  8
0
 10
217.1500150929555
 20
381.1530224473917
 30
0.0
  0
VERTEX
  5
DD0
  8
0
 10
217.1448663528195
 20
381.2718809495082
 30
0.0
  0
VERTEX
  5
DD1
  8
0
 10
217.140808025357
 20
381.3911759192433
 30
0.0
  0
VERTEX
  5
DD2
  8
0
 10
217.1377759686461
 20
381.5108816820315
 30
0.0
  0
VERTEX
  5
DD3
  8
0
 10
217.1357060407648
 20
381.6309725633066
 30
0.0
  0
VERTEX
  5
DD4
  8
0
 10
217.1345340997912
 20
381.7514228885034
 30
0.0
  0
VERTEX
  5
DD5
  8
0
 10
217.1341960038031
 20
381.8722069830554
 30
0.0
  0
VERTEX
  5
DD6
  8
0
 10
217.1346276108788
 20
381.9932991723971
 30
0.0
  0
VERTEX
  5
DD7
  8
0
 10
217.1357647790961
 20
382.1146737819627
 30
0.0
  0
VERTEX
  5
DD8
  8
0
 10
217.1375433665332
 20
382.2363051371865
 30
0.0
  0
VERTEX
  5
DD9
  8
0
 10
217.1398992312679
 20
382.3581675635024
 30
0.0
  0
VERTEX
  5
DDA
  8
0
 10
217.1427682313786
 20
382.480235386345
 30
0.0
  0
VERTEX
  5
DDB
  8
0
 10
217.1460862249431
 20
382.6024829311482
 30
0.0
  0
VERTEX
  5
DDC
  8
0
 10
217.1538126247454
 20
382.8474144883731
 30
0.0
  0
VERTEX
  5
DDD
  8
0
 10
217.1625652952994
 20
383.092756838651
 30
0.0
  0
VERTEX
  5
DDE
  8
0
 10
217.1718311012291
 20
383.3383045854552
 30
0.0
  0
VERTEX
  5
DDF
  8
0
 10
196.3156490974697
 20
383.3406486517203
 30
0.0
  0
VERTEX
  5
DE0
  8
0
 10
187.2172382013159
 20
368.1452896102534
 30
0.0
  0
SEQEND
  5
13D0
  8
0
  0
POLYLINE
  5
A3
  8
0
 66
     1
 10
0.0
 20
0.0
 30
0.0
 70
     1
  0
VERTEX
  5
DE1
  8
0
 10
179.0087399981671
 20
358.0357607558569
 30
0.0
  0
VERTEX
  5
DE2
  8
0
 10
186.5667090159545
 20
358.1358027928738
 30
0.0
  0
VERTEX
  5
DE3
  8
0
 10
224.4356901360583
 20
292.4763276603387
 30
0.0
  0
VERTEX
  5
DE4
  8
0
 10
249.3586900968534
 20
292.8716454035609
 30
0.0
  0
VERTEX
  5
DE5
  8
0
 10
241.9548385877451
 20
306.7458706020286
 30
0.0
  0
VERTEX
  5
DE6
  8
0
 10
241.2201541496152
 20
307.0662776416972
 30
0.0
  0
VERTEX
  5
DE7
  8
0
 10
240.4860889607102
 20
307.3876547857459
 30
0.0
  0
VERTEX
  5
DE8
  8
0
 10
239.7532622702545
 20
307.7109721385548
 30
0.0
  0
VERTEX
  5
DE9
  8
0
 10
239.3875068773277
 20
307.8736615508631
 30
0.0
  0
VERTEX
  5
DEA
  8
0
 10
239.0222933274724
 20
308.0371998045039
 30
0.0
  0
VERTEX
  5
DEB
  8
0
 10
238.6576990268418
 20
308.2017081625248
 30
0.0
  0
VERTEX
  5
DEC
  8
0
 10
238.2938013815888
 20
308.3673078879733
 30
0.0
  0
VERTEX
  5
DED
  8
0
 10
237.9306777978665
 20
308.5341202438968
 30
0.0
  0
VERTEX
  5
DEE
  8
0
 10
237.5684056818281
 20
308.702266493343
 30
0.0
  0
VERTEX
  5
DEF
  8
0
 10
237.2070624396265
 20
308.8718678993593
 30
0.0
  0
VERTEX
  5
DF0
  8
0
 10
236.8467254774149
 20
309.0430457249932
 30
0.0
  0
VERTEX
  5
DF1
  8
0
 10
236.4874722013463
 20
309.2159212332922
 30
0.0
  0
VERTEX
  5
DF2
  8
0
 10
236.1293800175739
 20
309.3906156873039
 30
0.0
  0
VERTEX
  5
DF3
  8
0
 10
235.7725263322505
 20
309.5672503500758
 30
0.0
  0
VERTEX
  5
DF4
  8
0
 10
235.4169885515294
 20
309.7459464846552
 30
0.0
  0
VERTEX
  5
DF5
  8
0
 10
235.0628440815637
 20
309.9268253540899
 30
0.0
  0
VERTEX
  5
DF6
  8
0
 10
234.7101703285063
 20
310.1100082214273
 30
0.0
  0
VERTEX
  5
DF7
  8
0
 10
234.3590446985104
 20
310.2956163497147
 30
0.0
  0
VERTEX
  5
DF8
  8
0
 10
234.009544597729
 20
310.483771002
 30
0.0
  0
VERTEX
  5
DF9
  8
0
 10
233.6617474323153
 20
310.6745934413304
 30
0.0
  0
VERTEX
  5
DFA
  8
0
 10
233.3157306084222
 20
310.8682049307534
 30
0.0
  0
VERTEX
  5
DFB
  8
0
 10
232.9715715322029
 20
311.0647267333168
 30
0.0
  0
VERTEX
  5
DFC
  8
0
 10
232.6293476098105
 20
311.2642801120679
 30
0.0
  0
VERTEX
  5
DFD
  8
0
 10
232.2891362473979
 20
311.4669863300543
 30
0.0
  0
VERTEX
  5
DFE
  8
0
 10
232.119809465607
 20
311.569559648463
 30
0.0
  0
VERTEX
  5
DFF
  8
0
 10
231.9510148511184
 20
311.6729666503234
 30
0.0
  0
VERTEX
  5
E00
  8
0
 10
231.7827620797012
 20
311.7772224935163
 30
0.0
  0
VERTEX
  5
E01
  8
0
 10
231.6150608271248
 20
311.8823423359228
 30
0.0
  0
VERTEX
  5
E02
  8
0
 10
231.4479207691582
 20
311.9883413354236
 30
0.0
  0
VERTEX
  5
E03
  8
0
 10
231.2813515815704
 20
312.0952346498999
 30
0.0
  0
VERTEX
  5
E04
  8
0
 10
231.1153629401307
 20
312.2030374372325
 30
0.0
  0
VERTEX
  5
E05
  8
0
 10
230.9499645206082
 20
312.3117648553023
 30
0.0
  0
VERTEX
  5
E06
  8
0
 10
230.785165998772
 20
312.4214320619903
 30
0.0
  0
VERTEX
  5
E07
  8
0
 10
230.620976621894
 20
312.5320530112581
 30
0.0
  0
VERTEX
  5
E08
  8
0
 10
230.4574015049531
 20
312.6436300468498
 30
0.0
  0
VERTEX
  5
E09
  8
0
 10
230.2944434515195
 20
312.7561590183038
 30
0.0
  0
VERTEX
  5
E0A
  8
0
 10
230.1321052398396
 20
312.8696357040073
 30
0.0
  0
VERTEX
  5
E0B
  8
0
 10
229.9703896481594
 20
312.9840558823472
 30
0.0
  0
VERTEX
  5
E0C
  8
0
 10
229.8092994547249
 20
313.0994153317105
 30
0.0
  0
VERTEX
  5
E0D
  8
0
 10
229.6488374377824
 20
313.2157098304843
 30
0.0
  0
VERTEX
  5
E0E
  8
0
 10
229.4890063755779
 20
313.3329351570557
 30
0.0
  0
VERTEX
  5
E0F
  8
0
 10
229.3298090463576
 20
313.4510870898116
 30
0.0
  0
VERTEX
  5
E10
  8
0
 10
229.1712482283675
 20
313.5701614071389
 30
0.0
  0
VERTEX
  5
E11
  8
0
 10
229.0133266998539
 20
313.6901538874249
 30
0.0
  0
VERTEX
  5
E12
  8
0
 10
228.8560472390628
 20
313.8110603090564
 30
0.0
  0
VERTEX
  5
E13
  8
0
 10
228.6994126242403
 20
313.9328764504205
 30
0.0
  0
VERTEX
  5
E14
  8
0
 10
228.5434256336327
 20
314.0555980899043
 30
0.0
  0
VERTEX
  5
E15
  8
0
 10
228.3880890454859
 20
314.1792210058946
 30
0.0
  0
VERTEX
  5
E16
  8
0
 10
228.2334056380461
 20
314.3037409767787
 30
0.0
  0
VERTEX
  5
E17
  8
0
 10
228.0793781895595
 20
314.4291537809434
 30
0.0
  0
VERTEX
  5
E18
  8
0
 10
227.9260094782721
 20
314.5554551967757
 30
0.0
  0
VERTEX
  5
E19
  8
0
 10
227.7733022824301
 20
314.6826410026629
 30
0.0
  0
VERTEX
  5
E1A
  8
0
 10
227.6212593802796
 20
314.8107069769917
 30
0.0
  0
VERTEX
  5
E1B
  8
0
 10
227.4698835500667
 20
314.9396488981492
 30
0.0
  0
VERTEX
  5
E1C
  8
0
 10
227.3191775700375
 20
315.0694625445226
 30
0.0
  0
VERTEX
  5
E1D
  8
0
 10
227.1691442184383
 20
315.2001436944987
 30
0.0
  0
VERTEX
  5
E1E
  8
0
 10
227.019786273515
 20
315.3316881264647
 30
0.0
  0
VERTEX
  5
E1F
  8
0
 10
226.8711065135139
 20
315.4640916188075
 30
0.0
  0
VERTEX
  5
E20
  8
0
 10
226.7231077166809
 20
315.5973499499141
 30
0.0
  0
VERTEX
  5
E21
  8
0
 10
226.5757926612624
 20
315.7314588981716
 30
0.0
  0
VERTEX
  5
E22
  8
0
 10
226.4291641255042
 20
315.866414241967
 30
0.0
  0
VERTEX
  5
E23
  8
0
 10
226.2832248876527
 20
316.0022117596873
 30
0.0
  0
VERTEX
  5
E24
  8
0
 10
226.1379777259539
 20
316.1388472297195
 30
0.0
  0
VERTEX
  5
E25
  8
0
 10
225.9934254186539
 20
316.2763164304507
 30
0.0
  0
VERTEX
  5
E26
  8
0
 10
225.849570743999
 20
316.4146151402679
 30
0.0
  0
VERTEX
  5
E27
  8
0
 10
225.706416480235
 20
316.553739137558
 30
0.0
  0
VERTEX
  5
E28
  8
0
 10
225.5639654056084
 20
316.6936842007081
 30
0.0
  0
VERTEX
  5
E29
  8
0
 10
225.422220298365
 20
316.8344461081052
 30
0.0
  0
VERTEX
  5
E2A
  8
0
 10
225.2811839367511
 20
316.9760206381364
 30
0.0
  0
VERTEX
  5
E2B
  8
0
 10
225.1408590990126
 20
317.1184035691887
 30
0.0
  0
VERTEX
  5
E2C
  8
0
 10
225.001248563396
 20
317.261590679649
 30
0.0
  0
VERTEX
  5
E2D
  8
0
 10
224.8623551081472
 20
317.4055777479046
 30
0.0
  0
VERTEX
  5
E2E
  8
0
 10
224.7241815115123
 20
317.5503605523421
 30
0.0
  0
VERTEX
  5
E2F
  8
0
 10
224.5867305517374
 20
317.6959348713489
 30
0.0
  0
VERTEX
  5
E30
  8
0
 10
224.4500050070687
 20
317.8422964833118
 30
0.0
  0
VERTEX
  5
E31
  8
0
 10
224.3140076557523
 20
317.9894411666178
 30
0.0
  0
VERTEX
  5
E32
  8
0
 10
224.1787412760343
 20
318.1373646996541
 30
0.0
  0
VERTEX
  5
E33
  8
0
 10
224.0442086461609
 20
318.2860628608076
 30
0.0
  0
VERTEX
  5
E34
  8
0
 10
223.9104125443781
 20
318.4355314284654
 30
0.0
  0
VERTEX
  5
E35
  8
0
 10
223.7773557489322
 20
318.5857661810144
 30
0.0
  0
VERTEX
  5
E36
  8
0
 10
223.6450410380691
 20
318.7367628968416
 30
0.0
  0
VERTEX
  5
E37
  8
0
 10
223.513471190035
 20
318.8885173543342
 30
0.0
  0
VERTEX
  5
E38
  8
0
 10
223.3826489830761
 20
319.0410253318791
 30
0.0
  0
VERTEX
  5
E39
  8
0
 10
223.2525771954385
 20
319.1942826078634
 30
0.0
  0
VERTEX
  5
E3A
  8
0
 10
223.1232586053683
 20
319.3482849606739
 30
0.0
  0
VERTEX
  5
E3B
  8
0
 10
222.9946959911116
 20
319.5030281686979
 30
0.0
  0
VERTEX
  5
E3C
  8
0
 10
222.8668921309145
 20
319.6585080103222
 30
0.0
  0
VERTEX
  5
E3D
  8
0
 10
222.7398498030231
 20
319.814720263934
 30
0.0
  0
VERTEX
  5
E3E
  8
0
 10
222.6135717856837
 20
319.9716607079203
 30
0.0
  0
VERTEX
  5
E3F
  8
0
 10
222.4880608571423
 20
320.1293251206679
 30
0.0
  0
VERTEX
  5
E40
  8
0
 10
222.363319795645
 20
320.2877092805642
 30
0.0
  0
VERTEX
  5
E41
  8
0
 10
222.2393513794379
 20
320.4468089659958
 30
0.0
  0
VERTEX
  5
E42
  8
0
 10
222.1161583867673
 20
320.60661995535
 30
0.0
  0
VERTEX
  5
E43
  8
0
 10
221.993743595879
 20
320.7671380270137
 30
0.0
  0
VERTEX
  5
E44
  8
0
 10
221.8721097850194
 20
320.928358959374
 30
0.0
  0
VERTEX
  5
E45
  8
0
 10
221.7512597324345
 20
321.0902785308178
 30
0.0
  0
VERTEX
  5
E46
  8
0
 10
221.6311962163705
 20
321.2528925197322
 30
0.0
  0
VERTEX
  5
E47
  8
0
 10
221.5119220150734
 20
321.4161967045043
 30
0.0
  0
VERTEX
  5
E48
  8
0
 10
221.3934399067895
 20
321.580186863521
 30
0.0
  0
VERTEX
  5
E49
  8
0
 10
221.2757526697648
 20
321.7448587751692
 30
0.0
  0
VERTEX
  5
E4A
  8
0
 10
221.1588630822454
 20
321.9102082178363
 30
0.0
  0
VERTEX
  5
E4B
  8
0
 10
221.0427739224775
 20
322.076230969909
 30
0.0
  0
VERTEX
  5
E4C
  8
0
 10
220.9274879687071
 20
322.2429228097743
 30
0.0
  0
VERTEX
  5
E4D
  8
0
 10
220.8130079991805
 20
322.4102795158195
 30
0.0
  0
VERTEX
  5
E4E
  8
0
 10
220.6993367921437
 20
322.5782968664314
 30
0.0
  0
VERTEX
  5
E4F
  8
0
 10
220.5864771258428
 20
322.7469706399971
 30
0.0
  0
VERTEX
  5
E50
  8
0
 10
220.4744317785241
 20
322.9162966149036
 30
0.0
  0
VERTEX
  5
E51
  8
0
 10
220.3632035284335
 20
323.0862705695378
 30
0.0
  0
VERTEX
  5
E52
  8
0
 10
220.2527951538171
 20
323.2568882822869
 30
0.0
  0
VERTEX
  5
E53
  8
0
 10
220.1432094329212
 20
323.4281455315378
 30
0.0
  0
VERTEX
  5
E54
  8
0
 10
220.034449143992
 20
323.6000380956776
 30
0.0
  0
VERTEX
  5
E55
  8
0
 10
219.9265170822302
 20
323.7725617513291
 30
0.0
  0
VERTEX
  5
E56
  8
0
 10
219.8194225523162
 20
323.9457115977974
 30
0.0
  0
VERTEX
  5
E57
  8
0
 10
219.7131911727421
 20
324.119481036919
 30
0.0
  0
VERTEX
  5
E58
  8
0
 10
219.6078510764774
 20
324.2938632088967
 30
0.0
  0
VERTEX
  5
E59
  8
0
 10
219.5034303964914
 20
324.4688512539333
 30
0.0
  0
VERTEX
  5
E5A
  8
0
 10
219.3999572657533
 20
324.6444383122314
 30
0.0
  0
VERTEX
  5
E5B
  8
0
 10
219.2974598172326
 20
324.8206175239938
 30
0.0
  0
VERTEX
  5
E5C
  8
0
 10
219.1959661838986
 20
324.9973820294232
 30
0.0
  0
VERTEX
  5
E5D
  8
0
 10
219.0955044987206
 20
325.1747249687226
 30
0.0
  0
VERTEX
  5
E5E
  8
0
 10
218.996102894668
 20
325.3526394820943
 30
0.0
  0
VERTEX
  5
E5F
  8
0
 10
218.8977895047101
 20
325.5311187097415
 30
0.0
  0
VERTEX
  5
E60
  8
0
 10
218.8005924618163
 20
325.7101557918666
 30
0.0
  0
VERTEX
  5
E61
  8
0
 10
218.7045398989559
 20
325.8897438686724
 30
0.0
  0
VERTEX
  5
E62
  8
0
 10
218.6096599490982
 20
326.0698760803618
 30
0.0
  0
VERTEX
  5
E63
  8
0
 10
218.5159807452127
 20
326.2505455671374
 30
0.0
  0
VERTEX
  5
E64
  8
0
 10
218.4235304202686
 20
326.431745469202
 30
0.0
  0
VERTEX
  5
E65
  8
0
 10
218.3323371072354
 20
326.6134689267583
 30
0.0
  0
VERTEX
  5
E66
  8
0
 10
218.2424289390823
 20
326.7957090800091
 30
0.0
  0
VERTEX
  5
E67
  8
0
 10
218.1538340487787
 20
326.9784590691572
 30
0.0
  0
VERTEX
  5
E68
  8
0
 10
218.0665805692939
 20
327.1617120344051
 30
0.0
  0
VERTEX
  5
E69
  8
0
 10
217.9806966335973
 20
327.3454611159557
 30
0.0
  0
VERTEX
  5
E6A
  8
0
 10
217.8962103746582
 20
327.5296994540118
 30
0.0
  0
VERTEX
  5
E6B
  8
0
 10
217.813149925446
 20
327.714420188776
 30
0.0
  0
VERTEX
  5
E6C
  8
0
 10
217.73154341893
 20
327.8996164604511
 30
0.0
  0
VERTEX
  5
E6D
  8
0
 10
217.6514189880797
 20
328.08528140924
 30
0.0
  0
VERTEX
  5
E6E
  8
0
 10
217.5728047658641
 20
328.2714081753452
 30
0.0
  0
VERTEX
  5
E6F
  8
0
 10
217.4957288852529
 20
328.4579898989695
 30
0.0
  0
VERTEX
  5
E70
  8
0
 10
217.4202194792152
 20
328.6450197203156
 30
0.0
  0
VERTEX
  5
E71
  8
0
 10
217.3463046807205
 20
328.8324907795865
 30
0.0
  0
VERTEX
  5
E72
  8
0
 10
217.2740126227381
 20
329.0203962169846
 30
0.0
  0
VERTEX
  5
E73
  8
0
 10
217.2033714382373
 20
329.2087291727129
 30
0.0
  0
VERTEX
  5
E74
  8
0
 10
217.1344092601876
 20
329.3974827869741
 30
0.0
  0
VERTEX
  5
E75
  8
0
 10
217.0671542215581
 20
329.5866501999707
 30
0.0
  0
VERTEX
  5
E76
  8
0
 10
217.0016344553184
 20
329.7762245519057
 30
0.0
  0
VERTEX
  5
E77
  8
0
 10
216.9378780944377
 20
329.9661989829818
 30
0.0
  0
VERTEX
  5
E78
  8
0
 10
216.8759132718852
 20
330.1565666334017
 30
0.0
  0
VERTEX
  5
E79
  8
0
 10
216.8157681206306
 20
330.3473206433681
 30
0.0
  0
VERTEX
  5
E7A
  8
0
 10
216.757470773643
 20
330.5384541530838
 30
0.0
  0
VERTEX
  5
E7B
  8
0
 10
216.7010493638918
 20
330.7299603027515
 30
0.0
  0
VERTEX
  5
E7C
  8
0
 10
216.6465320243464
 20
330.9218322325741
 30
0.0
  0
VERTEX
  5
E7D
  8
0
 10
216.593946887976
 20
331.1140630827541
 30
0.0
  0
VERTEX
  5
E7E
  8
0
 10
216.5433220877501
 20
331.3066459934944
 30
0.0
  0
VERTEX
  5
E7F
  8
0
 10
216.4946857566381
 20
331.4995741049977
 30
0.0
  0
VERTEX
  5
E80
  8
0
 10
216.448066027609
 20
331.6928405574666
 30
0.0
  0
VERTEX
  5
E81
  8
0
 10
216.4034910336325
 20
331.8864384911041
 30
0.0
  0
VERTEX
  5
E82
  8
0
 10
216.3609889076778
 20
332.0803610461128
 30
0.0
  0
VERTEX
  5
E83
  8
0
 10
216.3205877827144
 20
332.2746013626955
 30
0.0
  0
VERTEX
  5
E84
  8
0
 10
216.2823157917113
 20
332.4691525810548
 30
0.0
  0
VERTEX
  5
E85
  8
0
 10
216.2462010676382
 20
332.6640078413936
 30
0.0
  0
VERTEX
  5
E86
  8
0
 10
216.2122717434643
 20
332.8591602839145
 30
0.0
  0
VERTEX
  5
E87
  8
0
 10
216.1805559521589
 20
333.0546030488204
 30
0.0
  0
VERTEX
  5
E88
  8
0
 10
216.1510818266914
 20
333.2503292763139
 30
0.0
  0
VERTEX
  5
E89
  8
0
 10
216.1238775000312
 20
333.4463321065978
 30
0.0
  0
VERTEX
  5
E8A
  8
0
 10
216.0989711051476
 20
333.642604679875
 30
0.0
  0
VERTEX
  5
E8B
  8
0
 10
216.0763907750099
 20
333.8391401363479
 30
0.0
  0
VERTEX
  5
E8C
  8
0
 10
216.0561646425874
 20
334.0359316162196
 30
0.0
  0
VERTEX
  5
E8D
  8
0
 10
216.0383208408497
 20
334.2329722596926
 30
0.0
  0
VERTEX
  5
E8E
  8
0
 10
216.0228875027658
 20
334.4302552069695
 30
0.0
  0
VERTEX
  5
E8F
  8
0
 10
216.0098927613053
 20
334.6277735982535
 30
0.0
  0
VERTEX
  5
E90
  8
0
 10
215.9993645433679
 20
334.8255204755977
 30
0.0
  0
VERTEX
  5
E91
  8
0
 10
215.9913165328162
 20
335.0234820972148
 30
0.0
  0
VERTEX
  5
E92
  8
0
 10
215.9857391828021
 20
335.2216336567211
 30
0.0
  0
VERTEX
  5
E93
  8
0
 10
215.9826208068964
 20
335.4199493286683
 30
0.0
  0
VERTEX
  5
E94
  8
0
 10
215.9819497186696
 20
335.618403287608
 30
0.0
  0
VERTEX
  5
E95
  8
0
 10
215.9837142316924
 20
335.8169697080919
 30
0.0
  0
VERTEX
  5
E96
  8
0
 10
215.9879026595352
 20
336.0156227646713
 30
0.0
  0
VERTEX
  5
E97
  8
0
 10
215.9945033157688
 20
336.2143366318981
 30
0.0
  0
VERTEX
  5
E98
  8
0
 10
216.0035045139638
 20
336.4130854843237
 30
0.0
  0
VERTEX
  5
E99
  8
0
 10
216.0148945676908
 20
336.6118434964999
 30
0.0
  0
VERTEX
  5
E9A
  8
0
 10
216.0286617905204
 20
336.8105848429781
 30
0.0
  0
VERTEX
  5
E9B
  8
0
 10
216.0447944960233
 20
337.0092836983101
 30
0.0
  0
VERTEX
  5
E9C
  8
0
 10
216.0632809977698
 20
337.2079142370471
 30
0.0
  0
VERTEX
  5
E9D
  8
0
 10
216.0841096093308
 20
337.4064506337412
 30
0.0
  0
VERTEX
  5
E9E
  8
0
 10
216.1072686442769
 20
337.6048670629437
 30
0.0
  0
VERTEX
  5
E9F
  8
0
 10
216.1327464161786
 20
337.8031376992062
 30
0.0
  0
VERTEX
  5
EA0
  8
0
 10
216.1605312386066
 20
338.0012367170803
 30
0.0
  0
VERTEX
  5
EA1
  8
0
 10
216.1906114251315
 20
338.1991382911177
 30
0.0
  0
VERTEX
  5
EA2
  8
0
 10
216.2229752893239
 20
338.39681659587
 30
0.0
  0
VERTEX
  5
EA3
  8
0
 10
216.2576111447543
 20
338.5942458058886
 30
0.0
  0
VERTEX
  5
EA4
  8
0
 10
216.2945073049935
 20
338.7914000957255
 30
0.0
  0
VERTEX
  5
EA5
  8
0
 10
216.333652083612
 20
338.9882536399318
 30
0.0
  0
VERTEX
  5
EA6
  8
0
 10
216.3750337941804
 20
339.1847806130593
 30
0.0
  0
VERTEX
  5
EA7
  8
0
 10
216.4186407502694
 20
339.3809551896597
 30
0.0
  0
VERTEX
  5
EA8
  8
0
 10
216.4644612654496
 20
339.5767515442844
 30
0.0
  0
VERTEX
  5
EA9
  8
0
 10
216.5124836532915
 20
339.7721438514853
 30
0.0
  0
VERTEX
  5
EAA
  8
0
 10
216.5626962273658
 20
339.9671062858137
 30
0.0
  0
VERTEX
  5
EAB
  8
0
 10
216.6150873012431
 20
340.1616130218213
 30
0.0
  0
VERTEX
  5
EAC
  8
0
 10
216.669645188494
 20
340.3556382340597
 30
0.0
  0
VERTEX
  5
EAD
  8
0
 10
216.7263582026891
 20
340.5491560970805
 30
0.0
  0
VERTEX
  5
EAE
  8
0
 10
216.7852146573991
 20
340.7421407854353
 30
0.0
  0
VERTEX
  5
EAF
  8
0
 10
216.8462028661945
 20
340.9345664736757
 30
0.0
  0
VERTEX
  5
EB0
  8
0
 10
216.9093111426459
 20
341.1264073363532
 30
0.0
  0
VERTEX
  5
EB1
  8
0
 10
216.9745278003241
 20
341.3176375480196
 30
0.0
  0
VERTEX
  5
EB2
  8
0
 10
217.0418411527995
 20
341.5082312832263
 30
0.0
  0
VERTEX
  5
EB3
  8
0
 10
217.1112395136428
 20
341.6981627165249
 30
0.0
  0
VERTEX
  5
EB4
  8
0
 10
217.1827116101389
 20
341.8874053930388
 30
0.0
  0
VERTEX
  5
EB5
  8
0
 10
217.2562544296162
 20
342.0759202909928
 30
0.0
  0
VERTEX
  5
EB6
  8
0
 10
217.3318725769144
 20
342.2636567992677
 30
0.0
  0
VERTEX
  5
EB7
  8
0
 10
217.4095709418164
 20
342.4505638732292
 30
0.0
  0
VERTEX
  5
EB8
  8
0
 10
217.4893544141049
 20
342.6365904682428
 30
0.0
  0
VERTEX
  5
EB9
  8
0
 10
217.5712278835631
 20
342.8216855396741
 30
0.0
  0
VERTEX
  5
EBA
  8
0
 10
217.6551962399737
 20
343.0057980428887
 30
0.0
  0
VERTEX
  5
EBB
  8
0
 10
217.7412643731198
 20
343.1888769332522
 30
0.0
  0
VERTEX
  5
EBC
  8
0
 10
217.8294371727843
 20
343.3708711661301
 30
0.0
  0
VERTEX
  5
EBD
  8
0
 10
217.91971952875
 20
343.5517296968879
 30
0.0
  0
VERTEX
  5
EBE
  8
0
 10
218.0121163307999
 20
343.7314014808915
 30
0.0
  0
VERTEX
  5
EBF
  8
0
 10
218.106632468717
 20
343.9098354735062
 30
0.0
  0
VERTEX
  5
EC0
  8
0
 10
218.2032728322842
 20
344.0869806300977
 30
0.0
  0
VERTEX
  5
EC1
  8
0
 10
218.3020423112843
 20
344.2627859060315
 30
0.0
  0
VERTEX
  5
EC2
  8
0
 10
218.4029457955005
 20
344.4372002566732
 30
0.0
  0
VERTEX
  5
EC3
  8
0
 10
218.5059881747154
 20
344.6101726373885
 30
0.0
  0
VERTEX
  5
EC4
  8
0
 10
218.6111743387123
 20
344.7816520035428
 30
0.0
  0
VERTEX
  5
EC5
  8
0
 10
218.7185091772738
 20
344.9515873105017
 30
0.0
  0
VERTEX
  5
EC6
  8
0
 10
218.8279975801829
 20
345.119927513631
 30
0.0
  0
VERTEX
  5
EC7
  8
0
 10
218.9396444372227
 20
345.286621568296
 30
0.0
  0
VERTEX
  5
EC8
  8
0
 10
219.0534546381759
 20
345.4516184298624
 30
0.0
  0
VERTEX
  5
EC9
  8
0
 10
219.1694330728256
 20
345.6148670536959
 30
0.0
  0
VERTEX
  5
ECA
  8
0
 10
219.2875846309546
 20
345.7763163951619
 30
0.0
  0
VERTEX
  5
ECB
  8
0
 10
219.4079142023459
 20
345.935915409626
 30
0.0
  0
VERTEX
  5
ECC
  8
0
 10
219.5304266767825
 20
346.0936130524538
 30
0.0
  0
VERTEX
  5
ECD
  8
0
 10
219.6551269440472
 20
346.2493582790109
 30
0.0
  0
VERTEX
  5
ECE
  8
0
 10
219.782019893923
 20
346.403100044663
 30
0.0
  0
VERTEX
  5
ECF
  8
0
 10
219.9111104161928
 20
346.5547873047753
 30
0.0
  0
VERTEX
  5
ED0
  8
0
 10
220.0424034006396
 20
346.7043690147138
 30
0.0
  0
VERTEX
  5
ED1
  8
0
 10
220.1759037370461
 20
346.851794129844
 30
0.0
  0
VERTEX
  5
ED2
  8
0
 10
220.3116163151956
 20
346.9970116055312
 30
0.0
  0
VERTEX
  5
ED3
  8
0
 10
220.4495460248707
 20
347.1399703971413
 30
0.0
  0
VERTEX
  5
ED4
  8
0
 10
220.5896977558545
 20
347.2806194600398
 30
0.0
  0
VERTEX
  5
ED5
  8
0
 10
220.7320763979298
 20
347.4189077495922
 30
0.0
  0
VERTEX
  5
ED6
  8
0
 10
220.8766868408797
 20
347.554784221164
 30
0.0
  0
VERTEX
  5
ED7
  8
0
 10
221.0235322703173
 20
347.688200011801
 30
0.0
  0
VERTEX
  5
ED8
  8
0
 10
221.1725835027604
 20
347.8191476975006
 30
0.0
  0
VERTEX
  5
ED9
  8
0
 10
221.3237823774938
 20
347.9476569509464
 30
0.0
  0
VERTEX
  5
EDA
  8
0
 10
221.4770697106114
 20
348.073758754712
 30
0.0
  0
VERTEX
  5
EDB
  8
0
 10
221.6323863182077
 20
348.1974840913708
 30
0.0
  0
VERTEX
  5
EDC
  8
0
 10
221.7896730163767
 20
348.3188639434958
 30
0.0
  0
VERTEX
  5
EDD
  8
0
 10
221.9488706212126
 20
348.4379292936607
 30
0.0
  0
VERTEX
  5
EDE
  8
0
 10
222.1099199488096
 20
348.5547111244387
 30
0.0
  0
VERTEX
  5
EDF
  8
0
 10
222.2727618152618
 20
348.669240418403
 30
0.0
  0
VERTEX
  5
EE0
  8
0
 10
222.4373370366634
 20
348.7815481581272
 30
0.0
  0
VERTEX
  5
EE1
  8
0
 10
222.6035864291087
 20
348.8916653261845
 30
0.0
  0
VERTEX
  5
EE2
  8
0
 10
222.7714508086916
 20
348.9996229051483
 30
0.0
  0
VERTEX
  5
EE3
  8
0
 10
222.9408709915065
 20
349.1054518775919
 30
0.0
  0
VERTEX
  5
EE4
  8
0
 10
223.1117877936475
 20
349.2091832260887
 30
0.0
  0
VERTEX
  5
EE5
  8
0
 10
223.2841420312088
 20
349.3108479332121
 30
0.0
  0
VERTEX
  5
EE6
  8
0
 10
223.4578745202845
 20
349.4104769815353
 30
0.0
  0
VERTEX
  5
EE7
  8
0
 10
223.6329260769689
 20
349.5081013536318
 30
0.0
  0
VERTEX
  5
EE8
  8
0
 10
223.809237517356
 20
349.6037520320749
 30
0.0
  0
VERTEX
  5
EE9
  8
0
 10
223.9867496575401
 20
349.6974599994379
 30
0.0
  0
VERTEX
  5
EEA
  8
0
 10
224.1654033136153
 20
349.7892562382941
 30
0.0
  0
VERTEX
  5
EEB
  8
0
 10
224.3451393016759
 20
349.8791717312171
 30
0.0
  0
VERTEX
  5
EEC
  8
0
 10
224.5258984378159
 20
349.9672374607799
 30
0.0
  0
VERTEX
  5
EED
  8
0
 10
224.7076215381295
 20
350.0534844095561
 30
0.0
  0
VERTEX
  5
EEE
  8
0
 10
224.8902494187111
 20
350.137943560119
 30
0.0
  0
VERTEX
  5
EEF
  8
0
 10
225.0737228956545
 20
350.2206458950418
 30
0.0
  0
VERTEX
  5
EF0
  8
0
 10
225.2579827850542
 20
350.3016223968981
 30
0.0
  0
VERTEX
  5
EF1
  8
0
 10
225.4429699030042
 20
350.3809040482611
 30
0.0
  0
VERTEX
  5
EF2
  8
0
 10
225.6286250655987
 20
350.4585218317041
 30
0.0
  0
VERTEX
  5
EF3
  8
0
 10
225.8148890889318
 20
350.5345067298006
 30
0.0
  0
VERTEX
  5
EF4
  8
0
 10
226.0017027890979
 20
350.6088897251238
 30
0.0
  0
VERTEX
  5
EF5
  8
0
 10
226.189006982191
 20
350.6817018002471
 30
0.0
  0
VERTEX
  5
EF6
  8
0
 10
226.3767424843052
 20
350.7529739377439
 30
0.0
  0
VERTEX
  5
EF7
  8
0
 10
226.5648501115349
 20
350.8227371201876
 30
0.0
  0
VERTEX
  5
EF8
  8
0
 10
226.7532783578414
 20
350.89101800236
 30
0.0
  0
VERTEX
  5
EF9
  8
0
 10
226.9420160125807
 20
350.9578205256977
 30
0.0
  0
VERTEX
  5
EFA
  8
0
 10
227.1310650387925
 20
351.0231412060129
 30
0.0
  0
VERTEX
  5
EFB
  8
0
 10
227.3204274069743
 20
351.0869765549145
 30
0.0
  0
VERTEX
  5
EFC
  8
0
 10
227.5101050876239
 20
351.1493230840113
 30
0.0
  0
VERTEX
  5
EFD
  8
0
 10
227.7001000512388
 20
351.2101773049119
 30
0.0
  0
VERTEX
  5
EFE
  8
0
 10
227.8904142683169
 20
351.2695357292248
 30
0.0
  0
VERTEX
  5
EFF
  8
0
 10
228.0810497093556
 20
351.3273948685588
 30
0.0
  0
VERTEX
  5
F00
  8
0
 10
228.2720083448526
 20
351.3837512345228
 30
0.0
  0
VERTEX
  5
F01
  8
0
 10
228.4632921453058
 20
351.4386013387252
 30
0.0
  0
VERTEX
  5
F02
  8
0
 10
228.6549030812126
 20
351.491941692775
 30
0.0
  0
VERTEX
  5
F03
  8
0
 10
228.8468431230706
 20
351.5437688082805
 30
0.0
  0
VERTEX
  5
F04
  8
0
 10
229.0391142413777
 20
351.5940791968508
 30
0.0
  0
VERTEX
  5
F05
  8
0
 10
229.2317184066312
 20
351.6428693700943
 30
0.0
  0
VERTEX
  5
F06
  8
0
 10
229.4246575893292
 20
351.6901358396199
 30
0.0
  0
VERTEX
  5
F07
  8
0
 10
229.617933759969
 20
351.7358751170361
 30
0.0
  0
VERTEX
  5
F08
  8
0
 10
229.8115488890484
 20
351.7800837139517
 30
0.0
  0
VERTEX
  5
F09
  8
0
 10
230.0055049470651
 20
351.8227581419754
 30
0.0
  0
VERTEX
  5
F0A
  8
0
 10
230.1998039045167
 20
351.863894912716
 30
0.0
  0
VERTEX
  5
F0B
  8
0
 10
230.3944477319008
 20
351.903490537782
 30
0.0
  0
VERTEX
  5
F0C
  8
0
 10
230.589438399715
 20
351.941541528782
 30
0.0
  0
VERTEX
  5
F0D
  8
0
 10
230.7847778784571
 20
351.978044397325
 30
0.0
  0
VERTEX
  5
F0E
  8
0
 10
230.9804667504278
 20
352.012996275669
 30
0.0
  0
VERTEX
  5
F0F
  8
0
 10
231.1764947197135
 20
352.0463991596171
 30
0.0
  0
VERTEX
  5
F10
  8
0
 10
231.3728463617265
 20
352.0782573379527
 30
0.0
  0
VERTEX
  5
F11
  8
0
 10
231.5695062217422
 20
352.1085751129338
 30
0.0
  0
VERTEX
  5
F12
  8
0
 10
231.7664588450357
 20
352.1373567868179
 30
0.0
  0
VERTEX
  5
F13
  8
0
 10
231.9636887768825
 20
352.1646066618624
 30
0.0
  0
VERTEX
  5
F14
  8
0
 10
232.161180562558
 20
352.1903290403256
 30
0.0
  0
VERTEX
  5
F15
  8
0
 10
232.3589187473375
 20
352.2145282244646
 30
0.0
  0
VERTEX
  5
F16
  8
0
 10
232.5568878764963
 20
352.2372085165372
 30
0.0
  0
VERTEX
  5
F17
  8
0
 10
232.7550724953098
 20
352.2583742188012
 30
0.0
  0
VERTEX
  5
F18
  8
0
 10
232.9534571490532
 20
352.2780296335141
 30
0.0
  0
VERTEX
  5
F19
  8
0
 10
233.152026383002
 20
352.2961790629336
 30
0.0
  0
VERTEX
  5
F1A
  8
0
 10
233.3507647424314
 20
352.3128268093174
 30
0.0
  0
VERTEX
  5
F1B
  8
0
 10
233.5496567726169
 20
352.3279771749232
 30
0.0
  0
VERTEX
  5
F1C
  8
0
 10
233.7486870188337
 20
352.3416344620086
 30
0.0
  0
VERTEX
  5
F1D
  8
0
 10
233.9478400263573
 20
352.3538029728313
 30
0.0
  0
VERTEX
  5
F1E
  8
0
 10
234.1471003404628
 20
352.3644870096489
 30
0.0
  0
VERTEX
  5
F1F
  8
0
 10
234.3464525064257
 20
352.373690874719
 30
0.0
  0
VERTEX
  5
F20
  8
0
 10
234.5458810695213
 20
352.3814188702995
 30
0.0
  0
VERTEX
  5
F21
  8
0
 10
234.7453705750249
 20
352.3876752986478
 30
0.0
  0
VERTEX
  5
F22
  8
0
 10
234.9449055682119
 20
352.3924644620217
 30
0.0
  0
VERTEX
  5
F23
  8
0
 10
235.1444705943577
 20
352.3957906626787
 30
0.0
  0
VERTEX
  5
F24
  8
0
 10
235.3440501987374
 20
352.3976582028767
 30
0.0
  0
VERTEX
  5
F25
  8
0
 10
235.5436289266266
 20
352.3980713848733
 30
0.0
  0
VERTEX
  5
F26
  8
0
 10
235.7431913233005
 20
352.397034510926
 30
0.0
  0
VERTEX
  5
F27
  8
0
 10
235.9427219340345
 20
352.3945518832926
 30
0.0
  0
VERTEX
  5
F28
  8
0
 10
236.1422053041039
 20
352.3906278042308
 30
0.0
  0
VERTEX
  5
F29
  8
0
 10
236.341625978784
 20
352.3852665759982
 30
0.0
  0
VERTEX
  5
F2A
  8
0
 10
236.5409685033502
 20
352.3784725008523
 30
0.0
  0
VERTEX
  5
F2B
  8
0
 10
236.7402174230778
 20
352.370249881051
 30
0.0
  0
VERTEX
  5
F2C
  8
0
 10
236.9393572832422
 20
352.3606030188519
 30
0.0
  0
VERTEX
  5
F2D
  8
0
 10
237.1383726291187
 20
352.3495362165126
 30
0.0
  0
VERTEX
  5
F2E
  8
0
 10
237.3372480059826
 20
352.3370537762908
 30
0.0
  0
VERTEX
  5
F2F
  8
0
 10
237.5359691585897
 20
352.3231613313162
 30
0.0
  0
VERTEX
  5
F30
  8
0
 10
237.7345313967895
 20
352.3078751275764
 30
0.0
  0
VERTEX
  5
F31
  8
0
 10
237.9329346077169
 20
352.2912164897425
 30
0.0
  0
VERTEX
  5
F32
  8
0
 10
238.1311787070996
 20
352.27320677421
 30
0.0
  0
VERTEX
  5
F33
  8
0
 10
238.329263610665
 20
352.2538673373745
 30
0.0
  0
VERTEX
  5
F34
  8
0
 10
238.5271892341408
 20
352.2332195356318
 30
0.0
  0
VERTEX
  5
F35
  8
0
 10
238.7249554932543
 20
352.2112847253772
 30
0.0
  0
VERTEX
  5
F36
  8
0
 10
238.9225623037333
 20
352.1880842630063
 30
0.0
  0
VERTEX
  5
F37
  8
0
 10
239.1200095813051
 20
352.1636395049148
 30
0.0
  0
VERTEX
  5
F38
  8
0
 10
239.3172972416975
 20
352.1379718074982
 30
0.0
  0
VERTEX
  5
F39
  8
0
 10
239.5144252006378
 20
352.1111025271521
 30
0.0
  0
VERTEX
  5
F3A
  8
0
 10
239.7113933738538
 20
352.0830530202722
 30
0.0
  0
VERTEX
  5
F3B
  8
0
 10
239.9082016770727
 20
352.0538446432539
 30
0.0
  0
VERTEX
  5
F3C
  8
0
 10
240.1048500260222
 20
352.0234987524927
 30
0.0
  0
VERTEX
  5
F3D
  8
0
 10
240.3013383364299
 20
351.9920367043844
 30
0.0
  0
VERTEX
  5
F3E
  8
0
 10
240.4976665240233
 20
351.9594798553245
 30
0.0
  0
VERTEX
  5
F3F
  8
0
 10
240.6938345045299
 20
351.9258495617084
 30
0.0
  0
VERTEX
  5
F40
  8
0
 10
240.8898421936774
 20
351.8911671799321
 30
0.0
  0
VERTEX
  5
F41
  8
0
 10
241.0856895071931
 20
351.8554540663907
 30
0.0
  0
VERTEX
  5
F42
  8
0
 10
241.2813763608046
 20
351.81873157748
 30
0.0
  0
VERTEX
  5
F43
  8
0
 10
241.4769026702396
 20
351.7810210695956
 30
0.0
  0
VERTEX
  5
F44
  8
0
 10
241.8674733194898
 20
351.7027214224879
 30
0.0
  0
VERTEX
  5
F45
  8
0
 10
242.257400780764
 20
351.6207259762322
 30
0.0
  0
VERTEX
  5
F46
  8
0
 10
242.6466843798825
 20
351.535205581993
 30
0.0
  0
VERTEX
  5
F47
  8
0
 10
243.0353234426657
 20
351.446331090935
 30
0.0
  0
VERTEX
  5
F48
  8
0
 10
243.423317294934
 20
351.3542733542228
 30
0.0
  0
VERTEX
  5
F49
  8
0
 10
243.8106652625073
 20
351.2592032230209
 30
0.0
  0
VERTEX
  5
F4A
  8
0
 10
244.1973666712063
 20
351.1612915484941
 30
0.0
  0
VERTEX
  5
F4B
  8
0
 10
244.5834208468511
 20
351.0607091818069
 30
0.0
  0
VERTEX
  5
F4C
  8
0
 10
244.9688210564713
 20
350.9576038482966
 30
0.0
  0
VERTEX
  5
F4D
  8
0
 10
245.3535148645173
 20
350.8519488309125
 30
0.0
  0
VERTEX
  5
F4E
  8
0
 10
245.7374289840411
 20
350.7436378248048
 30
0.0
  0
VERTEX
  5
F4F
  8
0
 10
246.1204900216051
 20
350.6325641186615
 30
0.0
  0
VERTEX
  5
F50
  8
0
 10
246.5026245837718
 20
350.5186210011709
 30
0.0
  0
VERTEX
  5
F51
  8
0
 10
246.8837592771032
 20
350.4017017610207
 30
0.0
  0
VERTEX
  5
F52
  8
0
 10
247.2638207081617
 20
350.281699686899
 30
0.0
  0
VERTEX
  5
F53
  8
0
 10
247.6427354835096
 20
350.1585080674939
 30
0.0
  0
VERTEX
  5
F54
  8
0
 10
248.020430209709
 20
350.0320201914934
 30
0.0
  0
VERTEX
  5
F55
  8
0
 10
248.3968314933225
 20
349.9021293475855
 30
0.0
  0
VERTEX
  5
F56
  8
0
 10
248.771865940912
 20
349.7687288244581
 30
0.0
  0
VERTEX
  5
F57
  8
0
 10
248.9588476657486
 20
349.7006790859023
 30
0.0
  0
VERTEX
  5
F58
  8
0
 10
249.1454601590399
 20
349.6317119107994
 30
0.0
  0
VERTEX
  5
F59
  8
0
 10
249.3316942466065
 20
349.5618139602358
 30
0.0
  0
VERTEX
  5
F5A
  8
0
 10
249.5175407542686
 20
349.4909718952974
 30
0.0
  0
VERTEX
  5
F5B
  8
0
 10
249.7029905078465
 20
349.4191723770701
 30
0.0
  0
VERTEX
  5
F5C
  8
0
 10
249.8880343331603
 20
349.3464020666399
 30
0.0
  0
VERTEX
  5
F5D
  8
0
 10
250.0726630560305
 20
349.272647625093
 30
0.0
  0
VERTEX
  5
F5E
  8
0
 10
250.2568675022773
 20
349.1978957135152
 30
0.0
  0
VERTEX
  5
F5F
  8
0
 10
250.4406384977209
 20
349.1221329929925
 30
0.0
  0
VERTEX
  5
F60
  8
0
 10
250.6239668681818
 20
349.045346124611
 30
0.0
  0
VERTEX
  5
F61
  8
0
 10
250.80684343948
 20
348.9675217694568
 30
0.0
  0
VERTEX
  5
F62
  8
0
 10
250.9892590374361
 20
348.8886465886156
 30
0.0
  0
VERTEX
  5
F63
  8
0
 10
251.1712044878701
 20
348.8087072431737
 30
0.0
  0
VERTEX
  5
F64
  8
0
 10
251.3526706166024
 20
348.7276903942171
 30
0.0
  0
VERTEX
  5
F65
  8
0
 10
251.5336482494533
 20
348.6455827028315
 30
0.0
  0
VERTEX
  5
F66
  8
0
 10
251.7141303247956
 20
348.5623758356655
 30
0.0
  0
VERTEX
  5
F67
  8
0
 10
251.8941183523941
 20
348.4780817687505
 30
0.0
  0
VERTEX
  5
F68
  8
0
 10
252.0736160155905
 20
348.3927176282737
 30
0.0
  0
VERTEX
  5
F69
  8
0
 10
252.2526269977266
 20
348.3063005404227
 30
0.0
  0
VERTEX
  5
F6A
  8
0
 10
252.4311549821443
 20
348.218847631385
 30
0.0
  0
VERTEX
  5
F6B
  8
0
 10
252.6092036521855
 20
348.1303760273484
 30
0.0
  0
VERTEX
  5
F6C
  8
0
 10
252.786776691192
 20
348.0409028545005
 30
0.0
  0
VERTEX
  5
F6D
  8
0
 10
252.9638777825056
 20
347.9504452390288
 30
0.0
  0
VERTEX
  5
F6E
  8
0
 10
253.1405106094684
 20
347.8590203071211
 30
0.0
  0
VERTEX
  5
F6F
  8
0
 10
253.3166788554221
 20
347.7666451849651
 30
0.0
  0
VERTEX
  5
F70
  8
0
 10
253.4923862037084
 20
347.6733369987481
 30
0.0
  0
VERTEX
  5
F71
  8
0
 10
253.6676363376694
 20
347.5791128746581
 30
0.0
  0
VERTEX
  5
F72
  8
0
 10
253.842432940647
 20
347.4839899388825
 30
0.0
  0
VERTEX
  5
F73
  8
0
 10
254.1906802870191
 20
347.2911161370253
 30
0.0
  0
VERTEX
  5
F74
  8
0
 10
254.5371577095596
 20
347.0948526026777
 30
0.0
  0
VERTEX
  5
F75
  8
0
 10
254.8818946750033
 20
346.8953363453407
 30
0.0
  0
VERTEX
  5
F76
  8
0
 10
255.2249206500851
 20
346.6927043745152
 30
0.0
  0
VERTEX
  5
F77
  8
0
 10
255.5662651015402
 20
346.4870936997027
 30
0.0
  0
VERTEX
  5
F78
  8
0
 10
255.9059574961032
 20
346.278641330404
 30
0.0
  0
VERTEX
  5
F79
  8
0
 10
256.2440273005091
 20
346.0674842761201
 30
0.0
  0
VERTEX
  5
F7A
  8
0
 10
256.5805039814928
 20
345.8537595463522
 30
0.0
  0
VERTEX
  5
F7B
  8
0
 10
256.9154170057893
 20
345.6376041506015
 30
0.0
  0
VERTEX
  5
F7C
  8
0
 10
257.2487958401334
 20
345.4191550983688
 30
0.0
  0
VERTEX
  5
F7D
  8
0
 10
257.58066995126
 20
345.1985493991553
 30
0.0
  0
VERTEX
  5
F7E
  8
0
 10
257.9110688061554
 20
344.9759240621597
 30
0.0
  0
VERTEX
  5
F7F
  8
0
 10
258.2400291093248
 20
344.7514073924312
 30
0.0
  0
VERTEX
  5
F80
  8
0
 10
258.5676137328019
 20
344.5250962248282
 30
0.0
  0
VERTEX
  5
F81
  8
0
 10
258.8938914605712
 20
344.2970802842445
 30
0.0
  0
VERTEX
  5
F82
  8
0
 10
259.2189310766178
 20
344.0674492955737
 30
0.0
  0
VERTEX
  5
F83
  8
0
 10
259.5428013649259
 20
343.8362929837098
 30
0.0
  0
VERTEX
  5
F84
  8
0
 10
259.8655711094802
 20
343.6037010735462
 30
0.0
  0
VERTEX
  5
F85
  8
0
 10
260.1873090942654
 20
343.3697632899767
 30
0.0
  0
VERTEX
  5
F86
  8
0
 10
260.508084103266
 20
343.1345693578953
 30
0.0
  0
VERTEX
  5
F87
  8
0
 10
260.8279649204668
 20
342.8982090021954
 30
0.0
  0
VERTEX
  5
F88
  8
0
 10
261.1470203298522
 20
342.6607719477707
 30
0.0
  0
VERTEX
  5
F89
  8
0
 10
261.4653191154068
 20
342.4223479195152
 30
0.0
  0
VERTEX
  5
F8A
  8
0
 10
261.7829300611154
 20
342.1830266423224
 30
0.0
  0
VERTEX
  5
F8B
  8
0
 10
262.0999219509625
 20
341.9428978410863
 30
0.0
  0
VERTEX
  5
F8C
  8
0
 10
262.7323236990106
 20
341.4605765660581
 30
0.0
  0
VERTEX
  5
F8D
  8
0
 10
263.3630746314281
 20
340.9761018935806
 30
0.0
  0
VERTEX
  5
F8E
  8
0
 10
264.6218251368786
 20
340.0035635528768
 30
0.0
  0
VERTEX
  5
F8F
  8
0
 10
264.9967904049961
 20
339.6198811557735
 30
0.0
  0
VERTEX
  5
F90
  8
0
 10
265.370626783783
 20
339.2352228432163
 30
0.0
  0
VERTEX
  5
F91
  8
0
 10
265.5567688617614
 20
339.0422227450629
 30
0.0
  0
VERTEX
  5
F92
  8
0
 10
265.7422053839084
 20
338.8486126997508
 30
0.0
  0
VERTEX
  5
F93
  8
0
 10
265.9267952390571
 20
338.6542707178482
 30
0.0
  0
VERTEX
  5
F94
  8
0
 10
266.1103973160415
 20
338.4590748099233
 30
0.0
  0
VERTEX
  5
F95
  8
0
 10
266.2928705036952
 20
338.2629029865443
 30
0.0
  0
VERTEX
  5
F96
  8
0
 10
266.4740736908518
 20
338.0656332582795
 30
0.0
  0
VERTEX
  5
F97
  8
0
 10
266.653865766345
 20
337.8671436356971
 30
0.0
  0
VERTEX
  5
F98
  8
0
 10
266.8321056190085
 20
337.6673121293654
 30
0.0
  0
VERTEX
  5
F99
  8
0
 10
267.0086523827803
 20
337.4660169878561
 30
0.0
  0
VERTEX
  5
F9A
  8
0
 10
267.0962540988457
 20
337.3647895593278
 30
0.0
  0
VERTEX
  5
F9B
  8
0
 10
267.1834014859164
 20
337.2631717025864
 30
0.0
  0
VERTEX
  5
F9C
  8
0
 10
267.2700919085815
 20
337.1611627377756
 30
0.0
  0
VERTEX
  5
F9D
  8
0
 10
267.3563227314295
 20
337.058761985039
 30
0.0
  0
VERTEX
  5
F9E
  8
0
 10
267.4420913190493
 20
336.9559687645206
 30
0.0
  0
VERTEX
  5
F9F
  8
0
 10
267.5273950360296
 20
336.852782396364
 30
0.0
  0
VERTEX
  5
FA0
  8
0
 10
267.6122312469593
 20
336.7492022007131
 30
0.0
  0
VERTEX
  5
FA1
  8
0
 10
267.6965973164271
 20
336.6452274977116
 30
0.0
  0
VERTEX
  5
FA2
  8
0
 10
267.7804906090217
 20
336.5408576075032
 30
0.0
  0
VERTEX
  5
FA3
  8
0
 10
267.8639084893321
 20
336.4360918502318
 30
0.0
  0
VERTEX
  5
FA4
  8
0
 10
267.946848321947
 20
336.3309295460411
 30
0.0
  0
VERTEX
  5
FA5
  8
0
 10
268.029307471455
 20
336.2253700150749
 30
0.0
  0
VERTEX
  5
FA6
  8
0
 10
268.111283302445
 20
336.1194125774768
 30
0.0
  0
VERTEX
  5
FA7
  8
0
 10
268.1927731795059
 20
336.0130565533908
 30
0.0
  0
VERTEX
  5
FA8
  8
0
 10
268.2737744672264
 20
335.9063012629605
 30
0.0
  0
VERTEX
  5
FA9
  8
0
 10
268.3542845301952
 20
335.7991460263297
 30
0.0
  0
VERTEX
  5
FAA
  8
0
 10
268.4343007330011
 20
335.6915901636423
 30
0.0
  0
VERTEX
  5
FAB
  8
0
 10
268.513820440233
 20
335.583632995042
 30
0.0
  0
VERTEX
  5
FAC
  8
0
 10
268.5928410164795
 20
335.4752738406723
 30
0.0
  0
VERTEX
  5
FAD
  8
0
 10
268.6713598263296
 20
335.3665120206773
 30
0.0
  0
VERTEX
  5
FAE
  8
0
 10
268.7493742343718
 20
335.2573468552006
 30
0.0
  0
VERTEX
  5
FAF
  8
0
 10
268.8268816051951
 20
335.147777664386
 30
0.0
  0
VERTEX
  5
FB0
  8
0
 10
268.9038793033883
 20
335.0378037683774
 30
0.0
  0
VERTEX
  5
FB1
  8
0
 10
268.9803646935402
 20
334.9274244873184
 30
0.0
  0
VERTEX
  5
FB2
  8
0
 10
269.0563351402393
 20
334.8166391413528
 30
0.0
  0
VERTEX
  5
FB3
  8
0
 10
269.1317880080747
 20
334.7054470506245
 30
0.0
  0
VERTEX
  5
FB4
  8
0
 10
269.206720661635
 20
334.593847535277
 30
0.0
  0
VERTEX
  5
FB5
  8
0
 10
269.2811304655089
 20
334.4818399154542
 30
0.0
  0
VERTEX
  5
FB6
  8
0
 10
269.3550147842855
 20
334.3694235112999
 30
0.0
  0
VERTEX
  5
FB7
  8
0
 10
269.4283709825532
 20
334.2565976429579
 30
0.0
  0
VERTEX
  5
FB8
  8
0
 10
269.5011964249011
 20
334.1433616305718
 30
0.0
  0
VERTEX
  5
FB9
  8
0
 10
269.5734884759178
 20
334.0297147942856
 30
0.0
  0
VERTEX
  5
FBA
  8
0
 10
269.6452422636332
 20
333.9156568367837
 30
0.0
  0
VERTEX
  5
FBB
  8
0
 10
269.7164425413092
 20
333.8011892352501
 30
0.0
  0
VERTEX
  5
FBC
  8
0
 10
269.7870710561337
 20
333.6863139810274
 30
0.0
  0
VERTEX
  5
FBD
  8
0
 10
269.8571095549828
 20
333.5710330655115
 30
0.0
  0
VERTEX
  5
FBE
  8
0
 10
269.9265397847321
 20
333.4553484800983
 30
0.0
  0
VERTEX
  5
FBF
  8
0
 10
269.9953434922577
 20
333.3392622161838
 30
0.0
  0
VERTEX
  5
FC0
  8
0
 10
270.0635024244353
 20
333.222776265164
 30
0.0
  0
VERTEX
  5
FC1
  8
0
 10
270.1309983281409
 20
333.1058926184347
 30
0.0
  0
VERTEX
  5
FC2
  8
0
 10
270.1978129502504
 20
332.9886132673919
 30
0.0
  0
VERTEX
  5
FC3
  8
0
 10
270.2639280376395
 20
332.8709402034315
 30
0.0
  0
VERTEX
  5
FC4
  8
0
 10
270.3293253371843
 20
332.7528754179494
 30
0.0
  0
VERTEX
  5
FC5
  8
0
 10
270.3939865957607
 20
332.6344209023418
 30
0.0
  0
VERTEX
  5
FC6
  8
0
 10
270.4578935602443
 20
332.5155786480042
 30
0.0
  0
VERTEX
  5
FC7
  8
0
 10
270.5210279775112
 20
332.3963506463328
 30
0.0
  0
VERTEX
  5
FC8
  8
0
 10
270.5833715944372
 20
332.2767388887236
 30
0.0
  0
VERTEX
  5
FC9
  8
0
 10
270.6449061578982
 20
332.1567453665724
 30
0.0
  0
VERTEX
  5
FCA
  8
0
 10
270.7056134147701
 20
332.0363720712751
 30
0.0
  0
VERTEX
  5
FCB
  8
0
 10
270.7654751119288
 20
331.9156209942278
 30
0.0
  0
VERTEX
  5
FCC
  8
0
 10
270.8244729962501
 20
331.7944941268263
 30
0.0
  0
VERTEX
  5
FCD
  8
0
 10
270.88258881461
 20
331.6729934604666
 30
0.0
  0
VERTEX
  5
FCE
  8
0
 10
270.9398043138842
 20
331.5511209865446
 30
0.0
  0
VERTEX
  5
FCF
  8
0
 10
270.9961012409486
 20
331.4288786964563
 30
0.0
  0
VERTEX
  5
FD0
  8
0
 10
271.0514613426793
 20
331.3062685815975
 30
0.0
  0
VERTEX
  5
FD1
  8
0
 10
271.105866365952
 20
331.1832926333643
 30
0.0
  0
VERTEX
  5
FD2
  8
0
 10
271.1592980576426
 20
331.0599528431525
 30
0.0
  0
VERTEX
  5
FD3
  8
0
 10
271.2117381646269
 20
330.9362512023581
 30
0.0
  0
VERTEX
  5
FD4
  8
0
 10
271.2631684337811
 20
330.8121897023771
 30
0.0
  0
VERTEX
  5
FD5
  8
0
 10
271.3135706119806
 20
330.6877703346053
 30
0.0
  0
VERTEX
  5
FD6
  8
0
 10
271.3629264461017
 20
330.5629950904387
 30
0.0
  0
VERTEX
  5
FD7
  8
0
 10
271.41121768302
 20
330.4378659612732
 30
0.0
  0
VERTEX
  5
FD8
  8
0
 10
271.4584260696115
 20
330.3123849385048
 30
0.0
  0
VERTEX
  5
FD9
  8
0
 10
271.5045333527522
 20
330.1865540135295
 30
0.0
  0
VERTEX
  5
FDA
  8
0
 10
271.5495212793177
 20
330.060375177743
 30
0.0
  0
VERTEX
  5
FDB
  8
0
 10
271.5933715961841
 20
329.9338504225415
 30
0.0
  0
VERTEX
  5
FDC
  8
0
 10
271.6360660502271
 20
329.8069817393207
 30
0.0
  0
VERTEX
  5
FDD
  8
0
 10
271.6775863883228
 20
329.6797711194768
 30
0.0
  0
VERTEX
  5
FDE
  8
0
 10
271.7179143573468
 20
329.5522205544054
 30
0.0
  0
VERTEX
  5
FDF
  8
0
 10
271.7570317041753
 20
329.4243320355027
 30
0.0
  0
VERTEX
  5
FE0
  8
0
 10
271.794920175684
 20
329.2961075541646
 30
0.0
  0
VERTEX
  5
FE1
  8
0
 10
271.8315615187487
 20
329.167549101787
 30
0.0
  0
VERTEX
  5
FE2
  8
0
 10
271.8669378794722
 20
329.0386587428098
 30
0.0
  0
VERTEX
  5
FE3
  8
0
 10
271.9010469729293
 20
328.9094413902344
 30
0.0
  0
VERTEX
  5
FE4
  8
0
 10
271.9339067672518
 20
328.7799056626415
 30
0.0
  0
VERTEX
  5
FE5
  8
0
 10
271.9655365869794
 20
328.6500604267858
 30
0.0
  0
VERTEX
  5
FE6
  8
0
 10
271.9959557566519
 20
328.5199145494219
 30
0.0
  0
VERTEX
  5
FE7
  8
0
 10
272.0251836008088
 20
328.3894768973044
 30
0.0
  0
VERTEX
  5
FE8
  8
0
 10
272.0532394439899
 20
328.2587563371882
 30
0.0
  0
VERTEX
  5
FE9
  8
0
 10
272.0801426107348
 20
328.1277617358278
 30
0.0
  0
VERTEX
  5
FEA
  8
0
 10
272.105912425583
 20
327.996501959978
 30
0.0
  0
VERTEX
  5
FEB
  8
0
 10
272.1305682130745
 20
327.8649858763932
 30
0.0
  0
VERTEX
  5
FEC
  8
0
 10
272.1541292977487
 20
327.7332223518284
 30
0.0
  0
VERTEX
  5
FED
  8
0
 10
272.1766150041451
 20
327.6012202530379
 30
0.0
  0
VERTEX
  5
FEE
  8
0
 10
272.1980446568038
 20
327.4689884467766
 30
0.0
  0
VERTEX
  5
FEF
  8
0
 10
272.2184375802642
 20
327.336535799799
 30
0.0
  0
VERTEX
  5
FF0
  8
0
 10
272.2378130990658
 20
327.2038711788599
 30
0.0
  0
VERTEX
  5
FF1
  8
0
 10
272.2561905377486
 20
327.0710034507139
 30
0.0
  0
VERTEX
  5
FF2
  8
0
 10
272.273589220852
 20
326.9379414821157
 30
0.0
  0
VERTEX
  5
FF3
  8
0
 10
272.2900284729157
 20
326.8046941398198
 30
0.0
  0
VERTEX
  5
FF4
  8
0
 10
272.3055276184795
 20
326.671270290581
 30
0.0
  0
VERTEX
  5
FF5
  8
0
 10
272.3201059820829
 20
326.537678801154
 30
0.0
  0
VERTEX
  5
FF6
  8
0
 10
272.3337828882657
 20
326.4039285382934
 30
0.0
  0
VERTEX
  5
FF7
  8
0
 10
272.3465776615673
 20
326.2700283687538
 30
0.0
  0
VERTEX
  5
FF8
  8
0
 10
272.3585096265277
 20
326.13598715929
 30
0.0
  0
VERTEX
  5
FF9
  8
0
 10
272.3695981076863
 20
326.0018137766565
 30
0.0
  0
VERTEX
  5
FFA
  8
0
 10
272.3798624295827
 20
325.867517087608
 30
0.0
  0
VERTEX
  5
FFB
  8
0
 10
272.3893219167568
 20
325.7331059588992
 30
0.0
  0
VERTEX
  5
FFC
  8
0
 10
272.3979958937482
 20
325.5985892572847
 30
0.0
  0
VERTEX
  5
FFD
  8
0
 10
272.4059036850965
 20
325.4639758495193
 30
0.0
  0
VERTEX
  5
FFE
  8
0
 10
272.4130646153412
 20
325.3292746023575
 30
0.0
  0
VERTEX
  5
FFF
  8
0
 10
272.4194980090222
 20
325.194494382554
 30
0.0
  0
VERTEX
  5
1000
  8
0
 10
272.4252231906792
 20
325.0596440568635
 30
0.0
  0
VERTEX
  5
1001
  8
0
 10
272.4302594848515
 20
324.9247324920407
 30
0.0
  0
VERTEX
  5
1002
  8
0
 10
272.4346262160792
 20
324.7897685548401
 30
0.0
  0
VERTEX
  5
1003
  8
0
 10
272.4383427089016
 20
324.6547611120166
 30
0.0
  0
VERTEX
  5
1004
  8
0
 10
272.4414282878585
 20
324.5197190303246
 30
0.0
  0
VERTEX
  5
1005
  8
0
 10
272.4439022774896
 20
324.384651176519
 30
0.0
  0
VERTEX
  5
1006
  8
0
 10
272.4470927869328
 20
324.1144736195849
 30
0.0
  0
VERTEX
  5
1007
  8
0
 10
272.4480496937026
 20
323.844300104861
 30
0.0
  0
VERTEX
  5
1008
  8
0
 10
272.4476748976811
 20
323.709239468354
 30
0.0
  0
VERTEX
  5
1009
  8
0
 10
272.4466970590749
 20
323.5742103543577
 30
0.0
  0
VERTEX
  5
100A
  8
0
 10
272.4450900280865
 20
323.4392233631039
 30
0.0
  0
VERTEX
  5
100B
  8
0
 10
272.4428276549183
 20
323.3042890948247
 30
0.0
  0
VERTEX
  5
100C
  8
0
 10
272.4398837897728
 20
323.169418149752
 30
0.0
  0
VERTEX
  5
100D
  8
0
 10
272.4362322828522
 20
323.0346211281177
 30
0.0
  0
VERTEX
  5
100E
  8
0
 10
272.4318469843593
 20
322.8999086301539
 30
0.0
  0
VERTEX
  5
100F
  8
0
 10
272.4267017444964
 20
322.7652912560924
 30
0.0
  0
VERTEX
  5
1010
  8
0
 10
272.4207704134657
 20
322.6307796061651
 30
0.0
  0
VERTEX
  5
1011
  8
0
 10
272.4140268414701
 20
322.4963842806042
 30
0.0
  0
VERTEX
  5
1012
  8
0
 10
272.4064448787116
 20
322.3621158796414
 30
0.0
  0
VERTEX
  5
1013
  8
0
 10
272.397998375393
 20
322.2279850035088
 30
0.0
  0
VERTEX
  5
1014
  8
0
 10
272.3886611817164
 20
322.0940022524381
 30
0.0
  0
VERTEX
  5
1015
  8
0
 10
272.3784071478846
 20
321.9601782266615
 30
0.0
  0
VERTEX
  5
1016
  8
0
 10
272.3672101240998
 20
321.8265235264109
 30
0.0
  0
VERTEX
  5
1017
  8
0
 10
272.3550439605644
 20
321.6930487519182
 30
0.0
  0
VERTEX
  5
1018
  8
0
 10
272.341882507481
 20
321.5597645034155
 30
0.0
  0
VERTEX
  5
1019
  8
0
 10
272.3276996150519
 20
321.4266813811344
 30
0.0
  0
VERTEX
  5
101A
  8
0
 10
272.3124691334798
 20
321.2938099853072
 30
0.0
  0
VERTEX
  5
101B
  8
0
 10
272.2961649129668
 20
321.1611609161657
 30
0.0
  0
VERTEX
  5
101C
  8
0
 10
272.2787608037156
 20
321.0287447739418
 30
0.0
  0
VERTEX
  5
101D
  8
0
 10
272.2602306559284
 20
320.8965721588675
 30
0.0
  0
VERTEX
  5
101E
  8
0
 10
272.2405483198079
 20
320.7646536711748
 30
0.0
  0
VERTEX
  5
101F
  8
0
 10
272.2196876455564
 20
320.6329999110955
 30
0.0
  0
VERTEX
  5
1020
  8
0
 10
272.1976224833764
 20
320.5016214788617
 30
0.0
  0
VERTEX
  5
1021
  8
0
 10
272.1743266834703
 20
320.3705289747053
 30
0.0
  0
VERTEX
  5
1022
  8
0
 10
272.1497740961252
 20
320.2397329988221
 30
0.0
  0
VERTEX
  5
1023
  8
0
 10
272.1239486995183
 20
320.1092398328675
 30
0.0
  0
VERTEX
  5
1024
  8
0
 10
272.0968725426447
 20
319.9790395250704
 30
0.0
  0
VERTEX
  5
1025
  8
0
 10
272.0685766183636
 20
319.8491183099885
 30
0.0
  0
VERTEX
  5
1026
  8
0
 10
272.0390919195339
 20
319.7194624221796
 30
0.0
  0
VERTEX
  5
1027
  8
0
 10
272.0084494390148
 20
319.5900580962015
 30
0.0
  0
VERTEX
  5
1028
  8
0
 10
271.9766801696658
 20
319.4608915666124
 30
0.0
  0
VERTEX
  5
1029
  8
0
 10
271.9438151043455
 20
319.3319490679698
 30
0.0
  0
VERTEX
  5
102A
  8
0
 10
271.9098852359134
 20
319.2032168348319
 30
0.0
  0
VERTEX
  5
102B
  8
0
 10
271.8749215572284
 20
319.0746811017564
 30
0.0
  0
VERTEX
  5
102C
  8
0
 10
271.8389550611497
 20
318.9463281033011
 30
0.0
  0
VERTEX
  5
102D
  8
0
 10
271.8020167405366
 20
318.8181440740241
 30
0.0
  0
VERTEX
  5
102E
  8
0
 10
271.7641375882481
 20
318.690115248483
 30
0.0
  0
VERTEX
  5
102F
  8
0
 10
271.7253485971432
 20
318.5622278612358
 30
0.0
  0
VERTEX
  5
1030
  8
0
 10
271.6856807600813
 20
318.4344681468405
 30
0.0
  0
VERTEX
  5
1031
  8
0
 10
271.6451650699212
 20
318.3068223398548
 30
0.0
  0
VERTEX
  5
1032
  8
0
 10
271.6038325195225
 20
318.1792766748365
 30
0.0
  0
VERTEX
  5
1033
  8
0
 10
271.5617141017439
 20
318.0518173863437
 30
0.0
  0
VERTEX
  5
1034
  8
0
 10
271.5188408094448
 20
317.9244307089342
 30
0.0
  0
VERTEX
  5
1035
  8
0
 10
271.475243635484
 20
317.7971028771656
 30
0.0
  0
VERTEX
  5
1036
  8
0
 10
271.430953572721
 20
317.6698201255962
 30
0.0
  0
VERTEX
  5
1037
  8
0
 10
271.3860016140148
 20
317.5425686887837
 30
0.0
  0
VERTEX
  5
1038
  8
0
 10
271.3404187522245
 20
317.4153348012858
 30
0.0
  0
VERTEX
  5
1039
  8
0
 10
271.2942359802093
 20
317.2881046976607
 30
0.0
  0
VERTEX
  5
103A
  8
0
 10
271.2001946769404
 20
317.0336007802596
 30
0.0
  0
VERTEX
  5
103B
  8
0
 10
271.1041256470814
 20
316.7789468130436
 30
0.0
  0
VERTEX
  5
103C
  8
0
 10
271.0062700729038
 20
316.5240390397159
 30
0.0
  0
VERTEX
  5
103D
  8
0
 10
270.9066107022466
 20
316.2690171015821
 30
0.0
  0
VERTEX
  5
103E
  8
0
 10
270.8559964526794
 20
316.1416037294842
 30
0.0
  0
VERTEX
  5
103F
  8
0
 10
270.8047970818714
 20
316.0143344539488
 30
0.0
  0
VERTEX
  5
1040
  8
0
 10
270.7529660310114
 20
315.8872685489135
 30
0.0
  0
VERTEX
  5
1041
  8
0
 10
270.700456741288
 20
315.7604652883155
 30
0.0
  0
VERTEX
  5
1042
  8
0
 10
270.6472226538899
 20
315.6339839460924
 30
0.0
  0
VERTEX
  5
1043
  8
0
 10
270.593217210006
 20
315.5078837961817
 30
0.0
  0
VERTEX
  5
1044
  8
0
 10
270.5383938508248
 20
315.3822241125208
 30
0.0
  0
VERTEX
  5
1045
  8
0
 10
270.4827060175352
 20
315.2570641690471
 30
0.0
  0
VERTEX
  5
1046
  8
0
 10
270.4261071513258
 20
315.1324632396982
 30
0.0
  0
VERTEX
  5
1047
  8
0
 10
270.3685506933853
 20
315.0084805984112
 30
0.0
  0
VERTEX
  5
1048
  8
0
 10
270.3099900849026
 20
314.885175519124
 30
0.0
  0
VERTEX
  5
1049
  8
0
 10
270.2503787670661
 20
314.7626072757738
 30
0.0
  0
VERTEX
  5
104A
  8
0
 10
270.1896701810648
 20
314.640835142298
 30
0.0
  0
VERTEX
  5
104B
  8
0
 10
270.1278177680872
 20
314.5199183926343
 30
0.0
  0
VERTEX
  5
104C
  8
0
 10
270.0647749693222
 20
314.3999163007199
 30
0.0
  0
VERTEX
  5
104D
  8
0
 10
270.0004952259585
 20
314.2808881404924
 30
0.0
  0
VERTEX
  5
104E
  8
0
 10
269.9349319791846
 20
314.1628931858891
 30
0.0
  0
VERTEX
  5
104F
  8
0
 10
269.8680386701895
 20
314.0459907108476
 30
0.0
  0
VERTEX
  5
1050
  8
0
 10
269.7997687401618
 20
313.9302399893053
 30
0.0
  0
VERTEX
  5
1051
  8
0
 10
269.7300756302902
 20
313.8157002951996
 30
0.0
  0
VERTEX
  5
1052
  8
0
 10
269.6589127817634
 20
313.702430902468
 30
0.0
  0
VERTEX
  5
1053
  8
0
 10
269.5862336357701
 20
313.5904910850479
 30
0.0
  0
VERTEX
  5
1054
  8
0
 10
269.511991633499
 20
313.4799401168768
 30
0.0
  0
VERTEX
  5
1055
  8
0
 10
269.4361402161389
 20
313.3708372718921
 30
0.0
  0
VERTEX
  5
1056
  8
0
 10
269.3586328248787
 20
313.2632418240314
 30
0.0
  0
VERTEX
  5
1057
  8
0
 10
269.2794229009066
 20
313.1572130472319
 30
0.0
  0
VERTEX
  5
1058
  8
0
 10
269.2391649395253
 20
313.1048046835857
 30
0.0
  0
VERTEX
  5
1059
  8
0
 10
269.1984638854117
 20
313.0528102154313
 30
0.0
  0
VERTEX
  5
105A
  8
0
 10
269.1573139187147
 20
313.0012370520109
 30
0.0
  0
VERTEX
  5
105B
  8
0
 10
269.1157092195827
 20
312.9500926025668
 30
0.0
  0
VERTEX
  5
105C
  8
0
 10
269.0736439681643
 20
312.8993842763412
 30
0.0
  0
VERTEX
  5
105D
  8
0
 10
269.0311123446083
 20
312.8491194825761
 30
0.0
  0
VERTEX
  5
105E
  8
0
 10
268.9881085290629
 20
312.7993056305138
 30
0.0
  0
VERTEX
  5
105F
  8
0
 10
268.944626701677
 20
312.7499501293964
 30
0.0
  0
VERTEX
  5
1060
  8
0
 10
268.9006610425991
 20
312.7010603884663
 30
0.0
  0
VERTEX
  5
1061
  8
0
 10
268.8562057319778
 20
312.6526438169655
 30
0.0
  0
VERTEX
  5
1062
  8
0
 10
268.8112549499616
 20
312.6047078241361
 30
0.0
  0
VERTEX
  5
1063
  8
0
 10
268.7658028766992
 20
312.5572598192203
 30
0.0
  0
VERTEX
  5
1064
  8
0
 10
268.7198445530013
 20
312.5103062709421
 30
0.0
  0
VERTEX
  5
1065
  8
0
 10
268.6733838565122
 20
312.4638439912661
 30
0.0
  0
VERTEX
  5
1066
  8
0
 10
268.6264298562339
 20
312.4178641191206
 30
0.0
  0
VERTEX
  5
1067
  8
0
 10
268.5789916874215
 20
312.3723577210329
 30
0.0
  0
VERTEX
  5
1068
  8
0
 10
268.5310784853305
 20
312.3273158635302
 30
0.0
  0
VERTEX
  5
1069
  8
0
 10
268.4826993852162
 20
312.2827296131396
 30
0.0
  0
VERTEX
  5
106A
  8
0
 10
268.433863522334
 20
312.2385900363885
 30
0.0
  0
VERTEX
  5
106B
  8
0
 10
268.3845800319392
 20
312.1948881998039
 30
0.0
  0
VERTEX
  5
106C
  8
0
 10
268.3348580492873
 20
312.1516151699131
 30
0.0
  0
VERTEX
  5
106D
  8
0
 10
268.2847067096336
 20
312.1087620132434
 30
0.0
  0
VERTEX
  5
106E
  8
0
 10
268.1831525003419
 20
312.0242795856757
 30
0.0
  0
VERTEX
  5
106F
  8
0
 10
268.0799904861072
 20
311.9413694493188
 30
0.0
  0
VERTEX
  5
1070
  8
0
 10
267.9752937489724
 20
311.8599601363902
 30
0.0
  0
VERTEX
  5
1071
  8
0
 10
267.8691353709801
 20
311.7799801791075
 30
0.0
  0
VERTEX
  5
1072
  8
0
 10
267.7615884341735
 20
311.7013581096886
 30
0.0
  0
VERTEX
  5
1073
  8
0
 10
267.6527260205953
 20
311.6240224603511
 30
0.0
  0
VERTEX
  5
1074
  8
0
 10
267.5426212122883
 20
311.5479017633127
 30
0.0
  0
VERTEX
  5
1075
  8
0
 10
267.4313470912954
 20
311.4729245507912
 30
0.0
  0
VERTEX
  5
1076
  8
0
 10
267.3189767396597
 20
311.3990193550041
 30
0.0
  0
VERTEX
  5
1077
  8
0
 10
267.2055832394237
 20
311.3261147081693
 30
0.0
  0
VERTEX
  5
1078
  8
0
 10
267.0912396726305
 20
311.2541391425044
 30
0.0
  0
VERTEX
  5
1079
  8
0
 10
266.976019121323
 20
311.1830211902271
 30
0.0
  0
VERTEX
  5
107A
  8
0
 10
266.8599946675438
 20
311.1126893835551
 30
0.0
  0
VERTEX
  5
107B
  8
0
 10
266.7432393933361
 20
311.0430722547061
 30
0.0
  0
VERTEX
  5
107C
  8
0
 10
266.6258263807425
 20
310.9740983358978
 30
0.0
  0
VERTEX
  5
107D
  8
0
 10
266.507828711806
 20
310.905696159348
 30
0.0
  0
VERTEX
  5
107E
  8
0
 10
266.3893194685694
 20
310.8377942572743
 30
0.0
  0
VERTEX
  5
107F
  8
0
 10
266.1510585873676
 20
310.7032054054259
 30
0.0
  0
VERTEX
  5
1080
  8
0
 10
265.9116283934799
 20
310.5697600380944
 30
0.0
  0
VERTEX
  5
1081
  8
0
 10
265.6716135432493
 20
310.4368864130212
 30
0.0
  0
VERTEX
  5
1082
  8
0
 10
276.0691936933248
 20
292.3573216978149
 30
0.0
  0
VERTEX
  5
1083
  8
0
 10
293.7775000145115
 20
292.0476372303939
 30
0.0
  0
VERTEX
  5
1084
  8
0
 10
297.7856039831841
 20
285.28864049902
 30
0.0
 42
-0.5317495947807355
  0
SEQEND
  5
13D1
  8
0
  0
POLYLINE
  5
A4
  8
0
 66
     1
 10
0.0
 20
0.0
 30
0.0
 70
     1
  0
VERTEX
  5
1085
  8
0
 10
219.3546844442178
 20
271.7072685269907
 30
0.0
 42
0.5406413868163842
  0
VERTEX
  5
1086
  8
0
 10
362.8515797389225
 20
357.802628835654
 30
0.0
  0
VERTEX
  5
1087
  8
0
 10
354.8577040948088
 20
358.1156019757835
 30
0.0
 42
-0.540641386816384
  0
VERTEX
  5
1088
  8
0
 10
222.8405604236724
 20
278.9078704918171
 30
0.0
  0
SEQEND
  5
13D2
  8
0
  0
POLYLINE
  5
A5
  8
0
 66
     1
 10
0.0
 20
0.0
 30
0.0
 70
     1
  0
VERTEX
  5
1089
  8
0
 10
210.5181762243803
 20
276.549093969
 30
0.0
 42
-0.5539112537265797
  0
VERTEX
  5
108A
  8
0
 10
209.2539666042716
 20
446.0894559562148
 30
0.0
  0
VERTEX
  5
108B
  8
0
 10
213.5479000109295
 20
439.3394829266995
 30
0.0
 42
0.5539112537265802
  0
VERTEX
  5
108C
  8
0
 10
214.7109728614197
 20
283.362349898468
 30
0.0
  0
SEQEND
  5
13D3
  8
0
  0
POLYLINE
  5
A6
  8
0
 66
     1
 10
0.0
 20
0.0
 30
0.0
 70
     1
  0
VERTEX
  5
108D
  8
0
 10
53.26038595572965
 20
62.95217005611511
 30
0.0
  0
VERTEX
  5
108E
  8
0
 10
53.26038595572965
 20
138.4125445208973
 30
0.0
 42
1.0
  0
VERTEX
  5
108F
  8
0
 10
48.72076042051204
 20
142.9521700561149
 30
0.0
  0
VERTEX
  5
1090
  8
0
 10
35.26038595572965
 20
142.9521700561151
 30
0.0
  0
VERTEX
  5
1091
  8
0
 10
35.26038595572965
 20
192.9521700561151
 30
0.0
  0
VERTEX
  5
1092
  8
0
 10
48.72076042051199
 20
192.9521700561149
 30
0.0
 42
1.0
  0
VERTEX
  5
1093
  8
0
 10
53.26038595572965
 20
197.4917955913325
 30
0.0
  0
VERTEX
  5
1094
  8
0
 10
53.26038595572975
 20
268.4125445208973
 30
0.0
 42
1.0
  0
VERTEX
  5
1095
  8
0
 10
48.72076042051212
 20
272.9521700561149
 30
0.0
  0
VERTEX
  5
1096
  8
0
 10
35.26038595572976
 20
272.9521700561149
 30
0.0
  0
VERTEX
  5
1097
  8
0
 10
35.26038595572976
 20
322.9521700561149
 30
0.0
  0
VERTEX
  5
1098
  8
0
 10
48.72076042051212
 20
322.9521700561149
 30
0.0
 42
1.0
  0
VERTEX
  5
1099
  8
0
 10
53.26038595572976
 20
327.4917955913325
 30
0.0
  0
VERTEX
  5
109A
  8
0
 10
53.26038595572976
 20
398.4125445208973
 30
0.0
 42
1.0
  0
VERTEX
  5
109B
  8
0
 10
48.72076042051212
 20
402.9521700561149
 30
0.0
  0
VERTEX
  5
109C
  8
0
 10
35.26038595572976
 20
402.9521700561149
 30
0.0
  0
VERTEX
  5
109D
  8
0
 10
35.26038595572976
 20
452.9521700561149
 30
0.0
  0
VERTEX
  5
109E
  8
0
 10
48.72076042051212
 20
452.9521700561149
 30
0.0
 42
1.0
  0
VERTEX
  5
109F
  8
0
 10
53.26038595572976
 20
457.4917955913325
 30
0.0
  0
VERTEX
  5
10A0
  8
0
 10
53.26038595572976
 20
528.4125445208973
 30
0.0
 42
1.0
  0
VERTEX
  5
10A1
  8
0
 10
48.72076042051212
 20
532.9521700561149
 30
0.0
  0
VERTEX
  5
10A2
  8
0
 10
35.26038595572976
 20
532.9521700561149
 30
0.0
  0
VERTEX
  5
10A3
  8
0
 10
35.26038595572976
 20
582.9521700561149
 30
0.0
  0
VERTEX
  5
10A4
  8
0
 10
48.72076042051214
 20
582.9521700561149
 30
0.0
 42
1.0
  0
VERTEX
  5
10A5
  8
0
 10
53.26038595572979
 20
587.4917955913326
 30
0.0
  0
VERTEX
  5
10A6
  8
0
 10
53.26038595573021
 20
662.9521700561149
 30
0.0
  0
VERTEX
  5
10A7
  8
0
 10
92.1173136855736
 20
662.9521700561149
 30
0.0
 42
-0.3320883461090448
  0
VERTEX
  5
10A8
  8
0
 10
135.26038595573
 20
630.7457354345408
 30
0.0
 42
0.7278992055526973
  0
VERTEX
  5
10A9
  8
0
 10
321.5322347536682
 20
630.7457354345408
 30
0.0
 42
-0.3320883461090445
  0
VERTEX
  5
10AA
  8
0
 10
364.6753070238241
 20
662.9521700561147
 30
0.0
  0
VERTEX
  5
10AB
  8
0
 10
439.5322347536671
 20
662.9521700561147
 30
0.0
  0
VERTEX
  5
10AC
  8
0
 10
439.5322347536671
 20
649.4917955913323
 30
0.0
 42
1.0
  0
VERTEX
  5
10AD
  8
0
 10
444.0718602888847
 20
644.9521700561148
 30
0.0
  0
VERTEX
  5
10AE
  8
0
 10
466.9926092184494
 20
644.9521700561152
 30
0.0
 42
1.0
  0
VERTEX
  5
10AF
  8
0
 10
471.5322347536671
 20
649.4917955913328
 30
0.0
  0
VERTEX
  5
10B0
  8
0
 10
471.5322347536671
 20
662.9521700561152
 30
0.0
  0
VERTEX
  5
10B1
  8
0
 10
501.5322347536671
 20
662.9521700561152
 30
0.0
  0
VERTEX
  5
10B2
  8
0
 10
501.5322347536671
 20
649.4917955913328
 30
0.0
 42
1.0
  0
VERTEX
  5
10B3
  8
0
 10
506.0718602888847
 20
644.9521700561152
 30
0.0
  0
VERTEX
  5
10B4
  8
0
 10
526.9926092184495
 20
644.9521700561149
 30
0.0
 42
1.0
  0
VERTEX
  5
10B5
  8
0
 10
531.5322347536671
 20
649.4917955913326
 30
0.0
  0
VERTEX
  5
10B6
  8
0
 10
531.5322347536671
 20
662.9521700561152
 30
0.0
  0
VERTEX
  5
10B7
  8
0
 10
561.5322347536671
 20
662.9521700561149
 30
0.0
  0
VERTEX
  5
10B8
  8
0
 10
561.5322347536671
 20
649.4917955913326
 30
0.0
 42
1.0
  0
VERTEX
  5
10B9
  8
0
 10
566.0718602888847
 20
644.9521700561149
 30
0.0
  0
VERTEX
  5
10BA
  8
0
 10
586.9926092184495
 20
644.9521700561149
 30
0.0
 42
1.0
  0
VERTEX
  5
10BB
  8
0
 10
591.5322347536671
 20
649.4917955913326
 30
0.0
  0
VERTEX
  5
10BC
  8
0
 10
591.5322347536671
 20
662.9521700561149
 30
0.0
  0
VERTEX
  5
10BD
  8
0
 10
621.5322347536671
 20
662.9521700561149
 30
0.0
  0
VERTEX
  5
10BE
  8
0
 10
621.5322347536671
 20
649.4917955913326
 30
0.0
 42
1.0
  0
VERTEX
  5
10BF
  8
0
 10
626.0718602888847
 20
644.9521700561149
 30
0.0
  0
VERTEX
  5
10C0
  8
0
 10
646.9926092184495
 20
644.9521700561149
 30
0.0
 42
1.0
  0
VERTEX
  5
10C1
  8
0
 10
651.5322347536672
 20
649.4917955913326
 30
0.0
  0
VERTEX
  5
10C2
  8
0
 10
651.5322347536674
 20
662.9521700561149
 30
0.0
  0
VERTEX
  5
10C3
  8
0
 10
681.5322347536676
 20
662.9521700561149
 30
0.0
  0
VERTEX
  5
10C4
  8
0
 10
750.5903671326225
 20
71.62571389648275
 30
0.0
 42
-0.6119104740995972
  0
VERTEX
  5
10C5
  8
0
 10
681.5322347536328
 20
32.88551339374557
 30
0.0
 42
-0.0265371573213238
  0
VERTEX
  5
10C6
  8
0
 10
656.7120442926903
 20
50.66497963146453
 30
0.0
 42
0.0536378114465069
  0
VERTEX
  5
10C7
  8
0
 10
637.6520207468368
 20
62.9521700561114
 30
0.0
  0
VERTEX
  5
10C8
  8
0
 10
591.5322347536674
 20
62.95217005611454
 30
0.0
  0
VERTEX
  5
10C9
  8
0
 10
591.5322347536674
 20
76.4125445208969
 30
0.0
 42
1.0
  0
VERTEX
  5
10CA
  8
0
 10
586.9926092184497
 20
80.95217005611454
 30
0.0
  0
VERTEX
  5
10CB
  8
0
 10
566.071860288885
 20
80.95217005611454
 30
0.0
 42
1.0
  0
VERTEX
  5
10CC
  8
0
 10
561.5322347536674
 20
76.4125445208969
 30
0.0
  0
VERTEX
  5
10CD
  8
0
 10
561.5322347536674
 20
62.95217005611454
 30
0.0
  0
VERTEX
  5
10CE
  8
0
 10
531.5322347536676
 20
62.95217005611454
 30
0.0
  0
VERTEX
  5
10CF
  8
0
 10
531.5322347536676
 20
76.4125445208969
 30
0.0
 42
1.0
  0
VERTEX
  5
10D0
  8
0
 10
526.99260921845
 20
80.95217005611454
 30
0.0
  0
VERTEX
  5
10D1
  8
0
 10
506.0718602888851
 20
80.95217005611454
 30
0.0
 42
1.0
  0
VERTEX
  5
10D2
  8
0
 10
501.5322347536675
 20
76.4125445208969
 30
0.0
  0
VERTEX
  5
10D3
  8
0
 10
501.5322347536675
 20
62.95217005611454
 30
0.0
  0
VERTEX
  5
10D4
  8
0
 10
471.5322347536675
 20
62.95217005611454
 30
0.0
  0
VERTEX
  5
10D5
  8
0
 10
471.5322347536675
 20
76.4125445208969
 30
0.0
 42
1.0
  0
VERTEX
  5
10D6
  8
0
 10
466.9926092184498
 20
80.95217005611454
 30
0.0
  0
VERTEX
  5
10D7
  8
0
 10
444.0718602888851
 20
80.95217005611454
 30
0.0
 42
1.0
  0
VERTEX
  5
10D8
  8
0
 10
439.5322347536675
 20
76.4125445208969
 30
0.0
  0
VERTEX
  5
10D9
  8
0
 10
439.5322347536675
 20
62.95217005611454
 30
0.0
  0
VERTEX
  5
10DA
  8
0
 10
364.6753070238241
 20
62.95217005611454
 30
0.0
 42
-0.3320883461091748
  0
VERTEX
  5
10DB
  8
0
 10
321.5322347536611
 20
95.15860467771046
 30
0.0
 42
0.7278992055525049
  0
VERTEX
  5
10DC
  8
0
 10
135.260385955736
 20
95.15860467771063
 30
0.0
 42
-0.3320883461091752
  0
VERTEX
  5
10DD
  8
0
 10
92.11731368557258
 20
62.95217005611488
 30
0.0
  0
SEQEND
  5
13D4
  8
0
  0
POLYLINE
  5
A7
  8
0
 66
     1
 10
0.0
 20
0.0
 30
0.0
 70
     1
  0
VERTEX
  5
10DE
  8
0
 10
306.6320867047589
 20
289.9759296622731
 30
0.0
 42
0.552963766041072
  0
VERTEX
  5
10DF
  8
0
 10
308.5373270852866
 20
432.254154604176
 30
0.0
  0
VERTEX
  5
10E0
  8
0
 10
304.42798224144
 20
424.990162564127
 30
0.0
  0
VERTEX
  5
10E1
  8
0
 10
312.9691530322102
 20
409.4747373763589
 30
0.0
  0
VERTEX
  5
10E2
  8
0
 10
302.4584950643245
 20
391.4606761365746
 30
0.0
  0
VERTEX
  5
10E3
  8
0
 10
302.2205889000596
 20
391.5759516773576
 30
0.0
  0
VERTEX
  5
10E4
  8
0
 10
301.9824493134667
 20
391.6903590046444
 30
0.0
  0
VERTEX
  5
10E5
  8
0
 10
301.8632190423197
 20
391.7469657715091
 30
0.0
  0
VERTEX
  5
10E6
  8
0
 10
301.7438428822176
 20
391.8030299049387
 30
0.0
  0
VERTEX
  5
10E7
  8
0
 10
301.6242916553694
 20
391.8584428782461
 30
0.0
  0
VERTEX
  5
10E8
  8
0
 10
301.5045361839841
 20
391.9130961647443
 30
0.0
  0
VERTEX
  5
10E9
  8
0
 10
301.3845472902706
 20
391.9668812377463
 30
0.0
  0
VERTEX
  5
10EA
  8
0
 10
301.264295796438
 20
392.0196895705648
 30
0.0
  0
VERTEX
  5
10EB
  8
0
 10
301.1437525246952
 20
392.0714126365132
 30
0.0
  0
VERTEX
  5
10EC
  8
0
 10
301.0228882972512
 20
392.1219419089042
 30
0.0
  0
VERTEX
  5
10ED
  8
0
 10
300.901673936315
 20
392.1711688610509
 30
0.0
  0
VERTEX
  5
10EE
  8
0
 10
300.7800802640955
 20
392.2189849662661
 30
0.0
  0
VERTEX
  5
10EF
  8
0
 10
300.6580781028019
 20
392.2652816978629
 30
0.0
  0
VERTEX
  5
10F0
  8
0
 10
300.535638274643
 20
392.3099505291543
 30
0.0
  0
VERTEX
  5
10F1
  8
0
 10
300.4742451174293
 20
392.3316405675957
 30
0.0
  0
VERTEX
  5
10F2
  8
0
 10
300.4127316018278
 20
392.3528829334532
 30
0.0
  0
VERTEX
  5
10F3
  8
0
 10
300.3510940806144
 20
392.3736640608906
 30
0.0
  0
VERTEX
  5
10F4
  8
0
 10
300.2893289065652
 20
392.3939703840724
 30
0.0
  0
VERTEX
  5
10F5
  8
0
 10
300.2274324324566
 20
392.4137883371627
 30
0.0
  0
VERTEX
  5
10F6
  8
0
 10
300.1654010110644
 20
392.4331043543253
 30
0.0
  0
VERTEX
  5
10F7
  8
0
 10
300.1032309951649
 20
392.4519048697244
 30
0.0
  0
VERTEX
  5
10F8
  8
0
 10
300.0409187375342
 20
392.4701763175244
 30
0.0
  0
VERTEX
  5
10F9
  8
0
 10
299.9784605909485
 20
392.4879051318893
 30
0.0
  0
VERTEX
  5
10FA
  8
0
 10
299.9158529081838
 20
392.505077746983
 30
0.0
  0
VERTEX
  5
10FB
  8
0
 10
299.8530922876636
 20
392.5216812018751
 30
0.0
  0
VERTEX
  5
10FC
  8
0
 10
299.7901790557916
 20
392.5377117157593
 30
0.0
  0
VERTEX
  5
10FD
  8
0
 10
299.7271164357981
 20
392.5531726412457
 30
0.0
  0
VERTEX
  5
10FE
  8
0
 10
299.6639077270074
 20
392.5680675183255
 30
0.0
  0
VERTEX
  5
10FF
  8
0
 10
299.6005562287442
 20
392.5823998869904
 30
0.0
  0
VERTEX
  5
1100
  8
0
 10
299.5370652403329
 20
392.5961732872313
 30
0.0
  0
VERTEX
  5
1101
  8
0
 10
299.4734380610979
 20
392.6093912590395
 30
0.0
  0
VERTEX
  5
1102
  8
0
 10
299.4096779903638
 20
392.6220573424064
 30
0.0
  0
VERTEX
  5
1103
  8
0
 10
299.345788327455
 20
392.6341750773234
 30
0.0
  0
VERTEX
  5
1104
  8
0
 10
299.2817723716959
 20
392.6457480037814
 30
0.0
  0
VERTEX
  5
1105
  8
0
 10
299.2176334224112
 20
392.656779661772
 30
0.0
  0
VERTEX
  5
1106
  8
0
 10
299.1533747789251
 20
392.6672735912862
 30
0.0
  0
VERTEX
  5
1107
  8
0
 10
299.0889997405623
 20
392.6772333323157
 30
0.0
  0
VERTEX
  5
1108
  8
0
 10
299.0245116066471
 20
392.6866624248512
 30
0.0
  0
VERTEX
  5
1109
  8
0
 10
298.959913676504
 20
392.6955644088845
 30
0.0
  0
VERTEX
  5
110A
  8
0
 10
298.8952092494576
 20
392.7039428244065
 30
0.0
  0
VERTEX
  5
110B
  8
0
 10
298.8304016248323
 20
392.7118012114087
 30
0.0
  0
VERTEX
  5
110C
  8
0
 10
298.7654941019526
 20
392.7191431098823
 30
0.0
  0
VERTEX
  5
110D
  8
0
 10
298.7004899801428
 20
392.7259720598187
 30
0.0
  0
VERTEX
  5
110E
  8
0
 10
298.6353925587276
 20
392.7322916012089
 30
0.0
  0
VERTEX
  5
110F
  8
0
 10
298.5702051370314
 20
392.7381052740442
 30
0.0
  0
VERTEX
  5
1110
  8
0
 10
298.5049310143788
 20
392.7434166183164
 30
0.0
  0
VERTEX
  5
1111
  8
0
 10
298.4395734900938
 20
392.7482291740159
 30
0.0
  0
VERTEX
  5
1112
  8
0
 10
298.3741358635014
 20
392.7525464811347
 30
0.0
  0
VERTEX
  5
1113
  8
0
 10
298.3086214339259
 20
392.7563720796638
 30
0.0
  0
VERTEX
  5
1114
  8
0
 10
298.2430335006916
 20
392.7597095095945
 30
0.0
  0
VERTEX
  5
1115
  8
0
 10
298.1773753631232
 20
392.7625623109181
 30
0.0
  0
VERTEX
  5
1116
  8
0
 10
298.1116503205451
 20
392.7649340236258
 30
0.0
  0
VERTEX
  5
1117
  8
0
 10
298.0458616722818
 20
392.7668281877091
 30
0.0
  0
VERTEX
  5
1118
  8
0
 10
297.9800127176578
 20
392.7682483431589
 30
0.0
  0
VERTEX
  5
1119
  8
0
 10
297.9141067559974
 20
392.7691980299667
 30
0.0
  0
VERTEX
  5
111A
  8
0
 10
297.8481470866251
 20
392.7696807881238
 30
0.0
  0
VERTEX
  5
111B
  8
0
 10
297.7821370088656
 20
392.7697001576212
 30
0.0
  0
VERTEX
  5
111C
  8
0
 10
297.7160798220432
 20
392.7692596784507
 30
0.0
  0
VERTEX
  5
111D
  8
0
 10
297.5838373185077
 20
392.76701333407
 30
0.0
  0
VERTEX
  5
111E
  8
0
 10
297.4514459706144
 20
392.7629700749118
 30
0.0
  0
VERTEX
  5
111F
  8
0
 10
297.3189321729589
 20
392.7571582209061
 30
0.0
  0
VERTEX
  5
1120
  8
0
 10
297.1863223201373
 20
392.7496060919834
 30
0.0
  0
VERTEX
  5
1121
  8
0
 10
297.0536428067451
 20
392.7403420080737
 30
0.0
  0
VERTEX
  5
1122
  8
0
 10
296.9209200273784
 20
392.7293942891073
 30
0.0
  0
VERTEX
  5
1123
  8
0
 10
296.7881803766327
 20
392.7167912550144
 30
0.0
  0
VERTEX
  5
1124
  8
0
 10
296.655450249104
 20
392.7025612257253
 30
0.0
  0
VERTEX
  5
1125
  8
0
 10
296.5227560393878
 20
392.6867325211698
 30
0.0
  0
VERTEX
  5
1126
  8
0
 10
296.3901241420801
 20
392.6693334612785
 30
0.0
  0
VERTEX
  5
1127
  8
0
 10
296.2575809517767
 20
392.6503923659815
 30
0.0
  0
VERTEX
  5
1128
  8
0
 10
296.1251528630733
 20
392.629937555209
 30
0.0
  0
VERTEX
  5
1129
  8
0
 10
295.9928662705656
 20
392.6079973488909
 30
0.0
  0
VERTEX
  5
112A
  8
0
 10
295.8607475688496
 20
392.5846000669579
 30
0.0
  0
VERTEX
  5
112B
  8
0
 10
295.7288231525209
 20
392.5597740293397
 30
0.0
  0
VERTEX
  5
112C
  8
0
 10
295.5971194161753
 20
392.533547555967
 30
0.0
  0
VERTEX
  5
112D
  8
0
 10
295.4656627544086
 20
392.5059489667694
 30
0.0
  0
VERTEX
  5
112E
  8
0
 10
295.3344795618167
 20
392.4770065816777
 30
0.0
  0
VERTEX
  5
112F
  8
0
 10
295.2035962329953
 20
392.4467487206219
 30
0.0
  0
VERTEX
  5
1130
  8
0
 10
295.0730391625401
 20
392.4152037035319
 30
0.0
  0
VERTEX
  5
1131
  8
0
 10
294.942834745047
 20
392.3823998503382
 30
0.0
  0
VERTEX
  5
1132
  8
0
 10
294.8130093751117
 20
392.3483654809709
 30
0.0
  0
VERTEX
  5
1133
  8
0
 10
294.6835894473301
 20
392.3131289153603
 30
0.0
  0
VERTEX
  5
1134
  8
0
 10
294.5546013562977
 20
392.2767184734363
 30
0.0
  0
VERTEX
  5
1135
  8
0
 10
294.4260714966106
 20
392.2391624751297
 30
0.0
  0
VERTEX
  5
1136
  8
0
 10
294.2980262628628
 20
392.2004892403689
 30
0.0
  0
VERTEX
  5
1137
  8
0
 10
294.1704874074806
 20
392.1607238451842
 30
0.0
  0
VERTEX
  5
1138
  8
0
 10
294.0434585035344
 20
392.1198786620598
 30
0.0
  0
VERTEX
  5
1139
  8
0
 10
293.9169386745528
 20
392.0779629541855
 30
0.0
  0
VERTEX
  5
113A
  8
0
 10
293.7909270440647
 20
392.0349859847516
 30
0.0
  0
VERTEX
  5
113B
  8
0
 10
293.6654227355989
 20
391.9909570169485
 30
0.0
  0
VERTEX
  5
113C
  8
0
 10
293.5404248726838
 20
391.9458853139661
 30
0.0
  0
VERTEX
  5
113D
  8
0
 10
293.4159325788485
 20
391.8997801389949
 30
0.0
  0
VERTEX
  5
113E
  8
0
 10
293.2919449776215
 20
391.8526507552248
 30
0.0
  0
VERTEX
  5
113F
  8
0
 10
293.1684611925315
 20
391.8045064258461
 30
0.0
  0
VERTEX
  5
1140
  8
0
 10
293.0454803471073
 20
391.7553564140487
 30
0.0
  0
VERTEX
  5
1141
  8
0
 10
292.9230015648777
 20
391.7052099830233
 30
0.0
  0
VERTEX
  5
1142
  8
0
 10
292.8010239693711
 20
391.6540763959596
 30
0.0
  0
VERTEX
  5
1143
  8
0
 10
292.6795466841166
 20
391.6019649160481
 30
0.0
  0
VERTEX
  5
1144
  8
0
 10
292.5585688326426
 20
391.5488848064787
 30
0.0
  0
VERTEX
  5
1145
  8
0
 10
292.438089538478
 20
391.4948453304418
 30
0.0
  0
VERTEX
  5
1146
  8
0
 10
292.3181079251515
 20
391.4398557511274
 30
0.0
  0
VERTEX
  5
1147
  8
0
 10
292.1986231161919
 20
391.3839253317259
 30
0.0
  0
VERTEX
  5
1148
  8
0
 10
292.0796342351278
 20
391.3270633354273
 30
0.0
  0
VERTEX
  5
1149
  8
0
 10
291.9611404054879
 20
391.2692790254218
 30
0.0
  0
VERTEX
  5
114A
  8
0
 10
291.843140750801
 20
391.2105816648996
 30
0.0
  0
VERTEX
  5
114B
  8
0
 10
291.7256343945957
 20
391.1509805170509
 30
0.0
  0
VERTEX
  5
114C
  8
0
 10
291.6086204604008
 20
391.0904848450658
 30
0.0
  0
VERTEX
  5
114D
  8
0
 10
291.492098071745
 20
391.0291039121345
 30
0.0
  0
VERTEX
  5
114E
  8
0
 10
291.3760663521571
 20
390.9668469814472
 30
0.0
  0
VERTEX
  5
114F
  8
0
 10
291.2605244251658
 20
390.9037233161944
 30
0.0
  0
VERTEX
  5
1150
  8
0
 10
291.1454714142997
 20
390.8397421795656
 30
0.0
  0
VERTEX
  5
1151
  8
0
 10
291.0309064430876
 20
390.7749128347514
 30
0.0
  0
VERTEX
  5
1152
  8
0
 10
290.9168286350583
 20
390.709244544942
 30
0.0
  0
VERTEX
  5
1153
  8
0
 10
290.8032371137403
 20
390.6427465733274
 30
0.0
  0
VERTEX
  5
1154
  8
0
 10
290.6901310026625
 20
390.5754281830979
 30
0.0
  0
VERTEX
  5
1155
  8
0
 10
290.5775094253536
 20
390.5072986374436
 30
0.0
  0
VERTEX
  5
1156
  8
0
 10
290.4653715053421
 20
390.4383671995548
 30
0.0
  0
VERTEX
  5
1157
  8
0
 10
290.3537163661571
 20
390.3686431326215
 30
0.0
  0
VERTEX
  5
1158
  8
0
 10
290.2425431313271
 20
390.298135699834
 30
0.0
  0
VERTEX
  5
1159
  8
0
 10
290.1318509243808
 20
390.2268541643825
 30
0.0
  0
VERTEX
  5
115A
  8
0
 10
290.021638868847
 20
390.1548077894571
 30
0.0
  0
VERTEX
  5
115B
  8
0
 10
289.9119060882545
 20
390.0820058382481
 30
0.0
  0
VERTEX
  5
115C
  8
0
 10
289.8026517061317
 20
390.0084575739454
 30
0.0
  0
VERTEX
  5
115D
  8
0
 10
289.6938748460075
 20
389.9341722597394
 30
0.0
  0
VERTEX
  5
115E
  8
0
 10
289.5855746314109
 20
389.8591591588203
 30
0.0
  0
VERTEX
  5
115F
  8
0
 10
289.47775018587
 20
389.7834275343781
 30
0.0
  0
VERTEX
  5
1160
  8
0
 10
289.3704006329141
 20
389.7069866496032
 30
0.0
  0
VERTEX
  5
1161
  8
0
 10
289.2635250960717
 20
389.6298457676855
 30
0.0
  0
VERTEX
  5
1162
  8
0
 10
289.1571226988714
 20
389.5520141518155
 30
0.0
  0
VERTEX
  5
1163
  8
0
 10
289.0511925648421
 20
389.4735010651831
 30
0.0
  0
VERTEX
  5
1164
  8
0
 10
288.9457338175123
 20
389.3943157709786
 30
0.0
  0
VERTEX
  5
1165
  8
0
 10
288.8407455804111
 20
389.3144675323923
 30
0.0
  0
VERTEX
  5
1166
  8
0
 10
288.7362269770668
 20
389.2339656126141
 30
0.0
  0
VERTEX
  5
1167
  8
0
 10
288.6321771310085
 20
389.1528192748344
 30
0.0
  0
VERTEX
  5
1168
  8
0
 10
288.5285951657646
 20
389.0710377822432
 30
0.0
  0
VERTEX
  5
1169
  8
0
 10
288.4254802048639
 20
388.9886303980309
 30
0.0
  0
VERTEX
  5
116A
  8
0
 10
288.3228313718353
 20
388.9056063853874
 30
0.0
  0
VERTEX
  5
116B
  8
0
 10
288.2206477902072
 20
388.8219750075032
 30
0.0
  0
VERTEX
  5
116C
  8
0
 10
288.1189285835086
 20
388.7377455275681
 30
0.0
  0
VERTEX
  5
116D
  8
0
 10
288.0176728752681
 20
388.6529272087726
 30
0.0
  0
VERTEX
  5
116E
  8
0
 10
287.9168797890145
 20
388.5675293143068
 30
0.0
  0
VERTEX
  5
116F
  8
0
 10
287.8165484482764
 20
388.4815611073607
 30
0.0
  0
VERTEX
  5
1170
  8
0
 10
287.7166779765825
 20
388.3950318511247
 30
0.0
  0
VERTEX
  5
1171
  8
0
 10
287.6172674974617
 20
388.3079508087889
 30
0.0
  0
VERTEX
  5
1172
  8
0
 10
287.5183161344426
 20
388.2203272435435
 30
0.0
  0
VERTEX
  5
1173
  8
0
 10
287.4198230110539
 20
388.1321704185785
 30
0.0
  0
VERTEX
  5
1174
  8
0
 10
287.3217872508244
 20
388.0434895970842
 30
0.0
  0
VERTEX
  5
1175
  8
0
 10
287.2242079772827
 20
387.9542940422509
 30
0.0
  0
VERTEX
  5
1176
  8
0
 10
287.1270843139577
 20
387.8645930172686
 30
0.0
  0
VERTEX
  5
1177
  8
0
 10
287.0304153843779
 20
387.7743957853276
 30
0.0
  0
VERTEX
  5
1178
  8
0
 10
286.9342003120722
 20
387.683711609618
 30
0.0
  0
VERTEX
  5
1179
  8
0
 10
286.8384382837601
 20
387.5925496944611
 30
0.0
  0
VERTEX
  5
117A
  8
0
 10
286.7431318424636
 20
387.5009161174334
 30
0.0
  0
VERTEX
  5
117B
  8
0
 10
286.6482884975852
 20
387.4088123294115
 30
0.0
  0
VERTEX
  5
117C
  8
0
 10
286.5539161593149
 20
387.3162394078968
 30
0.0
  0
VERTEX
  5
117D
  8
0
 10
286.4600227378429
 20
387.2231984303903
 30
0.0
  0
VERTEX
  5
117E
  8
0
 10
286.3666161433592
 20
387.129690474393
 30
0.0
  0
VERTEX
  5
117F
  8
0
 10
286.2737042860539
 20
387.0357166174064
 30
0.0
  0
VERTEX
  5
1180
  8
0
 10
286.1812950761172
 20
386.9412779369317
 30
0.0
  0
VERTEX
  5
1181
  8
0
 10
286.089396423739
 20
386.84637551047
 30
0.0
  0
VERTEX
  5
1182
  8
0
 10
285.9980162391096
 20
386.7510104155224
 30
0.0
  0
VERTEX
  5
1183
  8
0
 10
285.9071624324189
 20
386.6551837295904
 30
0.0
  0
VERTEX
  5
1184
  8
0
 10
285.8168429138572
 20
386.558896530175
 30
0.0
  0
VERTEX
  5
1185
  8
0
 10
285.7270655936143
 20
386.4621498947772
 30
0.0
  0
VERTEX
  5
1186
  8
0
 10
285.6378383818805
 20
386.3649449008986
 30
0.0
  0
VERTEX
  5
1187
  8
0
 10
285.549169188846
 20
386.2672826260402
 30
0.0
  0
VERTEX
  5
1188
  8
0
 10
285.4610659247005
 20
386.1691641477031
 30
0.0
  0
VERTEX
  5
1189
  8
0
 10
285.3735364996346
 20
386.0705905433888
 30
0.0
  0
VERTEX
  5
118A
  8
0
 10
285.2865888238378
 20
385.9715628905981
 30
0.0
  0
VERTEX
  5
118B
  8
0
 10
285.2002308075006
 20
385.8720822668325
 30
0.0
  0
VERTEX
  5
118C
  8
0
 10
285.1144703608132
 20
385.7721497495932
 30
0.0
  0
VERTEX
  5
118D
  8
0
 10
285.0293153939652
 20
385.6717664163811
 30
0.0
  0
VERTEX
  5
118E
  8
0
 10
284.9447738171472
 20
385.5709333446977
 30
0.0
  0
VERTEX
  5
118F
  8
0
 10
284.860853540549
 20
385.4696516120441
 30
0.0
  0
VERTEX
  5
1190
  8
0
 10
284.7775624743608
 20
385.3679222959216
 30
0.0
  0
VERTEX
  5
1191
  8
0
 10
284.6949085287727
 20
385.2657464738313
 30
0.0
  0
VERTEX
  5
1192
  8
0
 10
284.6128996139746
 20
385.1631252232743
 30
0.0
  0
VERTEX
  5
1193
  8
0
 10
284.5315436401568
 20
385.060059621752
 30
0.0
  0
VERTEX
  5
1194
  8
0
 10
284.4508485175093
 20
384.9565507467653
 30
0.0
  0
VERTEX
  5
1195
  8
0
 10
284.3708221562222
 20
384.8525996758158
 30
0.0
  0
VERTEX
  5
1196
  8
0
 10
284.2914724664856
 20
384.7482074864045
 30
0.0
  0
VERTEX
  5
1197
  8
0
 10
284.2128073584896
 20
384.6433752560325
 30
0.0
  0
VERTEX
  5
1198
  8
0
 10
284.1348347424243
 20
384.5381040622012
 30
0.0
  0
VERTEX
  5
1199
  8
0
 10
284.0575625284797
 20
384.4323949824116
 30
0.0
  0
VERTEX
  5
119A
  8
0
 10
283.9809986268461
 20
384.3262490941652
 30
0.0
  0
VERTEX
  5
119B
  8
0
 10
283.9051509477133
 20
384.2196674749628
 30
0.0
  0
VERTEX
  5
119C
  8
0
 10
283.8300274012716
 20
384.1126512023059
 30
0.0
  0
VERTEX
  5
119D
  8
0
 10
283.7556358977109
 20
384.0052013536955
 30
0.0
  0
VERTEX
  5
119E
  8
0
 10
283.6819843472216
 20
383.8973190066329
 30
0.0
  0
VERTEX
  5
119F
  8
0
 10
283.6090806599936
 20
383.7890052386194
 30
0.0
  0
VERTEX
  5
11A0
  8
0
 10
283.5369327462169
 20
383.680261127156
 30
0.0
  0
VERTEX
  5
11A1
  8
0
 10
283.4655485160818
 20
383.5710877497442
 30
0.0
  0
VERTEX
  5
11A2
  8
0
 10
283.3949358797782
 20
383.4614861838847
 30
0.0
  0
VERTEX
  5
11A3
  8
0
 10
283.3251027474964
 20
383.3514575070793
 30
0.0
  0
VERTEX
  5
11A4
  8
0
 10
283.2560570294262
 20
383.2410027968286
 30
0.0
  0
VERTEX
  5
11A5
  8
0
 10
283.187806635758
 20
383.1301231306342
 30
0.0
  0
VERTEX
  5
11A6
  8
0
 10
283.1203594766815
 20
383.0188195859972
 30
0.0
  0
VERTEX
  5
11A7
  8
0
 10
283.0537234623873
 20
382.9070932404189
 30
0.0
  0
VERTEX
  5
11A8
  8
0
 10
282.987906503065
 20
382.7949451714002
 30
0.0
  0
VERTEX
  5
11A9
  8
0
 10
282.9229154267878
 20
382.6823767086944
 30
0.0
  0
VERTEX
  5
11AA
  8
0
 10
282.8587460575455
 20
382.5693917472112
 30
0.0
  0
VERTEX
  5
11AB
  8
0
 10
282.7953878028378
 20
382.4559956776055
 30
0.0
  0
VERTEX
  5
11AC
  8
0
 10
282.732829990105
 20
382.3421939091944
 30
0.0
  0
VERTEX
  5
11AD
  8
0
 10
282.6710619467873
 20
382.2279918512955
 30
0.0
  0
VERTEX
  5
11AE
  8
0
 10
282.6100730003253
 20
382.1133949132263
 30
0.0
  0
VERTEX
  5
11AF
  8
0
 10
282.5498524781591
 20
381.9984085043041
 30
0.0
  0
VERTEX
  5
11B0
  8
0
 10
282.4903897077291
 20
381.8830380338461
 30
0.0
  0
VERTEX
  5
11B1
  8
0
 10
282.4316740164757
 20
381.76728891117
 30
0.0
  0
VERTEX
  5
11B2
  8
0
 10
282.3736947318392
 20
381.6511665455932
 30
0.0
  0
VERTEX
  5
11B3
  8
0
 10
282.31644118126
 20
381.5346763464329
 30
0.0
  0
VERTEX
  5
11B4
  8
0
 10
282.2599026921783
 20
381.4178237230067
 30
0.0
  0
VERTEX
  5
11B5
  8
0
 10
282.2040685920345
 20
381.3006140846318
 30
0.0
  0
VERTEX
  5
11B6
  8
0
 10
282.148928208269
 20
381.1830528406259
 30
0.0
  0
VERTEX
  5
11B7
  8
0
 10
282.094470868322
 20
381.0651454003061
 30
0.0
  0
VERTEX
  5
11B8
  8
0
 10
282.040685899634
 20
380.9468971729899
 30
0.0
  0
VERTEX
  5
11B9
  8
0
 10
281.9875626296451
 20
380.8283135679947
 30
0.0
  0
VERTEX
  5
11BA
  8
0
 10
281.9350903857959
 20
380.7093999946379
 30
0.0
  0
VERTEX
  5
11BB
  8
0
 10
281.8832584955265
 20
380.590161862237
 30
0.0
  0
VERTEX
  5
11BC
  8
0
 10
281.8320562862775
 20
380.4706045801094
 30
0.0
  0
VERTEX
  5
11BD
  8
0
 10
281.7814730854889
 20
380.3507335575723
 30
0.0
  0
VERTEX
  5
11BE
  8
0
 10
281.7314982206015
 20
380.2305542039433
 30
0.0
  0
VERTEX
  5
11BF
  8
0
 10
281.682121019055
 20
380.1100719285397
 30
0.0
  0
VERTEX
  5
11C0
  8
0
 10
281.6333308082903
 20
379.989292140679
 30
0.0
  0
VERTEX
  5
11C1
  8
0
 10
281.5851169157474
 20
379.8682202496785
 30
0.0
  0
VERTEX
  5
11C2
  8
0
 10
281.5374686688669
 20
379.7468616648557
 30
0.0
  0
VERTEX
  5
11C3
  8
0
 10
281.4903753950888
 20
379.6252217955279
 30
0.0
  0
VERTEX
  5
11C4
  8
0
 10
281.4438264218538
 20
379.5033060510126
 30
0.0
  0
VERTEX
  5
11C5
  8
0
 10
281.397811076602
 20
379.3811198406272
 30
0.0
  0
VERTEX
  5
11C6
  8
0
 10
281.3523186867738
 20
379.2586685736889
 30
0.0
  0
VERTEX
  5
11C7
  8
0
 10
281.3073385798095
 20
379.1359576595153
 30
0.0
  0
VERTEX
  5
11C8
  8
0
 10
281.2628600831495
 20
379.0129925074239
 30
0.0
  0
VERTEX
  5
11C9
  8
0
 10
281.218872524234
 20
378.8897785267318
 30
0.0
  0
VERTEX
  5
11CA
  8
0
 10
281.1753652305036
 20
378.7663211267568
 30
0.0
  0
VERTEX
  5
11CB
  8
0
 10
281.1323275293984
 20
378.6426257168158
 30
0.0
  0
VERTEX
  5
11CC
  8
0
 10
281.0897487483587
 20
378.5186977062266
 30
0.0
  0
VERTEX
  5
11CD
  8
0
 10
281.047618214825
 20
378.3945425043065
 30
0.0
  0
VERTEX
  5
11CE
  8
0
 10
281.0059252562376
 20
378.2701655203729
 30
0.0
  0
VERTEX
  5
11CF
  8
0
 10
280.9646592000369
 20
378.1455721637432
 30
0.0
  0
VERTEX
  5
11D0
  8
0
 10
280.923809373663
 20
378.0207678437347
 30
0.0
  0
VERTEX
  5
11D1
  8
0
 10
280.8433157201574
 20
377.7705479508513
 30
0.0
  0
VERTEX
  5
11D2
  8
0
 10
280.7643589152437
 20
377.5195491162619
 30
0.0
  0
VERTEX
  5
11D3
  8
0
 10
280.6868535784444
 20
377.2678146145057
 30
0.0
  0
VERTEX
  5
11D4
  8
0
 10
280.6107143292822
 20
377.0153877201219
 30
0.0
  0
VERTEX
  5
11D5
  8
0
 10
280.5358557872799
 20
376.7623117076496
 30
0.0
  0
VERTEX
  5
11D6
  8
0
 10
280.4621925719601
 20
376.5086298516284
 30
0.0
  0
VERTEX
  5
11D7
  8
0
 10
280.3896393028454
 20
376.2543854265973
 30
0.0
  0
VERTEX
  5
11D8
  8
0
 10
280.3181105994586
 20
375.9996217070954
 30
0.0
  0
VERTEX
  5
11D9
  8
0
 10
280.2475210813224
 20
375.7443819676622
 30
0.0
  0
VERTEX
  5
11DA
  8
0
 10
280.1777853679593
 20
375.4887094828366
 30
0.0
  0
VERTEX
  5
11DB
  8
0
 10
280.1088180788922
 20
375.2326475271581
 30
0.0
  0
VERTEX
  5
11DC
  8
0
 10
280.0405338336436
 20
374.9762393751658
 30
0.0
  0
VERTEX
  5
11DD
  8
0
 10
279.9728472517363
 20
374.719528301399
 30
0.0
  0
VERTEX
  5
11DE
  8
0
 10
279.9056729526929
 20
374.4625575803967
 30
0.0
  0
VERTEX
  5
11DF
  8
0
 10
279.8389255560361
 20
374.2053704866983
 30
0.0
  0
VERTEX
  5
11E0
  8
0
 10
279.7063699479731
 20
373.6905202793704
 30
0.0
  0
VERTEX
  5
11E1
  8
0
 10
279.5744973837286
 20
373.1753238757285
 30
0.0
  0
VERTEX
  5
11E2
  8
0
 10
279.4663731948488
 20
372.3873625853335
 30
0.0
  0
VERTEX
  5
11E3
  8
0
 10
279.3591455876738
 20
371.5992822319109
 30
0.0
  0
VERTEX
  5
11E4
  8
0
 10
279.2537111439085
 20
370.8109637524336
 30
0.0
  0
VERTEX
  5
11E5
  8
0
 10
279.1509664452576
 20
370.0222880838738
 30
0.0
  0
VERTEX
  5
11E6
  8
0
 10
279.1008829321328
 20
369.627779096492
 30
0.0
  0
VERTEX
  5
11E7
  8
0
 10
279.0518080734259
 20
369.2331361632042
 30
0.0
  0
VERTEX
  5
11E8
  8
0
 10
279.00385394185
 20
368.8383444011321
 30
0.0
  0
VERTEX
  5
11E9
  8
0
 10
278.9571326101183
 20
368.4433889273973
 30
0.0
  0
VERTEX
  5
11EA
  8
0
 10
278.9117561509438
 20
368.0482548591212
 30
0.0
  0
VERTEX
  5
11EB
  8
0
 10
278.8678366370396
 20
367.6529273134256
 30
0.0
  0
VERTEX
  5
11EC
  8
0
 10
278.8254861411188
 20
367.2573914074318
 30
0.0
  0
VERTEX
  5
11ED
  8
0
 10
278.7848167358945
 20
366.8616322582617
 30
0.0
  0
VERTEX
  5
11EE
  8
0
 10
278.7459404940799
 20
366.4656349830365
 30
0.0
  0
VERTEX
  5
11EF
  8
0
 10
278.708969488388
 20
366.069384698878
 30
0.0
  0
VERTEX
  5
11F0
  8
0
 10
278.6740157915319
 20
365.6728665229078
 30
0.0
  0
VERTEX
  5
11F1
  8
0
 10
278.6411914762247
 20
365.2760655722473
 30
0.0
  0
VERTEX
  5
11F2
  8
0
 10
278.6106086151796
 20
364.8789669640182
 30
0.0
  0
VERTEX
  5
11F3
  8
0
 10
278.5823824962123
 20
364.4815644851674
 30
0.0
  0
VERTEX
  5
11F4
  8
0
 10
278.556642637855
 20
364.0838902971023
 30
0.0
  0
VERTEX
  5
11F5
  8
0
 10
278.5335224946278
 20
363.6859871749894
 30
0.0
  0
VERTEX
  5
11F6
  8
0
 10
278.5131555211874
 20
363.2878978943644
 30
0.0
  0
VERTEX
  5
11F7
  8
0
 10
278.4956751721906
 20
362.889665230763
 30
0.0
  0
VERTEX
  5
11F8
  8
0
 10
278.4812149022942
 20
362.4913319597205
 30
0.0
  0
VERTEX
  5
11F9
  8
0
 10
278.4699081661548
 20
362.0929408567726
 30
0.0
  0
VERTEX
  5
11FA
  8
0
 10
278.4618884184294
 20
361.6945346974548
 30
0.0
  0
VERTEX
  5
11FB
  8
0
 10
278.459152869802
 20
361.4953393390119
 30
0.0
  0
VERTEX
  5
11FC
  8
0
 10
278.4572891137745
 20
361.2961562573025
 30
0.0
  0
VERTEX
  5
11FD
  8
0
 10
278.4563138321787
 20
361.0969907992683
 30
0.0
  0
VERTEX
  5
11FE
  8
0
 10
278.4562437068469
 20
360.8978483118513
 30
0.0
  0
VERTEX
  5
11FF
  8
0
 10
278.4570954196112
 20
360.6987341419936
 30
0.0
  0
VERTEX
  5
1200
  8
0
 10
278.4588856523036
 20
360.4996536366369
 30
0.0
  0
VERTEX
  5
1201
  8
0
 10
278.4616310867561
 20
360.3006121427233
 30
0.0
  0
VERTEX
  5
1202
  8
0
 10
278.465348404801
 20
360.1016150071948
 30
0.0
  0
VERTEX
  5
1203
  8
0
 10
278.4700542882704
 20
359.9026675769931
 30
0.0
  0
VERTEX
  5
1204
  8
0
 10
278.4757654189962
 20
359.7037751990604
 30
0.0
  0
VERTEX
  5
1205
  8
0
 10
278.4824984788106
 20
359.5049432203384
 30
0.0
  0
VERTEX
  5
1206
  8
0
 10
278.4902701495457
 20
359.3061769877694
 30
0.0
  0
VERTEX
  5
1207
  8
0
 10
278.4990971130336
 20
359.1074818482949
 30
0.0
  0
VERTEX
  5
1208
  8
0
 10
278.5089960511065
 20
358.9088631488572
 30
0.0
  0
VERTEX
  5
1209
  8
0
 10
278.5199836455962
 20
358.7103262363981
 30
0.0
  0
VERTEX
  5
120A
  8
0
 10
278.532076578335
 20
358.5118764578594
 30
0.0
  0
VERTEX
  5
120B
  8
0
 10
278.545291531155
 20
358.3135191601834
 30
0.0
  0
VERTEX
  5
120C
  8
0
 10
278.5596451858884
 20
358.1152596903117
 30
0.0
  0
VERTEX
  5
120D
  8
0
 10
278.5751542243669
 20
357.9171033951865
 30
0.0
  0
VERTEX
  5
120E
  8
0
 10
278.591835328423
 20
357.7190556217495
 30
0.0
  0
VERTEX
  5
120F
  8
0
 10
278.6097051798881
 20
357.5211217169428
 30
0.0
  0
VERTEX
  5
1210
  8
0
 10
278.6287749125548
 20
357.3233063437459
 30
0.0
  0
VERTEX
  5
1211
  8
0
 10
278.6490337818002
 20
357.1256114679679
 30
0.0
  0
VERTEX
  5
1212
  8
0
 10
278.6704656507264
 20
356.9280383906582
 30
0.0
  0
VERTEX
  5
1213
  8
0
 10
278.6930543824358
 20
356.730588412866
 30
0.0
  0
VERTEX
  5
1214
  8
0
 10
278.7167838400303
 20
356.5332628356408
 30
0.0
  0
VERTEX
  5
1215
  8
0
 10
278.7416378866124
 20
356.3360629600319
 30
0.0
  0
VERTEX
  5
1216
  8
0
 10
278.767600385284
 20
356.1389900870888
 30
0.0
  0
VERTEX
  5
1217
  8
0
 10
278.7946551991475
 20
355.9420455178607
 30
0.0
  0
VERTEX
  5
1218
  8
0
 10
278.8227861913051
 20
355.7452305533971
 30
0.0
  0
VERTEX
  5
1219
  8
0
 10
278.851977224859
 20
355.5485464947474
 30
0.0
  0
VERTEX
  5
121A
  8
0
 10
278.8822121629113
 20
355.3519946429608
 30
0.0
  0
VERTEX
  5
121B
  8
0
 10
278.9134748685642
 20
355.1555762990868
 30
0.0
  0
VERTEX
  5
121C
  8
0
 10
278.94574920492
 20
354.9592927641748
 30
0.0
  0
VERTEX
  5
121D
  8
0
 10
278.979019035081
 20
354.7631453392742
 30
0.0
  0
VERTEX
  5
121E
  8
0
 10
279.0132682221491
 20
354.5671353254342
 30
0.0
  0
VERTEX
  5
121F
  8
0
 10
279.0484806292266
 20
354.3712640237043
 30
0.0
  0
VERTEX
  5
1220
  8
0
 10
279.0846401194157
 20
354.1755327351337
 30
0.0
  0
VERTEX
  5
1221
  8
0
 10
279.1217305558188
 20
353.9799427607721
 30
0.0
  0
VERTEX
  5
1222
  8
0
 10
279.159735801538
 20
353.7844954016687
 30
0.0
  0
VERTEX
  5
1223
  8
0
 10
279.1986397196753
 20
353.5891919588726
 30
0.0
  0
VERTEX
  5
1224
  8
0
 10
279.2384261733332
 20
353.3940337334337
 30
0.0
  0
VERTEX
  5
1225
  8
0
 10
279.2790790256136
 20
353.1990220264011
 30
0.0
  0
VERTEX
  5
1226
  8
0
 10
279.3205821396189
 20
353.0041581388241
 30
0.0
  0
VERTEX
  5
1227
  8
0
 10
279.4060746052129
 20
352.6148790262346
 30
0.0
  0
VERTEX
  5
1228
  8
0
 10
279.4947744749327
 20
352.2262068040605
 30
0.0
  0
VERTEX
  5
1229
  8
0
 10
279.5865526535957
 20
351.8381518806964
 30
0.0
  0
VERTEX
  5
122A
  8
0
 10
279.6812800460198
 20
351.4507246645375
 30
0.0
  0
VERTEX
  5
122B
  8
0
 10
279.7788275570224
 20
351.0639355639788
 30
0.0
  0
VERTEX
  5
122C
  8
0
 10
279.8790660914212
 20
350.6777949874152
 30
0.0
  0
VERTEX
  5
122D
  8
0
 10
279.9818669594598
 20
350.292313453611
 30
0.0
  0
VERTEX
  5
122E
  8
0
 10
280.0871808562948
 20
349.9075230923041
 30
0.0
  0
VERTEX
  5
122F
  8
0
 10
280.1951324747794
 20
349.5235034006672
 30
0.0
  0
VERTEX
  5
1230
  8
0
 10
280.3058695746421
 20
349.1403401553735
 30
0.0
  0
VERTEX
  5
1231
  8
0
 10
280.4195399156109
 20
348.7581191330964
 30
0.0
  0
VERTEX
  5
1232
  8
0
 10
280.536291257414
 20
348.3769261105094
 30
0.0
  0
VERTEX
  5
1233
  8
0
 10
280.5958684785435
 20
348.1867419043101
 30
0.0
  0
VERTEX
  5
1234
  8
0
 10
280.6562713597795
 20
347.9968468642859
 30
0.0
  0
VERTEX
  5
1235
  8
0
 10
280.7175183710884
 20
347.8072517125208
 30
0.0
  0
VERTEX
  5
1236
  8
0
 10
280.7796279824358
 20
347.6179671710991
 30
0.0
  0
VERTEX
  5
1237
  8
0
 10
280.8426186637881
 20
347.429003962105
 30
0.0
  0
VERTEX
  5
1238
  8
0
 10
280.906508885111
 20
347.2403728076225
 30
0.0
  0
VERTEX
  5
1239
  8
0
 10
280.9713171163706
 20
347.052084429736
 30
0.0
  0
VERTEX
  5
123A
  8
0
 10
281.0370618275331
 20
346.8641495505295
 30
0.0
  0
VERTEX
  5
123B
  8
0
 10
281.1037614885643
 20
346.6765788920873
 30
0.0
  0
VERTEX
  5
123C
  8
0
 10
281.1714345694303
 20
346.4893831764934
 30
0.0
  0
VERTEX
  5
123D
  8
0
 10
281.2400995400972
 20
346.3025731258322
 30
0.0
  0
VERTEX
  5
123E
  8
0
 10
281.309774870531
 20
346.1161594621877
 30
0.0
  0
VERTEX
  5
123F
  8
0
 10
281.3804790306978
 20
345.9301529076441
 30
0.0
  0
VERTEX
  5
1240
  8
0
 10
281.4522304905634
 20
345.7445641842857
 30
0.0
  0
VERTEX
  5
1241
  8
0
 10
281.5250477200939
 20
345.5594040141964
 30
0.0
  0
VERTEX
  5
1242
  8
0
 10
281.5989491892553
 20
345.3746831194608
 30
0.0
  0
VERTEX
  5
1243
  8
0
 10
281.6739533680138
 20
345.1904122221626
 30
0.0
  0
VERTEX
  5
1244
  8
0
 10
281.7500787263353
 20
345.0066020443862
 30
0.0
  0
VERTEX
  5
1245
  8
0
 10
281.8273437341857
 20
344.8232633082158
 30
0.0
  0
VERTEX
  5
1246
  8
0
 10
281.9057668615312
 20
344.6404067357355
 30
0.0
  0
VERTEX
  5
1247
  8
0
 10
281.9853665783378
 20
344.4580430490295
 30
0.0
  0
VERTEX
  5
1248
  8
0
 10
282.0661613545715
 20
344.2761829701819
 30
0.0
  0
VERTEX
  5
1249
  8
0
 10
282.1481696601983
 20
344.0948372212771
 30
0.0
  0
VERTEX
  5
124A
  8
0
 10
282.2314099651842
 20
343.9140165243991
 30
0.0
  0
VERTEX
  5
124B
  8
0
 10
282.3159007394953
 20
343.7337316016321
 30
0.0
  0
VERTEX
  5
124C
  8
0
 10
282.4016604530975
 20
343.5539931750602
 30
0.0
  0
VERTEX
  5
124D
  8
0
 10
282.4887075342006
 20
343.3748119757331
 30
0.0
  0
VERTEX
  5
124E
  8
0
 10
282.5770537263561
 20
343.1962001699411
 30
0.0
  0
VERTEX
  5
124F
  8
0
 10
282.6666968042736
 20
343.0181729231786
 30
0.0
  0
VERTEX
  5
1250
  8
0
 10
282.7576327909442
 20
342.8407457770458
 30
0.0
  0
VERTEX
  5
1251
  8
0
 10
282.849857709359
 20
342.6639342731428
 30
0.0
  0
VERTEX
  5
1252
  8
0
 10
282.9433675825088
 20
342.4877539530699
 30
0.0
  0
VERTEX
  5
1253
  8
0
 10
283.0381584333848
 20
342.3122203584271
 30
0.0
  0
VERTEX
  5
1254
  8
0
 10
283.134226284978
 20
342.1373490308144
 30
0.0
  0
VERTEX
  5
1255
  8
0
 10
283.2315671602793
 20
341.9631555118323
 30
0.0
  0
VERTEX
  5
1256
  8
0
 10
283.3301770822798
 20
341.7896553430805
 30
0.0
  0
VERTEX
  5
1257
  8
0
 10
283.4300520739706
 20
341.6168640661596
 30
0.0
  0
VERTEX
  5
1258
  8
0
 10
283.5311881583426
 20
341.4447972226693
 30
0.0
  0
VERTEX
  5
1259
  8
0
 10
283.6335813583869
 20
341.2734703542101
 30
0.0
  0
VERTEX
  5
125A
  8
0
 10
283.7372276970945
 20
341.1028990023819
 30
0.0
  0
VERTEX
  5
125B
  8
0
 10
283.8421231974563
 20
340.9330987087851
 30
0.0
  0
VERTEX
  5
125C
  8
0
 10
283.9482638824636
 20
340.7640850150195
 30
0.0
  0
VERTEX
  5
125D
  8
0
 10
284.0556457751071
 20
340.5958734626856
 30
0.0
  0
VERTEX
  5
125E
  8
0
 10
284.1642648983779
 20
340.4284795933831
 30
0.0
  0
VERTEX
  5
125F
  8
0
 10
284.2741172752672
 20
340.2619189487125
 30
0.0
  0
VERTEX
  5
1260
  8
0
 10
284.3851989287659
 20
340.096207070274
 30
0.0
  0
VERTEX
  5
1261
  8
0
 10
284.497505881865
 20
339.9313594996674
 30
0.0
  0
VERTEX
  5
1262
  8
0
 10
284.6110341575555
 20
339.767391778493
 30
0.0
  0
VERTEX
  5
1263
  8
0
 10
284.7257797788286
 20
339.6043194483511
 30
0.0
  0
VERTEX
  5
1264
  8
0
 10
284.841738768675
 20
339.4421580508416
 30
0.0
  0
VERTEX
  5
1265
  8
0
 10
284.9589071500861
 20
339.2809231275647
 30
0.0
  0
VERTEX
  5
1266
  8
0
 10
285.0772809460526
 20
339.1206302201207
 30
0.0
  0
VERTEX
  5
1267
  8
0
 10
285.1968561795657
 20
338.9612948701096
 30
0.0
  0
VERTEX
  5
1268
  8
0
 10
285.3176288736163
 20
338.8029326191315
 30
0.0
  0
VERTEX
  5
1269
  8
0
 10
285.4395950511955
 20
338.6455590087866
 30
0.0
  0
VERTEX
  5
126A
  8
0
 10
285.5627507352943
 20
338.489189580675
 30
0.0
  0
VERTEX
  5
126B
  8
0
 10
285.6870919489037
 20
338.333839876397
 30
0.0
  0
VERTEX
  5
126C
  8
0
 10
285.8126147150148
 20
338.1795254375525
 30
0.0
  0
VERTEX
  5
126D
  8
0
 10
285.9393150566185
 20
338.0262618057418
 30
0.0
  0
VERTEX
  5
126E
  8
0
 10
286.0671890000539
 20
337.8740644897233
 30
0.0
  0
VERTEX
  5
126F
  8
0
 10
286.1962331414097
 20
337.7229434092981
 30
0.0
  0
VERTEX
  5
1270
  8
0
 10
286.3264452852472
 20
337.572896629766
 30
0.0
  0
VERTEX
  5
1271
  8
0
 10
286.4578233903439
 20
337.4239207036426
 30
0.0
  0
VERTEX
  5
1272
  8
0
 10
286.5903654154773
 20
337.2760121834443
 30
0.0
  0
VERTEX
  5
1273
  8
0
 10
286.724069319425
 20
337.1291676216871
 30
0.0
  0
VERTEX
  5
1274
  8
0
 10
286.8589330609641
 20
336.9833835708868
 30
0.0
  0
VERTEX
  5
1275
  8
0
 10
286.9949545988727
 20
336.8386565835597
 30
0.0
  0
VERTEX
  5
1276
  8
0
 10
287.1321318919278
 20
336.6949832122217
 30
0.0
  0
VERTEX
  5
1277
  8
0
 10
287.2704628989071
 20
336.5523600093891
 30
0.0
  0
VERTEX
  5
1278
  8
0
 10
287.4099455785882
 20
336.4107835275775
 30
0.0
  0
VERTEX
  5
1279
  8
0
 10
287.5505778897484
 20
336.2702503193033
 30
0.0
  0
VERTEX
  5
127A
  8
0
 10
287.6923577911654
 20
336.1307569370824
 30
0.0
  0
VERTEX
  5
127B
  8
0
 10
287.8352832416164
 20
335.992299933431
 30
0.0
  0
VERTEX
  5
127C
  8
0
 10
287.9793521998793
 20
335.8548758608649
 30
0.0
  0
VERTEX
  5
127D
  8
0
 10
288.1245626247313
 20
335.7184812719004
 30
0.0
  0
VERTEX
  5
127E
  8
0
 10
288.27091247495
 20
335.5831127190534
 30
0.0
  0
VERTEX
  5
127F
  8
0
 10
288.4183997093129
 20
335.4487667548399
 30
0.0
  0
VERTEX
  5
1280
  8
0
 10
288.5670222865975
 20
335.315439931776
 30
0.0
  0
VERTEX
  5
1281
  8
0
 10
288.7167781655813
 20
335.1831288023779
 30
0.0
  0
VERTEX
  5
1282
  8
0
 10
288.8676653050418
 20
335.0518299191614
 30
0.0
  0
VERTEX
  5
1283
  8
0
 10
289.0196816637566
 20
334.9215398346428
 30
0.0
  0
VERTEX
  5
1284
  8
0
 10
289.1728252004281
 20
334.7922551098987
 30
0.0
  0
VERTEX
  5
1285
  8
0
 10
289.327093741528
 20
334.6639874277901
 30
0.0
  0
VERTEX
  5
1286
  8
0
 10
289.4824847090623
 20
334.5367947253807
 30
0.0
  0
VERTEX
  5
1287
  8
0
 10
289.6389954479701
 20
334.4107437529904
 30
0.0
  0
VERTEX
  5
1288
  8
0
 10
289.7966233031905
 20
334.2859012609391
 30
0.0
  0
VERTEX
  5
1289
  8
0
 10
289.9553656196628
 20
334.1623339995467
 30
0.0
  0
VERTEX
  5
128A
  8
0
 10
290.1152197423261
 20
334.0401087191333
 30
0.0
  0
VERTEX
  5
128B
  8
0
 10
290.2761830161197
 20
333.9192921700187
 30
0.0
  0
VERTEX
  5
128C
  8
0
 10
290.4382527859826
 20
333.7999511025229
 30
0.0
  0
VERTEX
  5
128D
  8
0
 10
290.6014263968541
 20
333.6821522669659
 30
0.0
  0
VERTEX
  5
128E
  8
0
 10
290.7657011936733
 20
333.5659624136676
 30
0.0
  0
VERTEX
  5
128F
  8
0
 10
290.9310745213795
 20
333.4514482929479
 30
0.0
  0
VERTEX
  5
1290
  8
0
 10
291.0975437249118
 20
333.3386766551267
 30
0.0
  0
VERTEX
  5
1291
  8
0
 10
291.2651061492093
 20
333.2277142505242
 30
0.0
  0
VERTEX
  5
1292
  8
0
 10
291.4337591392113
 20
333.1186278294601
 30
0.0
  0
VERTEX
  5
1293
  8
0
 10
291.603500039857
 20
333.0114841422542
 30
0.0
  0
VERTEX
  5
1294
  8
0
 10
291.7743261960854
 20
332.9063499392269
 30
0.0
  0
VERTEX
  5
1295
  8
0
 10
291.946234952836
 20
332.8032919706978
 30
0.0
  0
VERTEX
  5
1296
  8
0
 10
292.1192236550476
 20
332.7023769869869
 30
0.0
  0
VERTEX
  5
1297
  8
0
 10
292.2932896476595
 20
332.6036717384141
 30
0.0
  0
VERTEX
  5
1298
  8
0
 10
292.4684302756111
 20
332.5072429752996
 30
0.0
  0
VERTEX
  5
1299
  8
0
 10
292.6446428838414
 20
332.413157447963
 30
0.0
  0
VERTEX
  5
129A
  8
0
 10
292.8219248172895
 20
332.3214819067244
 30
0.0
  0
VERTEX
  5
129B
  8
0
 10
293.0002734208948
 20
332.2322831019038
 30
0.0
  0
VERTEX
  5
129C
  8
0
 10
293.1796860395962
 20
332.1456277838211
 30
0.0
  0
VERTEX
  5
129D
  8
0
 10
293.3601600183331
 20
332.0615827027962
 30
0.0
  0
VERTEX
  5
129E
  8
0
 10
293.5416927020447
 20
331.9802146091489
 30
0.0
  0
VERTEX
  5
129F
  8
0
 10
293.72428143567
 20
331.9015902531995
 30
0.0
  0
VERTEX
  5
12A0
  8
0
 10
293.9079235641482
 20
331.8257763852677
 30
0.0
  0
VERTEX
  5
12A1
  8
0
 10
294.0926164324187
 20
331.7528397556735
 30
0.0
  0
VERTEX
  5
12A2
  8
0
 10
294.2783573854204
 20
331.6828471147368
 30
0.0
  0
VERTEX
  5
12A3
  8
0
 10
294.4651437680927
 20
331.6158652127776
 30
0.0
  0
VERTEX
  5
12A4
  8
0
 10
294.6529729253746
 20
331.5519608001159
 30
0.0
  0
VERTEX
  5
12A5
  8
0
 10
294.841841576975
 20
331.4911990870011
 30
0.0
  0
VERTEX
  5
12A6
  8
0
 10
295.0317287357857
 20
331.4336016681719
 30
0.0
  0
VERTEX
  5
12A7
  8
0
 10
295.2225936352517
 20
331.3791414175445
 30
0.0
  0
VERTEX
  5
12A8
  8
0
 10
295.4143944674684
 20
331.3277886439786
 30
0.0
  0
VERTEX
  5
12A9
  8
0
 10
295.6070894245316
 20
331.2795136563337
 30
0.0
  0
VERTEX
  5
12AA
  8
0
 10
295.8006366985367
 20
331.2342867634698
 30
0.0
  0
VERTEX
  5
12AB
  8
0
 10
295.9949944815795
 20
331.1920782742466
 30
0.0
  0
VERTEX
  5
12AC
  8
0
 10
296.1901209657555
 20
331.1528584975238
 30
0.0
  0
VERTEX
  5
12AD
  8
0
 10
296.3859743431602
 20
331.116597742161
 30
0.0
  0
VERTEX
  5
12AE
  8
0
 10
296.5825128058893
 20
331.0832663170183
 30
0.0
  0
VERTEX
  5
12AF
  8
0
 10
296.7796945460384
 20
331.0528345309552
 30
0.0
  0
VERTEX
  5
12B0
  8
0
 10
296.9774777557031
 20
331.0252726928315
 30
0.0
  0
VERTEX
  5
12B1
  8
0
 10
297.175820626979
 20
331.000551111507
 30
0.0
  0
VERTEX
  5
12B2
  8
0
 10
297.3746813519616
 20
330.9786400958413
 30
0.0
  0
VERTEX
  5
12B3
  8
0
 10
297.5740181227466
 20
330.9595099546943
 30
0.0
  0
VERTEX
  5
12B4
  8
0
 10
297.7737891314296
 20
330.9431309969257
 30
0.0
  0
VERTEX
  5
12B5
  8
0
 10
297.9739525701061
 20
330.929473531395
 30
0.0
  0
VERTEX
  5
12B6
  8
0
 10
298.1744666308717
 20
330.9185078669625
 30
0.0
  0
VERTEX
  5
12B7
  8
0
 10
298.3752895058221
 20
330.9102043124875
 30
0.0
  0
VERTEX
  5
12B8
  8
0
 10
298.5763793870529
 20
330.9045331768298
 30
0.0
  0
VERTEX
  5
12B9
  8
0
 10
298.7776944666596
 20
330.9014647688493
 30
0.0
  0
VERTEX
  5
12BA
  8
0
 10
298.9791929367378
 20
330.9009693974056
 30
0.0
  0
VERTEX
  5
12BB
  8
0
 10
299.1808329893831
 20
330.9030173713585
 30
0.0
  0
VERTEX
  5
12BC
  8
0
 10
299.3825728166912
 20
330.9075789995678
 30
0.0
  0
VERTEX
  5
12BD
  8
0
 10
299.5843706107577
 20
330.9146245908933
 30
0.0
  0
VERTEX
  5
12BE
  8
0
 10
299.7861845636779
 20
330.9241244541945
 30
0.0
  0
VERTEX
  5
12BF
  8
0
 10
299.9879728675478
 20
330.9360488983314
 30
0.0
  0
VERTEX
  5
12C0
  8
0
 10
300.1896937144627
 20
330.9503682321636
 30
0.0
  0
VERTEX
  5
12C1
  8
0
 10
300.3913052965183
 20
330.967052764551
 30
0.0
  0
VERTEX
  5
12C2
  8
0
 10
300.5927658058103
 20
330.9860728043531
 30
0.0
  0
VERTEX
  5
12C3
  8
0
 10
300.7940334344342
 20
331.0073986604299
 30
0.0
  0
VERTEX
  5
12C4
  8
0
 10
300.9950663744855
 20
331.031000641641
 30
0.0
  0
VERTEX
  5
12C5
  8
0
 10
301.1958228180599
 20
331.0568490568461
 30
0.0
  0
VERTEX
  5
12C6
  8
0
 10
301.396260957253
 20
331.084914214905
 30
0.0
  0
VERTEX
  5
12C7
  8
0
 10
301.5963389841604
 20
331.1151664246775
 30
0.0
  0
VERTEX
  5
12C8
  8
0
 10
301.7960153245715
 20
331.1475764581817
 30
0.0
  0
VERTEX
  5
12C9
  8
0
 10
301.9952546517081
 20
331.1821274692345
 30
0.0
  0
VERTEX
  5
12CA
  8
0
 10
302.194028413192
 20
331.2188160378502
 30
0.0
  0
VERTEX
  5
12CB
  8
0
 10
302.3923083959489
 20
331.2576394165102
 30
0.0
  0
VERTEX
  5
12CC
  8
0
 10
302.5900663869045
 20
331.2985948576961
 30
0.0
  0
VERTEX
  5
12CD
  8
0
 10
302.7872741729847
 20
331.3416796138891
 30
0.0
  0
VERTEX
  5
12CE
  8
0
 10
302.9839035411151
 20
331.386890937571
 30
0.0
  0
VERTEX
  5
12CF
  8
0
 10
303.1799262782215
 20
331.434226081223
 30
0.0
  0
VERTEX
  5
12D0
  8
0
 10
303.3753141712295
 20
331.4836822973266
 30
0.0
  0
VERTEX
  5
12D1
  8
0
 10
303.5700390070651
 20
331.5352568383634
 30
0.0
  0
VERTEX
  5
12D2
  8
0
 10
303.7640725726539
 20
331.5889469568148
 30
0.0
  0
VERTEX
  5
12D3
  8
0
 10
303.9573866549217
 20
331.6447499051622
 30
0.0
  0
VERTEX
  5
12D4
  8
0
 10
304.1499530407942
 20
331.7026629358872
 30
0.0
  0
VERTEX
  5
12D5
  8
0
 10
304.341743517197
 20
331.7626833014712
 30
0.0
  0
VERTEX
  5
12D6
  8
0
 10
304.5327298710562
 20
331.8248082543957
 30
0.0
  0
VERTEX
  5
12D7
  8
0
 10
304.7228838892972
 20
331.889035047142
 30
0.0
  0
VERTEX
  5
12D8
  8
0
 10
304.9121773588459
 20
331.9553609321918
 30
0.0
  0
VERTEX
  5
12D9
  8
0
 10
305.100582066628
 20
332.0237831620264
 30
0.0
  0
VERTEX
  5
12DA
  8
0
 10
305.2880697995691
 20
332.0942989891273
 30
0.0
  0
VERTEX
  5
12DB
  8
0
 10
305.4746123445954
 20
332.1669056659761
 30
0.0
  0
VERTEX
  5
12DC
  8
0
 10
305.6601814886322
 20
332.2416004450541
 30
0.0
  0
VERTEX
  5
12DD
  8
0
 10
305.8447490186055
 20
332.3183805788428
 30
0.0
  0
VERTEX
  5
12DE
  8
0
 10
306.0282867214407
 20
332.3972433198236
 30
0.0
  0
VERTEX
  5
12DF
  8
0
 10
306.210766384064
 20
332.4781859204782
 30
0.0
  0
VERTEX
  5
12E0
  8
0
 10
306.3921597934007
 20
332.5612056332879
 30
0.0
  0
VERTEX
  5
12E1
  8
0
 10
306.5724387363769
 20
332.6462997107341
 30
0.0
  0
VERTEX
  5
12E2
  8
0
 10
306.7515749999182
 20
332.7334654052984
 30
0.0
  0
VERTEX
  5
12E3
  8
0
 10
306.9295403709503
 20
332.8226999694623
 30
0.0
  0
VERTEX
  5
12E4
  8
0
 10
307.106306636399
 20
332.9140006557071
 30
0.0
  0
VERTEX
  5
12E5
  8
0
 10
307.2818455831901
 20
333.0073647165144
 30
0.0
  0
VERTEX
  5
12E6
  8
0
 10
307.4561289982492
 20
333.1027894043656
 30
0.0
  0
VERTEX
  5
12E7
  8
0
 10
307.6291286685022
 20
333.2002719717422
 30
0.0
  0
VERTEX
  5
12E8
  8
0
 10
307.8008163808748
 20
333.2998096711257
 30
0.0
  0
VERTEX
  5
12E9
  8
0
 10
307.9711639222925
 20
333.4013997549974
 30
0.0
  0
VERTEX
  5
12EA
  8
0
 10
308.1401430796815
 20
333.5050394758391
 30
0.0
  0
VERTEX
  5
12EB
  8
0
 10
308.307725639967
 20
333.6107260861317
 30
0.0
  0
VERTEX
  5
12EC
  8
0
 10
308.4738853402825
 20
333.7184554918827
 30
0.0
  0
VERTEX
  5
12ED
  8
0
 10
308.6386170923227
 20
333.8282089796213
 30
0.0
  0
VERTEX
  5
12EE
  8
0
 10
308.8019287901696
 20
333.9399588724941
 30
0.0
  0
VERTEX
  5
12EF
  8
0
 10
308.9638285157357
 20
334.0536773639646
 30
0.0
  0
VERTEX
  5
12F0
  8
0
 10
309.1243243509333
 20
334.1693366474962
 30
0.0
  0
VERTEX
  5
12F1
  8
0
 10
309.2834243776748
 20
334.2869089165524
 30
0.0
  0
VERTEX
  5
12F2
  8
0
 10
309.4411366778726
 20
334.4063663645965
 30
0.0
  0
VERTEX
  5
12F3
  8
0
 10
309.5974693334391
 20
334.5276811850921
 30
0.0
  0
VERTEX
  5
12F4
  8
0
 10
309.7524304262867
 20
334.6508255715027
 30
0.0
  0
VERTEX
  5
12F5
  8
0
 10
309.9060280383276
 20
334.7757717172916
 30
0.0
  0
VERTEX
  5
12F6
  8
0
 10
310.0582702514744
 20
334.9024918159223
 30
0.0
  0
VERTEX
  5
12F7
  8
0
 10
310.2091651476393
 20
335.0309580608583
 30
0.0
  0
VERTEX
  5
12F8
  8
0
 10
310.3587208087347
 20
335.1611426455629
 30
0.0
  0
VERTEX
  5
12F9
  8
0
 10
310.5069453166732
 20
335.2930177634998
 30
0.0
  0
VERTEX
  5
12FA
  8
0
 10
310.653846753367
 20
335.4265556081322
 30
0.0
  0
VERTEX
  5
12FB
  8
0
 10
310.7994332007285
 20
335.5617283729237
 30
0.0
  0
VERTEX
  5
12FC
  8
0
 10
310.94371274067
 20
335.6985082513376
 30
0.0
  0
VERTEX
  5
12FD
  8
0
 10
311.086693455104
 20
335.8368674368376
 30
0.0
  0
VERTEX
  5
12FE
  8
0
 10
311.2283834259428
 20
335.976778122887
 30
0.0
  0
VERTEX
  5
12FF
  8
0
 10
311.3687907350989
 20
336.1182125029492
 30
0.0
  0
VERTEX
  5
1300
  8
0
 10
311.5079234644845
 20
336.2611427704877
 30
0.0
  0
VERTEX
  5
1301
  8
0
 10
311.6457896960121
 20
336.4055411189659
 30
0.0
  0
VERTEX
  5
1302
  8
0
 10
311.782397511594
 20
336.5513797418474
 30
0.0
  0
VERTEX
  5
1303
  8
0
 10
311.9177549931428
 20
336.6986308325955
 30
0.0
  0
VERTEX
  5
1304
  8
0
 10
312.0518702225706
 20
336.8472665846738
 30
0.0
  0
VERTEX
  5
1305
  8
0
 10
312.1847512817899
 20
336.9972591915456
 30
0.0
  0
VERTEX
  5
1306
  8
0
 10
312.316406252713
 20
337.1485808466743
 30
0.0
  0
VERTEX
  5
1307
  8
0
 10
312.4468432172525
 20
337.3012037435236
 30
0.0
  0
VERTEX
  5
1308
  8
0
 10
312.5760702573206
 20
337.4551000755567
 30
0.0
  0
VERTEX
  5
1309
  8
0
 10
312.7040954548297
 20
337.6102420362371
 30
0.0
  0
VERTEX
  5
130A
  8
0
 10
312.8309268916921
 20
337.7666018190284
 30
0.0
  0
VERTEX
  5
130B
  8
0
 10
312.9565726498204
 20
337.924151617394
 30
0.0
  0
VERTEX
  5
130C
  8
0
 10
313.0810408111267
 20
338.0828636247972
 30
0.0
  0
VERTEX
  5
130D
  8
0
 10
313.2043394575236
 20
338.2427100347015
 30
0.0
  0
VERTEX
  5
130E
  8
0
 10
313.3264766709234
 20
338.4036630405705
 30
0.0
  0
VERTEX
  5
130F
  8
0
 10
313.4474605332384
 20
338.5656948358675
 30
0.0
  0
VERTEX
  5
1310
  8
0
 10
313.5672991263812
 20
338.728777614056
 30
0.0
  0
VERTEX
  5
1311
  8
0
 10
313.686000532264
 20
338.8928835685995
 30
0.0
  0
VERTEX
  5
1312
  8
0
 10
313.8035728327992
 20
339.0579848929614
 30
0.0
  0
VERTEX
  5
1313
  8
0
 10
313.9200241098991
 20
339.224053780605
 30
0.0
  0
VERTEX
  5
1314
  8
0
 10
314.0353624454763
 20
339.3910624249939
 30
0.0
  0
VERTEX
  5
1315
  8
0
 10
314.1495959214431
 20
339.5589830195918
 30
0.0
  0
VERTEX
  5
1316
  8
0
 10
314.2627326197119
 20
339.7277877578617
 30
0.0
  0
VERTEX
  5
1317
  8
0
 10
314.3747806221947
 20
339.8974488332672
 30
0.0
  0
VERTEX
  5
1318
  8
0
 10
314.4857480108045
 20
340.0679384392719
 30
0.0
  0
VERTEX
  5
1319
  8
0
 10
314.5956428674533
 20
340.2392287693392
 30
0.0
  0
VERTEX
  5
131A
  8
0
 10
314.7044732740534
 20
340.4112920169324
 30
0.0
  0
VERTEX
  5
131B
  8
0
 10
314.8122473125175
 20
340.584100375515
 30
0.0
  0
VERTEX
  5
131C
  8
0
 10
314.9189730647577
 20
340.7576260385505
 30
0.0
  0
VERTEX
  5
131D
  8
0
 10
315.0246586126866
 20
340.9318411995025
 30
0.0
  0
VERTEX
  5
131E
  8
0
 10
315.1293120382164
 20
341.1067180518341
 30
0.0
  0
VERTEX
  5
131F
  8
0
 10
315.2329414232597
 20
341.282228789009
 30
0.0
  0
VERTEX
  5
1320
  8
0
 10
315.3355548497286
 20
341.4583456044906
 30
0.0
  0
VERTEX
  5
1321
  8
0
 10
315.4371603995356
 20
341.6350406917423
 30
0.0
  0
VERTEX
  5
1322
  8
0
 10
315.5377661545931
 20
341.8122862442277
 30
0.0
  0
VERTEX
  5
1323
  8
0
 10
315.6373801968135
 20
341.9900544554101
 30
0.0
  0
VERTEX
  5
1324
  8
0
 10
315.7360106081092
 20
342.1683175187529
 30
0.0
  0
VERTEX
  5
1325
  8
0
 10
315.8336654703924
 20
342.3470476277197
 30
0.0
  0
VERTEX
  5
1326
  8
0
 10
315.9303528655756
 20
342.5262169757739
 30
0.0
  0
VERTEX
  5
1327
  8
0
 10
316.0260798485536
 20
342.7058000664184
 30
0.0
  0
VERTEX
  5
1328
  8
0
 10
316.1208468109782
 20
342.885786390586
 30
0.0
  0
VERTEX
  5
1329
  8
0
 10
316.2146514857575
 20
343.0661714194404
 30
0.0
  0
VERTEX
  5
132A
  8
0
 10
316.3074915988748
 20
343.2469506397217
 30
0.0
  0
VERTEX
  5
132B
  8
0
 10
316.3993648763132
 20
343.42811953817
 30
0.0
  0
VERTEX
  5
132C
  8
0
 10
316.4902690440559
 20
343.6096736015253
 30
0.0
  0
VERTEX
  5
132D
  8
0
 10
316.580201828086
 20
343.7916083165277
 30
0.0
  0
VERTEX
  5
132E
  8
0
 10
316.6691609543867
 20
343.9739191699173
 30
0.0
  0
VERTEX
  5
132F
  8
0
 10
316.7571441489412
 20
344.1566016484343
 30
0.0
  0
VERTEX
  5
1330
  8
0
 10
316.8441491377325
 20
344.3396512388185
 30
0.0
  0
VERTEX
  5
1331
  8
0
 10
316.9301736467442
 20
344.5230634278103
 30
0.0
  0
VERTEX
  5
1332
  8
0
 10
317.0152154019589
 20
344.7068337021496
 30
0.0
  0
VERTEX
  5
1333
  8
0
 10
317.0992721293601
 20
344.8909575485764
 30
0.0
  0
VERTEX
  5
1334
  8
0
 10
317.182341554931
 20
345.075430453831
 30
0.0
  0
VERTEX
  5
1335
  8
0
 10
317.2644214046545
 20
345.2602479046533
 30
0.0
  0
VERTEX
  5
1336
  8
0
 10
317.3455094045141
 20
345.4454053877835
 30
0.0
  0
VERTEX
  5
1337
  8
0
 10
317.4256032804926
 20
345.6308983899616
 30
0.0
  0
VERTEX
  5
1338
  8
0
 10
317.5047007585735
 20
345.8167223979277
 30
0.0
  0
VERTEX
  5
1339
  8
0
 10
317.5827995647398
 20
346.0028728984219
 30
0.0
  0
VERTEX
  5
133A
  8
0
 10
317.6598974249748
 20
346.1893453781843
 30
0.0
  0
VERTEX
  5
133B
  8
0
 10
317.7359920652614
 20
346.3761353239549
 30
0.0
  0
VERTEX
  5
133C
  8
0
 10
317.811081211583
 20
346.5632382224738
 30
0.0
  0
VERTEX
  5
133D
  8
0
 10
317.8851625899226
 20
346.7506495604811
 30
0.0
  0
VERTEX
  5
133E
  8
0
 10
317.9582339262635
 20
346.938364824717
 30
0.0
  0
VERTEX
  5
133F
  8
0
 10
318.0302929465889
 20
347.1263795019214
 30
0.0
  0
VERTEX
  5
1340
  8
0
 10
318.1013373768819
 20
347.3146890788343
 30
0.0
  0
VERTEX
  5
1341
  8
0
 10
318.1713649431256
 20
347.5032890421962
 30
0.0
  0
VERTEX
  5
1342
  8
0
 10
318.2403733713032
 20
347.6921748787467
 30
0.0
  0
VERTEX
  5
1343
  8
0
 10
318.308360387398
 20
347.8813420752262
 30
0.0
  0
VERTEX
  5
1344
  8
0
 10
318.3753237173929
 20
348.0707861183745
 30
0.0
  0
VERTEX
  5
1345
  8
0
 10
318.4412610872712
 20
348.260502494932
 30
0.0
  0
VERTEX
  5
1346
  8
0
 10
318.5061702230162
 20
348.4504866916386
 30
0.0
  0
VERTEX
  5
1347
  8
0
 10
318.5700488506109
 20
348.6407341952344
 30
0.0
  0
VERTEX
  5
1348
  8
0
 10
318.6328946960385
 20
348.8312404924594
 30
0.0
  0
VERTEX
  5
1349
  8
0
 10
318.6947054852823
 20
349.0220010700539
 30
0.0
  0
VERTEX
  5
134A
  8
0
 10
318.7554789443251
 20
349.2130114147578
 30
0.0
  0
VERTEX
  5
134B
  8
0
 10
318.8152127991505
 20
349.4042670133111
 30
0.0
  0
VERTEX
  5
134C
  8
0
 10
318.8739047757415
 20
349.5957633524542
 30
0.0
  0
VERTEX
  5
134D
  8
0
 10
318.9315526000812
 20
349.7874959189269
 30
0.0
  0
VERTEX
  5
134E
  8
0
 10
318.9881539981528
 20
349.9794601994693
 30
0.0
  0
VERTEX
  5
134F
  8
0
 10
319.0437066959395
 20
350.1716516808217
 30
0.0
  0
VERTEX
  5
1350
  8
0
 10
319.0982084194244
 20
350.3640658497239
 30
0.0
  0
VERTEX
  5
1351
  8
0
 10
319.1516568945906
 20
350.5566981929161
 30
0.0
  0
VERTEX
  5
1352
  8
0
 10
319.2040498474215
 20
350.7495441971384
 30
0.0
  0
VERTEX
  5
1353
  8
0
 10
319.2553850039001
 20
350.9425993491309
 30
0.0
  0
VERTEX
  5
1354
  8
0
 10
319.3056600900097
 20
351.1358591356336
 30
0.0
  0
VERTEX
  5
1355
  8
0
 10
319.3548728317332
 20
351.3293190433868
 30
0.0
  0
VERTEX
  5
1356
  8
0
 10
319.4030209550541
 20
351.5229745591301
 30
0.0
  0
VERTEX
  5
1357
  8
0
 10
319.4501021859553
 20
351.7168211696041
 30
0.0
  0
VERTEX
  5
1358
  8
0
 10
319.4961142504201
 20
351.9108543615486
 30
0.0
  0
VERTEX
  5
1359
  8
0
 10
319.5410548744316
 20
352.1050696217038
 30
0.0
  0
VERTEX
  5
135A
  8
0
 10
319.5849217839731
 20
352.2994624368097
 30
0.0
  0
VERTEX
  5
135B
  8
0
 10
319.6277127050276
 20
352.4940282936063
 30
0.0
  0
VERTEX
  5
135C
  8
0
 10
319.6694253635782
 20
352.6887626788339
 30
0.0
  0
VERTEX
  5
135D
  8
0
 10
319.7100574856084
 20
352.8836610792324
 30
0.0
  0
VERTEX
  5
135E
  8
0
 10
319.7496067971011
 20
353.078718981542
 30
0.0
  0
VERTEX
  5
135F
  8
0
 10
319.7880710240394
 20
353.2739318725026
 30
0.0
  0
VERTEX
  5
1360
  8
0
 10
319.8254478924067
 20
353.4692952388545
 30
0.0
  0
VERTEX
  5
1361
  8
0
 10
319.8617351281861
 20
353.6648045673377
 30
0.0
  0
VERTEX
  5
1362
  8
0
 10
319.8969304573607
 20
353.8604553446922
 30
0.0
  0
VERTEX
  5
1363
  8
0
 10
319.9310316059136
 20
354.0562430576582
 30
0.0
  0
VERTEX
  5
1364
  8
0
 10
319.9640362998281
 20
354.2521631929757
 30
0.0
  0
VERTEX
  5
1365
  8
0
 10
319.9959422650873
 20
354.4482112373847
 30
0.0
  0
VERTEX
  5
1366
  8
0
 10
320.0267472276745
 20
354.6443826776256
 30
0.0
  0
VERTEX
  5
1367
  8
0
 10
320.0564489135726
 20
354.8406730004381
 30
0.0
  0
VERTEX
  5
1368
  8
0
 10
320.085045048765
 20
355.0370776925625
 30
0.0
  0
VERTEX
  5
1369
  8
0
 10
320.1125333592348
 20
355.2335922407387
 30
0.0
  0
VERTEX
  5
136A
  8
0
 10
320.1389115709652
 20
355.4302121317072
 30
0.0
  0
VERTEX
  5
136B
  8
0
 10
320.1641774099392
 20
355.6269328522075
 30
0.0
  0
VERTEX
  5
136C
  8
0
 10
320.1883286021401
 20
355.8237498889801
 30
0.0
  0
VERTEX
  5
136D
  8
0
 10
320.2113628735511
 20
356.0206587287649
 30
0.0
  0
VERTEX
  5
136E
  8
0
 10
320.2332779501552
 20
356.217654858302
 30
0.0
  0
VERTEX
  5
136F
  8
0
 10
320.2540715579357
 20
356.4147337643315
 30
0.0
  0
VERTEX
  5
1370
  8
0
 10
320.2737414228759
 20
356.6118909335935
 30
0.0
  0
VERTEX
  5
1371
  8
0
 10
320.2922852709587
 20
356.8091218528281
 30
0.0
  0
VERTEX
  5
1372
  8
0
 10
320.3097008281674
 20
357.0064220087753
 30
0.0
  0
VERTEX
  5
1373
  8
0
 10
320.3259858204852
 20
357.2037868881753
 30
0.0
  0
VERTEX
  5
1374
  8
0
 10
320.3411379738951
 20
357.401211977768
 30
0.0
  0
VERTEX
  5
1375
  8
0
 10
320.3551550886829
 20
357.5986927778209
 30
0.0
  0
VERTEX
  5
1376
  8
0
 10
320.36804174694
 20
357.7962260232787
 30
0.0
  0
VERTEX
  5
1377
  8
0
 10
320.3798146551411
 20
357.993810656419
 30
0.0
  0
VERTEX
  5
1378
  8
0
 10
320.3904917769969
 20
358.191445848408
 30
0.0
  0
VERTEX
  5
1379
  8
0
 10
320.400091076218
 20
358.3891307704123
 30
0.0
  0
VERTEX
  5
137A
  8
0
 10
320.4086305165149
 20
358.5868645935982
 30
0.0
  0
VERTEX
  5
137B
  8
0
 10
320.4161280615982
 20
358.7846464891321
 30
0.0
  0
VERTEX
  5
137C
  8
0
 10
320.4226016751784
 20
358.9824756281804
 30
0.0
  0
VERTEX
  5
137D
  8
0
 10
320.4280693209663
 20
359.1803511819097
 30
0.0
  0
VERTEX
  5
137E
  8
0
 10
320.4325489626722
 20
359.3782723214861
 30
0.0
  0
VERTEX
  5
137F
  8
0
 10
320.436058564007
 20
359.5762382180764
 30
0.0
  0
VERTEX
  5
1380
  8
0
 10
320.438616088681
 20
359.7742480428466
 30
0.0
  0
VERTEX
  5
1381
  8
0
 10
320.4402395004049
 20
359.9723009669635
 30
0.0
  0
VERTEX
  5
1382
  8
0
 10
320.4409467628892
 20
360.1703961615931
 30
0.0
  0
VERTEX
  5
1383
  8
0
 10
320.4407558398446
 20
360.3685327979022
 30
0.0
  0
VERTEX
  5
1384
  8
0
 10
320.4396846949817
 20
360.566710047057
 30
0.0
  0
VERTEX
  5
1385
  8
0
 10
320.4349735946429
 20
360.9631830685695
 30
0.0
  0
VERTEX
  5
1386
  8
0
 10
320.4269571715574
 20
361.3598085954621
 30
0.0
  0
VERTEX
  5
1387
  8
0
 10
320.4157791354101
 20
361.7565799970658
 30
0.0
  0
VERTEX
  5
1388
  8
0
 10
320.4015831958854
 20
362.1534906427122
 30
0.0
  0
VERTEX
  5
1389
  8
0
 10
320.3845130626681
 20
362.5505339017325
 30
0.0
  0
VERTEX
  5
138A
  8
0
 10
320.3647124454427
 20
362.9477031434579
 30
0.0
  0
VERTEX
  5
138B
  8
0
 10
320.342325053894
 20
363.34499173722
 30
0.0
  0
VERTEX
  5
138C
  8
0
 10
320.3174945977065
 20
363.7423930523497
 30
0.0
  0
VERTEX
  5
138D
  8
0
 10
320.2903647865648
 20
364.1399004581787
 30
0.0
  0
VERTEX
  5
138E
  8
0
 10
320.2610793301536
 20
364.5375073240379
 30
0.0
  0
VERTEX
  5
138F
  8
0
 10
320.2297819381575
 20
364.9352070192589
 30
0.0
  0
VERTEX
  5
1390
  8
0
 10
320.1966163202613
 20
365.332992913173
 30
0.0
  0
VERTEX
  5
1391
  8
0
 10
320.1617261861493
 20
365.7308583751114
 30
0.0
  0
VERTEX
  5
1392
  8
0
 10
320.1252552455065
 20
366.1287967744054
 30
0.0
  0
VERTEX
  5
1393
  8
0
 10
320.0873472080173
 20
366.5268014803864
 30
0.0
  0
VERTEX
  5
1394
  8
0
 10
320.0481457833665
 20
366.9248658623857
 30
0.0
  0
VERTEX
  5
1395
  8
0
 10
320.0077946812384
 20
367.3229832897343
 30
0.0
  0
VERTEX
  5
1396
  8
0
 10
319.966437611318
 20
367.721147131764
 30
0.0
  0
VERTEX
  5
1397
  8
0
 10
319.8812804068385
 20
368.5175875371911
 30
0.0
  0
VERTEX
  5
1398
  8
0
 10
319.7938238474047
 20
369.3141340333173
 30
0.0
  0
VERTEX
  5
1399
  8
0
 10
319.7052176104939
 20
370.1107335747931
 30
0.0
  0
VERTEX
  5
139A
  8
0
 10
328.039751350117
 20
383.4466508424504
 30
0.0
  0
VERTEX
  5
139B
  8
0
 10
340.8098854269796
 20
362.0402060460148
 30
0.0
  0
VERTEX
  5
139C
  8
0
 10
302.7782229832619
 20
296.4748260233086
 30
0.0
  0
SEQEND
  5
13D5
  8
0
  0
ENDSEC
  0
EOF
