  0
SECTION
  2
HEADER
  9
$ACADVER
  1
AC1014
  9
$HANDSEED
  5
FFFF
  9
$MEASUREMENT
 70
     1
  0
ENDSEC
  0
SECTION
  2
TABLES
  0
TABLE
  2
VPORT
  5
8
330
0
100
AcDbSymbolTable
 70
     4
  0
VPORT
  5
2E
330
8
100
AcDbSymbolTableRecord
100
AcDbViewportTableRecord
  2
*ACTIVE
 70
     0
 10
0.0
 20
0.0
 11
1.0
 21
1.0
 12
210.0
 22
148.5
 13
0.0
 23
0.0
 14
10.0
 24
10.0
 15
10.0
 25
10.0
 16
0.0
 26
0.0
 36
1.0
 17
0.0
 27
0.0
 37
0.0
 40
341.0
 41
1.24
 42
50.0
 43
0.0
 44
0.0
 50
0.0
 51
0.0
 71
     0
 72
   100
 73
     1
 74
     3
 75
     0
 76
     0
 77
     0
 78
     0
  0
ENDTAB
  0
TABLE
  2
LTYPE
  5
5
330
0
100
AcDbSymbolTable
 70
     1
  0
LTYPE
  5
14
330
5
100
AcDbSymbolTableRecord
100
AcDbLinetypeTableRecord
  2
BYBLOCK
 70
     0
  3

 72
    65
 73
     0
 40
0.0
  0
LTYPE
  5
15
330
5
100
AcDbSymbolTableRecord
100
AcDbLinetypeTableRecord
  2
BYLAYER
 70
     0
  3

 72
    65
 73
     0
 40
0.0
  0
LTYPE
  5
16
330
5
100
AcDbSymbolTableRecord
100
AcDbLinetypeTableRecord
  2
CONTINUOUS
 70
     0
  3
Solid line
 72
    65
 73
     0
 40
0.0
  0
ENDTAB
  0
TABLE
  2
LAYER
  5
2
100
AcDbSymbolTable
 70
2
  0
LAYER
  5
50
100
AcDbSymbolTableRecord
100
AcDbLayerTableRecord
  2
0
 70
0
  6
CONTINUOUS
  0
LAYER
  5
51
100
AcDbSymbolTableRecord
100
AcDbLayerTableRecord
  2
Layer_1
 70
0
  6
CONTINUOUS
  0
ENDTAB
  0
TABLE
  2
STYLE
  5
3
330
0
100
AcDbSymbolTable
 70
     1
  0
STYLE
  5
11
330
3
100
AcDbSymbolTableRecord
100
AcDbTextStyleTableRecord
  2
STANDARD
 70
     0
 40
0.0
 41
1.0
 50
0.0
 71
     0
 42
2.5
  3
txt
  4

  0
ENDTAB
  0
TABLE
  2
VIEW
  5
6
330
0
100
AcDbSymbolTable
 70
     0
  0
ENDTAB
  0
TABLE
  2
UCS
  5
7
330
0
100
AcDbSymbolTable
 70
     0
  0
ENDTAB
  0
TABLE
  2
APPID
  5
9
330
0
100
AcDbSymbolTable
 70
     2
  0
APPID
  5
12
330
9
100
AcDbSymbolTableRecord
100
AcDbRegAppTableRecord
  2
ACAD
 70
     0
  0
ENDTAB
  0
TABLE
  2
DIMSTYLE
  5
A
330
0
100
AcDbSymbolTable
 70
     1
  0
DIMSTYLE
105
27
330
A
100
AcDbSymbolTableRecord
100
AcDbDimStyleTableRecord
  2
ISO-25
 70
     0
  3

  4

  5

  6

  7

 40
1.0
 41
2.5
 42
0.625
 43
3.75
 44
1.25
 45
0.0
 46
0.0
 47
0.0
 48
0.0
140
2.5
141
2.5
142
0.0
143
0.03937007874016
144
1.0
145
0.0
146
1.0
147
0.625
 71
     0
 72
     0
 73
     0
 74
     0
 75
     0
 76
     0
 77
     1
 78
     8
170
     0
171
     3
172
     1
173
     0
174
     0
175
     0
176
     0
177
     0
178
     0
270
     2
271
     2
272
     2
273
     2
274
     3
340
11
275
     0
280
     0
281
     0
282
     0
283
     0
284
     8
285
     0
286
     0
287
     3
288
     0
  0
ENDTAB
  0
TABLE
  2
BLOCK_RECORD
  5
1
330
0
100
AcDbSymbolTable
 70
     1
  0
BLOCK_RECORD
  5
1F
330
1
100
AcDbSymbolTableRecord
100
AcDbBlockTableRecord
  2
*MODEL_SPACE
  0
BLOCK_RECORD
  5
1B
330
1
100
AcDbSymbolTableRecord
100
AcDbBlockTableRecord
  2
*PAPER_SPACE
  0
ENDTAB
  0
ENDSEC
  0
SECTION
  2
BLOCKS
  0
BLOCK
  5
20
330
1F
100
AcDbEntity
  8
0
100
AcDbBlockBegin
  2
*MODEL_SPACE
 70
     0
 10
0.0
 20
0.0
 30
0.0
  3
*MODEL_SPACE
  1

  0
ENDBLK
  5
21
330
1F
100
AcDbEntity
  8
0
100
AcDbBlockEnd
  0
BLOCK
  5
1C
330
1B
100
AcDbEntity
 67
     1
  8
0
100
AcDbBlockBegin
  2
*PAPER_SPACE
  1

  0
ENDBLK
  5
1D
330
1B
100
AcDbEntity
 67
     1
  8
0
100
AcDbBlockEnd
  0
ENDSEC
  0
SECTION
  2
ENTITIES
  0
SPLINE
  5
100
100
AcDbEntity
  8
Layer_1
 62
7
100
AcDbSpline
 70
0
 71
3
 72
10
 73
6
 74
4
 40
0.000000
 40
0.000000
 40
0.000000
 40
0.000000
 40
1.779705
 40
3.330909
 40
5.232006
 40
5.232006
 40
5.232006
 40
5.232006
 10
60.060416
 20
264.072811
 30
0.0
 10
59.457800
 20
264.044531
 30
0.0
 10
58.329940
 20
263.991603
 30
0.0
 10
56.818700
 20
262.941744
 30
0.0
 10
56.298530
 20
261.900584
 30
0.0
 10
56.012085
 20
261.327243
 30
0.0
 11
60.060416
 21
264.072811
 31
0.0
 11
58.299884
 21
263.812274
 31
0.0
 11
57.016070
 21
262.941611
 31
0.0
 11
56.012085
 21
261.327243
 31
0.0
  0
LWPOLYLINE
  5
101
100
AcDbEntity
  8
Layer_1
 62
7
100
AcDbPolyline
 90
3
 70
0
 10
56.012085
 20
261.327243
 30
0.0
 10
55.338741
 20
259.856530
 30
0.0
 10
56.051875
 20
253.895137
 30
0.0
  0
SPLINE
  5
102
100
AcDbEntity
  8
Layer_1
 62
7
100
AcDbSpline
 70
0
 71
3
 72
82
 73
78
 74
76
 40
0.000000
 40
0.000000
 40
0.000000
 40
0.000000
 40
3.534712
 40
7.029955
 40
9.728940
 40
15.518257
 40
21.326713
 40
23.774135
 40
26.288913
 40
31.600910
 40
38.425195
 40
46.147930
 40
49.897973
 40
51.757634
 40
53.463555
 40
55.119162
 40
56.545866
 40
58.759701
 40
61.182737
 40
63.556650
 40
65.488128
 40
67.559766
 40
69.610540
 40
70.737855
 40
71.859706
 40
72.736334
 40
74.322403
 40
77.300612
 40
81.026332
 40
87.286089
 40
91.857980
 40
95.280402
 40
96.227230
 40
97.031613
 40
97.519502
 40
98.205665
 40
99.350014
 40
100.825601
 40
102.967039
 40
106.058017
 40
111.453088
 40
115.164673
 40
118.753550
 40
121.443853
 40
123.627067
 40
125.884937
 40
127.728646
 40
130.946701
 40
133.292299
 40
135.162490
 40
136.166471
 40
136.847955
 40
137.772952
 40
138.569942
 40
139.416718
 40
140.139713
 40
140.991455
 40
141.960878
 40
143.905389
 40
147.720530
 40
152.166177
 40
158.314742
 40
166.853739
 40
172.355975
 40
177.299028
 40
184.253190
 40
192.422290
 40
202.787726
 40
206.394620
 40
209.198303
 40
210.592722
 40
215.787740
 40
228.451291
 40
250.580888
 40
275.378047
 40
293.091074
 40
308.495908
 40
308.495908
 40
308.495908
 40
308.495908
 10
56.051875
 20
253.895137
 30
0.0
 10
56.190505
 20
252.725881
 30
0.0
 10
56.466216
 20
250.400426
 30
0.0
 10
56.830274
 20
247.166999
 30
0.0
 10
57.284798
 20
243.242322
 30
0.0
 10
57.628780
 20
238.137549
 30
0.0
 10
57.696292
 20
234.631179
 30
0.0
 10
57.898979
 20
228.931272
 30
0.0
 10
55.827518
 20
234.041740
 30
0.0
 10
54.168115
 20
237.384677
 30
0.0
 10
51.484215
 20
243.964201
 30
0.0
 10
49.191547
 20
249.460807
 30
0.0
 10
47.473093
 20
253.582587
 30
0.0
 10
46.164999
 20
255.663027
 30
0.0
 10
44.840484
 20
256.826053
 30
0.0
 10
43.435169
 20
257.598721
 30
0.0
 10
41.674486
 20
258.032297
 30
0.0
 10
39.661854
 20
257.305884
 30
0.0
 10
37.898631
 20
255.716466
 30
0.0
 10
36.895877
 20
253.617514
 30
0.0
 10
36.851123
 20
251.465337
 30
0.0
 10
37.128181
 20
249.456979
 30
0.0
 10
37.751267
 20
247.809627
 30
0.0
 10
38.361935
 20
246.513948
 30
0.0
 10
38.742299
 20
245.542338
 30
0.0
 10
39.096712
 20
244.400920
 30
0.0
 10
39.580418
 20
242.652883
 30
0.0
 10
40.394805
 20
240.012017
 30
0.0
 10
41.663344
 20
235.881101
 30
0.0
 10
43.078870
 20
231.240860
 30
0.0
 10
44.355225
 20
226.659492
 30
0.0
 10
44.962640
 20
223.744556
 30
0.0
 10
45.277740
 20
222.043646
 30
0.0
 10
45.366818
 20
221.310596
 30
0.0
 10
45.596013
 20
220.658030
 30
0.0
 10
45.106900
 20
219.923905
 30
0.0
 10
44.012248
 20
219.619866
 30
0.0
 10
42.444525
 20
219.382382
 30
0.0
 10
40.175871
 20
219.882745
 30
0.0
 10
37.390402
 20
222.175133
 30
0.0
 10
34.518190
 20
225.019652
 30
0.0
 10
31.508896
 20
228.002370
 30
0.0
 10
29.104748
 20
230.305532
 30
0.0
 10
27.031025
 20
232.218498
 30
0.0
 10
25.239395
 20
233.781042
 30
0.0
 10
23.670145
 20
235.168457
 30
0.0
 10
21.852006
 20
236.797339
 30
0.0
 10
19.967517
 20
238.383627
 30
0.0
 10
17.815430
 20
239.697684
 30
0.0
 10
16.079997
 20
239.994713
 30
0.0
 10
14.880629
 20
240.019754
 30
0.0
 10
14.049121
 20
239.679125
 30
0.0
 10
13.529340
 20
239.045181
 30
0.0
 10
13.010411
 20
238.369662
 30
0.0
 10
12.607230
 20
237.685075
 30
0.0
 10
12.283891
 20
236.951273
 30
0.0
 10
12.031122
 20
236.108550
 30
0.0
 10
12.457957
 20
234.879748
 30
0.0
 10
13.440944
 20
232.890931
 30
0.0
 10
15.092260
 20
229.888709
 30
0.0
 10
18.124168
 20
226.147953
 30
0.0
 10
22.523243
 20
221.525104
 30
0.0
 10
27.199348
 20
216.708528
 30
0.0
 10
31.036702
 20
211.570444
 30
0.0
 10
32.751897
 20
205.975766
 30
0.0
 10
34.572687
 20
199.555303
 30
0.0
 10
37.684832
 20
191.630158
 30
0.0
 10
40.627582
 20
184.869545
 30
0.0
 10
42.919908
 20
179.761918
 30
0.0
 10
43.918798
 20
177.370184
 30
0.0
 10
45.203545
 20
174.480043
 30
0.0
 10
44.085217
 20
167.837150
 30
0.0
 10
42.737707
 20
154.829676
 30
0.0
 10
39.339393
 20
135.107837
 30
0.0
 10
36.063623
 20
113.862216
 30
0.0
 10
33.610134
 20
94.691061
 30
0.0
 10
33.050189
 20
83.663323
 30
0.0
 10
32.789730
 20
78.533751
 30
0.0
 11
56.051875
 21
253.895137
 31
0.0
 11
56.464566
 21
250.384599
 31
0.0
 11
56.861074
 21
246.911919
 31
0.0
 11
57.155683
 21
244.229061
 31
0.0
 11
57.572680
 21
238.454782
 31
0.0
 11
57.769708
 21
232.649669
 31
0.0
 11
57.631623
 21
230.206145
 31
0.0
 11
56.462880
 21
232.432834
 31
0.0
 11
54.288514
 21
237.279425
 31
0.0
 11
51.637157
 21
243.567603
 31
0.0
 11
48.675095
 21
250.699701
 31
0.0
 11
47.104305
 21
254.104909
 31
0.0
 11
46.064889
 21
255.646970
 31
0.0
 11
44.793253
 21
256.784120
 31
0.0
 11
43.333348
 21
257.564959
 31
0.0
 11
41.936458
 21
257.855103
 31
0.0
 11
39.816295
 21
257.217944
 31
0.0
 11
38.011691
 21
255.600999
 31
0.0
 11
37.015827
 21
253.446070
 31
0.0
 11
36.901296
 21
251.517991
 31
0.0
 11
37.205054
 21
249.468743
 31
0.0
 11
37.891743
 21
247.536353
 31
0.0
 11
38.351222
 21
246.506928
 31
0.0
 11
38.757772
 21
245.461334
 31
0.0
 11
39.023456
 21
244.625936
 31
0.0
 11
39.461799
 21
243.101642
 31
0.0
 11
40.320863
 21
240.250022
 31
0.0
 11
41.414525
 21
236.688436
 31
0.0
 11
43.215159
 21
230.693249
 31
0.0
 11
44.401654
 21
226.278000
 31
0.0
 11
45.111974
 21
222.930103
 31
0.0
 11
45.275603
 21
221.997521
 31
0.0
 11
45.417494
 21
221.205752
 31
0.0
 11
45.506782
 21
220.726103
 31
0.0
 11
45.172665
 21
220.126782
 31
0.0
 11
44.122842
 21
219.671364
 31
0.0
 11
42.658379
 21
219.490520
 31
0.0
 11
40.563702
 21
219.935589
 31
0.0
 11
38.024285
 21
221.697833
 31
0.0
 11
34.116780
 21
225.417806
 31
0.0
 11
31.473014
 21
228.022871
 31
0.0
 11
28.879462
 21
230.503502
 31
0.0
 11
26.897584
 21
232.322811
 31
0.0
 11
25.259805
 21
233.766455
 31
0.0
 11
23.568346
 21
235.262097
 31
0.0
 11
22.189343
 21
236.485866
 31
0.0
 11
19.680241
 21
238.500881
 31
0.0
 11
17.621716
 21
239.625294
 31
0.0
 11
15.786116
 21
239.983327
 31
0.0
 11
14.783080
 21
239.939778
 31
0.0
 11
14.156252
 21
239.672372
 31
0.0
 11
13.508736
 21
239.011809
 31
0.0
 11
13.032704
 21
238.372601
 31
0.0
 11
12.602964
 21
237.642975
 31
0.0
 11
12.312427
 21
236.980925
 31
0.0
 11
12.127544
 21
236.149492
 31
0.0
 11
12.357988
 21
235.207856
 31
0.0
 11
13.178007
 21
233.444708
 31
0.0
 11
15.075875
 21
230.135116
 31
0.0
 11
17.802241
 21
226.623606
 31
0.0
 11
21.977986
 21
222.110514
 31
0.0
 11
27.749628
 21
215.817453
 31
0.0
 11
30.849586
 21
211.271590
 31
0.0
 11
32.537548
 21
206.625671
 31
0.0
 11
34.562728
 21
199.972927
 31
0.0
 11
37.455576
 21
192.333187
 31
0.0
 11
41.554569
 21
182.812656
 31
0.0
 11
43.012082
 21
179.513362
 31
0.0
 11
44.115623
 21
176.935992
 31
0.0
 11
44.626217
 21
175.638418
 31
0.0
 11
44.555890
 21
170.443876
 31
0.0
 11
42.949160
 21
157.882668
 31
0.0
 11
39.557793
 21
136.014479
 31
0.0
 11
35.824874
 21
111.499904
 31
0.0
 11
33.753515
 21
93.908406
 31
0.0
 11
32.789730
 21
78.533751
 31
0.0
  0
LWPOLYLINE
  5
103
100
AcDbEntity
  8
Layer_1
 62
7
100
AcDbPolyline
 90
5
 70
0
 10
32.789730
 20
78.533751
 30
0.0
 10
32.608345
 20
73.705105
 30
0.0
 10
59.533834
 20
73.705105
 30
0.0
 10
86.458805
 20
73.705105
 30
0.0
 10
86.287754
 20
88.587917
 30
0.0
  0
SPLINE
  5
104
100
AcDbEntity
  8
Layer_1
 62
7
100
AcDbSpline
 70
0
 71
3
 72
97
 73
93
 74
91
 40
0.000000
 40
0.000000
 40
0.000000
 40
0.000000
 40
7.769390
 40
13.830953
 40
16.873607
 40
18.590182
 40
21.168490
 40
24.050545
 40
33.412138
 40
46.152670
 40
59.391267
 40
69.759873
 40
78.248095
 40
84.420469
 40
87.146666
 40
88.635012
 40
90.094644
 40
91.427043
 40
93.107255
 40
94.775823
 40
96.454867
 40
98.159638
 40
99.521351
 40
105.005457
 40
110.770910
 40
116.785667
 40
120.180970
 40
123.140254
 40
125.554304
 40
130.614117
 40
134.695136
 40
137.262995
 40
139.265977
 40
141.754847
 40
144.488082
 40
149.579375
 40
155.645298
 40
163.283302
 40
164.945123
 40
166.528040
 40
167.694213
 40
168.677909
 40
169.753285
 40
170.736843
 40
171.821189
 40
172.709828
 40
173.849052
 40
176.893691
 40
180.293062
 40
184.147888
 40
185.738984
 40
187.380667
 40
190.202941
 40
195.961051
 40
201.611796
 40
206.811699
 40
214.998037
 40
218.892955
 40
221.187548
 40
225.125328
 40
228.307096
 40
230.875735
 40
232.356123
 40
234.044888
 40
235.722344
 40
236.445533
 40
237.123971
 40
238.204439
 40
239.631472
 40
241.833303
 40
244.334187
 40
251.229003
 40
255.738754
 40
259.896805
 40
265.313665
 40
267.774089
 40
268.787786
 40
270.204222
 40
273.262285
 40
277.303622
 40
281.663098
 40
285.554185
 40
288.134560
 40
289.948171
 40
291.831302
 40
293.379321
 40
295.850776
 40
298.003785
 40
300.356198
 40
302.693352
 40
304.714890
 40
306.675447
 40
306.675447
 40
306.675447
 40
306.675447
 10
86.287754
 20
88.587917
 30
0.0
 10
86.254139
 20
91.177761
 30
0.0
 10
86.194297
 20
95.788162
 30
0.0
 10
86.046646
 20
101.408664
 30
0.0
 10
85.943392
 20
105.017903
 30
0.0
 10
85.639209
 20
107.446050
 30
0.0
 10
85.431676
 20
109.829258
 30
0.0
 10
84.956248
 20
114.747834
 30
0.0
 10
84.791127
 20
123.083463
 30
0.0
 10
84.922204
 20
134.862013
 30
0.0
 10
85.478891
 20
146.967456
 30
0.0
 10
86.154060
 20
157.645604
 30
0.0
 10
86.510670
 20
165.978750
 30
0.0
 10
86.685153
 20
171.778127
 30
0.0
 10
86.621476
 20
175.233596
 30
0.0
 10
86.818942
 20
177.135476
 30
0.0
 10
87.429839
 20
178.441775
 30
0.0
 10
88.140174
 20
179.749171
 30
0.0
 10
88.971911
 20
181.072015
 30
0.0
 10
89.930685
 20
182.446617
 30
0.0
 10
90.929833
 20
183.802408
 30
0.0
 10
91.847957
 20
185.090915
 30
0.0
 10
93.437602
 20
187.455828
 30
0.0
 10
96.149557
 20
190.709728
 30
0.0
 10
100.754730
 20
194.228464
 30
0.0
 10
105.289914
 20
196.533613
 30
0.0
 10
109.180551
 20
197.897684
 30
0.0
 10
112.016766
 20
198.663522
 30
0.0
 10
115.485118
 20
198.926414
 30
0.0
 10
119.385182
 20
199.117889
 30
0.0
 10
123.050434
 20
200.124574
 30
0.0
 10
125.791005
 20
201.969688
 30
0.0
 10
125.334691
 20
204.579788
 30
0.0
 10
123.903073
 20
206.532844
 30
0.0
 10
120.999620
 20
208.505636
 30
0.0
 10
116.381076
 20
209.530491
 30
0.0
 10
110.095484
 20
209.421970
 30
0.0
 10
105.034147
 20
208.483684
 30
0.0
 10
101.527282
 20
207.559795
 30
0.0
 10
100.120125
 20
207.126709
 30
0.0
 10
98.969117
 20
206.653100
 30
0.0
 10
97.979752
 20
206.229989
 30
0.0
 10
96.996651
 20
205.964822
 30
0.0
 10
95.962375
 20
205.800031
 30
0.0
 10
94.970902
 20
205.738067
 30
0.0
 10
93.945152
 20
205.957095
 30
0.0
 10
92.413505
 20
206.692151
 30
0.0
 10
90.421836
 20
208.355362
 30
0.0
 10
88.843059
 20
211.493940
 30
0.0
 10
88.335091
 20
214.417234
 30
0.0
 10
88.212275
 20
216.790049
 30
0.0
 10
88.648877
 20
218.776698
 30
0.0
 10
89.745019
 20
221.999122
 30
0.0
 10
91.088816
 20
226.552774
 30
0.0
 10
92.428856
 20
231.926112
 30
0.0
 10
93.586760
 20
238.169936
 30
0.0
 10
94.390601
 20
243.866960
 30
0.0
 10
95.121753
 20
248.617357
 30
0.0
 10
95.060392
 20
251.999982
 30
0.0
 10
94.575167
 20
255.123816
 30
0.0
 10
93.342429
 20
258.145475
 30
0.0
 10
91.563124
 20
259.954511
 30
0.0
 10
89.684910
 20
260.468442
 30
0.0
 10
88.058457
 20
260.543644
 30
0.0
 10
86.716245
 20
260.326727
 30
0.0
 10
85.713667
 20
259.992448
 30
0.0
 10
85.187294
 20
259.313019
 30
0.0
 10
84.814181
 20
258.318840
 30
0.0
 10
84.314932
 20
256.830148
 30
0.0
 10
83.726195
 20
254.873161
 30
0.0
 10
82.666240
 20
251.157080
 30
0.0
 10
81.448798
 20
246.669160
 30
0.0
 10
79.860904
 20
241.771644
 30
0.0
 10
78.102038
 20
237.265530
 30
0.0
 10
76.306785
 20
234.244882
 30
0.0
 10
75.184363
 20
230.507151
 30
0.0
 10
73.262631
 20
231.144029
 30
0.0
 10
73.177967
 20
233.190620
 30
0.0
 10
72.281248
 20
235.782328
 30
0.0
 10
71.573282
 20
239.587250
 30
0.0
 10
70.693631
 20
243.573618
 30
0.0
 10
69.942399
 20
247.108525
 30
0.0
 10
69.320214
 20
249.798828
 30
0.0
 10
68.886545
 20
251.845751
 30
0.0
 10
68.591310
 20
253.570694
 30
0.0
 10
68.375666
 20
255.524114
 30
0.0
 10
68.148696
 20
257.583542
 30
0.0
 10
67.180089
 20
259.742487
 30
0.0
 10
65.671624
 20
261.478886
 30
0.0
 10
63.972188
 20
262.941097
 30
0.0
 10
62.051495
 20
263.915667
 30
0.0
 10
60.717299
 20
264.020967
 30
0.0
 10
60.060416
 20
264.072811
 30
0.0
 11
86.287754
 21
88.587917
 31
0.0
 11
86.167601
 21
96.356378
 31
0.0
 11
86.017034
 21
102.416071
 31
0.0
 11
85.868660
 21
105.455105
 31
0.0
 11
85.683536
 21
107.161669
 31
0.0
 11
85.436613
 21
109.728125
 31
0.0
 11
85.181362
 21
112.598855
 31
0.0
 11
84.854371
 21
121.954735
 31
0.0
 11
84.992877
 21
134.694515
 31
0.0
 11
85.565318
 21
147.920729
 31
0.0
 11
86.154913
 21
158.272558
 31
0.0
 11
86.522964
 21
166.752797
 31
0.0
 11
86.650525
 21
172.923854
 31
0.0
 11
86.686068
 21
175.649819
 31
0.0
 11
86.901034
 21
177.122558
 31
0.0
 11
87.460293
 21
178.470801
 31
0.0
 11
88.096035
 21
179.641748
 31
0.0
 11
88.984953
 21
181.067559
 31
0.0
 11
89.934562
 21
182.439551
 31
0.0
 11
90.921174
 21
183.798148
 31
0.0
 11
91.907163
 21
185.188857
 31
0.0
 11
92.679096
 21
186.310633
 31
0.0
 11
96.227282
 21
190.492235
 31
0.0
 11
100.778817
 21
194.031159
 31
0.0
 11
106.133055
 21
196.771493
 31
0.0
 11
109.333863
 21
197.904151
 31
0.0
 11
112.207767
 21
198.609866
 31
0.0
 11
114.609540
 21
198.853020
 31
0.0
 11
119.646962
 21
199.328503
 31
0.0
 11
123.533437
 21
200.573506
 31
0.0
 11
125.419732
 21
202.315858
 31
0.0
 11
125.246852
 21
204.311365
 31
0.0
 11
123.852590
 21
206.373041
 31
0.0
 11
121.614796
 21
207.942389
 31
0.0
 11
116.700661
 21
209.273753
 31
0.0
 11
110.634745
 21
209.282593
 31
0.0
 11
103.110500
 21
207.969260
 31
0.0
 11
101.504599
 21
207.541785
 31
0.0
 11
99.996899
 21
207.059639
 31
0.0
 11
98.913859
 21
206.627222
 31
0.0
 11
98.000190
 21
206.262711
 31
0.0
 11
96.963651
 21
205.976324
 31
0.0
 11
95.992589
 21
205.820036
 31
0.0
 11
94.908705
 21
205.788397
 31
0.0
 11
94.038505
 21
205.968483
 31
0.0
 11
93.001040
 21
206.439122
 31
0.0
 11
90.672297
 21
208.400443
 31
0.0
 11
89.065595
 21
211.396144
 31
0.0
 11
88.314505
 21
215.177089
 31
0.0
 11
88.283187
 21
216.767878
 31
0.0
 11
88.584958
 21
218.381587
 31
0.0
 11
89.418312
 21
221.078020
 31
0.0
 11
91.059012
 21
226.597434
 31
0.0
 11
92.406792
 21
232.085094
 31
0.0
 11
93.376212
 21
237.193833
 31
0.0
 11
94.614317
 21
245.286003
 31
0.0
 11
95.063639
 21
249.154918
 31
0.0
 11
95.031924
 21
251.449292
 31
0.0
 11
94.371331
 21
255.331266
 31
0.0
 11
93.055210
 21
258.228070
 31
0.0
 11
91.162909
 21
259.965052
 31
0.0
 11
89.747419
 21
260.398568
 31
0.0
 11
88.060905
 21
260.485734
 31
0.0
 11
86.406095
 21
260.211032
 31
0.0
 11
85.741463
 21
259.925959
 31
0.0
 11
85.297400
 21
259.413040
 31
0.0
 11
84.859936
 21
258.425095
 31
0.0
 11
84.402664
 21
257.073309
 31
0.0
 11
83.759713
 21
254.967442
 31
0.0
 11
83.070381
 21
252.563436
 31
0.0
 11
81.179619
 21
245.932938
 31
0.0
 11
79.771415
 21
241.648686
 31
0.0
 11
78.215381
 21
237.792762
 31
0.0
 11
75.951172
 21
232.871814
 31
0.0
 11
74.536989
 21
230.858416
 31
0.0
 11
73.580521
 21
231.194199
 31
0.0
 11
73.162994
 21
232.547699
 31
0.0
 11
72.442110
 21
235.519580
 31
0.0
 11
71.573924
 21
239.466561
 31
0.0
 11
70.665188
 21
243.730273
 31
0.0
 11
69.838065
 21
247.532433
 31
0.0
 11
69.271739
 21
250.049894
 31
0.0
 11
68.902733
 21
251.825569
 31
0.0
 11
68.592866
 21
253.683030
 31
0.0
 11
68.409261
 21
255.220123
 31
0.0
 11
68.002184
 21
257.657821
 31
0.0
 11
67.123795
 21
259.623498
 31
0.0
 11
65.629585
 21
261.440413
 31
0.0
 11
63.828709
 21
262.930089
 31
0.0
 11
62.001039
 21
263.793939
 31
0.0
 11
60.060416
 21
264.072811
 31
0.0
  0
LWPOLYLINE
  5
105
100
AcDbEntity
  8
Layer_1
 62
7
100
AcDbPolyline
 90
1
 70
1
 10
60.060416
 20
264.072811
 30
0.0
  0
SPLINE
  5
106
100
AcDbEntity
  8
Layer_1
 62
7
100
AcDbSpline
 70
0
 71
3
 72
31
 73
27
 74
25
 40
0.000000
 40
0.000000
 40
0.000000
 40
0.000000
 40
0.654473
 40
1.303529
 40
1.958001
 40
2.612474
 40
3.261530
 40
3.916002
 40
4.570475
 40
5.219531
 40
5.874003
 40
6.528476
 40
7.177532
 40
7.832004
 40
8.486477
 40
9.135533
 40
9.790006
 40
10.444478
 40
11.093534
 40
11.748007
 40
12.402479
 40
13.051535
 40
13.706008
 40
14.360480
 40
15.009536
 40
15.664009
 40
15.664009
 40
15.664009
 40
15.664009
 10
61.421057
 20
136.870758
 30
0.0
 10
61.639840
 20
136.854100
 30
0.0
 10
62.075596
 20
136.820922
 30
0.0
 10
62.685422
 20
136.558607
 30
0.0
 10
63.209355
 20
136.159505
 30
0.0
 10
63.611076
 20
135.634870
 30
0.0
 10
63.863664
 20
135.025231
 30
0.0
 10
63.950032
 20
134.370641
 30
0.0
 10
63.863664
 20
133.716116
 30
0.0
 10
63.611076
 20
133.106286
 30
0.0
 10
63.209355
 20
132.582354
 30
0.0
 10
62.685422
 20
132.180633
 30
0.0
 10
62.075596
 20
131.928045
 30
0.0
 10
61.421057
 20
131.841677
 30
0.0
 10
60.766517
 20
131.928045
 30
0.0
 10
60.156692
 20
132.180633
 30
0.0
 10
59.632759
 20
132.582354
 30
0.0
 10
59.231037
 20
133.106286
 30
0.0
 10
58.978449
 20
133.716116
 30
0.0
 10
58.892082
 20
134.370641
 30
0.0
 10
58.978449
 20
135.025231
 30
0.0
 10
59.231037
 20
135.634870
 30
0.0
 10
59.632759
 20
136.159505
 30
0.0
 10
60.156692
 20
136.558607
 30
0.0
 10
60.766517
 20
136.820922
 30
0.0
 10
61.202273
 20
136.854100
 30
0.0
 10
61.421057
 20
136.870758
 30
0.0
 11
61.421057
 21
136.870758
 31
0.0
 11
62.069903
 21
136.785125
 31
0.0
 11
62.669558
 21
136.536755
 31
0.0
 11
63.188930
 21
136.138525
 31
0.0
 11
63.587160
 21
135.619153
 31
0.0
 11
63.835530
 21
135.019498
 31
0.0
 11
63.921163
 21
134.370652
 31
0.0
 11
63.835530
 21
133.721806
 31
0.0
 11
63.587160
 21
133.122151
 31
0.0
 11
63.188930
 21
132.602779
 31
0.0
 11
62.669558
 21
132.204549
 31
0.0
 11
62.069903
 21
131.956179
 31
0.0
 11
61.421057
 21
131.870546
 31
0.0
 11
60.772211
 21
131.956179
 31
0.0
 11
60.172556
 21
132.204549
 31
0.0
 11
59.653184
 21
132.602779
 31
0.0
 11
59.254954
 21
133.122151
 31
0.0
 11
59.006584
 21
133.721806
 31
0.0
 11
58.920951
 21
134.370652
 31
0.0
 11
59.006584
 21
135.019498
 31
0.0
 11
59.254954
 21
135.619153
 31
0.0
 11
59.653184
 21
136.138525
 31
0.0
 11
60.172556
 21
136.536755
 31
0.0
 11
60.772211
 21
136.785125
 31
0.0
 11
61.421057
 21
136.870758
 31
0.0
  0
LWPOLYLINE
  5
107
100
AcDbEntity
  8
Layer_1
 62
7
100
AcDbPolyline
 90
1
 70
1
 10
61.421057
 20
136.870758
 30
0.0
  0
SPLINE
  5
108
100
AcDbEntity
  8
Layer_1
 62
7
100
AcDbSpline
 70
0
 71
3
 72
31
 73
27
 74
25
 40
0.000000
 40
0.000000
 40
0.000000
 40
0.000000
 40
0.654473
 40
1.303529
 40
1.958001
 40
2.612474
 40
3.261530
 40
3.916002
 40
4.570475
 40
5.219531
 40
5.874003
 40
6.528476
 40
7.177532
 40
7.832004
 40
8.486477
 40
9.135533
 40
9.790005
 40
10.444478
 40
11.093534
 40
11.748007
 40
12.402479
 40
13.051535
 40
13.706008
 40
14.360480
 40
15.009536
 40
15.664009
 40
15.664009
 40
15.664009
 40
15.664009
 10
61.421057
 20
97.183259
 30
0.0
 10
61.639840
 20
97.166601
 30
0.0
 10
62.075596
 20
97.133422
 30
0.0
 10
62.685422
 20
96.871107
 30
0.0
 10
63.209355
 20
96.472006
 30
0.0
 10
63.611076
 20
95.947370
 30
0.0
 10
63.863664
 20
95.337732
 30
0.0
 10
63.950032
 20
94.683142
 30
0.0
 10
63.863664
 20
94.028616
 30
0.0
 10
63.611076
 20
93.418787
 30
0.0
 10
63.209355
 20
92.894855
 30
0.0
 10
62.685422
 20
92.493133
 30
0.0
 10
62.075596
 20
92.240545
 30
0.0
 10
61.421057
 20
92.154178
 30
0.0
 10
60.766517
 20
92.240545
 30
0.0
 10
60.156692
 20
92.493133
 30
0.0
 10
59.632759
 20
92.894855
 30
0.0
 10
59.231037
 20
93.418787
 30
0.0
 10
58.978449
 20
94.028616
 30
0.0
 10
58.892082
 20
94.683142
 30
0.0
 10
58.978449
 20
95.337732
 30
0.0
 10
59.231037
 20
95.947370
 30
0.0
 10
59.632759
 20
96.472006
 30
0.0
 10
60.156692
 20
96.871107
 30
0.0
 10
60.766517
 20
97.133422
 30
0.0
 10
61.202273
 20
97.166601
 30
0.0
 10
61.421057
 20
97.183259
 30
0.0
 11
61.421057
 21
97.183259
 31
0.0
 11
62.069903
 21
97.097626
 31
0.0
 11
62.669558
 21
96.849255
 31
0.0
 11
63.188930
 21
96.451026
 31
0.0
 11
63.587160
 21
95.931654
 31
0.0
 11
63.835530
 21
95.331999
 31
0.0
 11
63.921163
 21
94.683153
 31
0.0
 11
63.835530
 21
94.034306
 31
0.0
 11
63.587160
 21
93.434652
 31
0.0
 11
63.188930
 21
92.915280
 31
0.0
 11
62.669558
 21
92.517050
 31
0.0
 11
62.069903
 21
92.268680
 31
0.0
 11
61.421057
 21
92.183047
 31
0.0
 11
60.772211
 21
92.268680
 31
0.0
 11
60.172556
 21
92.517050
 31
0.0
 11
59.653184
 21
92.915280
 31
0.0
 11
59.254954
 21
93.434652
 31
0.0
 11
59.006584
 21
94.034306
 31
0.0
 11
58.920951
 21
94.683153
 31
0.0
 11
59.006584
 21
95.331999
 31
0.0
 11
59.254954
 21
95.931654
 31
0.0
 11
59.653184
 21
96.451026
 31
0.0
 11
60.172556
 21
96.849255
 31
0.0
 11
60.772211
 21
97.097626
 31
0.0
 11
61.421057
 21
97.183259
 31
0.0
  0
LWPOLYLINE
  5
109
100
AcDbEntity
  8
Layer_1
 62
7
100
AcDbPolyline
 90
1
 70
1
 10
61.421057
 20
97.183259
 30
0.0
  0
SPLINE
  5
10a
100
AcDbEntity
  8
Layer_1
 62
7
100
AcDbSpline
 70
0
 71
3
 72
28
 73
24
 74
22
 40
0.000000
 40
0.000000
 40
0.000000
 40
0.000000
 40
6.490696
 40
12.927677
 40
19.418372
 40
25.909068
 40
32.346049
 40
38.836745
 40
45.327354
 40
51.764250
 40
58.254859
 40
64.745468
 40
71.182364
 40
77.672973
 40
90.636896
 40
103.216320
 40
116.180242
 40
122.670852
 40
129.107750
 40
135.598359
 40
142.088969
 40
148.525866
 40
155.016476
 40
155.016476
 40
155.016476
 40
155.016476
 10
-35.362700
 20
121.345609
 30
0.0
 10
-37.532466
 20
121.180343
 30
0.0
 10
-41.854043
 20
120.851180
 30
0.0
 10
-47.901911
 20
118.249598
 30
0.0
 10
-53.097961
 20
114.291510
 30
0.0
 10
-57.082048
 20
109.088487
 30
0.0
 10
-59.587114
 20
103.042477
 30
0.0
 10
-60.444014
 20
96.550655
 30
0.0
 10
-59.586979
 20
90.059530
 30
0.0
 10
-57.081920
 20
84.011704
 30
0.0
 10
-53.097564
 20
78.815952
 30
0.0
 10
-47.902519
 20
74.831331
 30
0.0
 10
-41.851123
 20
72.328671
 30
0.0
 10
-33.213919
 20
71.174418
 30
0.0
 10
-22.369721
 20
74.086433
 30
0.0
 10
-12.898414
 20
83.557833
 30
0.0
 10
-9.986375
 20
94.401735
 30
0.0
 10
-11.140630
 20
103.039547
 30
0.0
 10
-13.643290
 20
109.089099
 30
0.0
 10
-17.627909
 20
114.291114
 30
0.0
 10
-22.823671
 20
118.249473
 30
0.0
 10
-28.871462
 20
120.851045
 30
0.0
 10
-33.192969
 20
121.180298
 30
0.0
 10
-35.362700
 20
121.345609
 30
0.0
 11
-35.362700
 21
121.345609
 31
0.0
 11
-41.797574
 21
120.496186
 31
0.0
 11
-47.744584
 21
118.032895
 31
0.0
 11
-52.895408
 21
114.083447
 31
0.0
 11
-56.844856
 21
108.932623
 31
0.0
 11
-59.308146
 21
102.985612
 31
0.0
 11
-60.157568
 21
96.550738
 31
0.0
 11
-59.308033
 21
90.115966
 31
0.0
 11
-56.844682
 21
84.169073
 31
0.0
 11
-52.895224
 21
79.018366
 31
0.0
 11
-47.744434
 21
75.069015
 31
0.0
 11
-41.797490
 21
72.605789
 31
0.0
 11
-35.362700
 21
71.756388
 31
0.0
 11
-22.848564
 21
75.141607
 31
0.0
 11
-13.953568
 21
84.036603
 31
0.0
 11
-10.568347
 21
96.550738
 31
0.0
 11
-11.417747
 21
102.985529
 31
0.0
 11
-13.880974
 21
108.932474
 31
0.0
 11
-17.830325
 21
114.083265
 31
0.0
 11
-22.981033
 21
118.032723
 31
0.0
 11
-28.927927
 21
120.496074
 31
0.0
 11
-35.362700
 21
121.345609
 31
0.0
  0
LWPOLYLINE
  5
10b
100
AcDbEntity
  8
Layer_1
 62
7
100
AcDbPolyline
 90
1
 70
1
 10
-35.362700
 20
121.345609
 30
0.0
  0
SPLINE
  5
10c
100
AcDbEntity
  8
Layer_1
 62
7
100
AcDbSpline
 70
0
 71
3
 72
31
 73
27
 74
25
 40
0.000000
 40
0.000000
 40
0.000000
 40
0.000000
 40
0.654473
 40
1.303529
 40
1.958001
 40
2.612474
 40
3.261530
 40
3.916002
 40
4.570475
 40
5.219531
 40
5.874003
 40
6.528476
 40
7.177532
 40
7.832004
 40
8.486477
 40
9.135533
 40
9.790006
 40
10.444478
 40
11.093534
 40
11.748007
 40
12.402479
 40
13.051535
 40
13.706008
 40
14.360480
 40
15.009536
 40
15.664009
 40
15.664009
 40
15.664009
 40
15.664009
 10
-35.362700
 20
117.367040
 30
0.0
 10
-35.143916
 20
117.350382
 30
0.0
 10
-34.708160
 20
117.317204
 30
0.0
 10
-34.098335
 20
117.054889
 30
0.0
 10
-33.574402
 20
116.655788
 30
0.0
 10
-33.172680
 20
116.131152
 30
0.0
 10
-32.920092
 20
115.521513
 30
0.0
 10
-32.833725
 20
114.866924
 30
0.0
 10
-32.920092
 20
114.212398
 30
0.0
 10
-33.172680
 20
113.602568
 30
0.0
 10
-33.574402
 20
113.078636
 30
0.0
 10
-34.098335
 20
112.676915
 30
0.0
 10
-34.708160
 20
112.424327
 30
0.0
 10
-35.362700
 20
112.337959
 30
0.0
 10
-36.017239
 20
112.424327
 30
0.0
 10
-36.627065
 20
112.676915
 30
0.0
 10
-37.150998
 20
113.078636
 30
0.0
 10
-37.552719
 20
113.602568
 30
0.0
 10
-37.805307
 20
114.212398
 30
0.0
 10
-37.891675
 20
114.866924
 30
0.0
 10
-37.805307
 20
115.521513
 30
0.0
 10
-37.552719
 20
116.131152
 30
0.0
 10
-37.150998
 20
116.655788
 30
0.0
 10
-36.627065
 20
117.054889
 30
0.0
 10
-36.017239
 20
117.317204
 30
0.0
 10
-35.581483
 20
117.350382
 30
0.0
 10
-35.362700
 20
117.367040
 30
0.0
 11
-35.362700
 21
117.367040
 31
0.0
 11
-34.713854
 21
117.281407
 31
0.0
 11
-34.114199
 21
117.033037
 31
0.0
 11
-33.594827
 21
116.634807
 31
0.0
 11
-33.196597
 21
116.115435
 31
0.0
 11
-32.948227
 21
115.515780
 31
0.0
 11
-32.862594
 21
114.866934
 31
0.0
 11
-32.948227
 21
114.218088
 31
0.0
 11
-33.196597
 21
113.618433
 31
0.0
 11
-33.594827
 21
113.099061
 31
0.0
 11
-34.114199
 21
112.700831
 31
0.0
 11
-34.713854
 21
112.452461
 31
0.0
 11
-35.362700
 21
112.366828
 31
0.0
 11
-36.011546
 21
112.452461
 31
0.0
 11
-36.611201
 21
112.700831
 31
0.0
 11
-37.130573
 21
113.099061
 31
0.0
 11
-37.528803
 21
113.618433
 31
0.0
 11
-37.777173
 21
114.218088
 31
0.0
 11
-37.862806
 21
114.866934
 31
0.0
 11
-37.777173
 21
115.515780
 31
0.0
 11
-37.528803
 21
116.115435
 31
0.0
 11
-37.130573
 21
116.634807
 31
0.0
 11
-36.611201
 21
117.033037
 31
0.0
 11
-36.011546
 21
117.281407
 31
0.0
 11
-35.362700
 21
117.367040
 31
0.0
  0
LWPOLYLINE
  5
10d
100
AcDbEntity
  8
Layer_1
 62
7
100
AcDbPolyline
 90
1
 70
1
 10
-35.362700
 20
117.367040
 30
0.0
  0
SPLINE
  5
10e
100
AcDbEntity
  8
Layer_1
 62
7
100
AcDbSpline
 70
0
 71
3
 72
25
 73
21
 74
19
 40
0.000000
 40
0.000000
 40
0.000000
 40
0.000000
 40
0.654473
 40
1.303529
 40
1.958001
 40
2.612474
 40
3.261530
 40
3.916002
 40
5.223049
 40
6.491334
 40
7.798380
 40
9.105426
 40
10.373711
 40
11.680758
 40
12.335230
 40
12.984286
 40
13.638759
 40
14.293231
 40
14.942287
 40
15.596760
 40
15.596760
 40
15.596760
 40
15.596760
 10
-35.362700
 20
99.050844
 30
0.0
 10
-35.143917
 20
99.034185
 30
0.0
 10
-34.708161
 20
99.001006
 30
0.0
 10
-34.098331
 20
98.738698
 30
0.0
 10
-33.574415
 20
98.339570
 30
0.0
 10
-33.172630
 20
97.815033
 30
0.0
 10
-32.920279
 20
97.205029
 30
0.0
 10
-32.803938
 20
96.334104
 30
0.0
 10
-33.097408
 20
95.240706
 30
0.0
 10
-34.053823
 20
94.286342
 30
0.0
 10
-35.362700
 20
93.931785
 30
0.0
 10
-36.671577
 20
94.286342
 30
0.0
 10
-37.627991
 20
95.240706
 30
0.0
 10
-37.921461
 20
96.334104
 30
0.0
 10
-37.805120
 20
97.205029
 30
0.0
 10
-37.552770
 20
97.815033
 30
0.0
 10
-37.150984
 20
98.339570
 30
0.0
 10
-36.627068
 20
98.738698
 30
0.0
 10
-36.017238
 20
99.001006
 30
0.0
 10
-35.581483
 20
99.034185
 30
0.0
 10
-35.362700
 20
99.050844
 30
0.0
 11
-35.362700
 21
99.050844
 31
0.0
 11
-34.713854
 21
98.965211
 31
0.0
 11
-34.114199
 21
98.716841
 31
0.0
 11
-33.594827
 21
98.318611
 31
0.0
 11
-33.196597
 21
97.799239
 31
0.0
 11
-32.948227
 21
97.199584
 31
0.0
 11
-32.862594
 21
96.550738
 31
0.0
 11
-33.204072
 21
95.289087
 31
0.0
 11
-34.100978
 21
94.392367
 31
0.0
 11
-35.362700
 21
94.051150
 31
0.0
 11
-36.624421
 21
94.392367
 31
0.0
 11
-37.521327
 21
95.289087
 31
0.0
 11
-37.862806
 21
96.550738
 31
0.0
 11
-37.777173
 21
97.199584
 31
0.0
 11
-37.528803
 21
97.799239
 31
0.0
 11
-37.130573
 21
98.318611
 31
0.0
 11
-36.611201
 21
98.716841
 31
0.0
 11
-36.011546
 21
98.965211
 31
0.0
 11
-35.362700
 21
99.050844
 31
0.0
  0
LWPOLYLINE
  5
10f
100
AcDbEntity
  8
Layer_1
 62
7
100
AcDbPolyline
 90
1
 70
1
 10
-35.362700
 20
99.050844
 30
0.0
  0
SPLINE
  5
110
100
AcDbEntity
  8
Layer_1
 62
7
100
AcDbSpline
 70
0
 71
3
 72
10
 73
6
 74
4
 40
0.000000
 40
0.000000
 40
0.000000
 40
0.000000
 40
0.341379
 40
0.686932
 40
1.037454
 40
1.037454
 40
1.037454
 40
1.037454
 10
14.895215
 20
191.918042
 30
0.0
 10
14.781547
 20
191.912151
 30
0.0
 10
14.552823
 20
191.900297
 30
0.0
 10
14.209499
 20
191.854727
 30
0.0
 10
13.982642
 20
191.805760
 30
0.0
 10
13.868404
 20
191.781102
 30
0.0
 11
14.895215
 21
191.918042
 31
0.0
 11
14.554558
 21
191.895845
 31
0.0
 11
14.212005
 21
191.850413
 31
0.0
 11
13.868404
 21
191.781102
 31
0.0
  0
LWPOLYLINE
  5
111
100
AcDbEntity
  8
Layer_1
 62
7
100
AcDbPolyline
 90
2
 70
0
 10
13.868404
 20
191.781102
 30
0.0
 10
-91.320524
 20
166.858590
 30
0.0
  0
SPLINE
  5
112
100
AcDbEntity
  8
Layer_1
 62
7
100
AcDbSpline
 70
0
 71
3
 72
10
 73
6
 74
4
 40
0.000000
 40
0.000000
 40
0.000000
 40
0.000000
 40
2.671273
 40
5.257446
 40
7.928708
 40
7.928708
 40
7.928708
 40
7.928708
 10
-91.320524
 20
166.858590
 30
0.0
 10
-92.159837
 20
166.516620
 30
0.0
 10
-93.811726
 20
165.843572
 30
0.0
 10
-95.320054
 20
163.398633
 30
0.0
 10
-95.180397
 20
161.620369
 30
0.0
 10
-95.109439
 20
160.716847
 30
0.0
 11
-91.320524
 21
166.858590
 31
0.0
 11
-93.670215
 21
165.587900
 31
0.0
 11
-95.028063
 21
163.386869
 31
0.0
 11
-95.109439
 21
160.716847
 31
0.0
  0
LWPOLYLINE
  5
113
100
AcDbEntity
  8
Layer_1
 62
7
100
AcDbPolyline
 90
2
 70
0
 10
-95.109439
 20
160.716847
 30
0.0
 10
-93.715209
 20
154.831937
 30
0.0
  0
SPLINE
  5
114
100
AcDbEntity
  8
Layer_1
 62
7
100
AcDbSpline
 70
0
 71
3
 72
10
 73
6
 74
4
 40
0.000000
 40
0.000000
 40
0.000000
 40
0.000000
 40
2.671156
 40
5.257199
 40
7.928457
 40
7.928457
 40
7.928457
 40
7.928457
 10
-93.715209
 20
154.831937
 30
0.0
 10
-93.373243
 20
153.992654
 30
0.0
 10
-92.700206
 20
152.340831
 30
0.0
 10
-90.255177
 20
150.832810
 30
0.0
 10
-88.476977
 20
150.972540
 30
0.0
 10
-87.573465
 20
151.043537
 30
0.0
 11
-93.715209
 21
154.831937
 31
0.0
 11
-92.444519
 21
152.482379
 31
0.0
 11
-90.243488
 21
151.124778
 31
0.0
 11
-87.573465
 21
151.043537
 31
0.0
  0
LWPOLYLINE
  5
115
100
AcDbEntity
  8
Layer_1
 62
7
100
AcDbPolyline
 90
2
 70
0
 10
-87.573465
 20
151.043537
 30
0.0
 10
17.615462
 20
175.966046
 30
0.0
  0
SPLINE
  5
116
100
AcDbEntity
  8
Layer_1
 62
7
100
AcDbSpline
 70
0
 71
3
 72
10
 73
6
 74
4
 40
0.000000
 40
0.000000
 40
0.000000
 40
0.000000
 40
2.671273
 40
5.257446
 40
7.928708
 40
7.928708
 40
7.928708
 40
7.928708
 10
17.615462
 20
175.966046
 30
0.0
 10
18.454775
 20
176.308017
 30
0.0
 10
20.106664
 20
176.981065
 30
0.0
 10
21.614993
 20
179.426003
 30
0.0
 10
21.475336
 20
181.204267
 30
0.0
 10
21.404378
 20
182.107790
 30
0.0
 11
17.615462
 21
175.966046
 31
0.0
 11
19.965152
 21
177.236737
 31
0.0
 11
21.323002
 21
179.437767
 31
0.0
 11
21.404378
 21
182.107790
 31
0.0
  0
LWPOLYLINE
  5
117
100
AcDbEntity
  8
Layer_1
 62
7
100
AcDbPolyline
 90
2
 70
0
 10
21.404378
 20
182.107790
 30
0.0
 10
20.010148
 20
187.992184
 30
0.0
  0
SPLINE
  5
118
100
AcDbEntity
  8
Layer_1
 62
7
100
AcDbSpline
 70
0
 71
3
 72
10
 73
6
 74
4
 40
0.000000
 40
0.000000
 40
0.000000
 40
0.000000
 40
2.352446
 40
4.622194
 40
6.921883
 40
6.921883
 40
6.921883
 40
6.921883
 10
20.010148
 20
187.992184
 30
0.0
 10
19.724196
 20
188.733661
 30
0.0
 10
19.162346
 20
190.190548
 30
0.0
 10
17.201114
 20
191.677985
 30
0.0
 10
15.667198
 20
191.837675
 30
0.0
 10
14.895215
 20
191.918042
 30
0.0
 11
20.010148
 21
187.992184
 31
0.0
 11
18.958596
 21
190.096522
 31
0.0
 11
17.150573
 21
191.468678
 31
0.0
 11
14.895215
 21
191.918042
 31
0.0
  0
LWPOLYLINE
  5
119
100
AcDbEntity
  8
Layer_1
 62
7
100
AcDbPolyline
 90
1
 70
1
 10
14.895215
 20
191.918042
 30
0.0
  0
SPLINE
  5
11a
100
AcDbEntity
  8
Layer_1
 62
7
100
AcDbSpline
 70
0
 71
3
 72
25
 73
21
 74
19
 40
0.000000
 40
0.000000
 40
0.000000
 40
0.000000
 40
1.307047
 40
2.575332
 40
3.882379
 40
5.189425
 40
6.457710
 40
7.764756
 40
8.419228
 40
9.068283
 40
9.722755
 40
10.377227
 40
11.026283
 40
11.680755
 40
12.335227
 40
12.984283
 40
13.638756
 40
14.293228
 40
14.942284
 40
15.596757
 40
15.596757
 40
15.596757
 40
15.596757
 10
13.115995
 20
185.931844
 30
0.0
 10
13.556659
 20
185.863071
 30
0.0
 10
14.424918
 20
185.727562
 30
0.0
 10
15.380696
 20
184.732263
 30
0.0
 10
15.734868
 20
183.434008
 30
0.0
 10
15.380411
 20
182.122274
 30
0.0
 10
14.426028
 20
181.166613
 30
0.0
 10
13.332607
 20
180.872959
 30
0.0
 10
12.461743
 20
180.989324
 30
0.0
 10
11.851554
 20
181.241670
 30
0.0
 10
11.327719
 20
181.643456
 30
0.0
 10
10.925971
 20
182.167370
 30
0.0
 10
10.673390
 20
182.777203
 30
0.0
 10
10.587020
 20
183.431728
 30
0.0
 10
10.673388
 20
184.086318
 30
0.0
 10
10.925976
 20
184.695956
 30
0.0
 10
11.327697
 20
185.220592
 30
0.0
 10
11.851630
 20
185.619693
 30
0.0
 10
12.461456
 20
185.882008
 30
0.0
 10
12.897212
 20
185.915186
 30
0.0
 10
13.115995
 20
185.931844
 30
0.0
 11
13.115995
 21
185.931844
 31
0.0
 11
14.377647
 21
185.590366
 31
0.0
 11
15.274367
 21
184.693460
 31
0.0
 11
15.615584
 21
183.431738
 31
0.0
 11
15.274366
 21
182.170018
 31
0.0
 11
14.377646
 21
181.273113
 31
0.0
 11
13.115995
 21
180.931635
 31
0.0
 11
12.467150
 21
181.017268
 31
0.0
 11
11.867495
 21
181.265638
 31
0.0
 11
11.348123
 21
181.663867
 31
0.0
 11
10.949894
 21
182.183239
 31
0.0
 11
10.701523
 21
182.782893
 31
0.0
 11
10.615889
 21
183.431738
 31
0.0
 11
10.701522
 21
184.080584
 31
0.0
 11
10.949893
 21
184.680239
 31
0.0
 11
11.348122
 21
185.199611
 31
0.0
 11
11.867494
 21
185.597841
 31
0.0
 11
12.467149
 21
185.846211
 31
0.0
 11
13.115995
 21
185.931844
 31
0.0
  0
LWPOLYLINE
  5
11b
100
AcDbEntity
  8
Layer_1
 62
7
100
AcDbPolyline
 90
1
 70
1
 10
13.115995
 20
185.931844
 30
0.0
  0
SPLINE
  5
11c
100
AcDbEntity
  8
Layer_1
 62
7
100
AcDbSpline
 70
0
 71
3
 72
25
 73
21
 74
19
 40
0.000000
 40
0.000000
 40
0.000000
 40
0.000000
 40
0.654473
 40
1.303529
 40
1.958001
 40
2.612474
 40
3.261530
 40
3.916002
 40
5.223049
 40
6.491334
 40
7.798380
 40
9.105426
 40
10.373711
 40
11.680758
 40
12.335230
 40
12.984286
 40
13.638759
 40
14.293231
 40
14.942287
 40
15.596760
 40
15.596760
 40
15.596760
 40
15.596760
 10
-87.501634
 20
161.665627
 30
0.0
 10
-87.282851
 20
161.648968
 30
0.0
 10
-86.847095
 20
161.615789
 30
0.0
 10
-86.237265
 20
161.353481
 30
0.0
 10
-85.713349
 20
160.954353
 30
0.0
 10
-85.311564
 20
160.429816
 30
0.0
 10
-85.059213
 20
159.819812
 30
0.0
 10
-84.942872
 20
158.948887
 30
0.0
 10
-85.236342
 20
157.855489
 30
0.0
 10
-86.192757
 20
156.901124
 30
0.0
 10
-87.501634
 20
156.546568
 30
0.0
 10
-88.810511
 20
156.901124
 30
0.0
 10
-89.766925
 20
157.855489
 30
0.0
 10
-90.060395
 20
158.948887
 30
0.0
 10
-89.944054
 20
159.819812
 30
0.0
 10
-89.691703
 20
160.429816
 30
0.0
 10
-89.289918
 20
160.954353
 30
0.0
 10
-88.766002
 20
161.353481
 30
0.0
 10
-88.156172
 20
161.615789
 30
0.0
 10
-87.720417
 20
161.648968
 30
0.0
 10
-87.501634
 20
161.665627
 30
0.0
 11
-87.501634
 21
161.665627
 31
0.0
 11
-86.852788
 21
161.579994
 31
0.0
 11
-86.253133
 21
161.331623
 31
0.0
 11
-85.733761
 21
160.933394
 31
0.0
 11
-85.335531
 21
160.414022
 31
0.0
 11
-85.087161
 21
159.814367
 31
0.0
 11
-85.001528
 21
159.165521
 31
0.0
 11
-85.343006
 21
157.903870
 31
0.0
 11
-86.239912
 21
157.007150
 31
0.0
 11
-87.501634
 21
156.665933
 31
0.0
 11
-88.763355
 21
157.007150
 31
0.0
 11
-89.660261
 21
157.903870
 31
0.0
 11
-90.001740
 21
159.165521
 31
0.0
 11
-89.916107
 21
159.814367
 31
0.0
 11
-89.667736
 21
160.414022
 31
0.0
 11
-89.269507
 21
160.933394
 31
0.0
 11
-88.750135
 21
161.331623
 31
0.0
 11
-88.150480
 21
161.579994
 31
0.0
 11
-87.501634
 21
161.665627
 31
0.0
  0
LWPOLYLINE
  5
11d
100
AcDbEntity
  8
Layer_1
 62
7
100
AcDbPolyline
 90
1
 70
1
 10
-87.501634
 20
161.665627
 30
0.0
  0
ENDSEC
  0
SECTION
  2
OBJECTS
  0
DICTIONARY
  5
C
330
0
100
AcDbDictionary
  3
ACAD_GROUP
350
D
  3
ACAD_MLINESTYLE
350
17
  0
DICTIONARY
  5
D
330
C
100
AcDbDictionary
  0
DICTIONARY
  5
1A
330
C
100
AcDbDictionary
  0
DICTIONARY
  5
17
330
C
100
AcDbDictionary
  3
STANDARD
350
18
  0
DICTIONARY
  5
19
330
C
100
AcDbDictionary
  0
ENDSEC
  0
EOF
