0
SECTION
2
HEADER
9
$INSUNITS
70
4
9
$ACADVER
1
AC1014
9
$HANDSEED
5
FFFF
0
ENDSEC
0
SECTION
2
TABLES
0
TABLE
2
VPORT
5
8
100
AcDbSymbolTable
0
ENDTAB
0
TABLE
2
LTYPE
5
5
100
AcDbSymbolTable
0
LTYPE
5
14
100
AcDbSymbolTableRecord
100
AcDbLinetypeTableRecord
2
BYBLOCK
70
0
0
LTYPE
5
15
100
AcDbSymbolTableRecord
100
AcDbLinetypeTableRecord
2
BYLAYER
70
0
0
ENDTAB
0
TABLE
2
LAYER
5
2
100
AcDbSymbolTable
70
2
0
LAYER
5
50
100
AcDbSymbolTableRecord
100
AcDbLayerTableRecord
2
0
70
0
6
CONTINUOUS
0
ENDTAB
0
TABLE
2
STYLE
5
3
100
AcDbSymbolTable
70
1
0
STYLE
5
11
100
AcDbSymbolTableRecord
100
AcDbTextStyleTableRecord
2
STANDARD
70
0
0
ENDTAB
0
TABLE
2
VIEW
5
6
100
AcDbSymbolTable
70
0
0
ENDTAB
0
TABLE
2
UCS
5
7
100
AcDbSymbolTable
70
0
0
ENDTAB
0
TABLE
2
APPID
5
9
100
AcDbSymbolTable
70
2
0
APPID
5
12
100
AcDbSymbolTableRecord
100
AcDbRegAppTableRecord
2
ACAD
70
0
0
ENDTAB
0
TABLE
2
DIMSTYLE
5
A
100
AcDbSymbolTable
70
1
0
ENDTAB
0
TABLE
2
BLOCK_RECORD
5
1
100
AcDbSymbolTable
70
1
0
BLOCK_RECORD
5
1F
100
AcDbSymbolTableRecord
100
AcDbBlockTableRecord
2
*MODEL_SPACE
0
BLOCK_RECORD
5
1B
100
AcDbSymbolTableRecord
100
AcDbBlockTableRecord
2
*PAPER_SPACE
0
ENDTAB
0
ENDSEC
0
SECTION
2
BLOCKS
0
BLOCK
5
20
100
AcDbEntity
100
AcDbBlockBegin
2
*MODEL_SPACE
0
ENDBLK
5
21
100
AcDbEntity
100
AcDbBlockEnd
0
BLOCK
5
1C
100
AcDbEntity
100
AcDbBlockBegin
2
*PAPER_SPACE
0
ENDBLK
5
1D
100
AcDbEntity
100
AcDbBlockEnd
0
ENDSEC
0
SECTION
2
ENTITIES
0
LWPOLYLINE
5
100
100
AcDbEntity
8
0
100
AcDbPolyline
90
54
70
1
43
0.0
10
24.999999999999851
20
-216.50635094610959
10
-25.000000000000149
20
-216.50635094610959
10
-25.00000000000016
20
-228.50635094610959
10
-105.00000000000014
20
-228.50635094610959
10
-105.00000000000014
20
-216.50635094610959
10
-124.99999999999997
20
-216.50635094610965
10
-135.00000000000003
20
-199.18584287042074
10
-145.39230484541332
20
-205.18584287042071
10
-185.39230484541332
20
-135.9038105676656
10
-175.00000000000003
20
-129.9038105676656
10
-200.00000000000003
20
-86.602540378443663
10
-210.39230484541332
20
-92.602540378443649
10
-250.39230484541326
20
-23.320508075688551
10
-240
20
-17.320508075688572
10
-249.99999999999997
20
-3.5527136788005009e-14
10
-239.99999999999986
20
17.320508075688856
10
-250.39230484541315
20
23.320508075688871
10
-210.39230484541309
20
92.602540378443933
10
-199.99999999999986
20
86.602540378443962
10
-174.99999999999986
20
129.90381056766583
10
-185.39230484541309
20
135.90381056766591
10
-145.39230484541309
20
205.18584287042091
10
-134.99999999999986
20
199.18584287042097
10
-125.00000000000003
20
216.50635094610965
10
-104.99999999999987
20
216.50635094610959
10
-104.99999999999987
20
228.50635094610954
10
-24.999999999999876
20
228.50635094610954
10
-24.999999999999876
20
216.50635094610959
10
25.000000000000124
20
216.50635094610959
10
25.000000000000124
20
228.50635094610954
10
105.00000000000014
20
228.50635094610954
10
105.00000000000014
20
216.50635094610959
10
125.00000000000014
20
216.50635094610959
10
135.00000000000017
20
199.18584287042069
10
145.39230484541343
20
205.18584287042063
10
185.39230484541335
20
135.90381056766549
10
175.00000000000011
20
129.90381056766554
10
200.00000000000006
20
86.602540378443564
10
210.39230484541332
20
92.60254037844355
10
250.39230484541326
20
23.320508075688444
10
240.00000000000003
20
17.32050807568843
10
249.99999999999997
20
-7.1054273576010019e-14
10
239.99999999999983
20
-17.320508075688927
10
250.39230484541309
20
-23.320508075688942
10
210.39230484541307
20
-92.60254037844399
10
199.99999999999977
20
-86.60254037844399
10
174.99999999999977
20
-129.90381056766591
10
185.39230484541307
20
-135.90381056766591
10
145.39230484541307
20
-205.18584287042097
10
134.99999999999977
20
-199.18584287042097
10
125.00000000000003
20
-216.50635094610965
10
104.99999999999986
20
-216.50635094610959
10
104.99999999999986
20
-228.50635094610959
10
24.999999999999851
20
-228.50635094610959
0
LINE
5
101
100
AcDbEntity
8
0
100
AcDbLine
10
-125.24999999999989
20
330.5597493284323
30
0
11
124.75000000000011
21
330.5597493284323
31
0
0
LWPOLYLINE
5
102
100
AcDbEntity
8
0
100
AcDbPolyline
90
4
70
1
43
0.0
10
105.00000000000013
20
903.85974932843226
10
24.500000000000117
20
903.85974932843226
10
24.500000000000117
20
885.5597493284323
10
105.00000000000013
20
885.5597493284323
0
LWPOLYLINE
5
103
100
AcDbEntity
8
0
100
AcDbPolyline
90
4
70
1
43
0.0
10
-105.4999999999999
20
903.85974932843226
10
-105.4999999999999
20
885.5597493284323
10
-24.999999999999876
20
885.5597493284323
10
-24.999999999999876
20
903.85974932843226
0
LWPOLYLINE
5
104
100
AcDbEntity
8
0
100
AcDbPolyline
90
4
70
1
43
0.0
10
-24.999999999999876
20
410.5597493284323
10
-24.999999999999876
20
428.85974932843226
10
-105.4999999999999
20
428.85974932843226
10
-105.4999999999999
20
410.5597493284323
0
LWPOLYLINE
5
105
100
AcDbEntity
8
0
100
AcDbPolyline
90
4
70
1
43
0.0
10
24.500000000000107
20
428.85974932843226
10
24.500000000000117
20
410.5597493284323
10
105.00000000000013
20
410.5597493284323
10
105.00000000000011
20
428.85974932843226
0
LWPOLYLINE
5
106
100
AcDbEntity
8
0
100
AcDbPolyline
90
4
70
1
43
0.0
10
89.750000000000114
20
1280.5597493284324
10
-90.249999999999886
20
1280.5597493284324
10
-90.249999999999886
20
1250.5597493284324
10
89.750000000000114
20
1250.5597493284324
0
LWPOLYLINE
5
107
100
AcDbEntity
8
0
100
AcDbPolyline
90
4
70
1
43
0.0
10
124.75000000000011
20
1330.5597493284324
10
124.75000000000011
20
370.5597493284323
10
-125.24999999999989
20
370.5597493284323
10
-125.24999999999989
20
1330.5597493284324
0
LINE
5
108
100
AcDbEntity
8
0
100
AcDbLine
10
124.75000000000011
20
360.5597493284323
30
0
11
-125.24999999999989
21
360.5597493284323
31
0
0
LWPOLYLINE
5
109
100
AcDbEntity
8
0
100
AcDbPolyline
90
4
70
1
43
0.0
10
-125.24999999999989
20
330.5597493284323
10
-125.24999999999989
20
360.5597493284323
10
124.75000000000011
20
360.5597493284323
10
124.75000000000011
20
330.5597493284323
0
ENDSEC
0
SECTION
2
OBJECTS
0
DICTIONARY
5
C
100
AcDbDictionary
3
ACAD_GROUP
350
D
3
ACAD_MLINESTYLE
350
17
0
DICTIONARY
5
D
100
AcDbDictionary
0
DICTIONARY
5
1A
330
C
100
AcDbDictionary
0
DICTIONARY
5
17
100
AcDbDictionary
0
ENDSEC
0
EOF
