  0
SECTION
  2
HEADER
  9
$ACADVER
  1
AC1014
  9
$HANDSEED
  5
FFFF
  9
$MEASUREMENT
 70
     1
  0
ENDSEC
  0
SECTION
  2
TABLES
  0
TABLE
  2
VPORT
  5
8
330
0
100
AcDbSymbolTable
 70
     4
  0
VPORT
  5
2E
330
8
100
AcDbSymbolTableRecord
100
AcDbViewportTableRecord
  2
*ACTIVE
 70
     0
 10
0.0
 20
0.0
 11
1.0
 21
1.0
 12
210.0
 22
148.5
 13
0.0
 23
0.0
 14
10.0
 24
10.0
 15
10.0
 25
10.0
 16
0.0
 26
0.0
 36
1.0
 17
0.0
 27
0.0
 37
0.0
 40
341.0
 41
1.24
 42
50.0
 43
0.0
 44
0.0
 50
0.0
 51
0.0
 71
     0
 72
   100
 73
     1
 74
     3
 75
     0
 76
     0
 77
     0
 78
     0
  0
ENDTAB
  0
TABLE
  2
LTYPE
  5
5
330
0
100
AcDbSymbolTable
 70
     1
  0
LTYPE
  5
14
330
5
100
AcDbSymbolTableRecord
100
AcDbLinetypeTableRecord
  2
BYBLOCK
 70
     0
  3

 72
    65
 73
     0
 40
0.0
  0
LTYPE
  5
15
330
5
100
AcDbSymbolTableRecord
100
AcDbLinetypeTableRecord
  2
BYLAYER
 70
     0
  3

 72
    65
 73
     0
 40
0.0
  0
LTYPE
  5
16
330
5
100
AcDbSymbolTableRecord
100
AcDbLinetypeTableRecord
  2
CONTINUOUS
 70
     0
  3
Solid line
 72
    65
 73
     0
 40
0.0
  0
ENDTAB
  0
TABLE
  2
LAYER
  5
2
100
AcDbSymbolTable
 70
2
  0
LAYER
  5
50
100
AcDbSymbolTableRecord
100
AcDbLayerTableRecord
  2
0
 70
0
  6
CONTINUOUS
  0
LAYER
  5
51
100
AcDbSymbolTableRecord
100
AcDbLayerTableRecord
  2
Layer_1
 70
0
  6
CONTINUOUS
  0
ENDTAB
  0
TABLE
  2
STYLE
  5
3
330
0
100
AcDbSymbolTable
 70
     1
  0
STYLE
  5
11
330
3
100
AcDbSymbolTableRecord
100
AcDbTextStyleTableRecord
  2
STANDARD
 70
     0
 40
0.0
 41
1.0
 50
0.0
 71
     0
 42
2.5
  3
txt
  4

  0
ENDTAB
  0
TABLE
  2
VIEW
  5
6
330
0
100
AcDbSymbolTable
 70
     0
  0
ENDTAB
  0
TABLE
  2
UCS
  5
7
330
0
100
AcDbSymbolTable
 70
     0
  0
ENDTAB
  0
TABLE
  2
APPID
  5
9
330
0
100
AcDbSymbolTable
 70
     2
  0
APPID
  5
12
330
9
100
AcDbSymbolTableRecord
100
AcDbRegAppTableRecord
  2
ACAD
 70
     0
  0
ENDTAB
  0
TABLE
  2
DIMSTYLE
  5
A
330
0
100
AcDbSymbolTable
 70
     1
  0
DIMSTYLE
105
27
330
A
100
AcDbSymbolTableRecord
100
AcDbDimStyleTableRecord
  2
ISO-25
 70
     0
  3

  4

  5

  6

  7

 40
1.0
 41
2.5
 42
0.625
 43
3.75
 44
1.25
 45
0.0
 46
0.0
 47
0.0
 48
0.0
140
2.5
141
2.5
142
0.0
143
0.03937007874016
144
1.0
145
0.0
146
1.0
147
0.625
 71
     0
 72
     0
 73
     0
 74
     0
 75
     0
 76
     0
 77
     1
 78
     8
170
     0
171
     3
172
     1
173
     0
174
     0
175
     0
176
     0
177
     0
178
     0
270
     2
271
     2
272
     2
273
     2
274
     3
340
11
275
     0
280
     0
281
     0
282
     0
283
     0
284
     8
285
     0
286
     0
287
     3
288
     0
  0
ENDTAB
  0
TABLE
  2
BLOCK_RECORD
  5
1
330
0
100
AcDbSymbolTable
 70
     1
  0
BLOCK_RECORD
  5
1F
330
1
100
AcDbSymbolTableRecord
100
AcDbBlockTableRecord
  2
*MODEL_SPACE
  0
BLOCK_RECORD
  5
1B
330
1
100
AcDbSymbolTableRecord
100
AcDbBlockTableRecord
  2
*PAPER_SPACE
  0
ENDTAB
  0
ENDSEC
  0
SECTION
  2
BLOCKS
  0
BLOCK
  5
20
330
1F
100
AcDbEntity
  8
0
100
AcDbBlockBegin
  2
*MODEL_SPACE
 70
     0
 10
0.0
 20
0.0
 30
0.0
  3
*MODEL_SPACE
  1

  0
ENDBLK
  5
21
330
1F
100
AcDbEntity
  8
0
100
AcDbBlockEnd
  0
BLOCK
  5
1C
330
1B
100
AcDbEntity
 67
     1
  8
0
100
AcDbBlockBegin
  2
*PAPER_SPACE
  1

  0
ENDBLK
  5
1D
330
1B
100
AcDbEntity
 67
     1
  8
0
100
AcDbBlockEnd
  0
ENDSEC
  0
SECTION
  2
ENTITIES
  0
SPLINE
  5
100
100
AcDbEntity
  8
Layer_1
 62
7
100
AcDbSpline
 70
8
 71
3
 72
8
 73
4
 74
0
 40
0
 40
0
 40
0
 40
0
 40
1
 40
1
 40
1
 40
1
 10
1057.440728
 20
2392.299666
 30
0.0
 10
1055.082872
 20
2392.291085
 30
0.0
 10
1053.175990
 20
2390.377251
 30
0.0
 10
1053.175990
 20
2388.019380
 30
0.0
  0
SPLINE
  5
101
100
AcDbEntity
  8
Layer_1
 62
7
100
AcDbSpline
 70
8
 71
3
 72
8
 73
4
 74
0
 40
0
 40
0
 40
0
 40
0
 40
1
 40
1
 40
1
 40
1
 10
1053.175990
 20
2388.019380
 30
0.0
 10
1053.175990
 20
2385.661508
 30
0.0
 10
1055.082872
 20
2383.747674
 30
0.0
 10
1057.440728
 20
2383.739093
 30
0.0
  0
LWPOLYLINE
  5
102
100
AcDbEntity
  8
Layer_1
 62
7
100
AcDbPolyline
 90
2
 70
0
 10
1085.861225
 20
2420.720164
 30
0.0
 10
1057.440728
 20
2392.299666
 30
0.0
  0
SPLINE
  5
103
100
AcDbEntity
  8
Layer_1
 62
7
100
AcDbSpline
 70
8
 71
3
 72
8
 73
4
 74
0
 40
0
 40
0
 40
0
 40
0
 40
1
 40
1
 40
1
 40
1
 10
1140.080145
 20
2301.099591
 30
0.0
 10
1140.080145
 20
2299.570381
 30
0.0
 10
1140.895968
 20
2298.157334
 30
0.0
 10
1142.220302
 20
2297.392729
 30
0.0
  0
SPLINE
  5
104
100
AcDbEntity
  8
Layer_1
 62
7
100
AcDbSpline
 70
8
 71
3
 72
8
 73
4
 74
0
 40
0
 40
0
 40
0
 40
0
 40
1
 40
1
 40
1
 40
1
 10
1142.220302
 20
2297.392729
 30
0.0
 10
1143.544636
 20
2296.628124
 30
0.0
 10
1145.176283
 20
2296.628124
 30
0.0
 10
1146.500617
 20
2297.392729
 30
0.0
  0
SPLINE
  5
105
100
AcDbEntity
  8
Layer_1
 62
7
100
AcDbSpline
 70
8
 71
3
 72
8
 73
4
 74
0
 40
0
 40
0
 40
0
 40
0
 40
1
 40
1
 40
1
 40
1
 10
1146.500617
 20
2297.392729
 30
0.0
 10
1147.824951
 20
2298.157334
 30
0.0
 10
1148.640775
 20
2299.570381
 30
0.0
 10
1148.640775
 20
2301.099591
 30
0.0
  0
LWPOLYLINE
  5
106
100
AcDbEntity
  8
Layer_1
 62
7
100
AcDbPolyline
 90
2
 70
0
 10
1057.440728
 20
2383.739093
 30
0.0
 10
1140.080145
 20
2301.099591
 30
0.0
  0
SPLINE
  5
107
100
AcDbEntity
  8
Layer_1
 62
7
100
AcDbSpline
 70
8
 71
3
 72
8
 73
4
 74
0
 40
0
 40
0
 40
0
 40
0
 40
1
 40
1
 40
1
 40
1
 10
1177.061272
 20
2329.520088
 30
0.0
 10
1179.421627
 20
2329.525170
 30
0.0
 10
1181.332381
 20
2331.440043
 30
0.0
 10
1181.332381
 20
2333.800403
 30
0.0
  0
SPLINE
  5
108
100
AcDbEntity
  8
Layer_1
 62
7
100
AcDbSpline
 70
8
 71
3
 72
8
 73
4
 74
0
 40
0
 40
0
 40
0
 40
0
 40
1
 40
1
 40
1
 40
1
 10
1181.332381
 20
2333.800403
 30
0.0
 10
1181.332381
 20
2336.160763
 30
0.0
 10
1179.421627
 20
2338.075636
 30
0.0
 10
1177.061272
 20
2338.080718
 30
0.0
  0
LWPOLYLINE
  5
109
100
AcDbEntity
  8
Layer_1
 62
7
100
AcDbPolyline
 90
2
 70
0
 10
1148.640775
 20
2301.099591
 30
0.0
 10
1177.061272
 20
2329.520088
 30
0.0
  0
SPLINE
  5
10a
100
AcDbEntity
  8
Layer_1
 62
7
100
AcDbSpline
 70
8
 71
3
 72
8
 73
4
 74
0
 40
0
 40
0
 40
0
 40
0
 40
1
 40
1
 40
1
 40
1
 10
1094.421855
 20
2420.720164
 30
0.0
 10
1094.421855
 20
2423.084116
 30
0.0
 10
1092.505493
 20
2425.000478
 30
0.0
 10
1090.141540
 20
2425.000478
 30
0.0
  0
SPLINE
  5
10b
100
AcDbEntity
  8
Layer_1
 62
7
100
AcDbSpline
 70
8
 71
3
 72
8
 73
4
 74
0
 40
0
 40
0
 40
0
 40
0
 40
1
 40
1
 40
1
 40
1
 10
1090.141540
 20
2425.000478
 30
0.0
 10
1087.777588
 20
2425.000478
 30
0.0
 10
1085.861226
 20
2423.084116
 30
0.0
 10
1085.861225
 20
2420.720164
 30
0.0
  0
LWPOLYLINE
  5
10c
100
AcDbEntity
  8
Layer_1
 62
7
100
AcDbPolyline
 90
2
 70
0
 10
1177.061272
 20
2338.080718
 30
0.0
 10
1094.421855
 20
2420.720164
 30
0.0
  0
SPLINE
  5
10d
100
AcDbEntity
  8
Layer_1
 62
7
100
AcDbSpline
 70
8
 71
3
 72
8
 73
4
 74
0
 40
0
 40
0
 40
0
 40
0
 40
1
 40
1
 40
1
 40
1
 10
2601.495524
 20
2332.383506
 30
0.0
 10
2599.966310
 20
2332.383506
 30
0.0
 10
2598.553258
 20
2331.567679
 30
0.0
 10
2597.788651
 20
2330.243341
 30
0.0
  0
SPLINE
  5
10e
100
AcDbEntity
  8
Layer_1
 62
7
100
AcDbSpline
 70
8
 71
3
 72
8
 73
4
 74
0
 40
0
 40
0
 40
0
 40
0
 40
1
 40
1
 40
1
 40
1
 10
2597.788651
 20
2330.243341
 30
0.0
 10
2597.024043
 20
2328.919003
 30
0.0
 10
2597.024043
 20
2327.287350
 30
0.0
 10
2597.788651
 20
2325.963012
 30
0.0
  0
SPLINE
  5
10f
100
AcDbEntity
  8
Layer_1
 62
7
100
AcDbSpline
 70
8
 71
3
 72
8
 73
4
 74
0
 40
0
 40
0
 40
0
 40
0
 40
1
 40
1
 40
1
 40
1
 10
2597.788651
 20
2325.963012
 30
0.0
 10
2598.553258
 20
2324.638673
 30
0.0
 10
2599.966310
 20
2323.822847
 30
0.0
 10
2601.495524
 20
2323.822847
 30
0.0
  0
LWPOLYLINE
  5
110
100
AcDbEntity
  8
Layer_1
 62
7
100
AcDbPolyline
 90
2
 70
0
 10
2684.134970
 20
2415.022923
 30
0.0
 10
2601.495524
 20
2332.383506
 30
0.0
  0
SPLINE
  5
111
100
AcDbEntity
  8
Layer_1
 62
7
100
AcDbSpline
 70
8
 71
3
 72
8
 73
4
 74
0
 40
0
 40
0
 40
0
 40
0
 40
1
 40
1
 40
1
 40
1
 10
2629.916050
 20
2295.402350
 30
0.0
 10
2629.921132
 20
2293.041995
 30
0.0
 10
2631.836005
 20
2291.131241
 30
0.0
 10
2634.196365
 20
2291.131241
 30
0.0
  0
SPLINE
  5
112
100
AcDbEntity
  8
Layer_1
 62
7
100
AcDbSpline
 70
8
 71
3
 72
8
 73
4
 74
0
 40
0
 40
0
 40
0
 40
0
 40
1
 40
1
 40
1
 40
1
 10
2634.196365
 20
2291.131241
 30
0.0
 10
2636.556725
 20
2291.131241
 30
0.0
 10
2638.471598
 20
2293.041995
 30
0.0
 10
2638.476680
 20
2295.402350
 30
0.0
  0
LWPOLYLINE
  5
113
100
AcDbEntity
  8
Layer_1
 62
7
100
AcDbPolyline
 90
2
 70
0
 10
2601.495524
 20
2323.822847
 30
0.0
 10
2629.916050
 20
2295.402350
 30
0.0
  0
SPLINE
  5
114
100
AcDbEntity
  8
Layer_1
 62
7
100
AcDbSpline
 70
8
 71
3
 72
8
 73
4
 74
0
 40
0
 40
0
 40
0
 40
0
 40
1
 40
1
 40
1
 40
1
 10
2721.116126
 20
2378.041767
 30
0.0
 10
2722.645340
 20
2378.041767
 30
0.0
 10
2724.058393
 20
2378.857593
 30
0.0
 10
2724.823000
 20
2380.181931
 30
0.0
  0
SPLINE
  5
115
100
AcDbEntity
  8
Layer_1
 62
7
100
AcDbSpline
 70
8
 71
3
 72
8
 73
4
 74
0
 40
0
 40
0
 40
0
 40
0
 40
1
 40
1
 40
1
 40
1
 10
2724.823000
 20
2380.181931
 30
0.0
 10
2725.587607
 20
2381.506270
 30
0.0
 10
2725.587607
 20
2383.137922
 30
0.0
 10
2724.823000
 20
2384.462261
 30
0.0
  0
SPLINE
  5
116
100
AcDbEntity
  8
Layer_1
 62
7
100
AcDbSpline
 70
8
 71
3
 72
8
 73
4
 74
0
 40
0
 40
0
 40
0
 40
0
 40
1
 40
1
 40
1
 40
1
 10
2724.823000
 20
2384.462261
 30
0.0
 10
2724.058393
 20
2385.786599
 30
0.0
 10
2722.645340
 20
2386.602425
 30
0.0
 10
2721.116126
 20
2386.602425
 30
0.0
  0
LWPOLYLINE
  5
117
100
AcDbEntity
  8
Layer_1
 62
7
100
AcDbPolyline
 90
2
 70
0
 10
2638.476680
 20
2295.402350
 30
0.0
 10
2721.116126
 20
2378.041767
 30
0.0
  0
SPLINE
  5
118
100
AcDbEntity
  8
Layer_1
 62
7
100
AcDbSpline
 70
8
 71
3
 72
8
 73
4
 74
0
 40
0
 40
0
 40
0
 40
0
 40
1
 40
1
 40
1
 40
1
 10
2692.695600
 20
2415.022923
 30
0.0
 10
2692.690518
 20
2417.383277
 30
0.0
 10
2690.775645
 20
2419.294032
 30
0.0
 10
2688.415285
 20
2419.294032
 30
0.0
  0
SPLINE
  5
119
100
AcDbEntity
  8
Layer_1
 62
7
100
AcDbSpline
 70
8
 71
3
 72
8
 73
4
 74
0
 40
0
 40
0
 40
0
 40
0
 40
1
 40
1
 40
1
 40
1
 10
2688.415285
 20
2419.294032
 30
0.0
 10
2686.054925
 20
2419.294032
 30
0.0
 10
2684.140052
 20
2417.383277
 30
0.0
 10
2684.134970
 20
2415.022923
 30
0.0
  0
LWPOLYLINE
  5
11a
100
AcDbEntity
  8
Layer_1
 62
7
100
AcDbPolyline
 90
2
 70
0
 10
2721.116126
 20
2386.602425
 30
0.0
 10
2692.695600
 20
2415.022923
 30
0.0
  0
SPLINE
  5
11b
100
AcDbEntity
  8
Layer_1
 62
7
100
AcDbSpline
 70
8
 71
3
 72
8
 73
4
 74
0
 40
0
 40
0
 40
0
 40
0
 40
1
 40
1
 40
1
 40
1
 10
2191.606441
 20
2407.494869
 30
0.0
 10
2191.597860
 20
2409.852725
 30
0.0
 10
2189.684026
 20
2411.759607
 30
0.0
 10
2187.326154
 20
2411.759607
 30
0.0
  0
SPLINE
  5
11c
100
AcDbEntity
  8
Layer_1
 62
7
100
AcDbSpline
 70
8
 71
3
 72
8
 73
4
 74
0
 40
0
 40
0
 40
0
 40
0
 40
1
 40
1
 40
1
 40
1
 10
2187.326154
 20
2411.759607
 30
0.0
 10
2184.968283
 20
2411.759607
 30
0.0
 10
2183.054449
 20
2409.852725
 30
0.0
 10
2183.045868
 20
2407.494869
 30
0.0
  0
LWPOLYLINE
  5
11d
100
AcDbEntity
  8
Layer_1
 62
7
100
AcDbPolyline
 90
2
 70
0
 10
2274.245943
 20
2324.855367
 30
0.0
 10
2191.606441
 20
2407.494869
 30
0.0
  0
SPLINE
  5
11e
100
AcDbEntity
  8
Layer_1
 62
7
100
AcDbSpline
 70
8
 71
3
 72
8
 73
4
 74
0
 40
0
 40
0
 40
0
 40
0
 40
1
 40
1
 40
1
 40
1
 10
2154.625370
 20
2379.074372
 30
0.0
 10
2152.265016
 20
2379.069290
 30
0.0
 10
2150.354261
 20
2377.154417
 30
0.0
 10
2150.354261
 20
2374.794057
 30
0.0
  0
SPLINE
  5
11f
100
AcDbEntity
  8
Layer_1
 62
7
100
AcDbSpline
 70
8
 71
3
 72
8
 73
4
 74
0
 40
0
 40
0
 40
0
 40
0
 40
1
 40
1
 40
1
 40
1
 10
2150.354261
 20
2374.794057
 30
0.0
 10
2150.354261
 20
2372.433697
 30
0.0
 10
2152.265016
 20
2370.518824
 30
0.0
 10
2154.625370
 20
2370.513742
 30
0.0
  0
LWPOLYLINE
  5
120
100
AcDbEntity
  8
Layer_1
 62
7
100
AcDbPolyline
 90
2
 70
0
 10
2183.045868
 20
2407.494869
 30
0.0
 10
2154.625370
 20
2379.074372
 30
0.0
  0
SPLINE
  5
121
100
AcDbEntity
  8
Layer_1
 62
7
100
AcDbSpline
 70
8
 71
3
 72
8
 73
4
 74
0
 40
0
 40
0
 40
0
 40
0
 40
1
 40
1
 40
1
 40
1
 10
2237.264787
 20
2287.874296
 30
0.0
 10
2237.264787
 20
2286.345082
 30
0.0
 10
2238.080614
 20
2284.932029
 30
0.0
 10
2239.404952
 20
2284.167422
 30
0.0
  0
SPLINE
  5
122
100
AcDbEntity
  8
Layer_1
 62
7
100
AcDbSpline
 70
8
 71
3
 72
8
 73
4
 74
0
 40
0
 40
0
 40
0
 40
0
 40
1
 40
1
 40
1
 40
1
 10
2239.404952
 20
2284.167422
 30
0.0
 10
2240.729290
 20
2283.402815
 30
0.0
 10
2242.360943
 20
2283.402815
 30
0.0
 10
2243.685281
 20
2284.167422
 30
0.0
  0
SPLINE
  5
123
100
AcDbEntity
  8
Layer_1
 62
7
100
AcDbSpline
 70
8
 71
3
 72
8
 73
4
 74
0
 40
0
 40
0
 40
0
 40
0
 40
1
 40
1
 40
1
 40
1
 10
2243.685281
 20
2284.167422
 30
0.0
 10
2245.009620
 20
2284.932029
 30
0.0
 10
2245.825446
 20
2286.345082
 30
0.0
 10
2245.825446
 20
2287.874296
 30
0.0
  0
LWPOLYLINE
  5
124
100
AcDbEntity
  8
Layer_1
 62
7
100
AcDbPolyline
 90
2
 70
0
 10
2154.625370
 20
2370.513742
 30
0.0
 10
2237.264787
 20
2287.874296
 30
0.0
  0
SPLINE
  5
125
100
AcDbEntity
  8
Layer_1
 62
7
100
AcDbSpline
 70
8
 71
3
 72
8
 73
4
 74
0
 40
0
 40
0
 40
0
 40
0
 40
1
 40
1
 40
1
 40
1
 10
2274.245943
 20
2316.294794
 30
0.0
 10
2276.603799
 20
2316.303375
 30
0.0
 10
2278.510681
 20
2318.217209
 30
0.0
 10
2278.510681
 20
2320.575080
 30
0.0
  0
SPLINE
  5
126
100
AcDbEntity
  8
Layer_1
 62
7
100
AcDbSpline
 70
8
 71
3
 72
8
 73
4
 74
0
 40
0
 40
0
 40
0
 40
0
 40
1
 40
1
 40
1
 40
1
 10
2278.510681
 20
2320.575080
 30
0.0
 10
2278.510681
 20
2322.932952
 30
0.0
 10
2276.603799
 20
2324.846786
 30
0.0
 10
2274.245943
 20
2324.855367
 30
0.0
  0
LWPOLYLINE
  5
127
100
AcDbEntity
  8
Layer_1
 62
7
100
AcDbPolyline
 90
2
 70
0
 10
2245.825446
 20
2287.874296
 30
0.0
 10
2274.245943
 20
2316.294794
 30
0.0
  0
SPLINE
  5
128
100
AcDbEntity
  8
Layer_1
 62
7
100
AcDbSpline
 70
8
 71
3
 72
8
 73
4
 74
0
 40
0
 40
0
 40
0
 40
0
 40
1
 40
1
 40
1
 40
1
 10
610.570488
 20
2330.552693
 30
0.0
 10
609.041274
 20
2330.552693
 30
0.0
 10
607.628222
 20
2329.736867
 30
0.0
 10
606.863614
 20
2328.412528
 30
0.0
  0
SPLINE
  5
129
100
AcDbEntity
  8
Layer_1
 62
7
100
AcDbSpline
 70
8
 71
3
 72
8
 73
4
 74
0
 40
0
 40
0
 40
0
 40
0
 40
1
 40
1
 40
1
 40
1
 10
606.863614
 20
2328.412528
 30
0.0
 10
606.099007
 20
2327.088190
 30
0.0
 10
606.099007
 20
2325.456538
 30
0.0
 10
606.863614
 20
2324.132199
 30
0.0
  0
SPLINE
  5
12a
100
AcDbEntity
  8
Layer_1
 62
7
100
AcDbSpline
 70
8
 71
3
 72
8
 73
4
 74
0
 40
0
 40
0
 40
0
 40
0
 40
1
 40
1
 40
1
 40
1
 10
606.863614
 20
2324.132199
 30
0.0
 10
607.628222
 20
2322.807861
 30
0.0
 10
609.041274
 20
2321.992035
 30
0.0
 10
610.570488
 20
2321.992035
 30
0.0
  0
LWPOLYLINE
  5
12b
100
AcDbEntity
  8
Layer_1
 62
7
100
AcDbPolyline
 90
2
 70
0
 10
693.209934
 20
2413.192110
 30
0.0
 10
610.570488
 20
2330.552693
 30
0.0
  0
SPLINE
  5
12c
100
AcDbEntity
  8
Layer_1
 62
7
100
AcDbSpline
 70
8
 71
3
 72
8
 73
4
 74
0
 40
0
 40
0
 40
0
 40
0
 40
1
 40
1
 40
1
 40
1
 10
638.990986
 20
2293.571537
 30
0.0
 10
638.990986
 20
2292.042328
 30
0.0
 10
639.806809
 20
2290.629280
 30
0.0
 10
641.131143
 20
2289.864676
 30
0.0
  0
SPLINE
  5
12d
100
AcDbEntity
  8
Layer_1
 62
7
100
AcDbSpline
 70
8
 71
3
 72
8
 73
4
 74
0
 40
0
 40
0
 40
0
 40
0
 40
1
 40
1
 40
1
 40
1
 10
641.131143
 20
2289.864676
 30
0.0
 10
642.455477
 20
2289.100071
 30
0.0
 10
644.087124
 20
2289.100071
 30
0.0
 10
645.411458
 20
2289.864676
 30
0.0
  0
SPLINE
  5
12e
100
AcDbEntity
  8
Layer_1
 62
7
100
AcDbSpline
 70
8
 71
3
 72
8
 73
4
 74
0
 40
0
 40
0
 40
0
 40
0
 40
1
 40
1
 40
1
 40
1
 10
645.411458
 20
2289.864676
 30
0.0
 10
646.735792
 20
2290.629280
 30
0.0
 10
647.551616
 20
2292.042328
 30
0.0
 10
647.551616
 20
2293.571537
 30
0.0
  0
LWPOLYLINE
  5
12f
100
AcDbEntity
  8
Layer_1
 62
7
100
AcDbPolyline
 90
2
 70
0
 10
610.570488
 20
2321.992035
 30
0.0
 10
638.990986
 20
2293.571537
 30
0.0
  0
SPLINE
  5
130
100
AcDbEntity
  8
Layer_1
 62
7
100
AcDbSpline
 70
8
 71
3
 72
8
 73
4
 74
0
 40
0
 40
0
 40
0
 40
0
 40
1
 40
1
 40
1
 40
1
 10
730.191061
 20
2376.210954
 30
0.0
 10
731.720276
 20
2376.210954
 30
0.0
 10
733.133328
 20
2377.026780
 30
0.0
 10
733.897935
 20
2378.351119
 30
0.0
  0
SPLINE
  5
131
100
AcDbEntity
  8
Layer_1
 62
7
100
AcDbSpline
 70
8
 71
3
 72
8
 73
4
 74
0
 40
0
 40
0
 40
0
 40
0
 40
1
 40
1
 40
1
 40
1
 10
733.897935
 20
2378.351119
 30
0.0
 10
734.662542
 20
2379.675457
 30
0.0
 10
734.662542
 20
2381.307110
 30
0.0
 10
733.897935
 20
2382.631448
 30
0.0
  0
SPLINE
  5
132
100
AcDbEntity
  8
Layer_1
 62
7
100
AcDbSpline
 70
8
 71
3
 72
8
 73
4
 74
0
 40
0
 40
0
 40
0
 40
0
 40
1
 40
1
 40
1
 40
1
 10
733.897935
 20
2382.631448
 30
0.0
 10
733.133328
 20
2383.955786
 30
0.0
 10
731.720276
 20
2384.771613
 30
0.0
 10
730.191061
 20
2384.771613
 30
0.0
  0
LWPOLYLINE
  5
133
100
AcDbEntity
  8
Layer_1
 62
7
100
AcDbPolyline
 90
2
 70
0
 10
647.551616
 20
2293.571537
 30
0.0
 10
730.191061
 20
2376.210954
 30
0.0
  0
SPLINE
  5
134
100
AcDbEntity
  8
Layer_1
 62
7
100
AcDbSpline
 70
8
 71
3
 72
8
 73
4
 74
0
 40
0
 40
0
 40
0
 40
0
 40
1
 40
1
 40
1
 40
1
 10
701.770564
 20
2413.192110
 30
0.0
 10
701.767845
 20
2415.554139
 30
0.0
 10
699.852280
 20
2417.467502
 30
0.0
 10
697.490249
 20
2417.467502
 30
0.0
  0
SPLINE
  5
135
100
AcDbEntity
  8
Layer_1
 62
7
100
AcDbSpline
 70
8
 71
3
 72
8
 73
4
 74
0
 40
0
 40
0
 40
0
 40
0
 40
1
 40
1
 40
1
 40
1
 10
697.490249
 20
2417.467502
 30
0.0
 10
695.128218
 20
2417.467502
 30
0.0
 10
693.212652
 20
2415.554139
 30
0.0
 10
693.209934
 20
2413.192110
 30
0.0
  0
LWPOLYLINE
  5
136
100
AcDbEntity
  8
Layer_1
 62
7
100
AcDbPolyline
 90
2
 70
0
 10
730.191061
 20
2384.771613
 30
0.0
 10
701.770564
 20
2413.192110
 30
0.0
  0
LWPOLYLINE
  5
137
100
AcDbEntity
  8
Layer_1
 62
7
100
AcDbPolyline
 90
4
 70
1
 10
460.617789
 20
2070.331540
 30
0.0
 10
460.617789
 20
2637.260702
 30
0.0
 10
2870.066551
 20
2637.260702
 30
0.0
 10
2870.066551
 20
2070.331540
 30
0.0
  0
SPLINE
  5
138
100
AcDbEntity
  8
Layer_1
 62
7
100
AcDbSpline
 70
8
 71
3
 72
8
 73
4
 74
0
 40
0
 40
0
 40
0
 40
0
 40
1
 40
1
 40
1
 40
1
 10
2174.669348
 20
1650.368976
 30
0.0
 10
2173.140134
 20
1650.368976
 30
0.0
 10
2171.727081
 20
1649.553150
 30
0.0
 10
2170.962474
 20
1648.228812
 30
0.0
  0
SPLINE
  5
139
100
AcDbEntity
  8
Layer_1
 62
7
100
AcDbSpline
 70
8
 71
3
 72
8
 73
4
 74
0
 40
0
 40
0
 40
0
 40
0
 40
1
 40
1
 40
1
 40
1
 10
2170.962474
 20
1648.228812
 30
0.0
 10
2170.197867
 20
1646.904473
 30
0.0
 10
2170.197867
 20
1645.272821
 30
0.0
 10
2170.962474
 20
1643.948483
 30
0.0
  0
SPLINE
  5
13a
100
AcDbEntity
  8
Layer_1
 62
7
100
AcDbSpline
 70
8
 71
3
 72
8
 73
4
 74
0
 40
0
 40
0
 40
0
 40
0
 40
1
 40
1
 40
1
 40
1
 10
2170.962474
 20
1643.948483
 30
0.0
 10
2171.727081
 20
1642.624144
 30
0.0
 10
2173.140134
 20
1641.808318
 30
0.0
 10
2174.669348
 20
1641.808318
 30
0.0
  0
LWPOLYLINE
  5
13b
100
AcDbEntity
  8
Layer_1
 62
7
100
AcDbPolyline
 90
2
 70
0
 10
2203.089846
 20
1678.789474
 30
0.0
 10
2174.669348
 20
1650.368976
 30
0.0
  0
SPLINE
  5
13c
100
AcDbEntity
  8
Layer_1
 62
7
100
AcDbSpline
 70
8
 71
3
 72
8
 73
4
 74
0
 40
0
 40
0
 40
0
 40
0
 40
1
 40
1
 40
1
 40
1
 10
2217.220809
 20
1599.256857
 30
0.0
 10
2217.220810
 20
1596.892897
 30
0.0
 10
2219.137179
 20
1594.976529
 30
0.0
 10
2221.501139
 20
1594.976529
 30
0.0
  0
SPLINE
  5
13d
100
AcDbEntity
  8
Layer_1
 62
7
100
AcDbSpline
 70
8
 71
3
 72
8
 73
4
 74
0
 40
0
 40
0
 40
0
 40
0
 40
1
 40
1
 40
1
 40
1
 10
2221.501139
 20
1594.976529
 30
0.0
 10
2223.865099
 20
1594.976529
 30
0.0
 10
2225.781467
 20
1596.892897
 30
0.0
 10
2225.781468
 20
1599.256857
 30
0.0
  0
LWPOLYLINE
  5
13e
100
AcDbEntity
  8
Layer_1
 62
7
100
AcDbPolyline
 90
2
 70
0
 10
2174.669348
 20
1641.808318
 30
0.0
 10
2217.220809
 20
1599.256857
 30
0.0
  0
SPLINE
  5
13f
100
AcDbEntity
  8
Layer_1
 62
7
100
AcDbSpline
 70
8
 71
3
 72
8
 73
4
 74
0
 40
0
 40
0
 40
0
 40
0
 40
1
 40
1
 40
1
 40
1
 10
2254.201965
 20
1627.677354
 30
0.0
 10
2256.559821
 20
1627.685935
 30
0.0
 10
2258.466703
 20
1629.599769
 30
0.0
 10
2258.466703
 20
1631.957641
 30
0.0
  0
SPLINE
  5
140
100
AcDbEntity
  8
Layer_1
 62
7
100
AcDbSpline
 70
8
 71
3
 72
8
 73
4
 74
0
 40
0
 40
0
 40
0
 40
0
 40
1
 40
1
 40
1
 40
1
 10
2258.466703
 20
1631.957641
 30
0.0
 10
2258.466703
 20
1634.315512
 30
0.0
 10
2256.559821
 20
1636.229346
 30
0.0
 10
2254.201965
 20
1636.237928
 30
0.0
  0
LWPOLYLINE
  5
141
100
AcDbEntity
  8
Layer_1
 62
7
100
AcDbPolyline
 90
2
 70
0
 10
2225.781468
 20
1599.256857
 30
0.0
 10
2254.201965
 20
1627.677354
 30
0.0
  0
SPLINE
  5
142
100
AcDbEntity
  8
Layer_1
 62
7
100
AcDbSpline
 70
8
 71
3
 72
8
 73
4
 74
0
 40
0
 40
0
 40
0
 40
0
 40
1
 40
1
 40
1
 40
1
 10
2211.650419
 20
1678.789474
 30
0.0
 10
2211.641838
 20
1681.147330
 30
0.0
 10
2209.728004
 20
1683.054211
 30
0.0
 10
2207.370132
 20
1683.054211
 30
0.0
  0
SPLINE
  5
143
100
AcDbEntity
  8
Layer_1
 62
7
100
AcDbSpline
 70
8
 71
3
 72
8
 73
4
 74
0
 40
0
 40
0
 40
0
 40
0
 40
1
 40
1
 40
1
 40
1
 10
2207.370132
 20
1683.054211
 30
0.0
 10
2205.012261
 20
1683.054211
 30
0.0
 10
2203.098427
 20
1681.147330
 30
0.0
 10
2203.089846
 20
1678.789474
 30
0.0
  0
LWPOLYLINE
  5
144
100
AcDbEntity
  8
Layer_1
 62
7
100
AcDbPolyline
 90
2
 70
0
 10
2254.201965
 20
1636.237928
 30
0.0
 10
2211.650419
 20
1678.789474
 30
0.0
  0
SPLINE
  5
145
100
AcDbEntity
  8
Layer_1
 62
7
100
AcDbSpline
 70
8
 71
3
 72
8
 73
4
 74
0
 40
0
 40
0
 40
0
 40
0
 40
1
 40
1
 40
1
 40
1
 10
1077.484677
 20
1663.594243
 30
0.0
 10
1075.126821
 20
1663.585661
 30
0.0
 10
1073.219940
 20
1661.671827
 30
0.0
 10
1073.219940
 20
1659.313956
 30
0.0
  0
SPLINE
  5
146
100
AcDbEntity
  8
Layer_1
 62
7
100
AcDbSpline
 70
8
 71
3
 72
8
 73
4
 74
0
 40
0
 40
0
 40
0
 40
0
 40
1
 40
1
 40
1
 40
1
 10
1073.219940
 20
1659.313956
 30
0.0
 10
1073.219940
 20
1656.956084
 30
0.0
 10
1075.126821
 20
1655.042250
 30
0.0
 10
1077.484677
 20
1655.033669
 30
0.0
  0
LWPOLYLINE
  5
147
100
AcDbEntity
  8
Layer_1
 62
7
100
AcDbPolyline
 90
2
 70
0
 10
1105.905175
 20
1692.014740
 30
0.0
 10
1077.484677
 20
1663.594243
 30
0.0
  0
SPLINE
  5
148
100
AcDbEntity
  8
Layer_1
 62
7
100
AcDbSpline
 70
8
 71
3
 72
8
 73
4
 74
0
 40
0
 40
0
 40
0
 40
0
 40
1
 40
1
 40
1
 40
1
 10
1120.036195
 20
1612.482123
 30
0.0
 10
1120.036195
 20
1610.952914
 30
0.0
 10
1120.852019
 20
1609.539866
 30
0.0
 10
1122.176353
 20
1608.775261
 30
0.0
  0
SPLINE
  5
149
100
AcDbEntity
  8
Layer_1
 62
7
100
AcDbSpline
 70
8
 71
3
 72
8
 73
4
 74
0
 40
0
 40
0
 40
0
 40
0
 40
1
 40
1
 40
1
 40
1
 10
1122.176353
 20
1608.775261
 30
0.0
 10
1123.500687
 20
1608.010657
 30
0.0
 10
1125.132334
 20
1608.010657
 30
0.0
 10
1126.456668
 20
1608.775261
 30
0.0
  0
SPLINE
  5
14a
100
AcDbEntity
  8
Layer_1
 62
7
100
AcDbSpline
 70
8
 71
3
 72
8
 73
4
 74
0
 40
0
 40
0
 40
0
 40
0
 40
1
 40
1
 40
1
 40
1
 10
1126.456668
 20
1608.775261
 30
0.0
 10
1127.781002
 20
1609.539866
 30
0.0
 10
1128.596825
 20
1610.952914
 30
0.0
 10
1128.596825
 20
1612.482123
 30
0.0
  0
LWPOLYLINE
  5
14b
100
AcDbEntity
  8
Layer_1
 62
7
100
AcDbPolyline
 90
2
 70
0
 10
1077.484677
 20
1655.033669
 30
0.0
 10
1120.036195
 20
1612.482123
 30
0.0
  0
SPLINE
  5
14c
100
AcDbEntity
  8
Layer_1
 62
7
100
AcDbSpline
 70
8
 71
3
 72
8
 73
4
 74
0
 40
0
 40
0
 40
0
 40
0
 40
1
 40
1
 40
1
 40
1
 10
1157.017323
 20
1640.902620
 30
0.0
 10
1159.381283
 20
1640.902621
 30
0.0
 10
1161.297651
 20
1642.818989
 30
0.0
 10
1161.297651
 20
1645.182950
 30
0.0
  0
SPLINE
  5
14d
100
AcDbEntity
  8
Layer_1
 62
7
100
AcDbSpline
 70
8
 71
3
 72
8
 73
4
 74
0
 40
0
 40
0
 40
0
 40
0
 40
1
 40
1
 40
1
 40
1
 10
1161.297651
 20
1645.182950
 30
0.0
 10
1161.297651
 20
1647.546910
 30
0.0
 10
1159.381283
 20
1649.463278
 30
0.0
 10
1157.017323
 20
1649.463279
 30
0.0
  0
LWPOLYLINE
  5
14e
100
AcDbEntity
  8
Layer_1
 62
7
100
AcDbPolyline
 90
2
 70
0
 10
1128.596825
 20
1612.482123
 30
0.0
 10
1157.017323
 20
1640.902620
 30
0.0
  0
SPLINE
  5
14f
100
AcDbEntity
  8
Layer_1
 62
7
100
AcDbSpline
 70
8
 71
3
 72
8
 73
4
 74
0
 40
0
 40
0
 40
0
 40
0
 40
1
 40
1
 40
1
 40
1
 10
1114.465805
 20
1692.014740
 30
0.0
 10
1114.463226
 20
1694.376868
 30
0.0
 10
1112.547619
 20
1696.290384
 30
0.0
 10
1110.185490
 20
1696.290384
 30
0.0
  0
SPLINE
  5
150
100
AcDbEntity
  8
Layer_1
 62
7
100
AcDbSpline
 70
8
 71
3
 72
8
 73
4
 74
0
 40
0
 40
0
 40
0
 40
0
 40
1
 40
1
 40
1
 40
1
 10
1110.185490
 20
1696.290384
 30
0.0
 10
1107.823361
 20
1696.290384
 30
0.0
 10
1105.907754
 20
1694.376868
 30
0.0
 10
1105.905175
 20
1692.014740
 30
0.0
  0
LWPOLYLINE
  5
151
100
AcDbEntity
  8
Layer_1
 62
7
100
AcDbPolyline
 90
2
 70
0
 10
1157.017323
 20
1649.463279
 30
0.0
 10
1114.465805
 20
1692.014740
 30
0.0
  0
SPLINE
  5
152
100
AcDbEntity
  8
Layer_1
 62
7
100
AcDbSpline
 70
8
 71
3
 72
8
 73
4
 74
0
 40
0
 40
0
 40
0
 40
0
 40
1
 40
1
 40
1
 40
1
 10
2621.539502
 20
1643.766066
 30
0.0
 10
2620.010288
 20
1643.766066
 30
0.0
 10
2618.597236
 20
1642.950240
 30
0.0
 10
2617.832629
 20
1641.625902
 30
0.0
  0
SPLINE
  5
153
100
AcDbEntity
  8
Layer_1
 62
7
100
AcDbSpline
 70
8
 71
3
 72
8
 73
4
 74
0
 40
0
 40
0
 40
0
 40
0
 40
1
 40
1
 40
1
 40
1
 10
2617.832629
 20
1641.625902
 30
0.0
 10
2617.068021
 20
1640.301563
 30
0.0
 10
2617.068021
 20
1638.669911
 30
0.0
 10
2617.832629
 20
1637.345572
 30
0.0
  0
SPLINE
  5
154
100
AcDbEntity
  8
Layer_1
 62
7
100
AcDbSpline
 70
8
 71
3
 72
8
 73
4
 74
0
 40
0
 40
0
 40
0
 40
0
 40
1
 40
1
 40
1
 40
1
 10
2617.832629
 20
1637.345572
 30
0.0
 10
2618.597236
 20
1636.021234
 30
0.0
 10
2620.010288
 20
1635.205408
 30
0.0
 10
2621.539502
 20
1635.205408
 30
0.0
  0
LWPOLYLINE
  5
155
100
AcDbEntity
  8
Layer_1
 62
7
100
AcDbPolyline
 90
2
 70
0
 10
2664.090992
 20
1686.317528
 30
0.0
 10
2621.539502
 20
1643.766066
 30
0.0
  0
SPLINE
  5
156
100
AcDbEntity
  8
Layer_1
 62
7
100
AcDbSpline
 70
8
 71
3
 72
8
 73
4
 74
0
 40
0
 40
0
 40
0
 40
0
 40
1
 40
1
 40
1
 40
1
 10
2649.960000
 20
1606.784910
 30
0.0
 10
2649.960000
 20
1605.255696
 30
0.0
 10
2650.775826
 20
1603.842644
 30
0.0
 10
2652.100165
 20
1603.078036
 30
0.0
  0
SPLINE
  5
157
100
AcDbEntity
  8
Layer_1
 62
7
100
AcDbSpline
 70
8
 71
3
 72
8
 73
4
 74
0
 40
0
 40
0
 40
0
 40
0
 40
1
 40
1
 40
1
 40
1
 10
2652.100165
 20
1603.078036
 30
0.0
 10
2653.424503
 20
1602.313429
 30
0.0
 10
2655.056155
 20
1602.313429
 30
0.0
 10
2656.380494
 20
1603.078036
 30
0.0
  0
SPLINE
  5
158
100
AcDbEntity
  8
Layer_1
 62
7
100
AcDbSpline
 70
8
 71
3
 72
8
 73
4
 74
0
 40
0
 40
0
 40
0
 40
0
 40
1
 40
1
 40
1
 40
1
 10
2656.380494
 20
1603.078036
 30
0.0
 10
2657.704832
 20
1603.842644
 30
0.0
 10
2658.520658
 20
1605.255696
 30
0.0
 10
2658.520658
 20
1606.784910
 30
0.0
  0
LWPOLYLINE
  5
159
100
AcDbEntity
  8
Layer_1
 62
7
100
AcDbPolyline
 90
2
 70
0
 10
2621.539502
 20
1635.205408
 30
0.0
 10
2649.960000
 20
1606.784910
 30
0.0
  0
SPLINE
  5
15a
100
AcDbEntity
  8
Layer_1
 62
7
100
AcDbSpline
 70
8
 71
3
 72
8
 73
4
 74
0
 40
0
 40
0
 40
0
 40
0
 40
1
 40
1
 40
1
 40
1
 10
2701.072148
 20
1649.336372
 30
0.0
 10
2703.436108
 20
1649.336372
 30
0.0
 10
2705.352476
 20
1651.252741
 30
0.0
 10
2705.352476
 20
1653.616701
 30
0.0
  0
SPLINE
  5
15b
100
AcDbEntity
  8
Layer_1
 62
7
100
AcDbSpline
 70
8
 71
3
 72
8
 73
4
 74
0
 40
0
 40
0
 40
0
 40
0
 40
1
 40
1
 40
1
 40
1
 10
2705.352476
 20
1653.616701
 30
0.0
 10
2705.352476
 20
1655.980661
 30
0.0
 10
2703.436108
 20
1657.897029
 30
0.0
 10
2701.072148
 20
1657.897030
 30
0.0
  0
LWPOLYLINE
  5
15c
100
AcDbEntity
  8
Layer_1
 62
7
100
AcDbPolyline
 90
2
 70
0
 10
2658.520658
 20
1606.784910
 30
0.0
 10
2701.072148
 20
1649.336372
 30
0.0
  0
SPLINE
  5
15d
100
AcDbEntity
  8
Layer_1
 62
7
100
AcDbSpline
 70
8
 71
3
 72
8
 73
4
 74
0
 40
0
 40
0
 40
0
 40
0
 40
1
 40
1
 40
1
 40
1
 10
2672.651650
 20
1686.317528
 30
0.0
 10
2672.651650
 20
1687.846742
 30
0.0
 10
2671.835824
 20
1689.259794
 30
0.0
 10
2670.511486
 20
1690.024401
 30
0.0
  0
SPLINE
  5
15e
100
AcDbEntity
  8
Layer_1
 62
7
100
AcDbSpline
 70
8
 71
3
 72
8
 73
4
 74
0
 40
0
 40
0
 40
0
 40
0
 40
1
 40
1
 40
1
 40
1
 10
2670.511486
 20
1690.024401
 30
0.0
 10
2669.187147
 20
1690.789008
 30
0.0
 10
2667.555495
 20
1690.789008
 30
0.0
 10
2666.231157
 20
1690.024401
 30
0.0
  0
SPLINE
  5
15f
100
AcDbEntity
  8
Layer_1
 62
7
100
AcDbSpline
 70
8
 71
3
 72
8
 73
4
 74
0
 40
0
 40
0
 40
0
 40
0
 40
1
 40
1
 40
1
 40
1
 10
2666.231157
 20
1690.024401
 30
0.0
 10
2664.906818
 20
1689.259794
 30
0.0
 10
2664.090992
 20
1687.846742
 30
0.0
 10
2664.090992
 20
1686.317528
 30
0.0
  0
LWPOLYLINE
  5
160
100
AcDbEntity
  8
Layer_1
 62
7
100
AcDbPolyline
 90
2
 70
0
 10
2701.072148
 20
1657.897030
 30
0.0
 10
2672.651650
 20
1686.317528
 30
0.0
  0
SPLINE
  5
161
100
AcDbEntity
  8
Layer_1
 62
7
100
AcDbSpline
 70
8
 71
3
 72
8
 73
4
 74
0
 40
0
 40
0
 40
0
 40
0
 40
1
 40
1
 40
1
 40
1
 10
630.614466
 20
1641.935225
 30
0.0
 10
629.085252
 20
1641.935225
 30
0.0
 10
627.672200
 20
1641.119399
 30
0.0
 10
626.907592
 20
1639.795061
 30
0.0
  0
SPLINE
  5
162
100
AcDbEntity
  8
Layer_1
 62
7
100
AcDbSpline
 70
8
 71
3
 72
8
 73
4
 74
0
 40
0
 40
0
 40
0
 40
0
 40
1
 40
1
 40
1
 40
1
 10
626.907592
 20
1639.795061
 30
0.0
 10
626.142985
 20
1638.470722
 30
0.0
 10
626.142985
 20
1636.839070
 30
0.0
 10
626.907592
 20
1635.514731
 30
0.0
  0
SPLINE
  5
163
100
AcDbEntity
  8
Layer_1
 62
7
100
AcDbSpline
 70
8
 71
3
 72
8
 73
4
 74
0
 40
0
 40
0
 40
0
 40
0
 40
1
 40
1
 40
1
 40
1
 10
626.907592
 20
1635.514731
 30
0.0
 10
627.672200
 20
1634.190393
 30
0.0
 10
629.085252
 20
1633.374567
 30
0.0
 10
630.614466
 20
1633.374567
 30
0.0
  0
LWPOLYLINE
  5
164
100
AcDbEntity
  8
Layer_1
 62
7
100
AcDbPolyline
 90
2
 70
0
 10
673.165956
 20
1684.486715
 30
0.0
 10
630.614466
 20
1641.935225
 30
0.0
  0
SPLINE
  5
165
100
AcDbEntity
  8
Layer_1
 62
7
100
AcDbSpline
 70
8
 71
3
 72
8
 73
4
 74
0
 40
0
 40
0
 40
0
 40
0
 40
1
 40
1
 40
1
 40
1
 10
659.034964
 20
1604.954069
 30
0.0
 10
659.037682
 20
1602.592040
 30
0.0
 10
660.953248
 20
1600.678678
 30
0.0
 10
663.315279
 20
1600.678678
 30
0.0
  0
SPLINE
  5
166
100
AcDbEntity
  8
Layer_1
 62
7
100
AcDbSpline
 70
8
 71
3
 72
8
 73
4
 74
0
 40
0
 40
0
 40
0
 40
0
 40
1
 40
1
 40
1
 40
1
 10
663.315279
 20
1600.678678
 30
0.0
 10
665.677309
 20
1600.678678
 30
0.0
 10
667.592875
 20
1602.592040
 30
0.0
 10
667.595594
 20
1604.954069
 30
0.0
  0
LWPOLYLINE
  5
167
100
AcDbEntity
  8
Layer_1
 62
7
100
AcDbPolyline
 90
2
 70
0
 10
630.614466
 20
1633.374567
 30
0.0
 10
659.034964
 20
1604.954069
 30
0.0
  0
SPLINE
  5
168
100
AcDbEntity
  8
Layer_1
 62
7
100
AcDbSpline
 70
8
 71
3
 72
8
 73
4
 74
0
 40
0
 40
0
 40
0
 40
0
 40
1
 40
1
 40
1
 40
1
 10
710.147083
 20
1647.505559
 30
0.0
 10
712.511044
 20
1647.505560
 30
0.0
 10
714.427412
 20
1649.421928
 30
0.0
 10
714.427412
 20
1651.785888
 30
0.0
  0
SPLINE
  5
169
100
AcDbEntity
  8
Layer_1
 62
7
100
AcDbSpline
 70
8
 71
3
 72
8
 73
4
 74
0
 40
0
 40
0
 40
0
 40
0
 40
1
 40
1
 40
1
 40
1
 10
714.427412
 20
1651.785888
 30
0.0
 10
714.427412
 20
1654.149848
 30
0.0
 10
712.511044
 20
1656.066217
 30
0.0
 10
710.147083
 20
1656.066217
 30
0.0
  0
LWPOLYLINE
  5
16a
100
AcDbEntity
  8
Layer_1
 62
7
100
AcDbPolyline
 90
2
 70
0
 10
667.595594
 20
1604.954069
 30
0.0
 10
710.147083
 20
1647.505559
 30
0.0
  0
SPLINE
  5
16b
100
AcDbEntity
  8
Layer_1
 62
7
100
AcDbSpline
 70
8
 71
3
 72
8
 73
4
 74
0
 40
0
 40
0
 40
0
 40
0
 40
1
 40
1
 40
1
 40
1
 10
681.726586
 20
1684.486715
 30
0.0
 10
681.726586
 20
1686.015924
 30
0.0
 10
680.910762
 20
1687.428972
 30
0.0
 10
679.586428
 20
1688.193576
 30
0.0
  0
SPLINE
  5
16c
100
AcDbEntity
  8
Layer_1
 62
7
100
AcDbSpline
 70
8
 71
3
 72
8
 73
4
 74
0
 40
0
 40
0
 40
0
 40
0
 40
1
 40
1
 40
1
 40
1
 10
679.586428
 20
1688.193576
 30
0.0
 10
678.262094
 20
1688.958181
 30
0.0
 10
676.630447
 20
1688.958181
 30
0.0
 10
675.306113
 20
1688.193576
 30
0.0
  0
SPLINE
  5
16d
100
AcDbEntity
  8
Layer_1
 62
7
100
AcDbSpline
 70
8
 71
3
 72
8
 73
4
 74
0
 40
0
 40
0
 40
0
 40
0
 40
1
 40
1
 40
1
 40
1
 10
675.306113
 20
1688.193576
 30
0.0
 10
673.981779
 20
1687.428972
 30
0.0
 10
673.165956
 20
1686.015924
 30
0.0
 10
673.165956
 20
1684.486715
 30
0.0
  0
LWPOLYLINE
  5
16e
100
AcDbEntity
  8
Layer_1
 62
7
100
AcDbPolyline
 90
2
 70
0
 10
710.147083
 20
1656.066217
 30
0.0
 10
681.726586
 20
1684.486715
 30
0.0
  0
LWPOLYLINE
  5
16f
100
AcDbEntity
  8
Layer_1
 62
7
100
AcDbPolyline
 90
4
 70
1
 10
461.118898
 20
1362.171203
 30
0.0
 10
461.118898
 20
1929.100394
 30
0.0
 10
2870.567717
 20
1929.100394
 30
0.0
 10
2870.567717
 20
1362.171203
 30
0.0
  0
SPLINE
  5
170
100
AcDbEntity
  8
Layer_1
 62
7
100
AcDbSpline
 70
8
 71
3
 72
8
 73
4
 74
0
 40
0
 40
0
 40
0
 40
0
 40
1
 40
1
 40
1
 40
1
 10
1368.246302
 20
1238.562198
 30
0.0
 10
1369.919678
 20
1236.901301
 30
0.0
 10
1372.621095
 20
1236.906353
 30
0.0
 10
1374.288247
 20
1238.573498
 30
0.0
  0
SPLINE
  5
171
100
AcDbEntity
  8
Layer_1
 62
7
100
AcDbSpline
 70
8
 71
3
 72
8
 73
4
 74
0
 40
0
 40
0
 40
0
 40
0
 40
1
 40
1
 40
1
 40
1
 10
1374.288247
 20
1238.573498
 30
0.0
 10
1375.955399
 20
1240.240642
 30
0.0
 10
1375.960464
 20
1242.942059
 30
0.0
 10
1374.299575
 20
1244.615443
 30
0.0
  0
LWPOLYLINE
  5
172
100
AcDbEntity
  8
Layer_1
 62
7
100
AcDbPolyline
 90
2
 70
0
 10
467.212961
 20
1238.562198
 30
0.0
 10
1368.246302
 20
1238.562198
 30
0.0
  0
SPLINE
  5
173
100
AcDbEntity
  8
Layer_1
 62
7
100
AcDbSpline
 70
8
 71
3
 72
8
 73
4
 74
0
 40
0
 40
0
 40
0
 40
0
 40
1
 40
1
 40
1
 40
1
 10
2275.332917
 20
1266.908598
 30
0.0
 10
2277.004556
 20
1265.237361
 30
0.0
 10
2279.714443
 20
1265.237524
 30
0.0
 10
2281.385882
 20
1266.908962
 30
0.0
  0
SPLINE
  5
174
100
AcDbEntity
  8
Layer_1
 62
7
100
AcDbSpline
 70
8
 71
3
 72
8
 73
4
 74
0
 40
0
 40
0
 40
0
 40
0
 40
1
 40
1
 40
1
 40
1
 10
2281.385882
 20
1266.908962
 30
0.0
 10
2283.057320
 20
1268.580401
 30
0.0
 10
2283.057483
 20
1271.290288
 30
0.0
 10
2281.386246
 20
1272.961928
 30
0.0
  0
LWPOLYLINE
  5
175
100
AcDbEntity
  8
Layer_1
 62
7
100
AcDbPolyline
 90
3
 70
0
 10
1374.299575
 20
1244.615443
 30
0.0
 10
1374.299575
 20
1266.908598
 30
0.0
 10
2275.332917
 20
1266.908598
 30
0.0
  0
SPLINE
  5
176
100
AcDbEntity
  8
Layer_1
 62
7
100
AcDbSpline
 70
8
 71
3
 72
8
 73
4
 74
0
 40
0
 40
0
 40
0
 40
0
 40
1
 40
1
 40
1
 40
1
 10
3182.419559
 20
1295.255083
 30
0.0
 10
3184.091146
 20
1293.583509
 30
0.0
 10
3186.801314
 20
1293.583496
 30
0.0
 10
3188.472902
 20
1295.255069
 30
0.0
  0
SPLINE
  5
177
100
AcDbEntity
  8
Layer_1
 62
7
100
AcDbSpline
 70
8
 71
3
 72
8
 73
4
 74
0
 40
0
 40
0
 40
0
 40
0
 40
1
 40
1
 40
1
 40
1
 10
3188.472902
 20
1295.255069
 30
0.0
 10
3190.144491
 20
1296.926642
 30
0.0
 10
3190.144504
 20
1299.636810
 30
0.0
 10
3188.472931
 20
1301.308398
 30
0.0
  0
LWPOLYLINE
  5
178
100
AcDbEntity
  8
Layer_1
 62
7
100
AcDbPolyline
 90
3
 70
0
 10
2281.386246
 20
1272.961928
 30
0.0
 10
2281.386246
 20
1295.255083
 30
0.0
 10
3182.419559
 20
1295.255083
 30
0.0
  0
SPLINE
  5
179
100
AcDbEntity
  8
Layer_1
 62
7
100
AcDbSpline
 70
8
 71
3
 72
8
 73
4
 74
0
 40
0
 40
0
 40
0
 40
0
 40
1
 40
1
 40
1
 40
1
 10
4089.506173
 20
1323.601540
 30
0.0
 10
4091.180005
 20
1321.943251
 30
0.0
 10
4093.879313
 20
1321.949571
 30
0.0
 10
4095.545361
 20
1323.615681
 30
0.0
  0
SPLINE
  5
17a
100
AcDbEntity
  8
Layer_1
 62
7
100
AcDbSpline
 70
8
 71
3
 72
8
 73
4
 74
0
 40
0
 40
0
 40
0
 40
0
 40
1
 40
1
 40
1
 40
1
 10
4095.545361
 20
1323.615681
 30
0.0
 10
4097.211408
 20
1325.281792
 30
0.0
 10
4097.217628
 20
1327.981099
 30
0.0
 10
4095.559276
 20
1329.654869
 30
0.0
  0
LWPOLYLINE
  5
17b
100
AcDbEntity
  8
Layer_1
 62
7
100
AcDbPolyline
 90
3
 70
0
 10
3188.472931
 20
1301.308398
 30
0.0
 10
3188.472931
 20
1323.601540
 30
0.0
 10
4089.506173
 20
1323.601540
 30
0.0
  0
SPLINE
  5
17c
100
AcDbEntity
  8
Layer_1
 62
7
100
AcDbSpline
 70
8
 71
3
 72
8
 73
4
 74
0
 40
0
 40
0
 40
0
 40
0
 40
1
 40
1
 40
1
 40
1
 10
4996.592787
 20
1351.948025
 30
0.0
 10
4998.267229
 20
1350.293494
 30
0.0
 10
5000.963451
 20
1350.301573
 30
0.0
 10
5002.627948
 20
1351.966108
 30
0.0
  0
SPLINE
  5
17d
100
AcDbEntity
  8
Layer_1
 62
7
100
AcDbSpline
 70
8
 71
3
 72
8
 73
4
 74
0
 40
0
 40
0
 40
0
 40
0
 40
1
 40
1
 40
1
 40
1
 10
5002.627948
 20
1351.966108
 30
0.0
 10
5004.292445
 20
1353.630644
 30
0.0
 10
5004.300460
 20
1356.326866
 30
0.0
 10
5002.645890
 20
1358.001269
 30
0.0
  0
LWPOLYLINE
  5
17e
100
AcDbEntity
  8
Layer_1
 62
7
100
AcDbPolyline
 90
3
 70
0
 10
4095.559276
 20
1329.654869
 30
0.0
 10
4095.559276
 20
1351.948025
 30
0.0
 10
4996.592787
 20
1351.948025
 30
0.0
  0
SPLINE
  5
17f
100
AcDbEntity
  8
Layer_1
 62
7
100
AcDbSpline
 70
8
 71
3
 72
8
 73
4
 74
0
 40
0
 40
0
 40
0
 40
0
 40
1
 40
1
 40
1
 40
1
 10
5002.645890
 20
1048.256901
 30
0.0
 10
5004.304405
 20
1049.930643
 30
0.0
 10
5004.298263
 20
1052.630084
 30
0.0
 10
5002.632148
 20
1054.296261
 30
0.0
  0
SPLINE
  5
180
100
AcDbEntity
  8
Layer_1
 62
7
100
AcDbSpline
 70
8
 71
3
 72
8
 73
4
 74
0
 40
0
 40
0
 40
0
 40
0
 40
1
 40
1
 40
1
 40
1
 10
5002.632148
 20
1054.296261
 30
0.0
 10
5000.966033
 20
1055.962439
 30
0.0
 10
4998.266592
 20
1055.968682
 30
0.0
 10
4996.592787
 20
1054.310230
 30
0.0
  0
LWPOLYLINE
  5
181
100
AcDbEntity
  8
Layer_1
 62
7
100
AcDbPolyline
 90
6
 70
0
 10
5002.645890
 20
1358.001269
 30
0.0
 10
5002.645890
 20
1380.294425
 30
0.0
 10
5427.842740
 20
1380.294425
 30
0.0
 10
5427.842740
 20
1025.963745
 30
0.0
 10
5002.645890
 20
1025.963745
 30
0.0
 10
5002.645890
 20
1048.256901
 30
0.0
  0
SPLINE
  5
182
100
AcDbEntity
  8
Layer_1
 62
7
100
AcDbSpline
 70
8
 71
3
 72
8
 73
4
 74
0
 40
0
 40
0
 40
0
 40
0
 40
1
 40
1
 40
1
 40
1
 10
4095.559276
 20
1076.603386
 30
0.0
 10
4097.213972
 20
1078.277768
 30
0.0
 10
4097.206017
 20
1080.974093
 30
0.0
 10
4095.541468
 20
1082.638681
 30
0.0
  0
SPLINE
  5
183
100
AcDbEntity
  8
Layer_1
 62
7
100
AcDbSpline
 70
8
 71
3
 72
8
 73
4
 74
0
 40
0
 40
0
 40
0
 40
0
 40
1
 40
1
 40
1
 40
1
 10
4095.541468
 20
1082.638681
 30
0.0
 10
4093.876919
 20
1084.303269
 30
0.0
 10
4091.180594
 20
1084.311288
 30
0.0
 10
4089.506173
 20
1082.656630
 30
0.0
  0
LWPOLYLINE
  5
184
100
AcDbEntity
  8
Layer_1
 62
7
100
AcDbPolyline
 90
3
 70
0
 10
4996.592787
 20
1054.310230
 30
0.0
 10
4095.559276
 20
1054.310230
 30
0.0
 10
4095.559276
 20
1076.603386
 30
0.0
  0
SPLINE
  5
185
100
AcDbEntity
  8
Layer_1
 62
7
100
AcDbSpline
 70
8
 71
3
 72
8
 73
4
 74
0
 40
0
 40
0
 40
0
 40
0
 40
1
 40
1
 40
1
 40
1
 10
3188.472945
 20
1104.949843
 30
0.0
 10
3189.554239
 20
1106.031185
 30
0.0
 10
3189.976527
 20
1107.607244
 30
0.0
 10
3189.580723
 20
1109.084348
 30
0.0
  0
SPLINE
  5
186
100
AcDbEntity
  8
Layer_1
 62
7
100
AcDbSpline
 70
8
 71
3
 72
8
 73
4
 74
0
 40
0
 40
0
 40
0
 40
0
 40
1
 40
1
 40
1
 40
1
 10
3189.580723
 20
1109.084348
 30
0.0
 10
3189.184919
 20
1110.561453
 30
0.0
 10
3188.031156
 20
1111.715194
 30
0.0
 10
3186.554044
 20
1112.110970
 30
0.0
  0
SPLINE
  5
187
100
AcDbEntity
  8
Layer_1
 62
7
100
AcDbSpline
 70
8
 71
3
 72
8
 73
4
 74
0
 40
0
 40
0
 40
0
 40
0
 40
1
 40
1
 40
1
 40
1
 10
3186.554044
 20
1112.110970
 30
0.0
 10
3185.076933
 20
1112.506746
 30
0.0
 10
3183.500881
 20
1112.084429
 30
0.0
 10
3182.419573
 20
1111.003101
 30
0.0
  0
LWPOLYLINE
  5
188
100
AcDbEntity
  8
Layer_1
 62
7
100
AcDbPolyline
 90
3
 70
0
 10
4089.506173
 20
1082.656630
 30
0.0
 10
3188.472945
 20
1082.656630
 30
0.0
 10
3188.472945
 20
1104.949843
 30
0.0
  0
SPLINE
  5
189
100
AcDbEntity
  8
Layer_1
 62
7
100
AcDbSpline
 70
8
 71
3
 72
8
 73
4
 74
0
 40
0
 40
0
 40
0
 40
0
 40
1
 40
1
 40
1
 40
1
 10
2281.386246
 20
1133.296328
 30
0.0
 10
2283.056272
 20
1134.968171
 30
0.0
 10
2283.055526
 20
1137.677067
 30
0.0
 10
2281.384579
 20
1139.347990
 30
0.0
  0
SPLINE
  5
18a
100
AcDbEntity
  8
Layer_1
 62
7
100
AcDbSpline
 70
8
 71
3
 72
8
 73
4
 74
0
 40
0
 40
0
 40
0
 40
0
 40
1
 40
1
 40
1
 40
1
 10
2281.384579
 20
1139.347990
 30
0.0
 10
2279.713633
 20
1141.018913
 30
0.0
 10
2277.004736
 20
1141.019621
 30
0.0
 10
2275.332917
 20
1139.349572
 30
0.0
  0
LWPOLYLINE
  5
18b
100
AcDbEntity
  8
Layer_1
 62
7
100
AcDbPolyline
 90
3
 70
0
 10
3182.419573
 20
1111.003101
 30
0.0
 10
2281.386246
 20
1111.003101
 30
0.0
 10
2281.386246
 20
1133.296328
 30
0.0
  0
SPLINE
  5
18c
100
AcDbEntity
  8
Layer_1
 62
7
100
AcDbSpline
 70
8
 71
3
 72
8
 73
4
 74
0
 40
0
 40
0
 40
0
 40
0
 40
1
 40
1
 40
1
 40
1
 10
1374.299575
 20
1161.642728
 30
0.0
 10
1375.971155
 20
1163.314293
 30
0.0
 10
1375.971168
 20
1166.024448
 30
0.0
 10
1374.299603
 20
1167.696028
 30
0.0
  0
SPLINE
  5
18d
100
AcDbEntity
  8
Layer_1
 62
7
100
AcDbSpline
 70
8
 71
3
 72
8
 73
4
 74
0
 40
0
 40
0
 40
0
 40
0
 40
1
 40
1
 40
1
 40
1
 10
1374.299603
 20
1167.696028
 30
0.0
 10
1372.628038
 20
1169.367609
 30
0.0
 10
1369.917883
 20
1169.367622
 30
0.0
 10
1368.246302
 20
1167.696057
 30
0.0
  0
LWPOLYLINE
  5
18e
100
AcDbEntity
  8
Layer_1
 62
7
100
AcDbPolyline
 90
3
 70
0
 10
2275.332917
 20
1139.349572
 30
0.0
 10
1374.299575
 20
1139.349572
 30
0.0
 10
1374.299575
 20
1161.642728
 30
0.0
  0
LWPOLYLINE
  5
18f
100
AcDbEntity
  8
Layer_1
 62
7
100
AcDbPolyline
 90
3
 70
0
 10
1368.246302
 20
1167.696057
 30
0.0
 10
467.212961
 20
1167.696057
 30
0.0
 10
467.212961
 20
1238.562198
 30
0.0
  0
SPLINE
  5
190
100
AcDbEntity
  8
Layer_1
 62
7
100
AcDbSpline
 70
8
 71
3
 72
8
 73
4
 74
0
 40
0
 40
0
 40
0
 40
0
 40
1
 40
1
 40
1
 40
1
 10
4722.743622
 20
2427.538847
 30
0.0
 10
4722.738540
 20
2429.899202
 30
0.0
 10
4720.823667
 20
2431.809956
 30
0.0
 10
4718.463307
 20
2431.809956
 30
0.0
  0
SPLINE
  5
191
100
AcDbEntity
  8
Layer_1
 62
7
100
AcDbSpline
 70
8
 71
3
 72
8
 73
4
 74
0
 40
0
 40
0
 40
0
 40
0
 40
1
 40
1
 40
1
 40
1
 10
4718.463307
 20
2431.809956
 30
0.0
 10
4716.102947
 20
2431.809956
 30
0.0
 10
4714.188074
 20
2429.899202
 30
0.0
 10
4714.182992
 20
2427.538847
 30
0.0
  0
LWPOLYLINE
  5
192
100
AcDbEntity
  8
Layer_1
 62
7
100
AcDbPolyline
 90
2
 70
0
 10
4845.471024
 20
2304.811417
 30
0.0
 10
4722.743622
 20
2427.538847
 30
0.0
  0
SPLINE
  5
193
100
AcDbEntity
  8
Layer_1
 62
7
100
AcDbSpline
 70
8
 71
3
 72
8
 73
4
 74
0
 40
0
 40
0
 40
0
 40
0
 40
1
 40
1
 40
1
 40
1
 10
4685.762268
 20
2399.118350
 30
0.0
 10
4684.233053
 20
2399.118350
 30
0.0
 10
4682.820001
 20
2398.302523
 30
0.0
 10
4682.055394
 20
2396.978185
 30
0.0
  0
SPLINE
  5
194
100
AcDbEntity
  8
Layer_1
 62
7
100
AcDbSpline
 70
8
 71
3
 72
8
 73
4
 74
0
 40
0
 40
0
 40
0
 40
0
 40
1
 40
1
 40
1
 40
1
 10
4682.055394
 20
2396.978185
 30
0.0
 10
4681.290787
 20
2395.653847
 30
0.0
 10
4681.290787
 20
2394.022194
 30
0.0
 10
4682.055394
 20
2392.697856
 30
0.0
  0
SPLINE
  5
195
100
AcDbEntity
  8
Layer_1
 62
7
100
AcDbSpline
 70
8
 71
3
 72
8
 73
4
 74
0
 40
0
 40
0
 40
0
 40
0
 40
1
 40
1
 40
1
 40
1
 10
4682.055394
 20
2392.697856
 30
0.0
 10
4682.820001
 20
2391.373517
 30
0.0
 10
4684.233053
 20
2390.557691
 30
0.0
 10
4685.762268
 20
2390.557691
 30
0.0
  0
LWPOLYLINE
  5
196
100
AcDbEntity
  8
Layer_1
 62
7
100
AcDbPolyline
 90
2
 70
0
 10
4714.182992
 20
2427.538847
 30
0.0
 10
4685.762268
 20
2399.118350
 30
0.0
  0
SPLINE
  5
197
100
AcDbEntity
  8
Layer_1
 62
7
100
AcDbSpline
 70
8
 71
3
 72
8
 73
4
 74
0
 40
0
 40
0
 40
0
 40
0
 40
1
 40
1
 40
1
 40
1
 10
4808.489669
 20
2267.830318
 30
0.0
 10
4808.494751
 20
2265.469964
 30
0.0
 10
4810.409624
 20
2263.559209
 30
0.0
 10
4812.769984
 20
2263.559209
 30
0.0
  0
SPLINE
  5
198
100
AcDbEntity
  8
Layer_1
 62
7
100
AcDbSpline
 70
8
 71
3
 72
8
 73
4
 74
0
 40
0
 40
0
 40
0
 40
0
 40
1
 40
1
 40
1
 40
1
 10
4812.769984
 20
2263.559209
 30
0.0
 10
4815.130344
 20
2263.559209
 30
0.0
 10
4817.045217
 20
2265.469964
 30
0.0
 10
4817.050299
 20
2267.830318
 30
0.0
  0
LWPOLYLINE
  5
199
100
AcDbEntity
  8
Layer_1
 62
7
100
AcDbPolyline
 90
2
 70
0
 10
4685.762268
 20
2390.557691
 30
0.0
 10
4808.489669
 20
2267.830318
 30
0.0
  0
SPLINE
  5
19a
100
AcDbEntity
  8
Layer_1
 62
7
100
AcDbSpline
 70
8
 71
3
 72
8
 73
4
 74
0
 40
0
 40
0
 40
0
 40
0
 40
1
 40
1
 40
1
 40
1
 10
4845.471024
 20
2296.250816
 30
0.0
 10
4847.830668
 20
2296.256888
 30
0.0
 10
4849.740324
 20
2298.171464
 30
0.0
 10
4849.740324
 20
2300.531117
 30
0.0
  0
SPLINE
  5
19b
100
AcDbEntity
  8
Layer_1
 62
7
100
AcDbSpline
 70
8
 71
3
 72
8
 73
4
 74
0
 40
0
 40
0
 40
0
 40
0
 40
1
 40
1
 40
1
 40
1
 10
4849.740324
 20
2300.531117
 30
0.0
 10
4849.740324
 20
2302.890769
 30
0.0
 10
4847.830668
 20
2304.805345
 30
0.0
 10
4845.471024
 20
2304.811417
 30
0.0
  0
LWPOLYLINE
  5
19c
100
AcDbEntity
  8
Layer_1
 62
7
100
AcDbPolyline
 90
2
 70
0
 10
4817.050299
 20
2267.830318
 30
0.0
 10
4845.471024
 20
2296.250816
 30
0.0
  0
SPLINE
  5
19d
100
AcDbEntity
  8
Layer_1
 62
7
100
AcDbSpline
 70
8
 71
3
 72
8
 73
4
 74
0
 40
0
 40
0
 40
0
 40
0
 40
1
 40
1
 40
1
 40
1
 10
5132.632535
 20
2312.339528
 30
0.0
 10
5131.103321
 20
2312.339528
 30
0.0
 10
5129.690269
 20
2311.523701
 30
0.0
 10
5128.925662
 20
2310.199363
 30
0.0
  0
SPLINE
  5
19e
100
AcDbEntity
  8
Layer_1
 62
7
100
AcDbSpline
 70
8
 71
3
 72
8
 73
4
 74
0
 40
0
 40
0
 40
0
 40
0
 40
1
 40
1
 40
1
 40
1
 10
5128.925662
 20
2310.199363
 30
0.0
 10
5128.161055
 20
2308.875025
 30
0.0
 10
5128.161055
 20
2307.243372
 30
0.0
 10
5128.925662
 20
2305.919034
 30
0.0
  0
SPLINE
  5
19f
100
AcDbEntity
  8
Layer_1
 62
7
100
AcDbSpline
 70
8
 71
3
 72
8
 73
4
 74
0
 40
0
 40
0
 40
0
 40
0
 40
1
 40
1
 40
1
 40
1
 10
5128.925662
 20
2305.919034
 30
0.0
 10
5129.690269
 20
2304.594695
 30
0.0
 10
5131.103321
 20
2303.778869
 30
0.0
 10
5132.632535
 20
2303.778869
 30
0.0
  0
LWPOLYLINE
  5
1a0
100
AcDbEntity
  8
Layer_1
 62
7
100
AcDbPolyline
 90
2
 70
0
 10
5255.359937
 20
2435.066901
 30
0.0
 10
5132.632535
 20
2312.339528
 30
0.0
  0
SPLINE
  5
1a1
100
AcDbEntity
  8
Layer_1
 62
7
100
AcDbSpline
 70
8
 71
3
 72
8
 73
4
 74
0
 40
0
 40
0
 40
0
 40
0
 40
1
 40
1
 40
1
 40
1
 10
5161.052976
 20
2275.358457
 30
0.0
 10
5161.058058
 20
2272.998102
 30
0.0
 10
5162.972931
 20
2271.087348
 30
0.0
 10
5165.333291
 20
2271.087348
 30
0.0
  0
SPLINE
  5
1a2
100
AcDbEntity
  8
Layer_1
 62
7
100
AcDbSpline
 70
8
 71
3
 72
8
 73
4
 74
0
 40
0
 40
0
 40
0
 40
0
 40
1
 40
1
 40
1
 40
1
 10
5165.333291
 20
2271.087348
 30
0.0
 10
5167.693651
 20
2271.087348
 30
0.0
 10
5169.608524
 20
2272.998102
 30
0.0
 10
5169.613606
 20
2275.358457
 30
0.0
  0
LWPOLYLINE
  5
1a3
100
AcDbEntity
  8
Layer_1
 62
7
100
AcDbPolyline
 90
2
 70
0
 10
5132.632535
 20
2303.778869
 30
0.0
 10
5161.052976
 20
2275.358457
 30
0.0
  0
SPLINE
  5
1a4
100
AcDbEntity
  8
Layer_1
 62
7
100
AcDbSpline
 70
8
 71
3
 72
8
 73
4
 74
0
 40
0
 40
0
 40
0
 40
0
 40
1
 40
1
 40
1
 40
1
 10
5292.341008
 20
2398.085830
 30
0.0
 10
5294.698864
 20
2398.094411
 30
0.0
 10
5296.605745
 20
2400.008245
 30
0.0
 10
5296.605745
 20
2402.366117
 30
0.0
  0
SPLINE
  5
1a5
100
AcDbEntity
  8
Layer_1
 62
7
100
AcDbSpline
 70
8
 71
3
 72
8
 73
4
 74
0
 40
0
 40
0
 40
0
 40
0
 40
1
 40
1
 40
1
 40
1
 10
5296.605745
 20
2402.366117
 30
0.0
 10
5296.605745
 20
2404.723988
 30
0.0
 10
5294.698864
 20
2406.637822
 30
0.0
 10
5292.341008
 20
2406.646403
 30
0.0
  0
LWPOLYLINE
  5
1a6
100
AcDbEntity
  8
Layer_1
 62
7
100
AcDbPolyline
 90
2
 70
0
 10
5169.613606
 20
2275.358457
 30
0.0
 10
5292.341008
 20
2398.085830
 30
0.0
  0
SPLINE
  5
1a7
100
AcDbEntity
  8
Layer_1
 62
7
100
AcDbSpline
 70
8
 71
3
 72
8
 73
4
 74
0
 40
0
 40
0
 40
0
 40
0
 40
1
 40
1
 40
1
 40
1
 10
5263.920567
 20
2435.066901
 30
0.0
 10
5263.915485
 20
2437.427255
 30
0.0
 10
5262.000612
 20
2439.338010
 30
0.0
 10
5259.640252
 20
2439.338010
 30
0.0
  0
SPLINE
  5
1a8
100
AcDbEntity
  8
Layer_1
 62
7
100
AcDbSpline
 70
8
 71
3
 72
8
 73
4
 74
0
 40
0
 40
0
 40
0
 40
0
 40
1
 40
1
 40
1
 40
1
 10
5259.640252
 20
2439.338010
 30
0.0
 10
5257.279892
 20
2439.338010
 30
0.0
 10
5255.365019
 20
2437.427255
 30
0.0
 10
5255.359937
 20
2435.066901
 30
0.0
  0
LWPOLYLINE
  5
1a9
100
AcDbEntity
  8
Layer_1
 62
7
100
AcDbPolyline
 90
2
 70
0
 10
5292.341008
 20
2406.646403
 30
0.0
 10
5263.920567
 20
2435.066901
 30
0.0
  0
SPLINE
  5
1aa
100
AcDbEntity
  8
Layer_1
 62
7
100
AcDbSpline
 70
8
 71
3
 72
8
 73
4
 74
0
 40
0
 40
0
 40
0
 40
0
 40
1
 40
1
 40
1
 40
1
 10
3141.707528
 20
2310.508715
 30
0.0
 10
3140.178313
 20
2310.508715
 30
0.0
 10
3138.765261
 20
2309.692889
 30
0.0
 10
3138.000654
 20
2308.368550
 30
0.0
  0
SPLINE
  5
1ab
100
AcDbEntity
  8
Layer_1
 62
7
100
AcDbSpline
 70
8
 71
3
 72
8
 73
4
 74
0
 40
0
 40
0
 40
0
 40
0
 40
1
 40
1
 40
1
 40
1
 10
3138.000654
 20
2308.368550
 30
0.0
 10
3137.236047
 20
2307.044212
 30
0.0
 10
3137.236047
 20
2305.412560
 30
0.0
 10
3138.000654
 20
2304.088221
 30
0.0
  0
SPLINE
  5
1ac
100
AcDbEntity
  8
Layer_1
 62
7
100
AcDbSpline
 70
8
 71
3
 72
8
 73
4
 74
0
 40
0
 40
0
 40
0
 40
0
 40
1
 40
1
 40
1
 40
1
 10
3138.000654
 20
2304.088221
 30
0.0
 10
3138.765261
 20
2302.763883
 30
0.0
 10
3140.178313
 20
2301.948057
 30
0.0
 10
3141.707528
 20
2301.948057
 30
0.0
  0
LWPOLYLINE
  5
1ad
100
AcDbEntity
  8
Layer_1
 62
7
100
AcDbPolyline
 90
2
 70
0
 10
3264.434929
 20
2433.236088
 30
0.0
 10
3141.707528
 20
2310.508715
 30
0.0
  0
SPLINE
  5
1ae
100
AcDbEntity
  8
Layer_1
 62
7
100
AcDbSpline
 70
8
 71
3
 72
8
 73
4
 74
0
 40
0
 40
0
 40
0
 40
0
 40
1
 40
1
 40
1
 40
1
 10
3170.128252
 20
2273.527559
 30
0.0
 10
3170.134324
 20
2271.167907
 30
0.0
 10
3172.048907
 20
2269.258245
 30
0.0
 10
3174.408567
 20
2269.258245
 30
0.0
  0
SPLINE
  5
1af
100
AcDbEntity
  8
Layer_1
 62
7
100
AcDbSpline
 70
8
 71
3
 72
8
 73
4
 74
0
 40
0
 40
0
 40
0
 40
0
 40
1
 40
1
 40
1
 40
1
 10
3174.408567
 20
2269.258245
 30
0.0
 10
3176.768227
 20
2269.258245
 30
0.0
 10
3178.682809
 20
2271.167907
 30
0.0
 10
3178.688882
 20
2273.527559
 30
0.0
  0
LWPOLYLINE
  5
1b0
100
AcDbEntity
  8
Layer_1
 62
7
100
AcDbPolyline
 90
2
 70
0
 10
3141.707528
 20
2301.948057
 30
0.0
 10
3170.128252
 20
2273.527559
 30
0.0
  0
SPLINE
  5
1b1
100
AcDbEntity
  8
Layer_1
 62
7
100
AcDbSpline
 70
8
 71
3
 72
8
 73
4
 74
0
 40
0
 40
0
 40
0
 40
0
 40
1
 40
1
 40
1
 40
1
 10
3301.416000
 20
2396.254932
 30
0.0
 10
3302.945214
 20
2396.254932
 30
0.0
 10
3304.358267
 20
2397.070758
 30
0.0
 10
3305.122874
 20
2398.395097
 30
0.0
  0
SPLINE
  5
1b2
100
AcDbEntity
  8
Layer_1
 62
7
100
AcDbSpline
 70
8
 71
3
 72
8
 73
4
 74
0
 40
0
 40
0
 40
0
 40
0
 40
1
 40
1
 40
1
 40
1
 10
3305.122874
 20
2398.395097
 30
0.0
 10
3305.887481
 20
2399.719435
 30
0.0
 10
3305.887481
 20
2401.351088
 30
0.0
 10
3305.122874
 20
2402.675426
 30
0.0
  0
SPLINE
  5
1b3
100
AcDbEntity
  8
Layer_1
 62
7
100
AcDbSpline
 70
8
 71
3
 72
8
 73
4
 74
0
 40
0
 40
0
 40
0
 40
0
 40
1
 40
1
 40
1
 40
1
 10
3305.122874
 20
2402.675426
 30
0.0
 10
3304.358267
 20
2403.999764
 30
0.0
 10
3302.945214
 20
2404.815591
 30
0.0
 10
3301.416000
 20
2404.815591
 30
0.0
  0
LWPOLYLINE
  5
1b4
100
AcDbEntity
  8
Layer_1
 62
7
100
AcDbPolyline
 90
2
 70
0
 10
3178.688882
 20
2273.527559
 30
0.0
 10
3301.416000
 20
2396.254932
 30
0.0
  0
SPLINE
  5
1b5
100
AcDbEntity
  8
Layer_1
 62
7
100
AcDbSpline
 70
8
 71
3
 72
8
 73
4
 74
0
 40
0
 40
0
 40
0
 40
0
 40
1
 40
1
 40
1
 40
1
 10
3272.995559
 20
2433.236088
 30
0.0
 10
3272.989487
 20
2435.595740
 30
0.0
 10
3271.074904
 20
2437.505402
 30
0.0
 10
3268.715244
 20
2437.505402
 30
0.0
  0
SPLINE
  5
1b6
100
AcDbEntity
  8
Layer_1
 62
7
100
AcDbSpline
 70
8
 71
3
 72
8
 73
4
 74
0
 40
0
 40
0
 40
0
 40
0
 40
1
 40
1
 40
1
 40
1
 10
3268.715244
 20
2437.505402
 30
0.0
 10
3266.355584
 20
2437.505402
 30
0.0
 10
3264.441002
 20
2435.595740
 30
0.0
 10
3264.434929
 20
2433.236088
 30
0.0
  0
LWPOLYLINE
  5
1b7
100
AcDbEntity
  8
Layer_1
 62
7
100
AcDbPolyline
 90
2
 70
0
 10
3301.416000
 20
2404.815591
 30
0.0
 10
3272.995559
 20
2433.236088
 30
0.0
  0
SPLINE
  5
1b8
100
AcDbEntity
  8
Layer_1
 62
7
100
AcDbSpline
 70
8
 71
3
 72
8
 73
4
 74
0
 40
0
 40
0
 40
0
 40
0
 40
1
 40
1
 40
1
 40
1
 10
3588.577795
 20
2412.343616
 30
0.0
 10
3586.219939
 20
2412.335035
 30
0.0
 10
3584.313058
 20
2410.421201
 30
0.0
 10
3584.313058
 20
2408.063329
 30
0.0
  0
SPLINE
  5
1b9
100
AcDbEntity
  8
Layer_1
 62
7
100
AcDbSpline
 70
8
 71
3
 72
8
 73
4
 74
0
 40
0
 40
0
 40
0
 40
0
 40
1
 40
1
 40
1
 40
1
 10
3584.313058
 20
2408.063329
 30
0.0
 10
3584.313058
 20
2405.705458
 30
0.0
 10
3586.219939
 20
2403.791624
 30
0.0
 10
3588.577795
 20
2403.783043
 30
0.0
  0
LWPOLYLINE
  5
1ba
100
AcDbEntity
  8
Layer_1
 62
7
100
AcDbPolyline
 90
2
 70
0
 10
3616.998236
 20
2440.764142
 30
0.0
 10
3588.577795
 20
2412.343616
 30
0.0
  0
SPLINE
  5
1bb
100
AcDbEntity
  8
Layer_1
 62
7
100
AcDbSpline
 70
8
 71
3
 72
8
 73
4
 74
0
 40
0
 40
0
 40
0
 40
0
 40
1
 40
1
 40
1
 40
1
 10
3711.305197
 20
2281.055669
 30
0.0
 10
3711.310279
 20
2278.695315
 30
0.0
 10
3713.225152
 20
2276.784560
 30
0.0
 10
3715.585512
 20
2276.784560
 30
0.0
  0
SPLINE
  5
1bc
100
AcDbEntity
  8
Layer_1
 62
7
100
AcDbSpline
 70
8
 71
3
 72
8
 73
4
 74
0
 40
0
 40
0
 40
0
 40
0
 40
1
 40
1
 40
1
 40
1
 10
3715.585512
 20
2276.784560
 30
0.0
 10
3717.945872
 20
2276.784560
 30
0.0
 10
3719.860745
 20
2278.695315
 30
0.0
 10
3719.865827
 20
2281.055669
 30
0.0
  0
LWPOLYLINE
  5
1bd
100
AcDbEntity
  8
Layer_1
 62
7
100
AcDbPolyline
 90
2
 70
0
 10
3588.577795
 20
2403.783043
 30
0.0
 10
3711.305197
 20
2281.055669
 30
0.0
  0
SPLINE
  5
1be
100
AcDbEntity
  8
Layer_1
 62
7
100
AcDbSpline
 70
8
 71
3
 72
8
 73
4
 74
0
 40
0
 40
0
 40
0
 40
0
 40
1
 40
1
 40
1
 40
1
 10
3748.286268
 20
2309.476110
 30
0.0
 10
3750.645920
 20
2309.482183
 30
0.0
 10
3752.555582
 20
2311.396765
 30
0.0
 10
3752.555582
 20
2313.756425
 30
0.0
  0
SPLINE
  5
1bf
100
AcDbEntity
  8
Layer_1
 62
7
100
AcDbSpline
 70
8
 71
3
 72
8
 73
4
 74
0
 40
0
 40
0
 40
0
 40
0
 40
1
 40
1
 40
1
 40
1
 10
3752.555582
 20
2313.756425
 30
0.0
 10
3752.555582
 20
2316.116085
 30
0.0
 10
3750.645920
 20
2318.030668
 30
0.0
 10
3748.286268
 20
2318.036740
 30
0.0
  0
LWPOLYLINE
  5
1c0
100
AcDbEntity
  8
Layer_1
 62
7
100
AcDbPolyline
 90
2
 70
0
 10
3719.865827
 20
2281.055669
 30
0.0
 10
3748.286268
 20
2309.476110
 30
0.0
  0
SPLINE
  5
1c1
100
AcDbEntity
  8
Layer_1
 62
7
100
AcDbSpline
 70
8
 71
3
 72
8
 73
4
 74
0
 40
0
 40
0
 40
0
 40
0
 40
1
 40
1
 40
1
 40
1
 10
3625.558866
 20
2440.764142
 30
0.0
 10
3625.553784
 20
2443.124496
 30
0.0
 10
3623.638911
 20
2445.035251
 30
0.0
 10
3621.278551
 20
2445.035251
 30
0.0
  0
SPLINE
  5
1c2
100
AcDbEntity
  8
Layer_1
 62
7
100
AcDbSpline
 70
8
 71
3
 72
8
 73
4
 74
0
 40
0
 40
0
 40
0
 40
0
 40
1
 40
1
 40
1
 40
1
 10
3621.278551
 20
2445.035251
 30
0.0
 10
3618.918191
 20
2445.035251
 30
0.0
 10
3617.003318
 20
2443.124496
 30
0.0
 10
3616.998236
 20
2440.764142
 30
0.0
  0
LWPOLYLINE
  5
1c3
100
AcDbEntity
  8
Layer_1
 62
7
100
AcDbPolyline
 90
2
 70
0
 10
3748.286268
 20
2318.036740
 30
0.0
 10
3625.558866
 20
2440.764142
 30
0.0
  0
LWPOLYLINE
  5
1c4
100
AcDbEntity
  8
Layer_1
 62
7
100
AcDbPolyline
 90
4
 70
1
 10
3012.300000
 20
2070.832620
 30
0.0
 10
3012.300000
 20
2637.761811
 30
0.0
 10
5421.748819
 20
2637.761811
 30
0.0
 10
5421.748819
 20
2070.832620
 30
0.0
  0
SPLINE
  5
1c5
100
AcDbEntity
  8
Layer_1
 62
7
100
AcDbSpline
 70
8
 71
3
 72
8
 73
4
 74
0
 40
0
 40
0
 40
0
 40
0
 40
1
 40
1
 40
1
 40
1
 10
2781.248031
 20
3146.835146
 30
0.0
 10
2782.777241
 20
3146.835146
 30
0.0
 10
2784.190288
 20
3147.650970
 30
0.0
 10
2784.954893
 20
3148.975304
 30
0.0
  0
SPLINE
  5
1c6
100
AcDbEntity
  8
Layer_1
 62
7
100
AcDbSpline
 70
8
 71
3
 72
8
 73
4
 74
0
 40
0
 40
0
 40
0
 40
0
 40
1
 40
1
 40
1
 40
1
 10
2784.954893
 20
3148.975304
 30
0.0
 10
2785.719498
 20
3150.299638
 30
0.0
 10
2785.719498
 20
3151.931285
 30
0.0
 10
2784.954893
 20
3153.255619
 30
0.0
  0
SPLINE
  5
1c7
100
AcDbEntity
  8
Layer_1
 62
7
100
AcDbSpline
 70
8
 71
3
 72
8
 73
4
 74
0
 40
0
 40
0
 40
0
 40
0
 40
1
 40
1
 40
1
 40
1
 10
2784.954893
 20
3153.255619
 30
0.0
 10
2784.190288
 20
3154.579953
 30
0.0
 10
2782.777241
 20
3155.395776
 30
0.0
 10
2781.248031
 20
3155.395776
 30
0.0
  0
LWPOLYLINE
  5
1c8
100
AcDbEntity
  8
Layer_1
 62
7
100
AcDbPolyline
 90
2
 70
0
 10
2578.344775
 20
2943.931890
 30
0.0
 10
2781.248031
 20
3146.835146
 30
0.0
  0
SPLINE
  5
1c9
100
AcDbEntity
  8
Layer_1
 62
7
100
AcDbSpline
 70
8
 71
3
 72
8
 73
4
 74
0
 40
0
 40
0
 40
0
 40
0
 40
1
 40
1
 40
1
 40
1
 10
2752.827534
 20
3183.816283
 30
0.0
 10
2752.818953
 20
3186.174138
 30
0.0
 10
2750.905119
 20
3188.081020
 30
0.0
 10
2748.547247
 20
3188.081020
 30
0.0
  0
SPLINE
  5
1ca
100
AcDbEntity
  8
Layer_1
 62
7
100
AcDbSpline
 70
8
 71
3
 72
8
 73
4
 74
0
 40
0
 40
0
 40
0
 40
0
 40
1
 40
1
 40
1
 40
1
 10
2748.547247
 20
3188.081020
 30
0.0
 10
2746.189376
 20
3188.081020
 30
0.0
 10
2744.275542
 20
3186.174138
 30
0.0
 10
2744.266961
 20
3183.816283
 30
0.0
  0
LWPOLYLINE
  5
1cb
100
AcDbEntity
  8
Layer_1
 62
7
100
AcDbPolyline
 90
2
 70
0
 10
2781.248031
 20
3155.395776
 30
0.0
 10
2752.827534
 20
3183.816283
 30
0.0
  0
SPLINE
  5
1cc
100
AcDbEntity
  8
Layer_1
 62
7
100
AcDbSpline
 70
8
 71
3
 72
8
 73
4
 74
0
 40
0
 40
0
 40
0
 40
0
 40
1
 40
1
 40
1
 40
1
 10
2541.363619
 20
2980.913017
 30
0.0
 10
2539.834410
 20
2980.913017
 30
0.0
 10
2538.421362
 20
2980.097194
 30
0.0
 10
2537.656757
 20
2978.772860
 30
0.0
  0
SPLINE
  5
1cd
100
AcDbEntity
  8
Layer_1
 62
7
100
AcDbSpline
 70
8
 71
3
 72
8
 73
4
 74
0
 40
0
 40
0
 40
0
 40
0
 40
1
 40
1
 40
1
 40
1
 10
2537.656757
 20
2978.772860
 30
0.0
 10
2536.892153
 20
2977.448526
 30
0.0
 10
2536.892153
 20
2975.816879
 30
0.0
 10
2537.656757
 20
2974.492545
 30
0.0
  0
SPLINE
  5
1ce
100
AcDbEntity
  8
Layer_1
 62
7
100
AcDbSpline
 70
8
 71
3
 72
8
 73
4
 74
0
 40
0
 40
0
 40
0
 40
0
 40
1
 40
1
 40
1
 40
1
 10
2537.656757
 20
2974.492545
 30
0.0
 10
2538.421362
 20
2973.168211
 30
0.0
 10
2539.834410
 20
2972.352387
 30
0.0
 10
2541.363619
 20
2972.352387
 30
0.0
  0
LWPOLYLINE
  5
1cf
100
AcDbEntity
  8
Layer_1
 62
7
100
AcDbPolyline
 90
2
 70
0
 10
2744.266961
 20
3183.816283
 30
0.0
 10
2541.363619
 20
2980.913017
 30
0.0
  0
SPLINE
  5
1d0
100
AcDbEntity
  8
Layer_1
 62
7
100
AcDbSpline
 70
8
 71
3
 72
8
 73
4
 74
0
 40
0
 40
0
 40
0
 40
0
 40
1
 40
1
 40
1
 40
1
 10
2569.784117
 20
2943.931890
 30
0.0
 10
2569.784117
 20
2941.567930
 30
0.0
 10
2571.700486
 20
2939.651562
 30
0.0
 10
2574.064446
 20
2939.651562
 30
0.0
  0
SPLINE
  5
1d1
100
AcDbEntity
  8
Layer_1
 62
7
100
AcDbSpline
 70
8
 71
3
 72
8
 73
4
 74
0
 40
0
 40
0
 40
0
 40
0
 40
1
 40
1
 40
1
 40
1
 10
2574.064446
 20
2939.651562
 30
0.0
 10
2576.428406
 20
2939.651562
 30
0.0
 10
2578.344774
 20
2941.567930
 30
0.0
 10
2578.344775
 20
2943.931890
 30
0.0
  0
LWPOLYLINE
  5
1d2
100
AcDbEntity
  8
Layer_1
 62
7
100
AcDbPolyline
 90
2
 70
0
 10
2541.363619
 20
2972.352387
 30
0.0
 10
2569.784117
 20
2943.931890
 30
0.0
  0
SPLINE
  5
1d3
100
AcDbEntity
  8
Layer_1
 62
7
100
AcDbSpline
 70
8
 71
3
 72
8
 73
4
 74
0
 40
0
 40
0
 40
0
 40
0
 40
1
 40
1
 40
1
 40
1
 10
2297.396721
 20
2936.403808
 30
0.0
 10
2297.405302
 20
2934.045952
 30
0.0
 10
2299.319136
 20
2932.139071
 30
0.0
 10
2301.677008
 20
2932.139071
 30
0.0
  0
SPLINE
  5
1d4
100
AcDbEntity
  8
Layer_1
 62
7
100
AcDbSpline
 70
8
 71
3
 72
8
 73
4
 74
0
 40
0
 40
0
 40
0
 40
0
 40
1
 40
1
 40
1
 40
1
 10
2301.677008
 20
2932.139071
 30
0.0
 10
2304.034879
 20
2932.139071
 30
0.0
 10
2305.948713
 20
2934.045952
 30
0.0
 10
2305.957294
 20
2936.403808
 30
0.0
  0
LWPOLYLINE
  5
1d5
100
AcDbEntity
  8
Layer_1
 62
7
100
AcDbPolyline
 90
2
 70
0
 10
2094.493436
 20
3139.307065
 30
0.0
 10
2297.396721
 20
2936.403808
 30
0.0
  0
SPLINE
  5
1d6
100
AcDbEntity
  8
Layer_1
 62
7
100
AcDbSpline
 70
8
 71
3
 72
8
 73
4
 74
0
 40
0
 40
0
 40
0
 40
0
 40
1
 40
1
 40
1
 40
1
 10
2334.377792
 20
2964.824306
 30
0.0
 10
2335.907001
 20
2964.824306
 30
0.0
 10
2337.320049
 20
2965.640129
 30
0.0
 10
2338.084654
 20
2966.964463
 30
0.0
  0
SPLINE
  5
1d7
100
AcDbEntity
  8
Layer_1
 62
7
100
AcDbSpline
 70
8
 71
3
 72
8
 73
4
 74
0
 40
0
 40
0
 40
0
 40
0
 40
1
 40
1
 40
1
 40
1
 10
2338.084654
 20
2966.964463
 30
0.0
 10
2338.849258
 20
2968.288797
 30
0.0
 10
2338.849258
 20
2969.920444
 30
0.0
 10
2338.084654
 20
2971.244778
 30
0.0
  0
SPLINE
  5
1d8
100
AcDbEntity
  8
Layer_1
 62
7
100
AcDbSpline
 70
8
 71
3
 72
8
 73
4
 74
0
 40
0
 40
0
 40
0
 40
0
 40
1
 40
1
 40
1
 40
1
 10
2338.084654
 20
2971.244778
 30
0.0
 10
2337.320049
 20
2972.569112
 30
0.0
 10
2335.907001
 20
2973.384935
 30
0.0
 10
2334.377792
 20
2973.384935
 30
0.0
  0
LWPOLYLINE
  5
1d9
100
AcDbEntity
  8
Layer_1
 62
7
100
AcDbPolyline
 90
2
 70
0
 10
2305.957294
 20
2936.403808
 30
0.0
 10
2334.377792
 20
2964.824306
 30
0.0
  0
SPLINE
  5
1da
100
AcDbEntity
  8
Layer_1
 62
7
100
AcDbSpline
 70
8
 71
3
 72
8
 73
4
 74
0
 40
0
 40
0
 40
0
 40
0
 40
1
 40
1
 40
1
 40
1
 10
2131.474592
 20
3176.288201
 30
0.0
 10
2131.474592
 20
3178.652161
 30
0.0
 10
2129.558223
 20
3180.568529
 30
0.0
 10
2127.194263
 20
3180.568529
 30
0.0
  0
SPLINE
  5
1db
100
AcDbEntity
  8
Layer_1
 62
7
100
AcDbSpline
 70
8
 71
3
 72
8
 73
4
 74
0
 40
0
 40
0
 40
0
 40
0
 40
1
 40
1
 40
1
 40
1
 10
2127.194263
 20
3180.568529
 30
0.0
 10
2124.830303
 20
3180.568529
 30
0.0
 10
2122.913934
 20
3178.652161
 30
0.0
 10
2122.913934
 20
3176.288201
 30
0.0
  0
LWPOLYLINE
  5
1dc
100
AcDbEntity
  8
Layer_1
 62
7
100
AcDbPolyline
 90
2
 70
0
 10
2334.377792
 20
2973.384935
 30
0.0
 10
2131.474592
 20
3176.288201
 30
0.0
  0
SPLINE
  5
1dd
100
AcDbEntity
  8
Layer_1
 62
7
100
AcDbSpline
 70
8
 71
3
 72
8
 73
4
 74
0
 40
0
 40
0
 40
0
 40
0
 40
1
 40
1
 40
1
 40
1
 10
2094.493436
 20
3147.867694
 30
0.0
 10
2092.131308
 20
3147.865115
 30
0.0
 10
2090.217792
 20
3145.949509
 30
0.0
 10
2090.217792
 20
3143.587380
 30
0.0
  0
SPLINE
  5
1de
100
AcDbEntity
  8
Layer_1
 62
7
100
AcDbSpline
 70
8
 71
3
 72
8
 73
4
 74
0
 40
0
 40
0
 40
0
 40
0
 40
1
 40
1
 40
1
 40
1
 10
2090.217792
 20
3143.587380
 30
0.0
 10
2090.217792
 20
3141.225250
 30
0.0
 10
2092.131308
 20
3139.309644
 30
0.0
 10
2094.493436
 20
3139.307065
 30
0.0
  0
LWPOLYLINE
  5
1df
100
AcDbEntity
  8
Layer_1
 62
7
100
AcDbPolyline
 90
2
 70
0
 10
2122.913934
 20
3176.288201
 30
0.0
 10
2094.493436
 20
3147.867694
 30
0.0
  0
SPLINE
  5
1e0
100
AcDbEntity
  8
Layer_1
 62
7
100
AcDbSpline
 70
8
 71
3
 72
8
 73
4
 74
0
 40
0
 40
0
 40
0
 40
0
 40
1
 40
1
 40
1
 40
1
 10
1200.212079
 20
2949.629131
 30
0.0
 10
1200.214658
 20
2947.267003
 30
0.0
 10
1202.130264
 20
2945.353486
 30
0.0
 10
1204.492394
 20
2945.353486
 30
0.0
  0
SPLINE
  5
1e1
100
AcDbEntity
  8
Layer_1
 62
7
100
AcDbSpline
 70
8
 71
3
 72
8
 73
4
 74
0
 40
0
 40
0
 40
0
 40
0
 40
1
 40
1
 40
1
 40
1
 10
1204.492394
 20
2945.353486
 30
0.0
 10
1206.854523
 20
2945.353486
 30
0.0
 10
1208.770130
 20
2947.267003
 30
0.0
 10
1208.772709
 20
2949.629131
 30
0.0
  0
LWPOLYLINE
  5
1e2
100
AcDbEntity
  8
Layer_1
 62
7
100
AcDbPolyline
 90
2
 70
0
 10
997.308794
 20
3152.532387
 30
0.0
 10
1200.212079
 20
2949.629131
 30
0.0
  0
SPLINE
  5
1e3
100
AcDbEntity
  8
Layer_1
 62
7
100
AcDbSpline
 70
8
 71
3
 72
8
 73
4
 74
0
 40
0
 40
0
 40
0
 40
0
 40
1
 40
1
 40
1
 40
1
 10
1237.193178
 20
2978.049628
 30
0.0
 10
1238.722387
 20
2978.049628
 30
0.0
 10
1240.135435
 20
2978.865452
 30
0.0
 10
1240.900039
 20
2980.189786
 30
0.0
  0
SPLINE
  5
1e4
100
AcDbEntity
  8
Layer_1
 62
7
100
AcDbSpline
 70
8
 71
3
 72
8
 73
4
 74
0
 40
0
 40
0
 40
0
 40
0
 40
1
 40
1
 40
1
 40
1
 10
1240.900039
 20
2980.189786
 30
0.0
 10
1241.664644
 20
2981.514120
 30
0.0
 10
1241.664644
 20
2983.145767
 30
0.0
 10
1240.900039
 20
2984.470101
 30
0.0
  0
SPLINE
  5
1e5
100
AcDbEntity
  8
Layer_1
 62
7
100
AcDbSpline
 70
8
 71
3
 72
8
 73
4
 74
0
 40
0
 40
0
 40
0
 40
0
 40
1
 40
1
 40
1
 40
1
 10
1240.900039
 20
2984.470101
 30
0.0
 10
1240.135435
 20
2985.794435
 30
0.0
 10
1238.722387
 20
2986.610258
 30
0.0
 10
1237.193178
 20
2986.610258
 30
0.0
  0
LWPOLYLINE
  5
1e6
100
AcDbEntity
  8
Layer_1
 62
7
100
AcDbPolyline
 90
2
 70
0
 10
1208.772709
 20
2949.629131
 30
0.0
 10
1237.193178
 20
2978.049628
 30
0.0
  0
SPLINE
  5
1e7
100
AcDbEntity
  8
Layer_1
 62
7
100
AcDbSpline
 70
8
 71
3
 72
8
 73
4
 74
0
 40
0
 40
0
 40
0
 40
0
 40
1
 40
1
 40
1
 40
1
 10
1034.289921
 20
3189.513523
 30
0.0
 10
1034.289921
 20
3191.042733
 30
0.0
 10
1033.474098
 20
3192.455780
 30
0.0
 10
1032.149764
 20
3193.220385
 30
0.0
  0
SPLINE
  5
1e8
100
AcDbEntity
  8
Layer_1
 62
7
100
AcDbSpline
 70
8
 71
3
 72
8
 73
4
 74
0
 40
0
 40
0
 40
0
 40
0
 40
1
 40
1
 40
1
 40
1
 10
1032.149764
 20
3193.220385
 30
0.0
 10
1030.825430
 20
3193.984990
 30
0.0
 10
1029.193783
 20
3193.984990
 30
0.0
 10
1027.869449
 20
3193.220385
 30
0.0
  0
SPLINE
  5
1e9
100
AcDbEntity
  8
Layer_1
 62
7
100
AcDbSpline
 70
8
 71
3
 72
8
 73
4
 74
0
 40
0
 40
0
 40
0
 40
0
 40
1
 40
1
 40
1
 40
1
 10
1027.869449
 20
3193.220385
 30
0.0
 10
1026.545115
 20
3192.455780
 30
0.0
 10
1025.729291
 20
3191.042733
 30
0.0
 10
1025.729291
 20
3189.513523
 30
0.0
  0
LWPOLYLINE
  5
1ea
100
AcDbEntity
  8
Layer_1
 62
7
100
AcDbPolyline
 90
2
 70
0
 10
1237.193178
 20
2986.610258
 30
0.0
 10
1034.289921
 20
3189.513523
 30
0.0
  0
SPLINE
  5
1eb
100
AcDbEntity
  8
Layer_1
 62
7
100
AcDbSpline
 70
8
 71
3
 72
8
 73
4
 74
0
 40
0
 40
0
 40
0
 40
0
 40
1
 40
1
 40
1
 40
1
 10
997.308794
 20
3161.093017
 30
0.0
 10
995.779584
 20
3161.093017
 30
0.0
 10
994.366537
 20
3160.277194
 30
0.0
 10
993.601932
 20
3158.952860
 30
0.0
  0
SPLINE
  5
1ec
100
AcDbEntity
  8
Layer_1
 62
7
100
AcDbSpline
 70
8
 71
3
 72
8
 73
4
 74
0
 40
0
 40
0
 40
0
 40
0
 40
1
 40
1
 40
1
 40
1
 10
993.601932
 20
3158.952860
 30
0.0
 10
992.837328
 20
3157.628526
 30
0.0
 10
992.837328
 20
3155.996879
 30
0.0
 10
993.601932
 20
3154.672545
 30
0.0
  0
SPLINE
  5
1ed
100
AcDbEntity
  8
Layer_1
 62
7
100
AcDbSpline
 70
8
 71
3
 72
8
 73
4
 74
0
 40
0
 40
0
 40
0
 40
0
 40
1
 40
1
 40
1
 40
1
 10
993.601932
 20
3154.672545
 30
0.0
 10
994.366537
 20
3153.348211
 30
0.0
 10
995.779584
 20
3152.532387
 30
0.0
 10
997.308794
 20
3152.532387
 30
0.0
  0
LWPOLYLINE
  5
1ee
100
AcDbEntity
  8
Layer_1
 62
7
100
AcDbPolyline
 90
2
 70
0
 10
1025.729291
 20
3189.513523
 30
0.0
 10
997.308794
 20
3161.093017
 30
0.0
  0
SPLINE
  5
1ef
100
AcDbEntity
  8
Layer_1
 62
7
100
AcDbSpline
 70
8
 71
3
 72
8
 73
4
 74
0
 40
0
 40
0
 40
0
 40
0
 40
1
 40
1
 40
1
 40
1
 10
550.438583
 20
2979.082176
 30
0.0
 10
548.909373
 20
2979.082176
 30
0.0
 10
547.496326
 20
2978.266353
 30
0.0
 10
546.731721
 20
2976.942019
 30
0.0
  0
SPLINE
  5
1f0
100
AcDbEntity
  8
Layer_1
 62
7
100
AcDbSpline
 70
8
 71
3
 72
8
 73
4
 74
0
 40
0
 40
0
 40
0
 40
0
 40
1
 40
1
 40
1
 40
1
 10
546.731721
 20
2976.942019
 30
0.0
 10
545.967117
 20
2975.617685
 30
0.0
 10
545.967117
 20
2973.986038
 30
0.0
 10
546.731721
 20
2972.661704
 30
0.0
  0
SPLINE
  5
1f1
100
AcDbEntity
  8
Layer_1
 62
7
100
AcDbSpline
 70
8
 71
3
 72
8
 73
4
 74
0
 40
0
 40
0
 40
0
 40
0
 40
1
 40
1
 40
1
 40
1
 10
546.731721
 20
2972.661704
 30
0.0
 10
547.496326
 20
2971.337370
 30
0.0
 10
548.909373
 20
2970.521546
 30
0.0
 10
550.438583
 20
2970.521546
 30
0.0
  0
LWPOLYLINE
  5
1f2
100
AcDbEntity
  8
Layer_1
 62
7
100
AcDbPolyline
 90
2
 70
0
 10
753.341839
 20
3181.985442
 30
0.0
 10
550.438583
 20
2979.082176
 30
0.0
  0
SPLINE
  5
1f3
100
AcDbEntity
  8
Layer_1
 62
7
100
AcDbSpline
 70
8
 71
3
 72
8
 73
4
 74
0
 40
0
 40
0
 40
0
 40
0
 40
1
 40
1
 40
1
 40
1
 10
578.859080
 20
2942.101020
 30
0.0
 10
578.859080
 20
2940.571811
 30
0.0
 10
579.674904
 20
2939.158764
 30
0.0
 10
580.999238
 20
2938.394159
 30
0.0
  0
SPLINE
  5
1f4
100
AcDbEntity
  8
Layer_1
 62
7
100
AcDbSpline
 70
8
 71
3
 72
8
 73
4
 74
0
 40
0
 40
0
 40
0
 40
0
 40
1
 40
1
 40
1
 40
1
 10
580.999238
 20
2938.394159
 30
0.0
 10
582.323572
 20
2937.629554
 30
0.0
 10
583.955219
 20
2937.629554
 30
0.0
 10
585.279553
 20
2938.394159
 30
0.0
  0
SPLINE
  5
1f5
100
AcDbEntity
  8
Layer_1
 62
7
100
AcDbSpline
 70
8
 71
3
 72
8
 73
4
 74
0
 40
0
 40
0
 40
0
 40
0
 40
1
 40
1
 40
1
 40
1
 10
585.279553
 20
2938.394159
 30
0.0
 10
586.603887
 20
2939.158764
 30
0.0
 10
587.419710
 20
2940.571811
 30
0.0
 10
587.419710
 20
2942.101020
 30
0.0
  0
LWPOLYLINE
  5
1f6
100
AcDbEntity
  8
Layer_1
 62
7
100
AcDbPolyline
 90
2
 70
0
 10
550.438583
 20
2970.521546
 30
0.0
 10
578.859080
 20
2942.101020
 30
0.0
  0
SPLINE
  5
1f7
100
AcDbEntity
  8
Layer_1
 62
7
100
AcDbSpline
 70
8
 71
3
 72
8
 73
4
 74
0
 40
0
 40
0
 40
0
 40
0
 40
1
 40
1
 40
1
 40
1
 10
790.322967
 20
3145.004306
 30
0.0
 10
791.852176
 20
3145.004306
 30
0.0
 10
793.265224
 20
3145.820129
 30
0.0
 10
794.029828
 20
3147.144463
 30
0.0
  0
SPLINE
  5
1f8
100
AcDbEntity
  8
Layer_1
 62
7
100
AcDbSpline
 70
8
 71
3
 72
8
 73
4
 74
0
 40
0
 40
0
 40
0
 40
0
 40
1
 40
1
 40
1
 40
1
 10
794.029828
 20
3147.144463
 30
0.0
 10
794.794433
 20
3148.468797
 30
0.0
 10
794.794433
 20
3150.100444
 30
0.0
 10
794.029828
 20
3151.424778
 30
0.0
  0
SPLINE
  5
1f9
100
AcDbEntity
  8
Layer_1
 62
7
100
AcDbSpline
 70
8
 71
3
 72
8
 73
4
 74
0
 40
0
 40
0
 40
0
 40
0
 40
1
 40
1
 40
1
 40
1
 10
794.029828
 20
3151.424778
 30
0.0
 10
793.265224
 20
3152.749112
 30
0.0
 10
791.852176
 20
3153.564935
 30
0.0
 10
790.322967
 20
3153.564935
 30
0.0
  0
LWPOLYLINE
  5
1fa
100
AcDbEntity
  8
Layer_1
 62
7
100
AcDbPolyline
 90
2
 70
0
 10
587.419710
 20
2942.101020
 30
0.0
 10
790.322967
 20
3145.004306
 30
0.0
  0
SPLINE
  5
1fb
100
AcDbEntity
  8
Layer_1
 62
7
100
AcDbSpline
 70
8
 71
3
 72
8
 73
4
 74
0
 40
0
 40
0
 40
0
 40
0
 40
1
 40
1
 40
1
 40
1
 10
761.902469
 20
3181.985442
 30
0.0
 10
761.899890
 20
3184.347569
 30
0.0
 10
759.984284
 20
3186.261086
 30
0.0
 10
757.622154
 20
3186.261086
 30
0.0
  0
SPLINE
  5
1fc
100
AcDbEntity
  8
Layer_1
 62
7
100
AcDbSpline
 70
8
 71
3
 72
8
 73
4
 74
0
 40
0
 40
0
 40
0
 40
0
 40
1
 40
1
 40
1
 40
1
 10
757.622154
 20
3186.261086
 30
0.0
 10
755.260025
 20
3186.261086
 30
0.0
 10
753.344418
 20
3184.347569
 30
0.0
 10
753.341839
 20
3181.985442
 30
0.0
  0
LWPOLYLINE
  5
1fd
100
AcDbEntity
  8
Layer_1
 62
7
100
AcDbPolyline
 90
2
 70
0
 10
790.322967
 20
3153.564935
 30
0.0
 10
761.902469
 20
3181.985442
 30
0.0
  0
LWPOLYLINE
  5
1fe
100
AcDbEntity
  8
Layer_1
 62
7
100
AcDbPolyline
 90
4
 70
1
 10
461.118898
 20
2779.494094
 30
0.0
 10
461.118898
 20
3346.423237
 30
0.0
 10
2870.567717
 20
3346.423237
 30
0.0
 10
2870.567717
 20
2779.494094
 30
0.0
  0
SPLINE
  5
1ff
100
AcDbEntity
  8
Layer_1
 62
7
100
AcDbSpline
 70
8
 71
3
 72
8
 73
4
 74
0
 40
0
 40
0
 40
0
 40
0
 40
1
 40
1
 40
1
 40
1
 10
4828.533732
 20
2956.447757
 30
0.0
 10
4828.538814
 20
2954.087403
 30
0.0
 10
4830.453687
 20
2952.176648
 30
0.0
 10
4832.814047
 20
2952.176648
 30
0.0
  0
SPLINE
  5
200
100
AcDbEntity
  8
Layer_1
 62
7
100
AcDbSpline
 70
8
 71
3
 72
8
 73
4
 74
0
 40
0
 40
0
 40
0
 40
0
 40
1
 40
1
 40
1
 40
1
 10
4832.814047
 20
2952.176648
 30
0.0
 10
4835.174407
 20
2952.176648
 30
0.0
 10
4837.089280
 20
2954.087403
 30
0.0
 10
4837.094362
 20
2956.447757
 30
0.0
  0
LWPOLYLINE
  5
201
100
AcDbEntity
  8
Layer_1
 62
7
100
AcDbPolyline
 90
2
 70
0
 10
4665.718488
 20
3119.263087
 30
0.0
 10
4828.533732
 20
2956.447757
 30
0.0
  0
SPLINE
  5
202
100
AcDbEntity
  8
Layer_1
 62
7
100
AcDbSpline
 70
8
 71
3
 72
8
 73
4
 74
0
 40
0
 40
0
 40
0
 40
0
 40
1
 40
1
 40
1
 40
1
 10
4865.514803
 20
2984.868255
 30
0.0
 10
4867.876931
 20
2984.870834
 30
0.0
 10
4869.790447
 20
2986.786441
 30
0.0
 10
4869.790447
 20
2989.148570
 30
0.0
  0
SPLINE
  5
203
100
AcDbEntity
  8
Layer_1
 62
7
100
AcDbSpline
 70
8
 71
3
 72
8
 73
4
 74
0
 40
0
 40
0
 40
0
 40
0
 40
1
 40
1
 40
1
 40
1
 10
4869.790447
 20
2989.148570
 30
0.0
 10
4869.790447
 20
2991.510699
 30
0.0
 10
4867.876931
 20
2993.426306
 30
0.0
 10
4865.514803
 20
2993.428885
 30
0.0
  0
LWPOLYLINE
  5
204
100
AcDbEntity
  8
Layer_1
 62
7
100
AcDbPolyline
 90
2
 70
0
 10
4837.094362
 20
2956.447757
 30
0.0
 10
4865.514803
 20
2984.868255
 30
0.0
  0
SPLINE
  5
205
100
AcDbEntity
  8
Layer_1
 62
7
100
AcDbSpline
 70
8
 71
3
 72
8
 73
4
 74
0
 40
0
 40
0
 40
0
 40
0
 40
1
 40
1
 40
1
 40
1
 10
4702.699559
 20
3156.244214
 30
0.0
 10
4702.694477
 20
3158.604569
 30
0.0
 10
4700.779604
 20
3160.515323
 30
0.0
 10
4698.419244
 20
3160.515323
 30
0.0
  0
SPLINE
  5
206
100
AcDbEntity
  8
Layer_1
 62
7
100
AcDbSpline
 70
8
 71
3
 72
8
 73
4
 74
0
 40
0
 40
0
 40
0
 40
0
 40
1
 40
1
 40
1
 40
1
 10
4698.419244
 20
3160.515323
 30
0.0
 10
4696.058884
 20
3160.515323
 30
0.0
 10
4694.144011
 20
3158.604569
 30
0.0
 10
4694.138929
 20
3156.244214
 30
0.0
  0
LWPOLYLINE
  5
207
100
AcDbEntity
  8
Layer_1
 62
7
100
AcDbPolyline
 90
2
 70
0
 10
4865.514803
 20
2993.428885
 30
0.0
 10
4702.699559
 20
3156.244214
 30
0.0
  0
SPLINE
  5
208
100
AcDbEntity
  8
Layer_1
 62
7
100
AcDbSpline
 70
8
 71
3
 72
8
 73
4
 74
0
 40
0
 40
0
 40
0
 40
0
 40
1
 40
1
 40
1
 40
1
 10
4665.718488
 20
3127.823717
 30
0.0
 10
4664.189279
 20
3127.823717
 30
0.0
 10
4662.776231
 20
3127.007893
 30
0.0
 10
4662.011627
 20
3125.683559
 30
0.0
  0
SPLINE
  5
209
100
AcDbEntity
  8
Layer_1
 62
7
100
AcDbSpline
 70
8
 71
3
 72
8
 73
4
 74
0
 40
0
 40
0
 40
0
 40
0
 40
1
 40
1
 40
1
 40
1
 10
4662.011627
 20
3125.683559
 30
0.0
 10
4661.247022
 20
3124.359225
 30
0.0
 10
4661.247022
 20
3122.727578
 30
0.0
 10
4662.011627
 20
3121.403244
 30
0.0
  0
SPLINE
  5
20a
100
AcDbEntity
  8
Layer_1
 62
7
100
AcDbSpline
 70
8
 71
3
 72
8
 73
4
 74
0
 40
0
 40
0
 40
0
 40
0
 40
1
 40
1
 40
1
 40
1
 10
4662.011627
 20
3121.403244
 30
0.0
 10
4662.776231
 20
3120.078910
 30
0.0
 10
4664.189279
 20
3119.263087
 30
0.0
 10
4665.718488
 20
3119.263087
 30
0.0
  0
LWPOLYLINE
  5
20b
100
AcDbEntity
  8
Layer_1
 62
7
100
AcDbPolyline
 90
2
 70
0
 10
4694.138929
 20
3156.244214
 30
0.0
 10
4665.718488
 20
3127.823717
 30
0.0
  0
SPLINE
  5
20c
100
AcDbEntity
  8
Layer_1
 62
7
100
AcDbSpline
 70
8
 71
3
 72
8
 73
4
 74
0
 40
0
 40
0
 40
0
 40
0
 40
1
 40
1
 40
1
 40
1
 10
5312.385071
 20
3126.791197
 30
0.0
 10
5314.744715
 20
3126.797269
 30
0.0
 10
5316.654371
 20
3128.711845
 30
0.0
 10
5316.654371
 20
3131.071498
 30
0.0
  0
SPLINE
  5
20d
100
AcDbEntity
  8
Layer_1
 62
7
100
AcDbSpline
 70
8
 71
3
 72
8
 73
4
 74
0
 40
0
 40
0
 40
0
 40
0
 40
1
 40
1
 40
1
 40
1
 10
5316.654371
 20
3131.071498
 30
0.0
 10
5316.654371
 20
3133.431150
 30
0.0
 10
5314.744715
 20
3135.345726
 30
0.0
 10
5312.385071
 20
3135.351798
 30
0.0
  0
LWPOLYLINE
  5
20e
100
AcDbEntity
  8
Layer_1
 62
7
100
AcDbPolyline
 90
2
 70
0
 10
5149.569827
 20
2963.975868
 30
0.0
 10
5312.385071
 20
3126.791197
 30
0.0
  0
SPLINE
  5
20f
100
AcDbEntity
  8
Layer_1
 62
7
100
AcDbSpline
 70
8
 71
3
 72
8
 73
4
 74
0
 40
0
 40
0
 40
0
 40
0
 40
1
 40
1
 40
1
 40
1
 10
5283.964630
 20
3163.772324
 30
0.0
 10
5283.959548
 20
3166.132679
 30
0.0
 10
5282.044675
 20
3168.043433
 30
0.0
 10
5279.684315
 20
3168.043433
 30
0.0
  0
SPLINE
  5
210
100
AcDbEntity
  8
Layer_1
 62
7
100
AcDbSpline
 70
8
 71
3
 72
8
 73
4
 74
0
 40
0
 40
0
 40
0
 40
0
 40
1
 40
1
 40
1
 40
1
 10
5279.684315
 20
3168.043433
 30
0.0
 10
5277.323955
 20
3168.043433
 30
0.0
 10
5275.409082
 20
3166.132679
 30
0.0
 10
5275.404000
 20
3163.772324
 30
0.0
  0
LWPOLYLINE
  5
211
100
AcDbEntity
  8
Layer_1
 62
7
100
AcDbPolyline
 90
2
 70
0
 10
5312.385071
 20
3135.351798
 30
0.0
 10
5283.964630
 20
3163.772324
 30
0.0
  0
SPLINE
  5
212
100
AcDbEntity
  8
Layer_1
 62
7
100
AcDbSpline
 70
8
 71
3
 72
8
 73
4
 74
0
 40
0
 40
0
 40
0
 40
0
 40
1
 40
1
 40
1
 40
1
 10
5112.588756
 20
3000.956995
 30
0.0
 10
5110.226628
 20
3000.954416
 30
0.0
 10
5108.313112
 20
2999.038810
 30
0.0
 10
5108.313112
 20
2996.676680
 30
0.0
  0
SPLINE
  5
213
100
AcDbEntity
  8
Layer_1
 62
7
100
AcDbSpline
 70
8
 71
3
 72
8
 73
4
 74
0
 40
0
 40
0
 40
0
 40
0
 40
1
 40
1
 40
1
 40
1
 10
5108.313112
 20
2996.676680
 30
0.0
 10
5108.313112
 20
2994.314551
 30
0.0
 10
5110.226628
 20
2992.398944
 30
0.0
 10
5112.588756
 20
2992.396365
 30
0.0
  0
LWPOLYLINE
  5
214
100
AcDbEntity
  8
Layer_1
 62
7
100
AcDbPolyline
 90
2
 70
0
 10
5275.404000
 20
3163.772324
 30
0.0
 10
5112.588756
 20
3000.956995
 30
0.0
  0
SPLINE
  5
215
100
AcDbEntity
  8
Layer_1
 62
7
100
AcDbSpline
 70
8
 71
3
 72
8
 73
4
 74
0
 40
0
 40
0
 40
0
 40
0
 40
1
 40
1
 40
1
 40
1
 10
5141.009197
 20
2963.975868
 30
0.0
 10
5141.009197
 20
2962.446658
 30
0.0
 10
5141.825020
 20
2961.033611
 30
0.0
 10
5143.149354
 20
2960.269006
 30
0.0
  0
SPLINE
  5
216
100
AcDbEntity
  8
Layer_1
 62
7
100
AcDbSpline
 70
8
 71
3
 72
8
 73
4
 74
0
 40
0
 40
0
 40
0
 40
0
 40
1
 40
1
 40
1
 40
1
 10
5143.149354
 20
2960.269006
 30
0.0
 10
5144.473688
 20
2959.504402
 30
0.0
 10
5146.105335
 20
2959.504402
 30
0.0
 10
5147.429669
 20
2960.269006
 30
0.0
  0
SPLINE
  5
217
100
AcDbEntity
  8
Layer_1
 62
7
100
AcDbSpline
 70
8
 71
3
 72
8
 73
4
 74
0
 40
0
 40
0
 40
0
 40
0
 40
1
 40
1
 40
1
 40
1
 10
5147.429669
 20
2960.269006
 30
0.0
 10
5148.754003
 20
2961.033611
 30
0.0
 10
5149.569827
 20
2962.446658
 30
0.0
 10
5149.569827
 20
2963.975868
 30
0.0
  0
LWPOLYLINE
  5
218
100
AcDbEntity
  8
Layer_1
 62
7
100
AcDbPolyline
 90
2
 70
0
 10
5112.588756
 20
2992.396365
 30
0.0
 10
5141.009197
 20
2963.975868
 30
0.0
  0
SPLINE
  5
219
100
AcDbEntity
  8
Layer_1
 62
7
100
AcDbSpline
 70
8
 71
3
 72
8
 73
4
 74
0
 40
0
 40
0
 40
0
 40
0
 40
1
 40
1
 40
1
 40
1
 10
3569.534929
 20
3142.050293
 30
0.0
 10
3567.170976
 20
3142.050215
 30
0.0
 10
3565.254678
 20
3140.133789
 30
0.0
 10
3565.254756
 20
3137.769836
 30
0.0
  0
SPLINE
  5
21a
100
AcDbEntity
  8
Layer_1
 62
7
100
AcDbSpline
 70
8
 71
3
 72
8
 73
4
 74
0
 40
0
 40
0
 40
0
 40
0
 40
1
 40
1
 40
1
 40
1
 10
3565.254756
 20
3137.769836
 30
0.0
 10
3565.254834
 20
3135.405884
 30
0.0
 10
3567.171260
 20
3133.489585
 30
0.0
 10
3569.535213
 20
3133.489663
 30
0.0
  0
LWPOLYLINE
  5
21b
100
AcDbEntity
  8
Layer_1
 62
7
100
AcDbPolyline
 90
2
 70
0
 10
3597.965291
 20
3170.480655
 30
0.0
 10
3569.534929
 20
3142.050293
 30
0.0
  0
SPLINE
  5
21c
100
AcDbEntity
  8
Layer_1
 62
7
100
AcDbSpline
 70
8
 71
3
 72
8
 73
4
 74
0
 40
0
 40
0
 40
0
 40
0
 40
1
 40
1
 40
1
 40
1
 10
3732.360094
 20
2970.683830
 30
0.0
 10
3732.365246
 20
2968.323475
 30
0.0
 10
3734.280176
 20
2966.412777
 30
0.0
 10
3736.640537
 20
2966.412848
 30
0.0
  0
SPLINE
  5
21d
100
AcDbEntity
  8
Layer_1
 62
7
100
AcDbSpline
 70
8
 71
3
 72
8
 73
4
 74
0
 40
0
 40
0
 40
0
 40
0
 40
1
 40
1
 40
1
 40
1
 10
3736.640537
 20
2966.412848
 30
0.0
 10
3739.000897
 20
2966.412918
 30
0.0
 10
3740.915713
 20
2968.323730
 30
0.0
 10
3740.920724
 20
2970.684085
 30
0.0
  0
LWPOLYLINE
  5
21e
100
AcDbEntity
  8
Layer_1
 62
7
100
AcDbPolyline
 90
2
 70
0
 10
3569.535213
 20
3133.489663
 30
0.0
 10
3732.360094
 20
2970.683830
 30
0.0
  0
SPLINE
  5
21f
100
AcDbEntity
  8
Layer_1
 62
7
100
AcDbSpline
 70
8
 71
3
 72
8
 73
4
 74
0
 40
0
 40
0
 40
0
 40
0
 40
1
 40
1
 40
1
 40
1
 10
3769.341449
 20
2999.104696
 30
0.0
 10
3771.703577
 20
2999.107275
 30
0.0
 10
3773.617093
 20
3001.022882
 30
0.0
 10
3773.617093
 20
3003.385011
 30
0.0
  0
SPLINE
  5
220
100
AcDbEntity
  8
Layer_1
 62
7
100
AcDbSpline
 70
8
 71
3
 72
8
 73
4
 74
0
 40
0
 40
0
 40
0
 40
0
 40
1
 40
1
 40
1
 40
1
 10
3773.617093
 20
3003.385011
 30
0.0
 10
3773.617093
 20
3005.747140
 30
0.0
 10
3771.703577
 20
3007.662747
 30
0.0
 10
3769.341449
 20
3007.665326
 30
0.0
  0
LWPOLYLINE
  5
221
100
AcDbEntity
  8
Layer_1
 62
7
100
AcDbPolyline
 90
2
 70
0
 10
3740.920724
 20
2970.684085
 30
0.0
 10
3769.341449
 20
2999.104696
 30
0.0
  0
SPLINE
  5
222
100
AcDbEntity
  8
Layer_1
 62
7
100
AcDbSpline
 70
8
 71
3
 72
8
 73
4
 74
0
 40
0
 40
0
 40
0
 40
0
 40
1
 40
1
 40
1
 40
1
 10
3606.525921
 20
3170.480655
 30
0.0
 10
3606.525921
 20
3172.009864
 30
0.0
 10
3605.710098
 20
3173.422912
 30
0.0
 10
3604.385764
 20
3174.187517
 30
0.0
  0
SPLINE
  5
223
100
AcDbEntity
  8
Layer_1
 62
7
100
AcDbSpline
 70
8
 71
3
 72
8
 73
4
 74
0
 40
0
 40
0
 40
0
 40
0
 40
1
 40
1
 40
1
 40
1
 10
3604.385764
 20
3174.187517
 30
0.0
 10
3603.061430
 20
3174.952121
 30
0.0
 10
3601.429783
 20
3174.952121
 30
0.0
 10
3600.105449
 20
3174.187517
 30
0.0
  0
SPLINE
  5
224
100
AcDbEntity
  8
Layer_1
 62
7
100
AcDbSpline
 70
8
 71
3
 72
8
 73
4
 74
0
 40
0
 40
0
 40
0
 40
0
 40
1
 40
1
 40
1
 40
1
 10
3600.105449
 20
3174.187517
 30
0.0
 10
3598.781115
 20
3173.422912
 30
0.0
 10
3597.965291
 20
3172.009864
 30
0.0
 10
3597.965291
 20
3170.480655
 30
0.0
  0
LWPOLYLINE
  5
225
100
AcDbEntity
  8
Layer_1
 62
7
100
AcDbPolyline
 90
2
 70
0
 10
3769.341449
 20
3007.665326
 30
0.0
 10
3606.525921
 20
3170.480655
 30
0.0
  0
SPLINE
  5
226
100
AcDbEntity
  8
Layer_1
 62
7
100
AcDbSpline
 70
8
 71
3
 72
8
 73
4
 74
0
 40
0
 40
0
 40
0
 40
0
 40
1
 40
1
 40
1
 40
1
 10
3121.663748
 20
2999.126126
 30
0.0
 10
3119.301620
 20
2999.123547
 30
0.0
 10
3117.388104
 20
2997.207940
 30
0.0
 10
3117.388104
 20
2994.845811
 30
0.0
  0
SPLINE
  5
227
100
AcDbEntity
  8
Layer_1
 62
7
100
AcDbSpline
 70
8
 71
3
 72
8
 73
4
 74
0
 40
0
 40
0
 40
0
 40
0
 40
1
 40
1
 40
1
 40
1
 10
3117.388104
 20
2994.845811
 30
0.0
 10
3117.388104
 20
2992.483682
 30
0.0
 10
3119.301620
 20
2990.568075
 30
0.0
 10
3121.663748
 20
2990.565496
 30
0.0
  0
LWPOLYLINE
  5
228
100
AcDbEntity
  8
Layer_1
 62
7
100
AcDbPolyline
 90
2
 70
0
 10
3284.478992
 20
3161.941455
 30
0.0
 10
3121.663748
 20
2999.126126
 30
0.0
  0
SPLINE
  5
229
100
AcDbEntity
  8
Layer_1
 62
7
100
AcDbSpline
 70
8
 71
3
 72
8
 73
4
 74
0
 40
0
 40
0
 40
0
 40
0
 40
1
 40
1
 40
1
 40
1
 10
3150.084189
 20
2962.144998
 30
0.0
 10
3150.090261
 20
2959.785346
 30
0.0
 10
3152.004844
 20
2957.875684
 30
0.0
 10
3154.364504
 20
2957.875684
 30
0.0
  0
SPLINE
  5
22a
100
AcDbEntity
  8
Layer_1
 62
7
100
AcDbSpline
 70
8
 71
3
 72
8
 73
4
 74
0
 40
0
 40
0
 40
0
 40
0
 40
1
 40
1
 40
1
 40
1
 10
3154.364504
 20
2957.875684
 30
0.0
 10
3156.724164
 20
2957.875684
 30
0.0
 10
3158.638747
 20
2959.785346
 30
0.0
 10
3158.644819
 20
2962.144998
 30
0.0
  0
LWPOLYLINE
  5
22b
100
AcDbEntity
  8
Layer_1
 62
7
100
AcDbPolyline
 90
2
 70
0
 10
3121.663748
 20
2990.565496
 30
0.0
 10
3150.084189
 20
2962.144998
 30
0.0
  0
SPLINE
  5
22c
100
AcDbEntity
  8
Layer_1
 62
7
100
AcDbSpline
 70
8
 71
3
 72
8
 73
4
 74
0
 40
0
 40
0
 40
0
 40
0
 40
1
 40
1
 40
1
 40
1
 10
3321.460063
 20
3124.960328
 30
0.0
 10
3323.822092
 20
3124.963046
 30
0.0
 10
3325.735455
 20
3126.878612
 30
0.0
 10
3325.735455
 20
3129.240643
 30
0.0
  0
SPLINE
  5
22d
100
AcDbEntity
  8
Layer_1
 62
7
100
AcDbSpline
 70
8
 71
3
 72
8
 73
4
 74
0
 40
0
 40
0
 40
0
 40
0
 40
1
 40
1
 40
1
 40
1
 10
3325.735455
 20
3129.240643
 30
0.0
 10
3325.735455
 20
3131.602673
 30
0.0
 10
3323.822092
 20
3133.518239
 30
0.0
 10
3321.460063
 20
3133.520957
 30
0.0
  0
LWPOLYLINE
  5
22e
100
AcDbEntity
  8
Layer_1
 62
7
100
AcDbPolyline
 90
2
 70
0
 10
3158.644819
 20
2962.144998
 30
0.0
 10
3321.460063
 20
3124.960328
 30
0.0
  0
SPLINE
  5
22f
100
AcDbEntity
  8
Layer_1
 62
7
100
AcDbSpline
 70
8
 71
3
 72
8
 73
4
 74
0
 40
0
 40
0
 40
0
 40
0
 40
1
 40
1
 40
1
 40
1
 10
3293.039622
 20
3161.941455
 30
0.0
 10
3293.033550
 20
3164.301107
 30
0.0
 10
3291.118967
 20
3166.210769
 30
0.0
 10
3288.759307
 20
3166.210769
 30
0.0
  0
SPLINE
  5
230
100
AcDbEntity
  8
Layer_1
 62
7
100
AcDbSpline
 70
8
 71
3
 72
8
 73
4
 74
0
 40
0
 40
0
 40
0
 40
0
 40
1
 40
1
 40
1
 40
1
 10
3288.759307
 20
3166.210769
 30
0.0
 10
3286.399647
 20
3166.210769
 30
0.0
 10
3284.485065
 20
3164.301107
 30
0.0
 10
3284.478992
 20
3161.941455
 30
0.0
  0
LWPOLYLINE
  5
231
100
AcDbEntity
  8
Layer_1
 62
7
100
AcDbPolyline
 90
2
 70
0
 10
3321.460063
 20
3133.520957
 30
0.0
 10
3293.039622
 20
3161.941455
 30
0.0
  0
LWPOLYLINE
  5
232
100
AcDbEntity
  8
Layer_1
 62
7
100
AcDbPolyline
 90
4
 70
1
 10
5421.748819
 20
3346.423237
 30
0.0
 10
5421.748819
 20
2779.494094
 30
0.0
 10
3012.300000
 20
2779.494094
 30
0.0
 10
3012.300000
 20
3346.423237
 30
0.0
  0
SPLINE
  5
233
100
AcDbEntity
  8
Layer_1
 62
7
100
AcDbSpline
 70
8
 71
3
 72
8
 73
4
 74
0
 40
0
 40
0
 40
0
 40
0
 40
1
 40
1
 40
1
 40
1
 10
4526.920063
 20
848.452025
 30
0.0
 10
4525.245621
 20
850.106556
 30
0.0
 10
4522.549399
 20
850.098478
 30
0.0
 10
4520.884903
 20
848.433942
 30
0.0
  0
SPLINE
  5
234
100
AcDbEntity
  8
Layer_1
 62
7
100
AcDbSpline
 70
8
 71
3
 72
8
 73
4
 74
0
 40
0
 40
0
 40
0
 40
0
 40
1
 40
1
 40
1
 40
1
 10
4520.884903
 20
848.433942
 30
0.0
 10
4519.220406
 20
846.769406
 30
0.0
 10
4519.212390
 20
844.073184
 30
0.0
 10
4520.866961
 20
842.398781
 30
0.0
  0
LWPOLYLINE
  5
235
100
AcDbEntity
  8
Layer_1
 62
7
100
AcDbPolyline
 90
2
 70
0
 10
5427.953575
 20
848.452025
 30
0.0
 10
4526.920063
 20
848.452025
 30
0.0
  0
SPLINE
  5
236
100
AcDbEntity
  8
Layer_1
 62
7
100
AcDbSpline
 70
8
 71
3
 72
8
 73
4
 74
0
 40
0
 40
0
 40
0
 40
0
 40
1
 40
1
 40
1
 40
1
 10
3619.833449
 20
820.105625
 30
0.0
 10
3618.159617
 20
821.763915
 30
0.0
 10
3615.460309
 20
821.757594
 30
0.0
 10
3613.794262
 20
820.091484
 30
0.0
  0
SPLINE
  5
237
100
AcDbEntity
  8
Layer_1
 62
7
100
AcDbSpline
 70
8
 71
3
 72
8
 73
4
 74
0
 40
0
 40
0
 40
0
 40
0
 40
1
 40
1
 40
1
 40
1
 10
3613.794262
 20
820.091484
 30
0.0
 10
3612.128214
 20
818.425374
 30
0.0
 10
3612.121994
 20
815.726066
 30
0.0
 10
3613.780346
 20
814.052296
 30
0.0
  0
LWPOLYLINE
  5
238
100
AcDbEntity
  8
Layer_1
 62
7
100
AcDbPolyline
 90
3
 70
0
 10
4520.866961
 20
842.398781
 30
0.0
 10
4520.866961
 20
820.105625
 30
0.0
 10
3619.833449
 20
820.105625
 30
0.0
  0
SPLINE
  5
239
100
AcDbEntity
  8
Layer_1
 62
7
100
AcDbSpline
 70
8
 71
3
 72
8
 73
4
 74
0
 40
0
 40
0
 40
0
 40
0
 40
1
 40
1
 40
1
 40
1
 10
2712.747005
 20
791.759140
 30
0.0
 10
2711.075185
 20
793.429190
 30
0.0
 10
2708.366289
 20
793.428482
 30
0.0
 10
2706.695342
 20
791.757559
 30
0.0
  0
SPLINE
  5
23a
100
AcDbEntity
  8
Layer_1
 62
7
100
AcDbSpline
 70
8
 71
3
 72
8
 73
4
 74
0
 40
0
 40
0
 40
0
 40
0
 40
1
 40
1
 40
1
 40
1
 10
2706.695342
 20
791.757559
 30
0.0
 10
2705.024395
 20
790.086636
 30
0.0
 10
2705.023650
 20
787.377739
 30
0.0
 10
2706.693676
 20
785.705896
 30
0.0
  0
LWPOLYLINE
  5
23b
100
AcDbEntity
  8
Layer_1
 62
7
100
AcDbPolyline
 90
3
 70
0
 10
3613.780346
 20
814.052296
 30
0.0
 10
3613.780346
 20
791.759140
 30
0.0
 10
2712.747005
 20
791.759140
 30
0.0
  0
SPLINE
  5
23c
100
AcDbEntity
  8
Layer_1
 62
7
100
AcDbSpline
 70
8
 71
3
 72
8
 73
4
 74
0
 40
0
 40
0
 40
0
 40
0
 40
1
 40
1
 40
1
 40
1
 10
1805.660419
 20
763.412683
 30
0.0
 10
1803.988599
 20
765.082733
 30
0.0
 10
1801.279703
 20
765.082025
 30
0.0
 10
1799.608756
 20
763.411102
 30
0.0
  0
SPLINE
  5
23d
100
AcDbEntity
  8
Layer_1
 62
7
100
AcDbSpline
 70
8
 71
3
 72
8
 73
4
 74
0
 40
0
 40
0
 40
0
 40
0
 40
1
 40
1
 40
1
 40
1
 10
1799.608756
 20
763.411102
 30
0.0
 10
1797.937810
 20
761.740179
 30
0.0
 10
1797.937064
 20
759.031283
 30
0.0
 10
1799.607090
 20
757.359439
 30
0.0
  0
LWPOLYLINE
  5
23e
100
AcDbEntity
  8
Layer_1
 62
7
100
AcDbPolyline
 90
3
 70
0
 10
2706.693676
 20
785.705896
 30
0.0
 10
2706.693676
 20
763.412683
 30
0.0
 10
1805.660419
 20
763.412683
 30
0.0
  0
SPLINE
  5
23f
100
AcDbEntity
  8
Layer_1
 62
7
100
AcDbSpline
 70
8
 71
3
 72
8
 73
4
 74
0
 40
0
 40
0
 40
0
 40
0
 40
1
 40
1
 40
1
 40
1
 10
898.573748
 20
735.066198
 30
0.0
 10
896.901134
 20
736.731587
 30
0.0
 10
894.196047
 20
736.728666
 30
0.0
 10
892.527034
 20
735.059668
 30
0.0
  0
SPLINE
  5
240
100
AcDbEntity
  8
Layer_1
 62
7
100
AcDbSpline
 70
8
 71
3
 72
8
 73
4
 74
0
 40
0
 40
0
 40
0
 40
0
 40
1
 40
1
 40
1
 40
1
 10
892.527034
 20
735.059668
 30
0.0
 10
890.858021
 20
733.390670
 30
0.0
 10
890.855074
 20
730.685584
 30
0.0
 10
892.520447
 20
729.012954
 30
0.0
  0
LWPOLYLINE
  5
241
100
AcDbEntity
  8
Layer_1
 62
7
100
AcDbPolyline
 90
3
 70
0
 10
1799.607090
 20
757.359439
 30
0.0
 10
1799.607090
 20
735.066198
 30
0.0
 10
898.573748
 20
735.066198
 30
0.0
  0
SPLINE
  5
242
100
AcDbEntity
  8
Layer_1
 62
7
100
AcDbSpline
 70
8
 71
3
 72
8
 73
4
 74
0
 40
0
 40
0
 40
0
 40
0
 40
1
 40
1
 40
1
 40
1
 10
892.520447
 20
1038.757323
 30
0.0
 10
890.849574
 20
1037.085629
 30
0.0
 10
890.849904
 20
1034.376046
 30
0.0
 10
892.521184
 20
1032.704758
 30
0.0
  0
SPLINE
  5
243
100
AcDbEntity
  8
Layer_1
 62
7
100
AcDbSpline
 70
8
 71
3
 72
8
 73
4
 74
0
 40
0
 40
0
 40
0
 40
0
 40
1
 40
1
 40
1
 40
1
 10
892.521184
 20
1032.704758
 30
0.0
 10
894.192463
 20
1031.033471
 30
0.0
 10
896.902046
 20
1031.033128
 30
0.0
 10
898.573748
 20
1032.703994
 30
0.0
  0
LWPOLYLINE
  5
244
100
AcDbEntity
  8
Layer_1
 62
7
100
AcDbPolyline
 90
6
 70
0
 10
892.520447
 20
729.012954
 30
0.0
 10
892.520447
 20
706.719798
 30
0.0
 10
467.323597
 20
706.719798
 30
0.0
 10
467.323597
 20
1061.050479
 30
0.0
 10
892.520447
 20
1061.050479
 30
0.0
 10
892.520447
 20
1038.757323
 30
0.0
  0
SPLINE
  5
245
100
AcDbEntity
  8
Layer_1
 62
7
100
AcDbSpline
 70
8
 71
3
 72
8
 73
4
 74
0
 40
0
 40
0
 40
0
 40
0
 40
1
 40
1
 40
1
 40
1
 10
1799.607090
 20
1010.410866
 30
0.0
 10
1798.525777
 20
1009.329543
 30
0.0
 10
1798.103481
 20
1007.753486
 30
0.0
 10
1798.499278
 20
1006.276380
 30
0.0
  0
SPLINE
  5
246
100
AcDbEntity
  8
Layer_1
 62
7
100
AcDbSpline
 70
8
 71
3
 72
8
 73
4
 74
0
 40
0
 40
0
 40
0
 40
0
 40
1
 40
1
 40
1
 40
1
 10
1798.499278
 20
1006.276380
 30
0.0
 10
1798.895075
 20
1004.799274
 30
0.0
 10
1800.048833
 20
1003.645526
 30
0.0
 10
1801.525943
 20
1003.249743
 30
0.0
  0
SPLINE
  5
247
100
AcDbEntity
  8
Layer_1
 62
7
100
AcDbSpline
 70
8
 71
3
 72
8
 73
4
 74
0
 40
0
 40
0
 40
0
 40
0
 40
1
 40
1
 40
1
 40
1
 10
1801.525943
 20
1003.249743
 30
0.0
 10
1803.003053
 20
1002.853961
 30
0.0
 10
1804.579106
 20
1003.276271
 30
0.0
 10
1805.660419
 20
1004.357594
 30
0.0
  0
LWPOLYLINE
  5
248
100
AcDbEntity
  8
Layer_1
 62
7
100
AcDbPolyline
 90
3
 70
0
 10
898.573748
 20
1032.703994
 30
0.0
 10
1799.607090
 20
1032.703994
 30
0.0
 10
1799.607090
 20
1010.410866
 30
0.0
  0
SPLINE
  5
249
100
AcDbEntity
  8
Layer_1
 62
7
100
AcDbSpline
 70
8
 71
3
 72
8
 73
4
 74
0
 40
0
 40
0
 40
0
 40
0
 40
1
 40
1
 40
1
 40
1
 10
2706.693676
 20
982.064381
 30
0.0
 10
2705.023650
 20
980.392538
 30
0.0
 10
2705.024395
 20
977.683642
 30
0.0
 10
2706.695342
 20
976.012718
 30
0.0
  0
SPLINE
  5
24a
100
AcDbEntity
  8
Layer_1
 62
7
100
AcDbSpline
 70
8
 71
3
 72
8
 73
4
 74
0
 40
0
 40
0
 40
0
 40
0
 40
1
 40
1
 40
1
 40
1
 10
2706.695342
 20
976.012718
 30
0.0
 10
2708.366289
 20
974.341795
 30
0.0
 10
2711.075185
 20
974.341087
 30
0.0
 10
2712.747005
 20
976.011137
 30
0.0
  0
LWPOLYLINE
  5
24b
100
AcDbEntity
  8
Layer_1
 62
7
100
AcDbPolyline
 90
3
 70
0
 10
1805.660419
 20
1004.357594
 30
0.0
 10
2706.693676
 20
1004.357594
 30
0.0
 10
2706.693676
 20
982.064381
 30
0.0
  0
SPLINE
  5
24c
100
AcDbEntity
  8
Layer_1
 62
7
100
AcDbSpline
 70
8
 71
3
 72
8
 73
4
 74
0
 40
0
 40
0
 40
0
 40
0
 40
1
 40
1
 40
1
 40
1
 10
3613.780346
 20
953.717896
 30
0.0
 10
3612.125650
 20
952.043514
 30
0.0
 10
3612.133605
 20
949.347189
 30
0.0
 10
3613.798154
 20
947.682601
 30
0.0
  0
SPLINE
  5
24d
100
AcDbEntity
  8
Layer_1
 62
7
100
AcDbSpline
 70
8
 71
3
 72
8
 73
4
 74
0
 40
0
 40
0
 40
0
 40
0
 40
1
 40
1
 40
1
 40
1
 10
3613.798154
 20
947.682601
 30
0.0
 10
3615.462703
 20
946.018013
 30
0.0
 10
3618.159028
 20
946.009994
 30
0.0
 10
3619.833449
 20
947.664652
 30
0.0
  0
LWPOLYLINE
  5
24e
100
AcDbEntity
  8
Layer_1
 62
7
100
AcDbPolyline
 90
3
 70
0
 10
2712.747005
 20
976.011137
 30
0.0
 10
3613.780346
 20
976.011137
 30
0.0
 10
3613.780346
 20
953.717896
 30
0.0
  0
SPLINE
  5
24f
100
AcDbEntity
  8
Layer_1
 62
7
100
AcDbSpline
 70
8
 71
3
 72
8
 73
4
 74
0
 40
0
 40
0
 40
0
 40
0
 40
1
 40
1
 40
1
 40
1
 10
4520.866961
 20
925.371496
 30
0.0
 10
4519.208445
 20
923.697754
 30
0.0
 10
4519.214588
 20
920.998313
 30
0.0
 10
4520.880703
 20
919.332135
 30
0.0
  0
SPLINE
  5
250
100
AcDbEntity
  8
Layer_1
 62
7
100
AcDbSpline
 70
8
 71
3
 72
8
 73
4
 74
0
 40
0
 40
0
 40
0
 40
0
 40
1
 40
1
 40
1
 40
1
 10
4520.880703
 20
919.332135
 30
0.0
 10
4522.546818
 20
917.665958
 30
0.0
 10
4525.246258
 20
917.659714
 30
0.0
 10
4526.920063
 20
919.318167
 30
0.0
  0
LWPOLYLINE
  5
251
100
AcDbEntity
  8
Layer_1
 62
7
100
AcDbPolyline
 90
3
 70
0
 10
3619.833449
 20
947.664652
 30
0.0
 10
4520.866961
 20
947.664652
 30
0.0
 10
4520.866961
 20
925.371496
 30
0.0
  0
LWPOLYLINE
  5
252
100
AcDbEntity
  8
Layer_1
 62
7
100
AcDbPolyline
 90
3
 70
0
 10
4526.920063
 20
919.318167
 30
0.0
 10
5427.953575
 20
919.318167
 30
0.0
 10
5427.953575
 20
848.452025
 30
0.0
  0
SPLINE
  5
253
100
AcDbEntity
  8
Layer_1
 62
7
100
AcDbSpline
 70
8
 71
3
 72
8
 73
4
 74
0
 40
0
 40
0
 40
0
 40
0
 40
1
 40
1
 40
1
 40
1
 10
1368.246302
 20
591.954520
 30
0.0
 10
1369.327645
 20
590.873226
 30
0.0
 10
1370.903704
 20
590.450938
 30
0.0
 10
1372.380808
 20
590.846742
 30
0.0
  0
SPLINE
  5
254
100
AcDbEntity
  8
Layer_1
 62
7
100
AcDbSpline
 70
8
 71
3
 72
8
 73
4
 74
0
 40
0
 40
0
 40
0
 40
0
 40
1
 40
1
 40
1
 40
1
 10
1372.380808
 20
590.846742
 30
0.0
 10
1373.857912
 20
591.242545
 30
0.0
 10
1375.011654
 20
592.396309
 30
0.0
 10
1375.407430
 20
593.873420
 30
0.0
  0
SPLINE
  5
255
100
AcDbEntity
  8
Layer_1
 62
7
100
AcDbSpline
 70
8
 71
3
 72
8
 73
4
 74
0
 40
0
 40
0
 40
0
 40
0
 40
1
 40
1
 40
1
 40
1
 10
1375.407430
 20
593.873420
 30
0.0
 10
1375.803206
 20
595.350532
 30
0.0
 10
1375.380889
 20
596.926583
 30
0.0
 10
1374.299561
 20
598.007891
 30
0.0
  0
LWPOLYLINE
  5
256
100
AcDbEntity
  8
Layer_1
 62
7
100
AcDbPolyline
 90
2
 70
0
 10
467.212961
 20
591.954520
 30
0.0
 10
1368.246302
 20
591.954520
 30
0.0
  0
SPLINE
  5
257
100
AcDbEntity
  8
Layer_1
 62
7
100
AcDbSpline
 70
8
 71
3
 72
8
 73
4
 74
0
 40
0
 40
0
 40
0
 40
0
 40
1
 40
1
 40
1
 40
1
 10
2275.332917
 20
620.300976
 30
0.0
 10
2277.005526
 20
618.635549
 30
0.0
 10
2279.710643
 20
618.638449
 30
0.0
 10
2281.379677
 20
620.307460
 30
0.0
  0
SPLINE
  5
258
100
AcDbEntity
  8
Layer_1
 62
7
100
AcDbSpline
 70
8
 71
3
 72
8
 73
4
 74
0
 40
0
 40
0
 40
0
 40
0
 40
1
 40
1
 40
1
 40
1
 10
2281.379677
 20
620.307460
 30
0.0
 10
2283.048711
 20
621.976470
 30
0.0
 10
2283.051650
 20
624.681588
 30
0.0
 10
2281.386246
 20
626.354220
 30
0.0
  0
LWPOLYLINE
  5
259
100
AcDbEntity
  8
Layer_1
 62
7
100
AcDbPolyline
 90
3
 70
0
 10
1374.299561
 20
598.007891
 30
0.0
 10
1374.299561
 20
620.300976
 30
0.0
 10
2275.332917
 20
620.300976
 30
0.0
  0
SPLINE
  5
25a
100
AcDbEntity
  8
Layer_1
 62
7
100
AcDbSpline
 70
8
 71
3
 72
8
 73
4
 74
0
 40
0
 40
0
 40
0
 40
0
 40
1
 40
1
 40
1
 40
1
 10
3182.419559
 20
648.647376
 30
0.0
 10
3184.091146
 20
646.975802
 30
0.0
 10
3186.801314
 20
646.975789
 30
0.0
 10
3188.472902
 20
648.647362
 30
0.0
  0
SPLINE
  5
25b
100
AcDbEntity
  8
Layer_1
 62
7
100
AcDbSpline
 70
8
 71
3
 72
8
 73
4
 74
0
 40
0
 40
0
 40
0
 40
0
 40
1
 40
1
 40
1
 40
1
 10
3188.472902
 20
648.647362
 30
0.0
 10
3190.144491
 20
650.318935
 30
0.0
 10
3190.144504
 20
653.029103
 30
0.0
 10
3188.472931
 20
654.700691
 30
0.0
  0
LWPOLYLINE
  5
25c
100
AcDbEntity
  8
Layer_1
 62
7
100
AcDbPolyline
 90
3
 70
0
 10
2281.386246
 20
626.354220
 30
0.0
 10
2281.386246
 20
648.647376
 30
0.0
 10
3182.419559
 20
648.647376
 30
0.0
  0
SPLINE
  5
25d
100
AcDbEntity
  8
Layer_1
 62
7
100
AcDbSpline
 70
8
 71
3
 72
8
 73
4
 74
0
 40
0
 40
0
 40
0
 40
0
 40
1
 40
1
 40
1
 40
1
 10
4089.506173
 20
676.993861
 30
0.0
 10
4091.180005
 20
675.335572
 30
0.0
 10
4093.879313
 20
675.341893
 30
0.0
 10
4095.545361
 20
677.008003
 30
0.0
  0
SPLINE
  5
25e
100
AcDbEntity
  8
Layer_1
 62
7
100
AcDbSpline
 70
8
 71
3
 72
8
 73
4
 74
0
 40
0
 40
0
 40
0
 40
0
 40
1
 40
1
 40
1
 40
1
 10
4095.545361
 20
677.008003
 30
0.0
 10
4097.211408
 20
678.674113
 30
0.0
 10
4097.217628
 20
681.373421
 30
0.0
 10
4095.559276
 20
683.047191
 30
0.0
  0
LWPOLYLINE
  5
25f
100
AcDbEntity
  8
Layer_1
 62
7
100
AcDbPolyline
 90
3
 70
0
 10
3188.472931
 20
654.700691
 30
0.0
 10
3188.472931
 20
676.993861
 30
0.0
 10
4089.506173
 20
676.993861
 30
0.0
  0
SPLINE
  5
260
100
AcDbEntity
  8
Layer_1
 62
7
100
AcDbSpline
 70
8
 71
3
 72
8
 73
4
 74
0
 40
0
 40
0
 40
0
 40
0
 40
1
 40
1
 40
1
 40
1
 10
4996.592787
 20
705.340318
 30
0.0
 10
4998.266620
 20
703.682029
 30
0.0
 10
5000.965927
 20
703.688349
 30
0.0
 10
5002.631975
 20
705.354459
 30
0.0
  0
SPLINE
  5
261
100
AcDbEntity
  8
Layer_1
 62
7
100
AcDbSpline
 70
8
 71
3
 72
8
 73
4
 74
0
 40
0
 40
0
 40
0
 40
0
 40
1
 40
1
 40
1
 40
1
 10
5002.631975
 20
705.354459
 30
0.0
 10
5004.298022
 20
707.020570
 30
0.0
 10
5004.304242
 20
709.719877
 30
0.0
 10
5002.645890
 20
711.393647
 30
0.0
  0
LWPOLYLINE
  5
262
100
AcDbEntity
  8
Layer_1
 62
7
100
AcDbPolyline
 90
3
 70
0
 10
4095.559276
 20
683.047191
 30
0.0
 10
4095.559276
 20
705.340318
 30
0.0
 10
4996.592787
 20
705.340318
 30
0.0
  0
SPLINE
  5
263
100
AcDbEntity
  8
Layer_1
 62
7
100
AcDbSpline
 70
8
 71
3
 72
8
 73
4
 74
0
 40
0
 40
0
 40
0
 40
0
 40
1
 40
1
 40
1
 40
1
 10
5002.645890
 20
401.649449
 30
0.0
 10
5004.307746
 20
403.322628
 30
0.0
 10
5004.303191
 20
406.024797
 30
0.0
 10
5002.635702
 20
407.692364
 30
0.0
  0
SPLINE
  5
264
100
AcDbEntity
  8
Layer_1
 62
7
100
AcDbSpline
 70
8
 71
3
 72
8
 73
4
 74
0
 40
0
 40
0
 40
0
 40
0
 40
1
 40
1
 40
1
 40
1
 10
5002.635702
 20
407.692364
 30
0.0
 10
5000.968213
 20
409.359931
 30
0.0
 10
4998.266045
 20
409.364613
 30
0.0
 10
4996.592787
 20
407.702835
 30
0.0
  0
LWPOLYLINE
  5
265
100
AcDbEntity
  8
Layer_1
 62
7
100
AcDbPolyline
 90
6
 70
0
 10
5002.645890
 20
711.393647
 30
0.0
 10
5002.645890
 20
733.686803
 30
0.0
 10
5427.842740
 20
733.686803
 30
0.0
 10
5427.842740
 20
379.356378
 30
0.0
 10
5002.645890
 20
379.356378
 30
0.0
 10
5002.645890
 20
401.649449
 30
0.0
  0
SPLINE
  5
266
100
AcDbEntity
  8
Layer_1
 62
7
100
AcDbSpline
 70
8
 71
3
 72
8
 73
4
 74
0
 40
0
 40
0
 40
0
 40
0
 40
1
 40
1
 40
1
 40
1
 10
4095.559276
 20
429.995906
 30
0.0
 10
4097.221132
 20
431.669085
 30
0.0
 10
4097.216576
 20
434.371254
 30
0.0
 10
4095.549088
 20
436.038821
 30
0.0
  0
SPLINE
  5
267
100
AcDbEntity
  8
Layer_1
 62
7
100
AcDbSpline
 70
8
 71
3
 72
8
 73
4
 74
0
 40
0
 40
0
 40
0
 40
0
 40
1
 40
1
 40
1
 40
1
 10
4095.549088
 20
436.038821
 30
0.0
 10
4093.881599
 20
437.706387
 30
0.0
 10
4091.179431
 20
437.711069
 30
0.0
 10
4089.506173
 20
436.049291
 30
0.0
  0
LWPOLYLINE
  5
268
100
AcDbEntity
  8
Layer_1
 62
7
100
AcDbPolyline
 90
3
 70
0
 10
4996.592787
 20
407.702835
 30
0.0
 10
4095.559276
 20
407.702835
 30
0.0
 10
4095.559276
 20
429.995906
 30
0.0
  0
SPLINE
  5
269
100
AcDbEntity
  8
Layer_1
 62
7
100
AcDbSpline
 70
8
 71
3
 72
8
 73
4
 74
0
 40
0
 40
0
 40
0
 40
0
 40
1
 40
1
 40
1
 40
1
 10
3188.472945
 20
458.342362
 30
0.0
 10
3189.554262
 20
459.423703
 30
0.0
 10
3189.976569
 20
460.999774
 30
0.0
 10
3189.580775
 20
462.476897
 30
0.0
  0
SPLINE
  5
26a
100
AcDbEntity
  8
Layer_1
 62
7
100
AcDbSpline
 70
8
 71
3
 72
8
 73
4
 74
0
 40
0
 40
0
 40
0
 40
0
 40
1
 40
1
 40
1
 40
1
 10
3189.580775
 20
462.476897
 30
0.0
 10
3189.184982
 20
463.954020
 30
0.0
 10
3188.031217
 20
465.107785
 30
0.0
 10
3186.554094
 20
465.503579
 30
0.0
  0
SPLINE
  5
26b
100
AcDbEntity
  8
Layer_1
 62
7
100
AcDbSpline
 70
8
 71
3
 72
8
 73
4
 74
0
 40
0
 40
0
 40
0
 40
0
 40
1
 40
1
 40
1
 40
1
 10
3186.554094
 20
465.503579
 30
0.0
 10
3185.076971
 20
465.899372
 30
0.0
 10
3183.500900
 20
465.477065
 30
0.0
 10
3182.419571
 20
464.395736
 30
0.0
  0
LWPOLYLINE
  5
26c
100
AcDbEntity
  8
Layer_1
 62
7
100
AcDbPolyline
 90
3
 70
0
 10
4089.506173
 20
436.049291
 30
0.0
 10
3188.472945
 20
436.049291
 30
0.0
 10
3188.472945
 20
458.342362
 30
0.0
  0
SPLINE
  5
26d
100
AcDbEntity
  8
Layer_1
 62
7
100
AcDbSpline
 70
8
 71
3
 72
8
 73
4
 74
0
 40
0
 40
0
 40
0
 40
0
 40
1
 40
1
 40
1
 40
1
 10
2281.386246
 20
486.688819
 30
0.0
 10
2283.054187
 20
488.361025
 30
0.0
 10
2283.052466
 20
491.068217
 30
0.0
 10
2281.382398
 20
492.738300
 30
0.0
  0
SPLINE
  5
26e
100
AcDbEntity
  8
Layer_1
 62
7
100
AcDbSpline
 70
8
 71
3
 72
8
 73
4
 74
0
 40
0
 40
0
 40
0
 40
0
 40
1
 40
1
 40
1
 40
1
 10
2281.382398
 20
492.738300
 30
0.0
 10
2279.712330
 20
494.408384
 30
0.0
 10
2277.005139
 20
494.410131
 30
0.0
 10
2275.332917
 20
492.742205
 30
0.0
  0
LWPOLYLINE
  5
26f
100
AcDbEntity
  8
Layer_1
 62
7
100
AcDbPolyline
 90
3
 70
0
 10
3182.419571
 20
464.395736
 30
0.0
 10
2281.386246
 20
464.395736
 30
0.0
 10
2281.386246
 20
486.688819
 30
0.0
  0
SPLINE
  5
270
100
AcDbEntity
  8
Layer_1
 62
7
100
AcDbSpline
 70
8
 71
3
 72
8
 73
4
 74
0
 40
0
 40
0
 40
0
 40
0
 40
1
 40
1
 40
1
 40
1
 10
1374.299575
 20
515.034992
 30
0.0
 10
1375.971138
 20
516.706567
 30
0.0
 10
1375.971164
 20
519.416715
 30
0.0
 10
1374.299610
 20
521.088300
 30
0.0
  0
SPLINE
  5
271
100
AcDbEntity
  8
Layer_1
 62
7
100
AcDbSpline
 70
8
 71
3
 72
8
 73
4
 74
0
 40
0
 40
0
 40
0
 40
0
 40
1
 40
1
 40
1
 40
1
 10
1374.299610
 20
521.088300
 30
0.0
 10
1372.628057
 20
522.759885
 30
0.0
 10
1369.917908
 20
522.759910
 30
0.0
 10
1368.246324
 20
521.088357
 30
0.0
  0
LWPOLYLINE
  5
272
100
AcDbEntity
  8
Layer_1
 62
7
100
AcDbPolyline
 90
3
 70
0
 10
2275.332917
 20
492.742205
 30
0.0
 10
1374.299575
 20
492.742205
 30
0.0
 10
1374.299575
 20
515.034992
 30
0.0
  0
LWPOLYLINE
  5
273
100
AcDbEntity
  8
Layer_1
 62
7
100
AcDbPolyline
 90
3
 70
0
 10
1368.246324
 20
521.088357
 30
0.0
 10
467.212961
 20
521.088357
 30
0.0
 10
467.212961
 20
591.954520
 30
0.0
  0
SPLINE
  5
274
100
AcDbEntity
  8
Layer_1
 62
7
100
AcDbSpline
 70
8
 71
3
 72
8
 73
4
 74
0
 40
0
 40
0
 40
0
 40
0
 40
1
 40
1
 40
1
 40
1
 10
4526.920063
 20
201.844630
 30
0.0
 10
4525.246769
 20
203.506190
 30
0.0
 10
4522.544778
 20
203.501405
 30
0.0
 10
4520.877380
 20
201.833928
 30
0.0
  0
SPLINE
  5
275
100
AcDbEntity
  8
Layer_1
 62
7
100
AcDbSpline
 70
8
 71
3
 72
8
 73
4
 74
0
 40
0
 40
0
 40
0
 40
0
 40
1
 40
1
 40
1
 40
1
 10
4520.877380
 20
201.833928
 30
0.0
 10
4519.209981
 20
200.166451
 30
0.0
 10
4519.205322
 20
197.464461
 30
0.0
 10
4520.866961
 20
195.791244
 30
0.0
  0
LWPOLYLINE
  5
276
100
AcDbEntity
  8
Layer_1
 62
7
100
AcDbPolyline
 90
2
 70
0
 10
5427.953575
 20
201.844630
 30
0.0
 10
4526.920063
 20
201.844630
 30
0.0
  0
SPLINE
  5
277
100
AcDbEntity
  8
Layer_1
 62
7
100
AcDbSpline
 70
8
 71
3
 72
8
 73
4
 74
0
 40
0
 40
0
 40
0
 40
0
 40
1
 40
1
 40
1
 40
1
 10
3619.833449
 20
173.498173
 30
0.0
 10
3618.160154
 20
175.159733
 30
0.0
 10
3615.458164
 20
175.154948
 30
0.0
 10
3613.790765
 20
173.487471
 30
0.0
  0
SPLINE
  5
278
100
AcDbEntity
  8
Layer_1
 62
7
100
AcDbSpline
 70
8
 71
3
 72
8
 73
4
 74
0
 40
0
 40
0
 40
0
 40
0
 40
1
 40
1
 40
1
 40
1
 10
3613.790765
 20
173.487471
 30
0.0
 10
3612.123367
 20
171.819995
 30
0.0
 10
3612.118708
 20
169.118004
 30
0.0
 10
3613.780346
 20
167.444787
 30
0.0
  0
LWPOLYLINE
  5
279
100
AcDbEntity
  8
Layer_1
 62
7
100
AcDbPolyline
 90
3
 70
0
 10
4520.866961
 20
195.791244
 30
0.0
 10
4520.866961
 20
173.498173
 30
0.0
 10
3619.833449
 20
173.498173
 30
0.0
  0
SPLINE
  5
27a
100
AcDbEntity
  8
Layer_1
 62
7
100
AcDbSpline
 70
8
 71
3
 72
8
 73
4
 74
0
 40
0
 40
0
 40
0
 40
0
 40
1
 40
1
 40
1
 40
1
 10
2712.747005
 20
145.151717
 30
0.0
 10
2711.074783
 20
146.819643
 30
0.0
 10
2708.367591
 20
146.817895
 30
0.0
 10
2706.697523
 20
145.147812
 30
0.0
  0
SPLINE
  5
27b
100
AcDbEntity
  8
Layer_1
 62
7
100
AcDbSpline
 70
8
 71
3
 72
8
 73
4
 74
0
 40
0
 40
0
 40
0
 40
0
 40
1
 40
1
 40
1
 40
1
 10
2706.697523
 20
145.147812
 30
0.0
 10
2705.027456
 20
143.477729
 30
0.0
 10
2705.025734
 20
140.770537
 30
0.0
 10
2706.693676
 20
139.098331
 30
0.0
  0
LWPOLYLINE
  5
27c
100
AcDbEntity
  8
Layer_1
 62
7
100
AcDbPolyline
 90
3
 70
0
 10
3613.780346
 20
167.444787
 30
0.0
 10
3613.780346
 20
145.151717
 30
0.0
 10
2712.747005
 20
145.151717
 30
0.0
  0
SPLINE
  5
27d
100
AcDbEntity
  8
Layer_1
 62
7
100
AcDbSpline
 70
8
 71
3
 72
8
 73
4
 74
0
 40
0
 40
0
 40
0
 40
0
 40
1
 40
1
 40
1
 40
1
 10
1805.660419
 20
116.805260
 30
0.0
 10
1803.988710
 20
118.476185
 30
0.0
 10
1801.279066
 20
118.475861
 30
0.0
 10
1799.607756
 20
116.804536
 30
0.0
  0
SPLINE
  5
27e
100
AcDbEntity
  8
Layer_1
 62
7
100
AcDbSpline
 70
8
 71
3
 72
8
 73
4
 74
0
 40
0
 40
0
 40
0
 40
0
 40
1
 40
1
 40
1
 40
1
 10
1799.607756
 20
116.804536
 30
0.0
 10
1797.936447
 20
115.133212
 30
0.0
 10
1797.936149
 20
112.423567
 30
0.0
 10
1799.607090
 20
110.751874
 30
0.0
  0
LWPOLYLINE
  5
27f
100
AcDbEntity
  8
Layer_1
 62
7
100
AcDbPolyline
 90
3
 70
0
 10
2706.693676
 20
139.098331
 30
0.0
 10
2706.693676
 20
116.805260
 30
0.0
 10
1805.660419
 20
116.805260
 30
0.0
  0
SPLINE
  5
280
100
AcDbEntity
  8
Layer_1
 62
7
100
AcDbSpline
 70
8
 71
3
 72
8
 73
4
 74
0
 40
0
 40
0
 40
0
 40
0
 40
1
 40
1
 40
1
 40
1
 10
898.573748
 20
88.458803
 30
0.0
 10
896.901363
 20
90.125764
 30
0.0
 10
894.194960
 20
90.123556
 30
0.0
 10
892.525296
 20
88.453869
 30
0.0
  0
SPLINE
  5
281
100
AcDbEntity
  8
Layer_1
 62
7
100
AcDbSpline
 70
8
 71
3
 72
8
 73
4
 74
0
 40
0
 40
0
 40
0
 40
0
 40
1
 40
1
 40
1
 40
1
 10
892.525296
 20
88.453869
 30
0.0
 10
890.855633
 20
86.784182
 30
0.0
 10
890.853463
 20
84.077779
 30
0.0
 10
892.520447
 20
82.405417
 30
0.0
  0
LWPOLYLINE
  5
282
100
AcDbEntity
  8
Layer_1
 62
7
100
AcDbPolyline
 90
3
 70
0
 10
1799.607090
 20
110.751874
 30
0.0
 10
1799.607090
 20
88.458803
 30
0.0
 10
898.573748
 20
88.458803
 30
0.0
  0
SPLINE
  5
283
100
AcDbEntity
  8
Layer_1
 62
7
100
AcDbSpline
 70
8
 71
3
 72
8
 73
4
 74
0
 40
0
 40
0
 40
0
 40
0
 40
1
 40
1
 40
1
 40
1
 10
892.520447
 20
392.149701
 30
0.0
 10
890.863372
 20
390.475672
 30
0.0
 10
890.870260
 20
387.777361
 30
0.0
 10
892.535861
 20
386.111815
 30
0.0
  0
SPLINE
  5
284
100
AcDbEntity
  8
Layer_1
 62
7
100
AcDbSpline
 70
8
 71
3
 72
8
 73
4
 74
0
 40
0
 40
0
 40
0
 40
0
 40
1
 40
1
 40
1
 40
1
 10
892.535861
 20
386.111815
 30
0.0
 10
894.201463
 20
384.446268
 30
0.0
 10
896.899773
 20
384.439468
 30
0.0
 10
898.573748
 20
386.096598
 30
0.0
  0
LWPOLYLINE
  5
285
100
AcDbEntity
  8
Layer_1
 62
7
100
AcDbPolyline
 90
6
 70
0
 10
892.520447
 20
82.405417
 30
0.0
 10
892.520447
 20
60.112346
 30
0.0
 10
467.323597
 20
60.112346
 30
0.0
 10
467.323597
 20
414.443055
 30
0.0
 10
892.520447
 20
414.443055
 30
0.0
 10
892.520447
 20
392.149701
 30
0.0
  0
SPLINE
  5
286
100
AcDbEntity
  8
Layer_1
 62
7
100
AcDbSpline
 70
8
 71
3
 72
8
 73
4
 74
0
 40
0
 40
0
 40
0
 40
0
 40
1
 40
1
 40
1
 40
1
 10
1799.607090
 20
363.803244
 30
0.0
 10
1797.948637
 20
362.129440
 30
0.0
 10
1797.954881
 20
359.429999
 30
0.0
 10
1799.621058
 20
357.763884
 30
0.0
  0
SPLINE
  5
287
100
AcDbEntity
  8
Layer_1
 62
7
100
AcDbSpline
 70
8
 71
3
 72
8
 73
4
 74
0
 40
0
 40
0
 40
0
 40
0
 40
1
 40
1
 40
1
 40
1
 10
1799.621058
 20
357.763884
 30
0.0
 10
1801.287236
 20
356.097769
 30
0.0
 10
1803.986676
 20
356.091627
 30
0.0
 10
1805.660419
 20
357.750142
 30
0.0
  0
LWPOLYLINE
  5
288
100
AcDbEntity
  8
Layer_1
 62
7
100
AcDbPolyline
 90
3
 70
0
 10
898.573748
 20
386.096598
 30
0.0
 10
1799.607090
 20
386.096598
 30
0.0
 10
1799.607090
 20
363.803244
 30
0.0
  0
SPLINE
  5
289
100
AcDbEntity
  8
Layer_1
 62
7
100
AcDbSpline
 70
8
 71
3
 72
8
 73
4
 74
0
 40
0
 40
0
 40
0
 40
0
 40
1
 40
1
 40
1
 40
1
 10
2706.693676
 20
335.456787
 30
0.0
 10
2705.035223
 20
333.782983
 30
0.0
 10
2705.041467
 20
331.083542
 30
0.0
 10
2706.707644
 20
329.417427
 30
0.0
  0
SPLINE
  5
28a
100
AcDbEntity
  8
Layer_1
 62
7
100
AcDbSpline
 70
8
 71
3
 72
8
 73
4
 74
0
 40
0
 40
0
 40
0
 40
0
 40
1
 40
1
 40
1
 40
1
 10
2706.707644
 20
329.417427
 30
0.0
 10
2708.373822
 20
327.751312
 30
0.0
 10
2711.073262
 20
327.745170
 30
0.0
 10
2712.747005
 20
329.403685
 30
0.0
  0
LWPOLYLINE
  5
28b
100
AcDbEntity
  8
Layer_1
 62
7
100
AcDbPolyline
 90
3
 70
0
 10
1805.660419
 20
357.750142
 30
0.0
 10
2706.693676
 20
357.750142
 30
0.0
 10
2706.693676
 20
335.456787
 30
0.0
  0
SPLINE
  5
28c
100
AcDbEntity
  8
Layer_1
 62
7
100
AcDbSpline
 70
8
 71
3
 72
8
 73
4
 74
0
 40
0
 40
0
 40
0
 40
0
 40
1
 40
1
 40
1
 40
1
 10
3613.780346
 20
307.110331
 30
0.0
 10
3612.130580
 20
305.435129
 30
0.0
 10
3612.140878
 20
302.742825
 30
0.0
 10
3613.803410
 20
301.080292
 30
0.0
  0
SPLINE
  5
28d
100
AcDbEntity
  8
Layer_1
 62
7
100
AcDbSpline
 70
8
 71
3
 72
8
 73
4
 74
0
 40
0
 40
0
 40
0
 40
0
 40
1
 40
1
 40
1
 40
1
 10
3613.803410
 20
301.080292
 30
0.0
 10
3615.465943
 20
299.417760
 30
0.0
 10
3618.158247
 20
299.407462
 30
0.0
 10
3619.833449
 20
301.057228
 30
0.0
  0
LWPOLYLINE
  5
28e
100
AcDbEntity
  8
Layer_1
 62
7
100
AcDbPolyline
 90
3
 70
0
 10
2712.747005
 20
329.403685
 30
0.0
 10
3613.780346
 20
329.403685
 30
0.0
 10
3613.780346
 20
307.110331
 30
0.0
  0
SPLINE
  5
28f
100
AcDbEntity
  8
Layer_1
 62
7
100
AcDbSpline
 70
8
 71
3
 72
8
 73
4
 74
0
 40
0
 40
0
 40
0
 40
0
 40
1
 40
1
 40
1
 40
1
 10
4520.866961
 20
278.763874
 30
0.0
 10
4519.217194
 20
277.088673
 30
0.0
 10
4519.227492
 20
274.396368
 30
0.0
 10
4520.890024
 20
272.733835
 30
0.0
  0
SPLINE
  5
290
100
AcDbEntity
  8
Layer_1
 62
7
100
AcDbSpline
 70
8
 71
3
 72
8
 73
4
 74
0
 40
0
 40
0
 40
0
 40
0
 40
1
 40
1
 40
1
 40
1
 10
4520.890024
 20
272.733835
 30
0.0
 10
4522.552557
 20
271.071303
 30
0.0
 10
4525.244862
 20
271.061005
 30
0.0
 10
4526.920063
 20
272.710772
 30
0.0
  0
LWPOLYLINE
  5
291
100
AcDbEntity
  8
Layer_1
 62
7
100
AcDbPolyline
 90
3
 70
0
 10
3619.833449
 20
301.057228
 30
0.0
 10
4520.866961
 20
301.057228
 30
0.0
 10
4520.866961
 20
278.763874
 30
0.0
  0
LWPOLYLINE
  5
292
100
AcDbEntity
  8
Layer_1
 62
7
100
AcDbPolyline
 90
3
 70
0
 10
4526.920063
 20
272.710772
 30
0.0
 10
5427.953575
 20
272.710772
 30
0.0
 10
5427.953575
 20
201.844630
 30
0.0
  0
ENDSEC
  0
SECTION
  2
OBJECTS
  0
DICTIONARY
  5
C
330
0
100
AcDbDictionary
  3
ACAD_GROUP
350
D
  3
ACAD_MLINESTYLE
350
17
  0
DICTIONARY
  5
D
330
C
100
AcDbDictionary
  0
DICTIONARY
  5
1A
330
C
100
AcDbDictionary
  0
DICTIONARY
  5
17
330
C
100
AcDbDictionary
  3
STANDARD
350
18
  0
DICTIONARY
  5
19
330
C
100
AcDbDictionary
  0
ENDSEC
  0
EOF
