0
SECTION
2
HEADER
9
$INSUNITS
70
4
9
$ACADVER
1
AC1014
9
$HANDSEED
5
FFFF
0
ENDSEC
0
SECTION
2
TABLES
0
TABLE
2
VPORT
5
8
100
AcDbSymbolTable
0
ENDTAB
0
TABLE
2
LTYPE
5
5
100
AcDbSymbolTable
0
LTYPE
5
14
100
AcDbSymbolTableRecord
100
AcDbLinetypeTableRecord
2
BYBLOCK
70
0
0
LTYPE
5
15
100
AcDbSymbolTableRecord
100
AcDbLinetypeTableRecord
2
BYLAYER
70
0
0
ENDTAB
0
TABLE
2
LAYER
5
2
100
AcDbSymbolTable
70
2
0
LAYER
5
50
100
AcDbSymbolTableRecord
100
AcDbLayerTableRecord
2
0
70
0
6
CONTINUOUS
0
ENDTAB
0
TABLE
2
STYLE
5
3
100
AcDbSymbolTable
70
1
0
STYLE
5
11
100
AcDbSymbolTableRecord
100
AcDbTextStyleTableRecord
2
STANDARD
70
0
0
ENDTAB
0
TABLE
2
VIEW
5
6
100
AcDbSymbolTable
70
0
0
ENDTAB
0
TABLE
2
UCS
5
7
100
AcDbSymbolTable
70
0
0
ENDTAB
0
TABLE
2
APPID
5
9
100
AcDbSymbolTable
70
2
0
APPID
5
12
100
AcDbSymbolTableRecord
100
AcDbRegAppTableRecord
2
ACAD
70
0
0
ENDTAB
0
TABLE
2
DIMSTYLE
5
A
100
AcDbSymbolTable
70
1
0
ENDTAB
0
TABLE
2
BLOCK_RECORD
5
1
100
AcDbSymbolTable
70
1
0
BLOCK_RECORD
5
1F
100
AcDbSymbolTableRecord
100
AcDbBlockTableRecord
2
*MODEL_SPACE
0
BLOCK_RECORD
5
1B
100
AcDbSymbolTableRecord
100
AcDbBlockTableRecord
2
*PAPER_SPACE
0
ENDTAB
0
ENDSEC
0
SECTION
2
BLOCKS
0
BLOCK
5
20
100
AcDbEntity
100
AcDbBlockBegin
2
*MODEL_SPACE
0
ENDBLK
5
21
100
AcDbEntity
100
AcDbBlockEnd
0
BLOCK
5
1C
100
AcDbEntity
100
AcDbBlockBegin
2
*PAPER_SPACE
0
ENDBLK
5
1D
100
AcDbEntity
100
AcDbBlockEnd
0
ENDSEC
0
SECTION
2
ENTITIES
0
LINE
5
100
100
AcDbEntity
8
0
100
AcDbLine
10
17.5
20
-65.157386038410849
30
0
11
17.5
21
-75.157386038410849
31
0
0
LINE
5
101
100
AcDbEntity
8
0
100
AcDbLine
10
5
20
-65.157386038410849
30
0
11
17.5
21
-65.157386038410849
31
0
0
LINE
5
102
100
AcDbEntity
8
0
100
AcDbLine
10
5
20
-25.157386038410845
30
0
11
5
21
-65.157386038410849
31
0
0
LINE
5
103
100
AcDbEntity
8
0
100
AcDbLine
10
15
20
-25.157386038410845
30
0
11
5
21
-25.157386038410845
31
0
0
LINE
5
104
100
AcDbEntity
8
0
100
AcDbLine
10
17.002849702292497
20
-25.157386038410845
30
0
11
15
21
-25.157386038410845
31
0
0
LINE
5
105
100
AcDbEntity
8
0
100
AcDbLine
10
17.002849702292497
20
-20.157386038410845
30
0
11
17.002849702292497
21
-25.157386038410845
31
0
0
LINE
5
106
100
AcDbEntity
8
0
100
AcDbLine
10
17.002849702292497
20
-20.157386038410845
30
0
11
17.002849702292497
21
-15.157386038410845
31
0
0
LINE
5
107
100
AcDbEntity
8
0
100
AcDbLine
10
17.002849702292497
20
-15.157386038410845
30
0
11
4.5028497022924974
21
-15.157386038410845
31
0
0
LINE
5
108
100
AcDbEntity
8
0
100
AcDbLine
10
4.5028497022924974
20
-15.157386038410845
30
0
11
4.5028497022924974
21
24.842613961589155
31
0
0
LINE
5
109
100
AcDbEntity
8
0
100
AcDbLine
10
4.5028497022924974
20
24.842613961589155
30
0
11
17.512442664593443
21
24.842613961589155
31
0
0
LINE
5
110
100
AcDbEntity
8
0
100
AcDbLine
10
17.512442664593443
20
24.842613961589155
30
0
11
17.512442664593443
21
31.842613961589159
31
0
0
LINE
5
111
100
AcDbEntity
8
0
100
AcDbLine
10
17.512442664593443
20
31.842613961589159
30
0
11
5.0124426645934417
21
31.842613961589159
31
0
0
LINE
5
112
100
AcDbEntity
8
0
100
AcDbLine
10
5.0124426645934426
20
31.842613961589159
30
0
11
5.0124426645934319
21
71.842613961589151
31
0
0
LINE
5
113
100
AcDbEntity
8
0
100
AcDbLine
10
5.0124426645934319
20
71.842613961589151
30
0
11
17.470289240682149
21
71.842613961589151
31
0
0
LINE
5
114
100
AcDbEntity
8
0
100
AcDbLine
10
17.470289240682149
20
71.842613961589151
30
0
11
17.470289240682138
21
76.842613961589151
31
0
0
LINE
5
115
100
AcDbEntity
8
0
100
AcDbLine
10
17.470289240682138
20
76.842613961589151
30
0
11
4.9702892406821491
21
76.842613961589166
31
0
0
LINE
5
116
100
AcDbEntity
8
0
100
AcDbLine
10
4.9702892406821499
20
76.842613961589166
30
0
11
4.9702892406821588
21
116.84261396158917
31
0
0
LINE
5
117
100
AcDbEntity
8
0
100
AcDbLine
10
4.9702892406821588
20
116.84261396158917
30
0
11
34.970289240682163
21
116.84261396158917
31
0
0
LINE
5
118
100
AcDbEntity
8
0
100
AcDbLine
10
34.970289240682249
20
76.842613961589166
30
0
11
22.470289240682135
21
76.842613961589166
31
0
0
LINE
5
119
100
AcDbEntity
8
0
100
AcDbLine
10
22.470289240682135
20
76.842613961589166
30
0
11
22.470289240682135
21
71.842613961589151
31
0
0
LINE
5
120
100
AcDbEntity
8
0
100
AcDbLine
10
22.470289240682135
20
71.842613961589151
30
0
11
35.012442664593443
21
71.842613961589151
31
0
0
LINE
5
121
100
AcDbEntity
8
0
100
AcDbLine
10
35.012442664593443
20
71.842613961589151
30
0
11
35.012442664593443
21
31.842613961589162
31
0
0
LINE
5
122
100
AcDbEntity
8
0
100
AcDbLine
10
35.012442664593443
20
31.842613961589162
30
0
11
22.512442664593443
21
31.842613961589159
31
0
0
LINE
5
123
100
AcDbEntity
8
0
100
AcDbLine
10
22.512442664593443
20
31.842613961589159
30
0
11
22.512442664593443
21
25
31
0
0
LINE
5
124
100
AcDbEntity
8
0
100
AcDbLine
10
22.512442664593443
20
25
30
0
11
34.502849702292494
21
25
31
0
0
LINE
5
125
100
AcDbEntity
8
0
100
AcDbLine
10
34.502849702292494
20
25
30
0
11
34.502849702292494
21
-15
31
0
0
LINE
5
126
100
AcDbEntity
8
0
100
AcDbLine
10
34.502849702292494
20
-15
30
0
11
22.002849702292497
21
-15
31
0
0
LINE
5
127
100
AcDbEntity
8
0
100
AcDbLine
10
22.002849702292497
20
-15
30
0
11
22.002849702292497
21
-25
31
0
0
LINE
5
128
100
AcDbEntity
8
0
100
AcDbLine
10
22.002849702292497
20
-25
30
0
11
34.502849702292494
21
-25
31
0
0
LINE
5
129
100
AcDbEntity
8
0
100
AcDbLine
10
34.502849702292494
20
-25
30
0
11
34.502849702292494
21
-65
31
0
0
LINE
5
130
100
AcDbEntity
8
0
100
AcDbLine
10
34.502849702292494
20
-65
30
0
11
22.002849702292497
21
-65
31
0
0
LINE
5
131
100
AcDbEntity
8
0
100
AcDbLine
10
22.002849702292497
20
-65
30
0
11
22.002849702292497
21
-75
31
0
0
LINE
5
132
100
AcDbEntity
8
0
100
AcDbLine
10
34.970289240682163
20
116.84261396158917
30
0
11
34.970289240682249
21
76.842613961589166
31
0
0
LINE
5
133
100
AcDbEntity
8
0
100
AcDbLine
10
127.50573088347511
20
-65.000000048615703
30
0
11
127.50573088347357
21
-75.000000048615718
31
0
0
LINE
5
134
100
AcDbEntity
8
0
100
AcDbLine
10
115.00573088347511
20
-65.000000048614041
30
0
11
127.50573088347511
21
-65.000000048615703
31
0
0
LINE
5
135
100
AcDbEntity
8
0
100
AcDbLine
10
115.00573088347917
20
-25.000000048614034
30
0
11
115.00573088347511
21
-65.000000048614041
31
0
0
LINE
5
136
100
AcDbEntity
8
0
100
AcDbLine
10
125.00573088347919
20
-25.000000048614957
30
0
11
115.00573088347917
21
-25.000000048614034
31
0
0
LINE
5
137
100
AcDbEntity
8
0
100
AcDbLine
10
125.00573088347917
20
-14.99990004848163
30
0
11
125.00573088347919
21
-25.000000048614957
31
0
0
LINE
5
138
100
AcDbEntity
8
0
100
AcDbLine
10
125.00573088347917
20
-14.99990004848163
30
0
11
125.00573088347919
21
-15.000000053056885
31
0
0
LINE
5
139
100
AcDbEntity
8
0
100
AcDbLine
10
125.00573088347919
20
-15.000000053056885
30
0
11
115.00573088614371
21
-15.000000034404138
31
0
0
LINE
5
140
100
AcDbEntity
8
0
100
AcDbLine
10
115.00573088614371
20
-15.000000034404138
30
0
11
115.005730879038
21
24.999999971820554
31
0
0
LINE
5
141
100
AcDbEntity
8
0
100
AcDbLine
10
115.005730879038
20
24.99999997182055
30
0
11
125.51244266485595
21
24.999999953257795
31
0
0
LINE
5
142
100
AcDbEntity
8
0
100
AcDbLine
10
125.51244266485595
20
24.999999953257795
30
0
11
125.512442664856
21
34.999999953257792
31
0
0
LINE
5
143
100
AcDbEntity
8
0
100
AcDbLine
10
125.512442664856
20
34.999999953257792
30
0
11
114.01244267196135
21
34.999999971467631
31
0
0
LINE
5
144
100
AcDbEntity
8
0
100
AcDbLine
10
114.01244267196135
20
34.999999971467631
30
0
11
114.01244266485575
21
74.999999971467616
31
0
0
LINE
5
145
100
AcDbEntity
8
0
100
AcDbLine
10
114.01244266485575
20
74.999999971467616
30
0
11
127.47028924245828
21
74.999999933182821
31
0
0
LINE
5
146
100
AcDbEntity
8
0
100
AcDbLine
10
127.47028924245828
20
74.999999933182821
30
0
11
127.47028924068226
21
84.999999933182821
31
0
0
LINE
5
147
100
AcDbEntity
8
0
100
AcDbLine
10
127.47028924068226
20
84.999999933182821
30
0
11
114.9702892557813
21
84.999999930962304
31
0
0
LINE
5
148
100
AcDbEntity
8
0
100
AcDbLine
10
114.9702892557813
20
84.999999930962304
30
0
11
114.97028926288657
21
124.9999999309623
31
0
0
LINE
5
149
100
AcDbEntity
8
0
100
AcDbLine
10
114.97028926288657
20
124.9999999309623
30
0
11
144.97028924068212
21
124.99999995138512
31
0
0
LINE
5
150
100
AcDbEntity
8
0
100
AcDbLine
10
144.97028924068212
20
84.999999951385149
30
0
11
132.47028924068195
21
84.999999951385149
31
0
0
LINE
5
151
100
AcDbEntity
8
0
100
AcDbLine
10
132.47028924068195
20
84.999999951385149
30
0
11
132.47028924068184
21
74.999999951385149
31
0
0
LINE
5
152
100
AcDbEntity
8
0
100
AcDbLine
10
132.47028924068184
20
74.999999951385149
30
0
11
144.01244266485594
21
74.999999955478231
31
0
0
LINE
5
153
100
AcDbEntity
8
0
100
AcDbLine
10
144.01244266485594
20
74.999999955478231
30
0
11
144.01244266485594
21
34.999999955478238
31
0
0
LINE
5
154
100
AcDbEntity
8
0
100
AcDbLine
10
144.01244266485594
20
34.999999955478238
30
0
11
132.51244266485591
21
34.999999953257792
31
0
0
LINE
5
155
100
AcDbEntity
8
0
100
AcDbLine
10
132.51244266485591
20
34.999999953257792
30
0
11
132.51244266485631
21
24.999999921294965
31
0
0
LINE
5
156
100
AcDbEntity
8
0
100
AcDbLine
10
132.51244266485631
20
24.999999921294965
30
0
11
145.00573088347923
21
24.999999921294972
31
0
0
LINE
5
157
100
AcDbEntity
8
0
100
AcDbLine
10
145.00573088347923
20
24.999999921294972
30
0
11
145.00573088347917
21
-14.999900048481623
31
0
0
LINE
5
158
100
AcDbEntity
8
0
100
AcDbLine
10
145.00573088347917
20
-14.999900048481623
30
0
11
135.00573088347917
21
-14.99990004848163
31
0
0
LINE
5
159
100
AcDbEntity
8
0
100
AcDbLine
10
135.00573088347917
20
-14.99990004848163
30
0
11
135.00573088347917
21
-25.000000048614726
31
0
0
LINE
5
160
100
AcDbEntity
8
0
100
AcDbLine
10
135.00573088347917
20
-25.000000048614726
30
0
11
145.00573088347923
21
-25.000000048614712
31
0
0
LINE
5
161
100
AcDbEntity
8
0
100
AcDbLine
10
145.00573088347923
20
-25.000000048614712
30
0
11
145.00573088347923
21
-65.000000048614709
31
0
0
LINE
5
162
100
AcDbEntity
8
0
100
AcDbLine
10
145.00573088347923
20
-65.000000048614709
30
0
11
132.00284970235128
21
-65.000000048614737
31
0
0
LINE
5
163
100
AcDbEntity
8
0
100
AcDbLine
10
132.00284970235128
20
-65.000000048614737
30
0
11
132.00284970235128
21
-75.000000000024414
31
0
0
LINE
5
164
100
AcDbEntity
8
0
100
AcDbLine
10
144.97028924068212
20
124.99999995138512
30
0
11
144.97028924068212
21
84.999999951385149
31
0
0
LINE
5
165
100
AcDbEntity
8
0
100
AcDbLine
10
275.55465943959797
20
-85.1571425141981
30
0
11
275.55465943959791
21
-75.1571425141981
31
0
0
LINE
5
166
100
AcDbEntity
8
0
100
AcDbLine
10
275.55465943959791
20
-75.1571425141981
30
0
11
288.05465943959791
21
-75.157142514198171
31
0
0
LINE
5
167
100
AcDbEntity
8
0
100
AcDbLine
10
288.05465943959774
20
-15.157142514198156
30
0
11
288.05465943959791
21
-75.157142514198171
31
0
0
LINE
5
168
100
AcDbEntity
8
0
100
AcDbLine
10
288.05465943959774
20
-15.157142514198156
30
0
11
275.55465943959774
21
-15.157142514198085
31
0
0
LINE
5
169
100
AcDbEntity
8
0
100
AcDbLine
10
275.55465943959774
20
-15.157142514198085
30
0
11
275.55465943959774
21
-5.1571425141980853
31
0
0
LINE
5
170
100
AcDbEntity
8
0
100
AcDbLine
10
275.55465943959774
20
-5.1571425141980853
30
0
11
288.05465943959769
21
-5.1571425141981386
31
0
0
LINE
5
171
100
AcDbEntity
8
0
100
AcDbLine
10
288.05465943959769
20
-5.1571425141981386
30
0
11
288.05465943959757
21
44.84285748580195
31
0
0
LINE
5
172
100
AcDbEntity
8
0
100
AcDbLine
10
288.05465943959757
20
44.84285748580195
30
0
11
275.55465943959757
21
44.8428574858019
31
0
0
LINE
5
173
100
AcDbEntity
8
0
100
AcDbLine
10
275.55465943959757
20
44.8428574858019
30
0
11
275.55465943959757
21
54.8428574858019
31
0
0
LINE
5
174
100
AcDbEntity
8
0
100
AcDbLine
10
275.55465943959757
20
54.8428574858019
30
0
11
288.05465943959751
21
54.842857485801986
31
0
0
LINE
5
175
100
AcDbEntity
8
0
100
AcDbLine
10
288.05465943959751
20
54.842857485801986
30
0
11
288.0546594395974
21
94.842857485801915
31
0
0
LINE
5
176
100
AcDbEntity
8
0
100
AcDbLine
10
288.0546594395974
20
94.842857485801915
30
0
11
273.0546594395974
21
94.842857485801886
31
0
0
LINE
5
177
100
AcDbEntity
8
0
100
AcDbLine
10
270.55465943959734
20
-85.1571425141981
30
0
11
270.55465943959734
21
-75.157142514198114
31
0
0
LINE
5
178
100
AcDbEntity
8
0
100
AcDbLine
10
270.55465943959734
20
-75.157142514198114
30
0
11
258.05465943959734
21
-75.157142514198199
31
0
0
LINE
5
179
100
AcDbEntity
8
0
100
AcDbLine
10
258.05465943959734
20
-15.157142514198203
30
0
11
258.05465943959734
21
-75.157142514198199
31
0
0
LINE
5
180
100
AcDbEntity
8
0
100
AcDbLine
10
258.05465943959734
20
-15.157142514198203
30
0
11
270.55465943959734
21
-15.157142514198085
31
0
0
LINE
5
181
100
AcDbEntity
8
0
100
AcDbLine
10
270.55465943959734
20
-15.157142514198085
30
0
11
270.55465943959734
21
-5.1571425141980853
31
0
0
LINE
5
182
100
AcDbEntity
8
0
100
AcDbLine
10
270.55465943959734
20
-5.1571425141980853
30
0
11
258.05465943959734
21
-5.1571425141981999
31
0
0
LINE
5
183
100
AcDbEntity
8
0
100
AcDbLine
10
258.05465943959734
20
-5.1571425141981999
30
0
11
258.05465943959734
21
44.842857485801908
31
0
0
LINE
5
184
100
AcDbEntity
8
0
100
AcDbLine
10
258.05465943959734
20
44.842857485801908
30
0
11
270.55465943959734
21
44.842857485801908
31
0
0
LINE
5
185
100
AcDbEntity
8
0
100
AcDbLine
10
270.55465943959734
20
44.842857485801908
30
0
11
270.55465943959734
21
54.842857485801908
31
0
0
LINE
5
186
100
AcDbEntity
8
0
100
AcDbLine
10
270.55465943959734
20
54.842857485801908
30
0
11
258.05465943959734
21
54.842857485801929
31
0
0
LINE
5
187
100
AcDbEntity
8
0
100
AcDbLine
10
258.05465943959734
20
54.842857485801929
30
0
11
258.05465943959734
21
94.842857485801858
31
0
0
LINE
5
188
100
AcDbEntity
8
0
100
AcDbLine
10
258.05465943959734
20
94.842857485801858
30
0
11
273.0546594395974
21
94.842857485801886
31
0
0
ENDSEC
0
SECTION
2
OBJECTS
0
DICTIONARY
5
C
100
AcDbDictionary
3
ACAD_GROUP
350
D
3
ACAD_MLINESTYLE
350
17
0
DICTIONARY
5
D
100
AcDbDictionary
0
DICTIONARY
5
1A
330
C
100
AcDbDictionary
0
DICTIONARY
5
17
100
AcDbDictionary
0
ENDSEC
0
EOF
