0
SECTION
2
HEADER
9
$INSUNITS
70
4
9
$ACADVER
1
AC1014
9
$HANDSEED
5
FFFF
0
ENDSEC
0
SECTION
2
TABLES
0
TABLE
2
VPORT
5
8
100
AcDbSymbolTable
0
ENDTAB
0
TABLE
2
LTYPE
5
5
100
AcDbSymbolTable
0
LTYPE
5
14
100
AcDbSymbolTableRecord
100
AcDbLinetypeTableRecord
2
BYBLOCK
70
0
0
LTYPE
5
15
100
AcDbSymbolTableRecord
100
AcDbLinetypeTableRecord
2
BYLAYER
70
0
0
ENDTAB
0
TABLE
2
LAYER
5
2
100
AcDbSymbolTable
70
2
0
LAYER
5
50
100
AcDbSymbolTableRecord
100
AcDbLayerTableRecord
2
0
70
0
6
CONTINUOUS
0
ENDTAB
0
TABLE
2
STYLE
5
3
100
AcDbSymbolTable
70
1
0
STYLE
5
11
100
AcDbSymbolTableRecord
100
AcDbTextStyleTableRecord
2
STANDARD
70
0
0
ENDTAB
0
TABLE
2
VIEW
5
6
100
AcDbSymbolTable
70
0
0
ENDTAB
0
TABLE
2
UCS
5
7
100
AcDbSymbolTable
70
0
0
ENDTAB
0
TABLE
2
APPID
5
9
100
AcDbSymbolTable
70
2
0
APPID
5
12
100
AcDbSymbolTableRecord
100
AcDbRegAppTableRecord
2
ACAD
70
0
0
ENDTAB
0
TABLE
2
DIMSTYLE
5
A
100
AcDbSymbolTable
70
1
0
ENDTAB
0
TABLE
2
BLOCK_RECORD
5
1
100
AcDbSymbolTable
70
1
0
BLOCK_RECORD
5
1F
100
AcDbSymbolTableRecord
100
AcDbBlockTableRecord
2
*MODEL_SPACE
0
BLOCK_RECORD
5
1B
100
AcDbSymbolTableRecord
100
AcDbBlockTableRecord
2
*PAPER_SPACE
0
ENDTAB
0
ENDSEC
0
SECTION
2
BLOCKS
0
BLOCK
5
20
100
AcDbEntity
100
AcDbBlockBegin
2
*MODEL_SPACE
0
ENDBLK
5
21
100
AcDbEntity
100
AcDbBlockEnd
0
BLOCK
5
1C
100
AcDbEntity
100
AcDbBlockBegin
2
*PAPER_SPACE
0
ENDBLK
5
1D
100
AcDbEntity
100
AcDbBlockEnd
0
ENDSEC
0
SECTION
2
ENTITIES
0
LWPOLYLINE
5
100
100
AcDbEntity
8
0
100
AcDbPolyline
90
12
70
1
43
0.0
10
-18.000000268220901
20
29.770505261370541
10
-18.000000268220901
20
29.179196786829831
10
-17.429621869553394
20
29.179196786829831
10
-17.429621869553394
20
27.456540298411252
10
-18.000000268220901
20
27.456540298411252
10
-18.000000268220901
20
26.865231823870541
10
-17.429621869553394
20
26.865231823870541
10
-17.429621869553394
20
25.351071786829831
10
-18.000000268220901
20
25.351071786829831
10
-18.000000268220901
20
24.75976331228912
10
-16.766535693634815
20
24.75976331228912
10
-16.766535693634815
20
29.770505261370541
0
LINE
5
101
100
AcDbEntity
8
0
100
AcDbLine
10
-18.299999590963125
20
27.456540298411252
30
0
11
-18.299999590963125
21
26.865231823870541
31
0
0
LINE
5
102
100
AcDbEntity
8
0
100
AcDbLine
10
-18.299999590963125
20
26.865231823870541
30
0
11
-18.513118082512683
21
26.865231823870541
31
0
0
SPLINE
5
103
100
AcDbEntity
8
0
100
AcDbSpline
70
0
71
3
72
9
73
5
74
0
42
0.000000001
43
0.0000000001
44
0.0000000001
40
0
40
0
40
0
40
0
40
0.037881817808821938
40
0.063631727475712663
40
0.063631727475712663
40
0.063631727475712663
40
0.063631727475712663
10
-18.513118082512683
20
26.865231823870541
30
0
10
-18.639812485407418
20
26.865309618697928
30
0
10
-18.852626552524807
20
26.86544029403354
30
0
10
-19.061085163487132
20
26.823926114954592
30
0
10
-19.145442301262683
20
26.807126533934476
30
0
0
SPLINE
5
104
100
AcDbEntity
8
0
100
AcDbSpline
70
0
71
3
72
9
73
5
74
0
42
0.000000001
43
0.0000000001
44
0.0000000001
40
0
40
0
40
0
40
0
40
0.024323606726719942
40
0.046177091302245607
40
0.046177091302245607
40
0.046177091302245607
40
0.046177091302245607
10
-19.145442301262683
20
26.807126533934476
30
0
10
-19.223250445516918
20
26.779636098588693
30
0
10
-19.370965125401924
20
26.727446949291753
30
0
10
-19.476567932154673
20
26.61216992688459
30
0
10
-19.526544863213367
20
26.557614636370541
30
0
0
SPLINE
5
105
100
AcDbEntity
8
0
100
AcDbSpline
70
0
71
3
72
9
73
5
74
0
42
0.000000001
43
0.0000000001
44
0.0000000001
40
0
40
0
40
0
40
0
40
0.021878379322334319
40
0.046187168449677532
40
0.046187168449677532
40
0.046187168449677532
40
0.046187168449677532
10
-19.526544863213367
20
26.557614636370541
30
0
10
-19.563900799253787
20
26.493709491278548
30
0
10
-19.642762440926337
20
26.358800151894716
30
0
10
-19.650595873803731
20
26.202419516962152
30
0
10
-19.654718691338367
20
26.120114755579831
30
0
0
SPLINE
5
106
100
AcDbEntity
8
0
100
AcDbSpline
70
0
71
3
72
9
73
5
74
0
42
0.000000001
43
0.0000000001
44
0.0000000001
40
0
40
0
40
0
40
0
40
0.023645724968014252
40
0.045991174896464877
40
0.045991174896464877
40
0.045991174896464877
40
0.045991174896464877
10
-19.654718691338367
20
26.120114755579831
30
0
10
-19.650322451434718
20
26.040386341683973
30
0
10
-19.641771720231954
20
25.885313767987789
30
0
10
-19.569973800009048
20
25.747745272387448
30
0
10
-19.535089785088367
20
25.680905711600186
30
0
0
SPLINE
5
107
100
AcDbEntity
8
0
100
AcDbSpline
70
0
71
3
72
9
73
5
74
0
42
0.000000001
43
0.0000000001
44
0.0000000001
40
0
40
0
40
0
40
0
40
0.021594999531010031
40
0.043645038912636797
40
0.043645038912636797
40
0.043645038912636797
40
0.043645038912636797
10
-19.535089785088367
20
25.680905711600186
30
0
10
-19.490562018583081
20
25.622539648005333
30
0
10
-19.400568217053916
20
25.504577658095737
30
0
10
-19.262863246255062
20
25.449145215503393
30
0
10
-19.193292910088367
20
25.421140026995541
30
0
0
SPLINE
5
108
100
AcDbEntity
8
0
100
AcDbSpline
70
0
71
3
72
9
73
5
74
0
42
0.000000001
43
0.0000000001
44
0.0000000001
40
0
40
0
40
0
40
0
40
0.030617880370042917
40
0.076708285020440609
40
0.076708285020440609
40
0.076708285020440609
40
0.076708285020440609
10
-19.193292910088367
20
25.421140026995541
30
0
10
-19.093035362401519
20
25.400901144588502
30
0
10
-18.841855840812624
20
25.350195807007605
30
0
10
-18.58526186135424
20
25.350743002666253
30
0
10
-18.431086594094104
20
25.351071786829831
30
0
0
LINE
5
109
100
AcDbEntity
8
0
100
AcDbLine
10
-18.431086594094104
20
25.351071786829831
30
0
11
-18.299999590963125
21
25.351071786829831
31
0
0
LINE
5
110
100
AcDbEntity
8
0
100
AcDbLine
10
-18.299999590963125
20
25.351071786829831
30
0
11
-18.299999590963125
21
24.75976331228912
31
0
0
LINE
5
111
100
AcDbEntity
8
0
100
AcDbLine
10
-18.299999590963125
20
24.75976331228912
30
0
11
-18.646417910088367
21
24.75976331228912
31
0
0
SPLINE
5
112
100
AcDbEntity
8
0
100
AcDbSpline
70
0
71
3
72
9
73
5
74
0
42
0.000000001
43
0.0000000001
44
0.0000000001
40
0
40
0
40
0
40
0
40
0.051879112416095677
40
0.093834459662414327
40
0.093834459662414327
40
0.093834459662414327
40
0.093834459662414327
10
-18.646417910088367
20
24.75976331228912
30
0
10
-18.820555533462464
20
24.762944188658793
30
0
10
-19.135520632810142
20
24.768697483221867
30
0
10
-19.434072449201434
20
24.867628581847569
30
0
10
-19.567561203469104
20
24.911862742850186
30
0
0
SPLINE
5
113
100
AcDbEntity
8
0
100
AcDbSpline
70
0
71
3
72
9
73
5
74
0
42
0.000000001
43
0.0000000001
44
0.0000000001
40
0
40
0
40
0
40
0
40
0.036465943547769192
40
0.072593876222276144
40
0.072593876222276144
40
0.072593876222276144
40
0.072593876222276144
10
-19.567561203469104
20
24.911862742850186
30
0
10
-19.676782206588932
20
24.969151235404428
30
0
10
-19.894211819262111
20
25.083197200840512
30
0
10
-20.038974268997944
20
25.281456498466213
30
0
10
-20.111018473137683
20
25.380124580809476
30
0
0
SPLINE
5
114
100
AcDbEntity
8
0
100
AcDbSpline
70
0
71
3
72
9
73
5
74
0
42
0.000000001
43
0.0000000001
44
0.0000000001
40
0
40
0
40
0
40
0
40
0.035543017990538307
40
0.069693462348866406
40
0.069693462348866406
40
0.069693462348866406
40
0.069693462348866406
10
-20.111018473137683
20
25.380124580809476
30
0
10
-20.168333985127621
20
25.485526932030581
30
0
10
-20.280719390270757
20
25.692201975727357
30
0
10
-20.298727523562444
20
25.926629586976699
30
0
10
-20.307551676262683
20
26.041501295515896
30
0
0
SPLINE
5
115
100
AcDbEntity
8
0
100
AcDbSpline
70
0
71
3
72
9
73
5
74
0
42
0.000000001
43
0.0000000001
44
0.0000000001
40
0
40
0
40
0
40
0
40
0.031491982722029375
40
0.063584747326020569
40
0.063584747326020569
40
0.063584747326020569
40
0.063584747326020569
10
-20.307551676262683
20
26.041501295515896
30
0
10
-20.30001780014279
20
26.147469322963779
30
0
10
-20.284806321916811
20
26.361426961305714
30
0
10
-20.184075570437265
20
26.550866933505691
30
0
10
-20.133234316338367
20
26.646481883475186
30
0
0
SPLINE
5
116
100
AcDbEntity
8
0
100
AcDbSpline
70
0
71
3
72
9
73
5
74
0
42
0.000000001
43
0.0000000001
44
0.0000000001
40
0
40
0
40
0
40
0
40
0.033699423339019194
40
0.070481925812790225
40
0.070481925812790225
40
0.070481925812790225
40
0.070481925812790225
10
-20.133234316338367
20
26.646481883475186
30
0
10
-20.065345005214702
20
26.737635871544356
30
0
10
-19.923355353286176
20
26.928283306665065
30
0
10
-19.715396082019126
20
27.044065972516478
30
0
10
-19.606868082512683
20
27.104489636370541
30
0
0
SPLINE
5
117
100
AcDbEntity
8
0
100
AcDbSpline
70
0
71
3
72
9
73
5
74
0
42
0.000000001
43
0.0000000001
44
0.0000000001
40
0
40
0
40
0
40
0
40
0.044061539411496771
40
0.084485180174588781
40
0.084485180174588781
40
0.084485180174588781
40
0.084485180174588781
10
-19.606868082512683
20
27.104489636370541
30
0
10
-19.747693655962536
20
27.154273139886485
30
0
10
-20.017717674755573
20
27.249729819803772
30
0
10
-20.212597856289626
20
27.458966057254379
30
0
10
-20.305842215050525
20
27.559079360911252
30
0
0
SPLINE
5
118
100
AcDbEntity
8
0
100
AcDbSpline
70
0
71
3
72
9
73
5
74
0
42
0.000000001
43
0.0000000001
44
0.0000000001
40
0
40
0
40
0
40
0
40
0.039539126302256491
40
0.08083827661427162
40
0.08083827661427162
40
0.08083827661427162
40
0.08083827661427162
10
-20.305842215050525
20
27.559079360911252
30
0
10
-20.377111873404793
20
27.67254221846143
30
0
10
-20.522823650448231
20
27.90451855992054
30
0
10
-20.540961065965838
20
28.178099730581469
30
0
10
-20.550227219094104
20
28.317868542620541
30
0
0
SPLINE
5
119
100
AcDbEntity
8
0
100
AcDbSpline
70
0
71
3
72
9
73
5
74
0
42
0.000000001
43
0.0000000001
44
0.0000000001
40
0
40
0
40
0
40
0
40
0.034168847004085109
40
0.067573105179105475
40
0.067573105179105475
40
0.067573105179105475
40
0.067573105179105475
10
-20.550227219094104
20
28.317868542620541
30
0
10
-20.544317211894164
20
28.432569722446122
30
0
10
-20.53262944443501
20
28.659405438839901
30
0
10
-20.444909509418977
20
28.868865021564392
30
0
10
-20.401545816887683
20
28.97240979666412
30
0
0
SPLINE
5
120
100
AcDbEntity
8
0
100
AcDbSpline
70
0
71
3
72
9
73
5
74
0
42
0.000000001
43
0.0000000001
44
0.0000000001
40
0
40
0
40
0
40
0
40
0.031525140402800744
40
0.05980305334983136
40
0.05980305334983136
40
0.05980305334983136
40
0.05980305334983136
10
-20.401545816887683
20
28.97240979666412
30
0
10
-20.351254270555003
20
29.0657807127591
30
0
10
-20.255851427301941
20
29.24290493188089
30
0
10
-20.105301709115917
20
29.376019067292898
30
0
10
-20.034114176262683
20
29.438962173411252
30
0
0
SPLINE
5
121
100
AcDbEntity
8
0
100
AcDbSpline
70
0
71
3
72
9
73
5
74
0
42
0.000000001
43
0.0000000001
44
0.0000000001
40
0
40
0
40
0
40
0
40
0.028548832712191701
40
0.060489543739595836
40
0.060489543739595836
40
0.060489543739595836
40
0.060489543739595836
10
-20.034114176262683
20
29.438962173411252
30
0
10
-19.953786201022808
20
29.490982596852362
30
0
10
-19.783586507719377
20
29.601203974756526
30
0
10
-19.588527871967756
20
29.657197997643827
30
0
10
-19.485529715050525
20
29.686764907786252
30
0
0
SPLINE
5
122
100
AcDbEntity
8
0
100
AcDbSpline
70
0
71
3
72
9
73
5
74
0
42
0.000000001
43
0.0000000001
44
0.0000000001
40
0
40
0
40
0
40
0
40
0.037234002693902514
40
0.081418124265205227
40
0.081418124265205227
40
0.081418124265205227
40
0.081418124265205227
10
-19.485529715050525
20
29.686764907786252
30
0
10
-19.363569528356209
20
29.71114239698332
30
0
10
-19.096884001223458
20
29.764447690562331
30
0
10
-18.824822597334347
20
29.768374340516107
30
0
10
-18.677179867256946
20
29.770505261370541
30
0
0
LINE
5
123
100
AcDbEntity
8
0
100
AcDbLine
10
-18.677179867256946
20
29.770505261370541
30
0
11
-18.299999590963125
21
29.770505261370541
31
0
0
LINE
5
124
100
AcDbEntity
8
0
100
AcDbLine
10
-18.299999590963125
20
29.770505261370541
30
0
11
-18.299999590963125
21
29.179196786829831
31
0
0
LINE
5
125
100
AcDbEntity
8
0
100
AcDbLine
10
-18.299999590963125
20
29.179196786829831
30
0
11
-18.677179867256946
21
29.179196786829831
31
0
0
SPLINE
5
126
100
AcDbEntity
8
0
100
AcDbSpline
70
0
71
3
72
9
73
5
74
0
42
0.000000001
43
0.0000000001
44
0.0000000001
40
0
40
0
40
0
40
0
40
0.027350291162655461
40
0.045214156941661962
40
0.045214156941661962
40
0.045214156941661962
40
0.045214156941661962
10
-18.677179867256946
20
29.179196786829831
30
0
10
-18.768458576780343
20
29.179369836626904
30
0
10
-18.919356052543172
20
29.179655914045128
30
0
10
-19.069164113210842
20
29.162176791828696
30
0
10
-19.128352457512683
20
29.155270886370541
30
0
0
SPLINE
5
127
100
AcDbEntity
8
0
100
AcDbSpline
70
0
71
3
72
9
73
5
74
0
42
0.000000001
43
0.0000000001
44
0.0000000001
40
0
40
0
40
0
40
0
40
0.021720160153185914
40
0.040831035068059608
40
0.040831035068059608
40
0.040831035068059608
40
0.040831035068059608
10
-19.128352457512683
20
29.155270886370541
30
0
10
-19.199664324725902
20
29.140458776957342
30
0
10
-19.333721225338799
20
29.112613965748913
30
0
10
-19.454591444244191
20
29.04854123508338
30
0
10
-19.511164480675525
20
29.018552136370541
30
0
0
SPLINE
5
128
100
AcDbEntity
8
0
100
AcDbSpline
70
0
71
3
72
9
73
5
74
0
42
0.000000001
43
0.0000000001
44
0.0000000001
40
0
40
0
40
0
40
0
40
0.018287362298023368
40
0.037951175669077117
40
0.037951175669077117
40
0.037951175669077117
40
0.037951175669077117
10
-19.511164480675525
20
29.018552136370541
30
0
10
-19.560706675822882
20
28.981982309409027
30
0
10
-19.663520002339201
20
28.906090121974533
30
0
10
-19.729768680804316
20
28.796677762716065
30
0
10
-19.764094406594104
20
28.739987444826962
30
0
0
SPLINE
5
129
100
AcDbEntity
8
0
100
AcDbSpline
70
0
71
3
72
9
73
5
74
0
42
0.000000001
43
0.0000000001
44
0.0000000001
40
0
40
0
40
0
40
0
40
0.021052338107058376
40
0.043704120687110645
40
0.043704120687110645
40
0.043704120687110645
40
0.043704120687110645
10
-19.764094406594104
20
28.739987444826962
30
0
10
-19.792994268066828
20
28.675321354944664
30
0
10
-19.852989648495424
20
28.54107619024099
30
0
10
-19.859724878688858
20
28.394064492870012
30
0
10
-19.863215738762683
20
28.317868542620541
30
0
0
SPLINE
5
130
100
AcDbEntity
8
0
100
AcDbSpline
70
0
71
3
72
9
73
5
74
0
42
0.000000001
43
0.0000000001
44
0.0000000001
40
0
40
0
40
0
40
0
40
0.026434976871597609
40
0.051392600462323051
40
0.051392600462323051
40
0.051392600462323051
40
0.051392600462323051
10
-19.863215738762683
20
28.317868542620541
30
0
10
-19.857952430436882
20
28.228560399064435
30
0
10
-19.847719960659738
20
28.054935214442381
30
0
10
-19.761520906147958
20
27.904071471132141
30
0
10
-19.719660336006946
20
27.830807995745541
30
0
0
SPLINE
5
131
100
AcDbEntity
8
0
100
AcDbSpline
70
0
71
3
72
9
73
5
74
0
42
0.000000001
43
0.0000000001
44
0.0000000001
40
0
40
0
40
0
40
0
40
0.024563661891170999
40
0.049976239391775298
40
0.049976239391775298
40
0.049976239391775298
40
0.049976239391775298
10
-19.719660336006946
20
27.830807995745541
30
0
10
-19.666481085883643
20
27.766779549314546
30
0
10
-19.558284720593626
20
27.636509845192418
30
0
10
-19.401294961799454
20
27.572718245935064
30
0
10
-19.321466738213367
20
27.540280651995541
30
0
0
SPLINE
5
132
100
AcDbEntity
8
0
100
AcDbSpline
70
0
71
3
72
9
73
5
74
0
42
0.000000001
43
0.0000000001
44
0.0000000001
40
0
40
0
40
0
40
0
40
0.031689304420858135
40
0.073995819709636812
40
0.073995819709636812
40
0.073995819709636812
40
0.073995819709636812
10
-19.321466738213367
20
27.540280651995541
30
0
10
-19.218352054272646
20
27.515981954524776
30
0
10
-18.977575057057404
20
27.459243503805038
30
0
10
-18.729912178673377
20
27.457523625189019
30
0
10
-18.588312918175525
20
27.456540298411252
30
0
0
LINE
5
133
100
AcDbEntity
8
0
100
AcDbLine
10
-18.588312918175529
20
27.456540298411252
30
0
11
-18.299999590963125
21
27.456540298411252
31
0
0
LWPOLYLINE
5
134
100
AcDbEntity
8
0
100
AcDbPolyline
90
10
70
1
43
0.0
10
-56.999998725950718
20
27.54540784353912
10
-56.999998725950718
20
26.971188914725186
10
-56.373955065239734
20
26.97118891472519
10
-56.373955065239734
20
25.31347407097519
10
-56.999998725950718
20
25.313474070975186
10
-56.999998725950718
20
24.75976331228912
10
-55.710870081414051
20
24.759763312289124
10
-55.710870081414051
20
29.770505261370545
10
-56.373955065239734
20
29.770505261370545
10
-56.373955065239734
20
27.545407843539124
0
LINE
5
135
100
AcDbEntity
8
0
100
AcDbLine
10
-57.299998719245195
20
25.313474070975186
30
0
11
-57.299998719245195
21
24.75976331228912
31
0
0
LINE
5
136
100
AcDbEntity
8
0
100
AcDbLine
10
-57.299998719245195
20
24.75976331228912
30
0
11
-57.932549768914051
21
24.759763312289124
31
0
0
SPLINE
5
137
100
AcDbEntity
8
0
100
AcDbSpline
70
0
71
3
72
9
73
5
74
0
42
0.000000001
43
0.0000000001
44
0.0000000001
40
0
40
0
40
0
40
0
40
0.059056491483057139
40
0.10313073071145791
40
0.10313073071145791
40
0.10313073071145791
40
0.10313073071145791
10
-57.932549768914051
20
24.759763312289124
30
0
10
-58.130498478846988
20
24.761286360115172
30
0
10
-58.476177583482418
20
24.763946068324447
30
0
10
-58.80890655828334
20
24.855602393923235
30
0
10
-58.951102549065418
20
24.89477289910019
30
0
0
SPLINE
5
138
100
AcDbEntity
8
0
100
AcDbSpline
70
0
71
3
72
9
73
5
74
0
42
0.000000001
43
0.0000000001
44
0.0000000001
40
0
40
0
40
0
40
0
40
0.03649729627094403
40
0.074374080457569935
40
0.074374080457569935
40
0.074374080457569935
40
0.074374080457569935
10
-58.951102549065418
20
24.89477289910019
30
0
10
-59.06209275558767
20
24.949416263148336
30
0
10
-59.288268264277633
20
25.06076834588945
30
0
10
-59.434011220519039
20
25.266702666990728
30
0
10
-59.508234316338367
20
25.371579658934479
30
0
0
SPLINE
5
139
100
AcDbEntity
8
0
100
AcDbSpline
70
0
71
3
72
9
73
5
74
0
42
0.000000001
43
0.0000000001
44
0.0000000001
40
0
40
0
40
0
40
0
40
0.039225822725833644
40
0.079130669184319158
40
0.079130669184319158
40
0.079130669184319158
40
0.079130669184319158
10
-59.508234316338367
20
25.371579658934479
30
0
10
-59.569045279343072
20
25.489084518036616
30
0
10
-59.691719881477951
20
25.726128319466866
30
0
10
-59.708346644673746
20
25.99258096872115
30
0
10
-59.716731363762683
20
26.1269505142659
30
0
0
SPLINE
5
140
100
AcDbEntity
8
0
100
AcDbSpline
70
0
71
3
72
9
73
5
74
0
42
0.000000001
43
0.0000000001
44
0.0000000001
40
0
40
0
40
0
40
0
40
0.049885497940514355
40
0.098172968063779287
40
0.098172968063779287
40
0.098172968063779287
40
0.098172968063779287
10
-59.716731363762683
20
26.1269505142659
30
0
10
-59.703307772390005
20
26.29667774026375
30
0
10
-59.676890599834124
20
26.630695164672538
30
0
10
-59.472196596580034
20
26.895586643713738
30
0
10
-59.371515566338367
20
27.025876474329834
30
0
0
SPLINE
5
141
100
AcDbEntity
8
0
100
AcDbSpline
70
0
71
3
72
9
73
5
74
0
42
0.000000001
43
0.0000000001
44
0.0000000001
40
0
40
0
40
0
40
0
40
0.053136577773446693
40
0.11801012494624877
40
0.11801012494624877
40
0.11801012494624877
40
0.11801012494624877
10
-59.371515566338367
20
27.025876474329834
30
0
10
-59.230704257747888
20
27.137821549890937
30
0
10
-58.917978809160346
20
27.38643847080759
30
0
10
-58.522508674117155
20
27.453728647587052
30
0
10
-58.305107408989734
20
27.490719985911255
30
0
0
SPLINE
5
142
100
AcDbEntity
8
0
100
AcDbSpline
70
0
71
3
72
9
73
5
74
0
42
0.000000001
43
0.0000000001
44
0.0000000001
40
0
40
0
40
0
40
0
40
0.026344491807122797
40
0.047246062494868762
40
0.047246062494868762
40
0.047246062494868762
40
0.047246062494868762
10
-58.305107408989734
20
27.490719985911255
30
0
10
-58.384100998835741
20
27.529750514459721
30
0
10
-58.525767655755239
20
27.599747643442477
30
0
10
-58.650035704916391
20
27.69714394136443
30
0
10
-58.705011660088367
20
27.74023188347519
30
0
0
SPLINE
5
143
100
AcDbEntity
8
0
100
AcDbSpline
70
0
71
3
72
9
73
5
74
0
42
0.000000001
43
0.0000000001
44
0.0000000001
40
0
40
0
40
0
40
0
40
0.041225281509882243
40
0.086602852226651719
40
0.086602852226651719
40
0.086602852226651719
40
0.086602852226651719
10
-58.705011660088367
20
27.74023188347519
30
0
10
-58.802452069911347
20
27.83758097755436
30
0
10
-59.007147274012752
20
28.042084352671775
30
0
10
-59.169983676871148
20
28.281361162164281
30
0
10
-59.255305582512683
20
28.40673578972519
30
0
0
LINE
5
144
100
AcDbEntity
8
0
100
AcDbLine
10
-59.255305582512683
20
28.406735789725197
30
0
11
-60.126887613762683
21
29.770505261370545
31
0
0
LINE
5
145
100
AcDbEntity
8
0
100
AcDbLine
10
-60.126887613762683
20
29.770505261370545
30
0
11
-59.292899424065418
21
29.770505261370552
31
0
0
LINE
5
146
100
AcDbEntity
8
0
100
AcDbLine
10
-59.292899424065418
20
29.770505261370552
30
0
11
-58.629814440239734
21
28.728024792620552
31
0
0
SPLINE
5
147
100
AcDbEntity
8
0
100
AcDbSpline
70
0
71
3
72
9
73
5
74
0
42
0.000000001
43
0.0000000001
44
0.0000000001
40
0
40
0
40
0
40
0
40
0.04782533003226469
40
0.084024336642610387
40
0.084024336642610387
40
0.084024336642610387
40
0.084024336642610387
10
-58.629814440239734
20
28.728024792620552
30
0
10
-58.543161997594744
20
28.594145970196095
30
0
10
-58.390922295186122
20
28.358934227023191
30
0
10
-58.223448962622697
20
28.134349584464545
30
0
10
-58.151298815239734
20
28.037594985911255
30
0
0
SPLINE
5
148
100
AcDbEntity
8
0
100
AcDbSpline
70
0
71
3
72
9
73
5
74
0
42
0.000000001
43
0.0000000001
44
0.0000000001
40
0
40
0
40
0
40
0
40
0.027037063313326913
40
0.047638476939184826
40
0.047638476939184826
40
0.047638476939184826
40
0.047638476939184826
10
-58.151298815239734
20
28.037594985911255
30
0
10
-58.094737017352841
20
27.966904124665412
30
0
10
-57.995076862954875
20
27.842348993649708
30
0
10
-57.86910491607081
20
27.744813645003326
30
0
10
-57.814627939690418
20
27.702634167620545
30
0
0
SPLINE
5
149
100
AcDbEntity
8
0
100
AcDbSpline
70
0
71
3
72
9
73
5
74
0
42
0.000000001
43
0.0000000001
44
0.0000000001
40
0
40
0
40
0
40
0
40
0.017052220656787506
40
0.033170861518800034
40
0.033170861518800034
40
0.033170861518800034
40
0.033170861518800034
10
-57.814627939690418
20
27.702634167620545
30
0
10
-57.765617801044932
20
27.673344704765817
30
0
10
-57.670280744672766
20
27.61636932684473
30
0
10
-57.563856170097793
20
27.584715108088695
30
0
10
-57.512141520012683
20
27.56933344597519
30
0
0
SPLINE
5
150
100
AcDbEntity
8
0
100
AcDbSpline
70
0
71
3
72
9
73
5
74
0
42
0.000000001
43
0.0000000001
44
0.0000000001
40
0
40
0
40
0
40
0
40
0.01497615134161143
40
0.021340287789304219
40
0.021340287789304219
40
0.021340287789304219
40
0.021340287789304219
10
-57.512141520012683
20
27.56933344597519
30
0
10
-57.462649666378518
20
27.562416266682604
30
0
10
-57.392126180358133
20
27.552559622380151
30
0
10
-57.3211823158233
20
27.548403084708294
30
0
10
-57.299998719245195
20
27.547524172433683
30
0
0
LINE
5
151
100
AcDbEntity
8
0
100
AcDbLine
10
-57.299998719245202
20
27.547524172433675
30
0
11
-57.299998719245195
21
26.971188914725186
31
0
0
LINE
5
152
100
AcDbEntity
8
0
100
AcDbLine
10
-57.299998719245195
20
26.971188914725186
30
0
11
-57.799249941338367
21
26.97118891472519
31
0
0
SPLINE
5
153
100
AcDbEntity
8
0
100
AcDbSpline
70
0
71
3
72
9
73
5
74
0
42
0.000000001
43
0.0000000001
44
0.0000000001
40
0
40
0
40
0
40
0
40
0.040570657175820528
40
0.071963431197941588
40
0.071963431197941588
40
0.071963431197941588
40
0.071963431197941588
10
-57.799249941338367
20
26.97118891472519
30
0
10
-57.935168031973198
20
26.969708502722685
30
0
10
-58.176256859338402
20
26.967082577122675
30
0
10
-58.408760105293744
20
26.904496739005168
30
0
10
-58.510185533989734
20
26.87719477410019
30
0
0
SPLINE
5
154
100
AcDbEntity
8
0
100
AcDbSpline
70
0
71
3
72
9
73
5
74
0
42
0.000000001
43
0.0000000001
44
0.0000000001
40
0
40
0
40
0
40
0
40
0.025655497075683004
40
0.049906224154820503
40
0.049906224154820503
40
0.049906224154820503
40
0.049906224154820503
10
-58.510185533989734
20
26.87719477410019
30
0
10
-58.589838424402572
20
26.842182261848411
30
0
10
-58.74478280111046
20
26.77407435189421
30
0
10
-58.849128661361895
20
26.641052437359072
30
0
10
-58.899833017815418
20
26.576413643309479
30
0
0
SPLINE
5
155
100
AcDbEntity
8
0
100
AcDbSpline
70
0
71
3
72
9
73
5
74
0
42
0.000000001
43
0.0000000001
44
0.0000000001
40
0
40
0
40
0
40
0
40
0.023779799035980147
40
0.047386574166727119
40
0.047386574166727119
40
0.047386574166727119
40
0.047386574166727119
10
-58.899833017815418
20
26.576413643309479
30
0
10
-58.938713376320393
20
26.506137840096542
30
0
10
-59.016191196428871
20
26.366097566583818
30
0
10
-59.027502575167802
20
26.206471916525629
30
0
10
-59.033137613762683
20
26.1269505142659
30
0
0
SPLINE
5
156
100
AcDbEntity
8
0
100
AcDbSpline
70
0
71
3
72
9
73
5
74
0
42
0.000000001
43
0.0000000001
44
0.0000000001
40
0
40
0
40
0
40
0
40
0.033021633610370846
40
0.065484189123009018
40
0.065484189123009018
40
0.065484189123009018
40
0.065484189123009018
10
-59.033137613762683
20
26.1269505142659
30
0
10
-59.022756479740764
20
26.014062493311144
30
0
10
-59.00216997116204
20
25.790197720261212
30
0
10
-58.850343319837719
20
25.624579978124977
30
0
10
-58.775078112114734
20
25.542478096434479
30
0
0
SPLINE
5
157
100
AcDbEntity
8
0
100
AcDbSpline
70
0
71
3
72
9
73
5
74
0
42
0.000000001
43
0.0000000001
44
0.0000000001
40
0
40
0
40
0
40
0
40
0.03745264534986463
40
0.086027580728695041
40
0.086027580728695041
40
0.086027580728695041
40
0.086027580728695041
10
-58.775078112114734
20
25.542478096434479
30
0
10
-58.666973758521664
20
25.475967793216647
30
0
10
-58.41866136512526
20
25.323195661210679
30
0
10
-58.125451006570572
20
25.316982368079319
30
0
10
-57.959891611565418
20
25.31347407097519
30
0
0
LINE
5
158
100
AcDbEntity
8
0
100
AcDbLine
10
-57.959891611565418
20
25.31347407097519
30
0
11
-57.299998719245195
21
25.313474070975186
31
0
0
LINE
5
159
100
AcDbEntity
8
0
100
AcDbLine
10
-40.899999085813761
20
36.712769259775783
30
0
11
-40.899999085813761
21
37.529396750309175
31
0
0
SPLINE
5
160
100
AcDbEntity
8
0
100
AcDbSpline
70
0
71
3
72
9
73
5
74
0
42
0.000000001
43
0.0000000001
44
0.0000000001
40
0.0081585458175493057
40
0.0081585458175493057
40
0.0081585458175493057
40
0.0081585458175493057
40
0.095147877154120347
40
0.19006902531807257
40
0.19006902531807257
40
0.19006902531807257
40
0.19006902531807257
10
-40.899999085813761
20
37.529396750309175
30
0
10
-40.604522535848091
20
37.556174026128545
30
0
10
-39.991822471204529
20
37.625176256985355
30
0
10
-39.505819282883159
20
38.011372322830013
30
0
10
-39.252222124690455
20
38.212889981884231
30
0
0
SPLINE
5
161
100
AcDbEntity
8
0
100
AcDbSpline
70
0
71
3
72
9
73
5
74
0
42
0.000000001
43
0.0000000001
44
0.0000000001
40
0
40
0
40
0
40
0
40
0.10706411956835916
40
0.2467342431389235
40
0.2467342431389235
40
0.2467342431389235
40
0.2467342431389235
10
-39.252222124690455
20
38.212889981884231
30
0
10
-39.041667376009329
20
38.510226225244836
30
0
10
-38.556434164690813
20
39.195451427293108
30
0
10
-38.537718781677555
20
40.041239358522141
30
0
10
-38.527124468440455
20
40.520018888134231
30
0
0
SPLINE
5
162
100
AcDbEntity
8
0
100
AcDbSpline
70
0
71
3
72
9
73
5
74
0
42
0.000000001
43
0.0000000001
44
0.0000000001
40
0
40
0
40
0
40
0
40
0.11696237556807217
40
0.21944056649608895
40
0.21944056649608895
40
0.21944056649608895
40
0.21944056649608895
10
-38.527124468440455
20
40.520018888134231
30
0
10
-38.547650374555111
20
40.918882952152444
30
0
10
-38.586160335076755
20
41.667217241174711
30
0
10
-39.020220328056837
20
42.274836463171596
30
0
10
-39.222925249690455
20
42.558593106884231
30
0
0
SPLINE
5
163
100
AcDbEntity
8
0
100
AcDbSpline
70
0
71
3
72
9
73
5
74
0
42
0.000000001
43
0.0000000001
44
0.0000000001
40
0
40
0
40
0
40
0
40
0.096281870792000873
40
0.18750368167974329
40
0.18750368167974329
40
0.18750368167974329
40
0.18750368167974329
10
-39.222925249690455
20
42.558593106884231
30
0
10
-39.47105903844146
20
42.775772179362654
30
0
10
-39.954286031822889
20
43.198716554440978
30
0
10
-40.588836991709115
20
43.268705838943362
30
0
10
-40.899999085813754
20
43.297044509169496
30
0
0
LINE
5
164
100
AcDbEntity
8
0
100
AcDbLine
10
-40.899999085813754
20
43.297044509169496
30
0
11
-40.899999085813761
21
44.109542751519882
31
0
0
SPLINE
5
165
100
AcDbEntity
8
0
100
AcDbSpline
70
0
71
3
72
9
73
5
74
0
42
0.000000001
43
0.0000000001
44
0.0000000001
40
0.0072640647946472323
40
0.0072640647946472323
40
0.0072640647946472323
40
0.0072640647946472323
40
0.096478493700430989
40
0.18899587265338877
40
0.18899587265338877
40
0.18899587265338877
40
0.18899587265338877
10
-40.899999085813761
20
44.109542751519896
30
0
10
-40.599513202738521
20
44.092009737414799
30
0
10
-39.989794833632921
20
44.047597484932972
30
0
10
-39.444417600009132
20
43.767885495754378
30
0
10
-39.166772905940455
20
43.625487638134231
30
0
0
SPLINE
5
166
100
AcDbEntity
8
0
100
AcDbSpline
70
0
71
3
72
9
73
5
74
0
42
0.000000001
43
0.0000000001
44
0.0000000001
40
0
40
0
40
0
40
0
40
0.090698981506702428
40
0.1816709349363517
40
0.1816709349363517
40
0.1816709349363517
40
0.1816709349363517
10
-39.166772905940455
20
43.625487638134231
30
0
10
-38.917443684361537
20
43.447664358842324
30
0
10
-38.418034848245242
20
43.091482614948958
30
0
10
-38.113309717886999
20
42.559080744423369
30
0
10
-37.960718218440455
20
42.292479825634231
30
0
0
SPLINE
5
167
100
AcDbEntity
8
0
100
AcDbSpline
70
0
71
3
72
9
73
5
74
0
42
0.000000001
43
0.0000000001
44
0.0000000001
40
0
40
0
40
0
40
0
40
0.092197275451653168
40
0.18456506666238537
40
0.18456506666238537
40
0.18456506666238537
40
0.18456506666238537
10
-37.960718218440455
20
42.292479825634231
30
0
10
-37.841089341337678
20
42.006690447398462
30
0
10
-37.601610337548678
20
41.434583133086917
30
0
10
-37.567588568807238
20
40.815298726037653
30
0
10
-37.550561968440455
20
40.505370450634231
30
0
0
SPLINE
5
168
100
AcDbEntity
8
0
100
AcDbSpline
70
0
71
3
72
9
73
5
74
0
42
0.000000001
43
0.0000000001
44
0.0000000001
40
0
40
0
40
0
40
0
40
0.16066596865015964
40
0.30064736840248696
40
0.30064736840248696
40
0.30064736840248696
40
0.30064736840248696
10
-37.550561968440455
20
40.505370450634231
30
0
10
-37.578248106543683
20
39.957139993554847
30
0
10
-37.630055994871825
20
38.93125974284721
30
0
10
-38.228812308595849
20
38.101281114772746
30
0
10
-38.507593218440455
20
37.714843106884231
30
0
0
SPLINE
5
169
100
AcDbEntity
8
0
100
AcDbSpline
70
0
71
3
72
9
73
5
74
0
42
0.000000001
43
0.0000000001
44
0.0000000001
40
0
40
0
40
0
40
0
40
0.13317329822313734
40
0.265274718298941
40
0.265274718298941
40
0.265274718298941
40
0.265274718298941
10
-38.507593218440455
20
37.714843106884231
30
0
10
-38.855611052802416
20
37.420802931528385
30
0
10
-39.548845614123323
20
36.835089235713774
30
0
10
-40.448956586606847
20
36.748910270240167
30
0
10
-40.899999085813761
20
36.712769259775776
30
0
0
LWPOLYLINE
5
170
100
AcDbEntity
8
0
100
AcDbPolyline
90
12
70
1
43
0.0
10
-42.699999045580626
20
25.351071786829831
10
-42.699999045580626
20
24.759763312289124
10
-41.280206495751209
20
24.759763312289124
10
-41.280206495751209
20
29.770505261370545
10
-42.699999045580626
20
29.770505261370541
10
-42.699999045580626
20
29.179196786829831
10
-41.943291479576892
20
29.179196786829834
10
-41.943291479576892
20
27.456540298411255
10
-42.699999045580626
20
27.456540298411252
10
-42.699999045580626
20
26.865231823870541
10
-41.943291479576892
20
26.865231823870545
10
-41.943291479576892
20
25.351071786829834
0
LINE
5
171
100
AcDbEntity
8
0
100
AcDbLine
10
-65.299998540431261
20
14.601293602602908
30
0
11
-65.299998540431261
21
15.190794898197256
31
0
0
SPLINE
5
172
100
AcDbEntity
8
0
100
AcDbSpline
70
0
71
3
72
9
73
5
74
0
42
0.000000001
43
0.0000000001
44
0.0000000001
40
0.015973895778941913
40
0.015973895778941913
40
0.015973895778941913
40
0.015973895778941913
40
0.075401502649960567
40
0.14706820211188473
40
0.14706820211188473
40
0.14706820211188473
40
0.14706820211188473
10
-65.299998540431275
20
15.190794898197256
30
0
10
-65.09713006882312
20
15.170452011438055
30
0
10
-64.660661432376287
20
15.101757020170384
30
0
10
-64.339242979599462
20
14.785034803802333
30
0
10
-64.16352978273359
20
14.611888947751837
30
0
0
SPLINE
5
173
100
AcDbEntity
8
0
100
AcDbSpline
70
0
71
3
72
9
73
5
74
0
42
0.000000001
43
0.0000000001
44
0.0000000001
40
0
40
0
40
0
40
0
40
0.10310341510237823
40
0.24269069639991075
40
0.24269069639991075
40
0.24269069639991075
40
0.24269069639991075
10
-64.16352978273359
20
14.611888947751837
30
0
10
-63.999255258252703
20
14.304845725528175
30
0
10
-63.612576517229016
20
13.582109884505446
30
0
10
-63.602766128487183
20
12.757849645088557
30
0
10
-63.59712353273359
20
12.283763709333256
30
0
0
SPLINE
5
174
100
AcDbEntity
8
0
100
AcDbSpline
70
0
71
3
72
9
73
5
74
0
42
0.000000001
43
0.0000000001
44
0.0000000001
40
0
40
0
40
0
40
0
40
0.091799197893655399
40
0.1653155917305765
40
0.1653155917305765
40
0.1653155917305765
40
0.1653155917305765
10
-63.59712353273359
20
12.283763709333256
30
0
10
-63.601261320186282
20
11.976446773542122
30
0
10
-63.608712809925777
20
11.423018396662481
30
0
10
-63.745345805979639
20
10.887254245196045
30
0
10
-63.806106954059274
20
10.6489981439379
30
0
0
SPLINE
5
175
100
AcDbEntity
8
0
100
AcDbSpline
70
0
71
3
72
9
73
5
74
0
42
0.000000001
43
0.0000000001
44
0.0000000001
40
0
40
0
40
0
40
0
40
0.060675807179694528
40
0.11508114846901096
40
0.11508114846901096
40
0.11508114846901096
40
0.11508114846901096
10
-63.806106954059274
20
10.6489981439379
30
0
10
-63.88011171325023
20
10.457894474253678
30
0
10
-64.020473301760219
20
10.095436506141755
30
0
10
-64.296641428122797
20
9.8228071117831703
30
0
10
-64.42720165773359
20
9.6939198401239661
30
0
0
SPLINE
5
176
100
AcDbEntity
8
0
100
AcDbSpline
70
0
71
3
72
9
73
5
74
0
42
0.000000001
43
0.0000000001
44
0.0000000001
40
0
40
0
40
0
40
0
40
0.052916278572561752
40
0.094532717289674134
40
0.094532717289674134
40
0.094532717289674134
40
0.094532717289674134
10
-64.42720165773359
20
9.6939198401239661
30
0
10
-64.577674459778407
20
9.5959901727768937
30
0
10
-64.846487823816929
20
9.4210429201106258
30
0
10
-65.159702542895133
20
9.3796129108527921
30
0
10
-65.299998540431275
20
9.3686164915282362
30
0
0
LINE
5
177
100
AcDbEntity
8
0
100
AcDbLine
10
-65.299998540431261
20
9.3686164915282362
30
0
11
-65.299998540431261
21
9.9601948336355015
31
0
0
SPLINE
5
178
100
AcDbEntity
8
0
100
AcDbSpline
70
0
71
3
72
9
73
5
74
0
42
0.000000001
43
0.0000000001
44
0.0000000001
40
0.01527543018097185
40
0.01527543018097185
40
0.01527543018097185
40
0.01527543018097185
40
0.044745521608457149
40
0.090439704019565692
40
0.090439704019565692
40
0.090439704019565692
40
0.090439704019565692
10
-65.299998540431261
20
9.9601948336355015
30
0
10
-65.20068178734499
20
9.9756881406957536
30
0
10
-64.95715182932156
20
10.033768508741417
30
0
10
-64.78669050649664
20
10.230544853675674
30
0
10
-64.683062940082223
20
10.350169959333256
30
0
0
SPLINE
5
179
100
AcDbEntity
8
0
100
AcDbSpline
70
0
71
3
72
9
73
5
74
0
42
0.000000001
43
0.0000000001
44
0.0000000001
40
0
40
0
40
0
40
0
40
0.07933686962846688
40
0.1985310671305057
40
0.1985310671305057
40
0.1985310671305057
40
0.1985310671305057
10
-64.683062940082223
20
10.350169959333256
30
0
10
-64.57812258272314
20
10.595482223502087
30
0
10
-64.315521836952399
20
11.209346947604633
30
0
10
-64.318182420210405
20
11.880697733937527
30
0
10
-64.31977978273359
20
12.283763709333256
30
0
0
SPLINE
5
180
100
AcDbEntity
8
0
100
AcDbSpline
70
0
71
3
72
9
73
5
74
0
42
0.000000001
43
0.0000000001
44
0.0000000001
40
0
40
0
40
0
40
0
40
0.11772119702302024
40
0.19221846244789079
40
0.19221846244789079
40
0.19221846244789079
40
0.19221846244789079
10
-64.31977978273359
20
12.283763709333256
30
0
10
-64.315777735516633
20
12.681735537312754
30
0
10
-64.30924308090772
20
13.331555066898719
30
0
10
-64.554718262270228
20
13.92912096315176
30
0
10
-64.649856000384958
20
14.160716953542547
30
0
0
SPLINE
5
181
100
AcDbEntity
8
0
100
AcDbSpline
70
0
71
3
72
9
73
5
74
0
42
0.000000001
43
0.0000000001
44
0.0000000001
40
0
40
0
40
0
40
0
40
0.050840256674568082
40
0.080780888609045781
40
0.080780888609045781
40
0.080780888609045781
40
0.080780888609045781
10
-64.649856000384958
20
14.160716953542547
30
0
10
-64.76197138264979
20
14.296767668396257
30
0
10
-64.940113288267369
20
14.512940802850085
30
0
10
-65.199817147534063
20
14.582547372305752
30
0
10
-65.299998540431275
20
14.601293602602908
30
0
0
LINE
5
182
100
AcDbEntity
8
0
100
AcDbLine
10
-65.549998534843326
20
9.9536163623698002
30
0
11
-65.549998534843326
21
9.3619265030042413
31
0
0
SPLINE
5
183
100
AcDbEntity
8
0
100
AcDbSpline
70
0
71
3
72
9
73
5
74
0
42
0.000000001
43
0.0000000001
44
0.0000000001
40
0.0084968698721812445
40
0.0084968698721812445
40
0.0084968698721812445
40
0.0084968698721812445
40
0.043509505662192659
40
0.083599894115890735
40
0.083599894115890735
40
0.083599894115890735
40
0.083599894115890735
10
-65.549998534843326
20
9.3619265030042396
30
0
10
-65.667561181586677
20
9.3679006427967817
30
0
10
-65.918001531753191
20
9.3881018880646216
30
0
10
-66.149388959544481
20
9.4894365815845578
30
0
10
-66.27290478273359
20
9.5435295727518348
30
0
0
SPLINE
5
184
100
AcDbEntity
8
0
100
AcDbSpline
70
0
71
3
72
9
73
5
74
0
42
0.000000001
43
0.0000000001
44
0.0000000001
40
0
40
0
40
0
40
0
40
0.038995179519074372
40
0.079144123017253917
40
0.079144123017253917
40
0.079144123017253917
40
0.079144123017253917
10
-66.27290478273359
20
9.5435295727518348
30
0
10
-66.384277317719636
20
9.6130423517667474
30
0
10
-66.61031760573438
20
9.7541246086374027
30
0
10
-66.767423521523568
20
9.9694523219078466
30
0
10
-66.847121625384958
20
10.078685703542547
30
0
0
SPLINE
5
185
100
AcDbEntity
8
0
100
AcDbSpline
70
0
71
3
72
9
73
5
74
0
42
0.000000001
43
0.0000000001
44
0.0000000001
40
0
40
0
40
0
40
0
40
0.043723252235655742
40
0.092578187578819665
40
0.092578187578819665
40
0.092578187578819665
40
0.092578187578819665
10
-66.847121625384958
20
10.078685703542547
30
0
10
-66.919616213769203
20
10.205756884515097
30
0
10
-67.073113889690333
20
10.474813256729455
30
0
10
-67.157868092169849
20
10.772928185613546
30
0
10
-67.202594190082223
20
10.930248024728613
30
0
0
SPLINE
5
186
100
AcDbEntity
8
0
100
AcDbSpline
70
0
71
3
72
9
73
5
74
0
42
0.000000001
43
0.0000000001
44
0.0000000001
40
0
40
0
40
0
40
0
40
0.059723254798806795
40
0.13620718597390064
40
0.13620718597390064
40
0.13620718597390064
40
0.13620718597390064
10
-67.202594190082223
20
10.930248024728613
30
0
10
-67.24004673189944
20
11.126162978944198
30
0
10
-67.325462460591368
20
11.572974270354994
30
0
10
-67.329327344628624
20
12.028163140491852
30
0
10
-67.331497579059274
20
12.283763709333257
30
0
0
SPLINE
5
187
100
AcDbEntity
8
0
100
AcDbSpline
70
0
71
3
72
9
73
5
74
0
42
0.000000001
43
0.0000000001
44
0.0000000001
40
0
40
0
40
0
40
0
40
0.091211410251874167
40
0.16450583051365142
40
0.16450583051365142
40
0.16450583051365142
40
0.16450583051365142
10
-67.331497579059274
20
12.283763709333257
30
0
10
-67.327319087296246
20
12.589089193473292
30
0
10
-67.319782900147388
20
13.139763963293634
30
0
10
-67.184668475414028
20
13.673094784865313
30
0
10
-67.124469190082223
20
13.910716595914678
30
0
0
SPLINE
5
188
100
AcDbEntity
8
0
100
AcDbSpline
70
0
71
3
72
9
73
5
74
0
42
0.000000001
43
0.0000000001
44
0.0000000001
40
0
40
0
40
0
40
0
40
0.060657457956885555
40
0.11514020292157662
40
0.11514020292157662
40
0.11514020292157662
40
0.11514020292157662
10
-67.124469190082223
20
13.910716595914678
30
0
10
-67.050962172658487
20
14.101944506777595
30
0
10
-66.911430890151635
20
14.464934008854581
30
0
10
-66.635765693177305
20
14.738364792516734
30
0
10
-66.505324750384958
20
14.867748441961126
30
0
0
SPLINE
5
189
100
AcDbEntity
8
0
100
AcDbSpline
70
0
71
3
72
9
73
5
74
0
42
0.000000001
43
0.0000000001
44
0.0000000001
40
0
40
0
40
0
40
0
40
0.05307206722090678
40
0.10274030362851869
40
0.10274030362851869
40
0.10274030362851869
40
0.10274030362851869
10
-66.505324750384958
20
14.867748441961126
30
0
10
-66.35456509910243
20
14.9662450962458
30
0
10
-66.062714919548966
20
15.156921222078232
30
0
10
-65.718287691159077
20
15.189930078018982
30
0
10
-65.549998534843326
20
15.200546709439283
30
0
0
LINE
5
190
100
AcDbEntity
8
0
100
AcDbLine
10
-65.54999853484334
20
15.200546709439283
30
0
11
-65.54999853484334
21
14.614605569348333
31
0
0
SPLINE
5
191
100
AcDbEntity
8
0
100
AcDbSpline
70
0
71
3
72
9
73
5
74
0
42
0.000000001
43
0.0000000001
44
0.0000000001
40
0.0083754299675498668
40
0.0083754299675498668
40
0.0083754299675498668
40
0.0083754299675498668
40
0.046094511215844257
40
0.097035726548678453
40
0.097035726548678453
40
0.097035726548678453
40
0.097035726548678453
10
-65.54999853484334
20
14.614605569348333
30
0
10
-65.678147959007205
20
14.594368599813897
30
0
10
-65.971745775555377
20
14.533152589452786
30
0
10
-66.166732384221916
20
14.295379884179138
30
0
10
-66.278765111407907
20
14.158763709333257
30
0
0
SPLINE
5
192
100
AcDbEntity
8
0
100
AcDbSpline
70
0
71
3
72
9
73
5
74
0
42
0.000000001
43
0.0000000001
44
0.0000000001
40
0
40
0
40
0
40
0
40
0.074543150876311109
40
0.19202084252257168
40
0.19202084252257168
40
0.19202084252257168
40
0.19202084252257168
10
-66.278765111407907
20
14.158763709333257
30
0
10
-66.373912433013885
20
13.92700682803178
30
0
10
-66.619008979695479
20
13.330008296513371
30
0
10
-66.612700708004041
20
12.680891273537702
30
0
10
-66.608841329059274
20
12.283763709333257
30
0
0
SPLINE
5
193
100
AcDbEntity
8
0
100
AcDbSpline
70
0
71
3
72
9
73
5
74
0
42
0.000000001
43
0.0000000001
44
0.0000000001
40
0
40
0
40
0
40
0
40
0.11796473838165136
40
0.19241593542387567
40
0.19241593542387567
40
0.19241593542387567
40
0.19241593542387567
10
-66.608841329059274
20
12.283763709333257
30
0
10
-66.612983634828964
20
11.884947792984367
30
0
10
-66.61974027796164
20
11.23442680968909
30
0
10
-66.373891135647057
20
10.636292638561486
30
0
10
-66.278765111407907
20
10.404857518937902
30
0
0
SPLINE
5
194
100
AcDbEntity
8
0
100
AcDbSpline
70
0
71
3
72
9
73
5
74
0
42
0.000000001
43
0.0000000001
44
0.0000000001
40
0
40
0
40
0
40
0
40
0.050881700864940399
40
0.088384844904801058
40
0.088384844904801058
40
0.088384844904801058
40
0.088384844904801058
10
-66.278765111407907
20
10.404857518937902
30
0
10
-66.16585241046387
20
10.26935476352268
30
0
10
-65.969715658132984
20
10.033977607925276
30
0
10
-65.677416675449393
20
9.9732332782754192
30
0
10
-65.549998534843326
20
9.9536163623698002
30
0
0
LINE
5
195
100
AcDbEntity
8
0
100
AcDbLine
10
-11.449999744072556
20
13.373607220914669
30
0
11
-11.449999744072556
21
12.756420197751828
31
0
0
LINE
5
196
100
AcDbEntity
8
0
100
AcDbLine
10
-11.449999744072556
20
12.756420197751828
30
0
11
-12.163526921710638
21
12.756420197751828
31
0
0
LINE
5
197
100
AcDbEntity
8
0
100
AcDbLine
10
-12.163526921710638
20
12.756420197751828
30
0
11
-11.565871148547796
21
11.170482459333249
31
0
0
SPLINE
5
198
100
AcDbEntity
8
0
100
AcDbSpline
70
0
71
3
72
9
73
5
74
0
42
0.000000001
43
0.0000000001
44
0.0000000001
40
0
40
0
40
0
40
0
40
0.070000667355305676
40
0.12553160770543226
40
0.12553160770543226
40
0.12553160770543226
40
0.12553160770543226
10
-11.565871148547796
20
11.170482459333249
30
0
10
-11.483976931972231
20
10.95191907373567
30
0
10
-11.337116722535555
20
10.559971193576967
30
0
10
-11.214057868586112
20
10.159942063940266
30
0
10
-11.159620790919927
20
9.9829826977518294
30
0
0
SPLINE
5
199
100
AcDbEntity
8
0
100
AcDbSpline
70
0
71
3
72
9
73
5
74
0
42
0.000000001
43
0.0000000001
44
0.0000000001
40
0
40
0
40
0
40
0
40
0.056444041854952116
40
0.11373129697589326
40
0.11373129697589326
40
0.11373129697589326
40
0.11373129697589326
10
-11.159620790919927
20
9.9829826977518294
30
0
10
-11.119175744742336
20
10.166911887073308
30
0
10
-11.037681446905761
20
10.537517969944059
30
0
10
-10.913551707224096
20
10.896108050935911
30
0
10
-10.851026683292059
20
11.076732399728604
30
0
0
LINE
5
200
100
AcDbEntity
8
0
100
AcDbLine
10
-10.85102668329206
20
11.076732399728604
30
0
11
-10.222120790919927
21
12.756420197751828
31
0
0
LINE
5
201
100
AcDbEntity
8
0
100
AcDbLine
10
-10.222120790919927
20
12.756420197751828
30
0
11
-11.099999751895666
21
12.756420197751828
31
0
0
LINE
5
202
100
AcDbEntity
8
0
100
AcDbLine
10
-11.099999751895666
20
12.756420197751828
30
0
11
-11.099999751895666
21
13.373607220914669
31
0
0
LINE
5
203
100
AcDbEntity
8
0
100
AcDbLine
10
-11.099999751895666
20
13.373607220914669
30
0
11
-10.003370552501348
21
13.373607220914669
31
0
0
LINE
5
204
100
AcDbEntity
8
0
100
AcDbLine
10
-10.003370552501348
20
13.373607220914669
30
0
11
-9.3744646601292168
21
15.107982578542538
31
0
0
LINE
5
205
100
AcDbEntity
8
0
100
AcDbLine
10
-9.3744646601292168
20
15.107982578542538
30
0
11
-8.5697769217106377
21
15.107982578542538
31
0
0
LINE
5
206
100
AcDbEntity
8
0
100
AcDbLine
10
-8.5697769217106377
20
15.107982578542538
30
0
11
-10.768995790919927
21
9.381419840123959
31
0
0
LINE
5
207
100
AcDbEntity
8
0
100
AcDbLine
10
-10.768995790919927
20
9.381419840123959
30
0
11
-11.585402398547796
21
9.3814198401239608
31
0
0
LINE
5
208
100
AcDbEntity
8
0
100
AcDbLine
10
-11.585402398547796
20
9.3814198401239608
30
0
11
-13.929151802501348
21
15.107982578542538
31
0
0
LINE
5
209
100
AcDbEntity
8
0
100
AcDbLine
10
-13.929151802501348
20
15.107982578542538
30
0
11
-13.065870910129217
21
15.107982578542538
31
0
0
LINE
5
210
100
AcDbEntity
8
0
100
AcDbLine
10
-13.065870910129217
20
15.107982578542538
30
0
11
-12.397901921710638
21
13.373607220914669
31
0
0
LINE
5
211
100
AcDbEntity
8
0
100
AcDbLine
10
-12.397901921710638
20
13.373607220914669
30
0
11
-11.449999744072556
21
13.373607220914669
31
0
0
LINE
5
212
100
AcDbEntity
8
0
100
AcDbLine
10
-21.999999508261681
20
13.373607220914669
30
0
11
-21.999999508261681
21
12.756420197751828
31
0
0
LINE
5
213
100
AcDbEntity
8
0
100
AcDbLine
10
-21.999999508261681
20
12.756420197751828
30
0
11
-22.835402398547796
21
12.756420197751829
31
0
0
LINE
5
214
100
AcDbEntity
8
0
100
AcDbLine
10
-22.835402398547796
20
12.756420197751829
30
0
11
-22.237746625384954
21
11.17048245933325
31
0
0
SPLINE
5
215
100
AcDbEntity
8
0
100
AcDbSpline
70
0
71
3
72
9
73
5
74
0
42
0.000000001
43
0.0000000001
44
0.0000000001
40
0
40
0
40
0
40
0
40
0.070000667355305676
40
0.12553162573455415
40
0.12553162573455415
40
0.12553162573455415
40
0.12553162573455415
10
-22.237746625384954
20
11.17048245933325
30
0
10
-22.155852472605169
20
10.951919053482598
30
0
10
-22.008992356480555
20
10.55997108071182
30
0
10
-21.885932987198295
20
10.159942051537055
30
0
10
-21.831495671710638
20
9.9829826977518294
30
0
0
SPLINE
5
216
100
AcDbEntity
8
0
100
AcDbSpline
70
0
71
3
72
9
73
5
74
0
42
0.000000001
43
0.0000000001
44
0.0000000001
40
0
40
0
40
0
40
0
40
0.056444027933105455
40
0.11373128305404659
40
0.11373128305404659
40
0.11373128305404659
40
0.11373128305404659
10
-21.831495671710638
20
9.9829826977518294
30
0
10
-21.791050869529499
20
10.166911897904416
30
0
10
-21.709557053206197
20
10.537518048642804
30
0
10
-21.585427232518338
20
10.896108062594358
30
0
10
-21.522902160129217
20
11.076732399728606
30
0
0
LINE
5
217
100
AcDbEntity
8
0
100
AcDbLine
10
-21.52290216012922
20
11.076732399728606
30
0
11
-20.893995671710638
21
12.756420197751829
31
0
0
LINE
5
218
100
AcDbEntity
8
0
100
AcDbLine
10
-20.893995671710638
20
12.756420197751829
30
0
11
-21.699999514967203
21
12.756420197751828
31
0
0
LINE
5
219
100
AcDbEntity
8
0
100
AcDbLine
10
-21.699999514967203
20
12.756420197751828
30
0
11
-21.699999514967203
21
13.373607220914669
31
0
0
LINE
5
220
100
AcDbEntity
8
0
100
AcDbLine
10
-21.699999514967203
20
13.373607220914669
30
0
11
-20.675246625384954
21
13.373607220914671
31
0
0
LINE
5
221
100
AcDbEntity
8
0
100
AcDbLine
10
-20.675246625384954
20
13.373607220914671
30
0
11
-20.046340136966375
21
15.10798257854254
31
0
0
LINE
5
222
100
AcDbEntity
8
0
100
AcDbLine
10
-20.046340136966375
20
15.10798257854254
30
0
11
-19.241652398547796
21
15.10798257854254
31
0
0
LINE
5
223
100
AcDbEntity
8
0
100
AcDbLine
10
-19.241652398547796
20
15.10798257854254
30
0
11
-21.440870671710638
21
9.3814198401239608
31
0
0
LINE
5
224
100
AcDbEntity
8
0
100
AcDbLine
10
-21.440870671710638
20
9.3814198401239608
30
0
11
-22.257277875384954
21
9.3814198401239608
31
0
0
LINE
5
225
100
AcDbEntity
8
0
100
AcDbLine
10
-22.257277875384954
20
9.3814198401239608
30
0
11
-24.601027875384954
21
15.10798257854254
31
0
0
LINE
5
226
100
AcDbEntity
8
0
100
AcDbLine
10
-24.601027875384954
20
15.10798257854254
30
0
11
-23.737746386966375
21
15.10798257854254
31
0
0
LINE
5
227
100
AcDbEntity
8
0
100
AcDbLine
10
-23.737746386966375
20
15.10798257854254
30
0
11
-23.069777398547796
21
13.373607220914671
31
0
0
LINE
5
228
100
AcDbEntity
8
0
100
AcDbLine
10
-23.069777398547796
20
13.373607220914671
30
0
11
-21.999999508261681
21
13.373607220914669
31
0
0
SPLINE
5
229
100
AcDbEntity
8
0
100
AcDbSpline
70
0
71
3
72
9
73
5
74
0
42
0.000000001
43
0.0000000001
44
0.0000000001
40
0.020719728085000198
40
0.020719728085000198
40
0.020719728085000198
40
0.020719728085000198
40
0.058922227638303751
40
0.10242596443421226
40
0.10242596443421226
40
0.10242596443421226
40
0.10242596443421226
10
-38.499999139457948
20
9.3830630357167006
30
0
10
-38.627481257365389
20
9.3850386995560502
30
0
10
-38.899629719568217
20
9.3949768139199961
30
0
10
-39.168700271873035
20
9.4396601145797838
30
0
10
-39.311964421710634
20
9.4634513285425435
30
0
0
SPLINE
5
230
100
AcDbEntity
8
0
100
AcDbSpline
70
0
71
3
72
9
73
5
74
0
42
0.000000001
43
0.0000000001
44
0.0000000001
40
0
40
0
40
0
40
0
40
0.048303804473990138
40
0.094160306218125128
40
0.094160306218125128
40
0.094160306218125128
40
0.094160306218125128
10
-39.311964421710634
20
9.4634513285425435
30
0
10
-39.468411053551471
20
9.5075173990118564
30
0
10
-39.77337797947672
20
9.5934169411784449
30
0
10
-40.027869588745048
20
9.7818431494145752
30
0
10
-40.151808171710641
20
9.8736075785425435
30
0
0
SPLINE
5
231
100
AcDbEntity
8
0
100
AcDbSpline
70
0
71
3
72
9
73
5
74
0
42
0.000000001
43
0.0000000001
44
0.0000000001
40
0
40
0
40
0
40
0
40
0.058901763784100093
40
0.12002954655935488
40
0.12002954655935488
40
0.12002954655935488
40
0.12002954655935488
10
-40.151808171710641
20
9.8736075785425435
30
0
10
-40.29399219457521
20
10.011862389433695
30
0
10
-40.583733667427786
20
10.293596945324769
30
0
10
-40.746600387381093
20
10.663659985548719
30
0
10
-40.829543977222116
20
10.852123024728609
30
0
0
SPLINE
5
232
100
AcDbEntity
8
0
100
AcDbSpline
70
0
71
3
72
9
73
5
74
0
42
0.000000001
43
0.0000000001
44
0.0000000001
40
0
40
0
40
0
40
0
40
0.066004253407386165
40
0.13853640885599183
40
0.13853640885599183
40
0.13853640885599183
40
0.13853640885599183
10
-40.829543977222116
20
10.852123024728609
30
0
10
-40.89501535600089
20
11.06327246802368
30
0
10
-41.032433313641896
20
11.506454294890123
30
0
10
-41.046689421153843
20
11.970497051300368
30
0
10
-41.054153352222116
20
12.213451388147188
30
0
0
SPLINE
5
233
100
AcDbEntity
8
0
100
AcDbSpline
70
0
71
3
72
9
73
5
74
0
42
0.000000001
43
0.0000000001
44
0.0000000001
40
0
40
0
40
0
40
0
40
0.061641188914191715
40
0.11693611664027903
40
0.11693611664027903
40
0.11693611664027903
40
0.11693611664027903
10
-41.054153352222116
20
12.213451388147188
30
0
10
-41.049301640138708
20
12.419594685695387
30
0
10
-41.040097723405665
20
12.810657822395498
30
0
10
-40.94620647721861
20
13.190219920984081
30
0
10
-40.901808648547799
20
13.369701328542543
30
0
0
SPLINE
5
234
100
AcDbEntity
8
0
100
AcDbSpline
70
0
71
3
72
9
73
5
74
0
42
0.000000001
43
0.0000000001
44
0.0000000001
40
0
40
0
40
0
40
0
40
0.049216819942508386
40
0.092405896860179887
40
0.092405896860179887
40
0.092405896860179887
40
0.092405896860179887
10
-40.901808648547799
20
13.369701328542543
30
0
10
-40.850365935762234
20
13.52627168403008
30
0
10
-40.753780865507316
20
13.820236717476854
30
0
10
-40.588454579551787
20
14.081551488235686
30
0
10
-40.511183648547799
20
14.203685941961123
30
0
0
SPLINE
5
235
100
AcDbEntity
8
0
100
AcDbSpline
70
0
71
3
72
9
73
5
74
0
42
0.000000001
43
0.0000000001
44
0.0000000001
40
0
40
0
40
0
40
0
40
0.038630787861480546
40
0.073903867657998862
40
0.073903867657998862
40
0.073903867657998862
40
0.073903867657998862
10
-40.511183648547799
20
14.203685941961123
30
0
10
-40.432226238201636
20
14.306255921225933
30
0
10
-40.281174232072104
20
14.502480709611074
30
0
10
-40.083870160265597
20
14.651900939056269
30
0
10
-39.989700227222109
20
14.723216715123964
30
0
0
SPLINE
5
236
100
AcDbEntity
8
0
100
AcDbSpline
70
0
71
3
72
9
73
5
74
0
42
0.000000001
43
0.0000000001
44
0.0000000001
40
0
40
0
40
0
40
0
40
0.035409032687611662
40
0.074429052276581323
40
0.074429052276581323
40
0.074429052276581323
40
0.074429052276581323
10
-39.989700227222109
20
14.723216715123964
30
0
10
-39.887456512281837
20
14.783242498499231
30
0
10
-39.672542344154778
20
14.909415450135484
30
0
10
-39.432139546252053
20
14.975618733430176
30
0
10
-39.306106477222109
20
15.010326328542543
30
0
0
SPLINE
5
237
100
AcDbEntity
8
0
100
AcDbSpline
70
0
71
3
72
9
73
5
74
0
42
0.000000001
43
0.0000000001
44
0.0000000001
40
0
40
0
40
0
40
0
40
0.043636685374997777
40
0.081313338676176294
40
0.081313338676176294
40
0.081313338676176294
40
0.081313338676176294
10
-39.306106477222109
20
15.010326328542543
30
0
10
-39.163157748984347
20
15.038783303868282
30
0
10
-38.896784667421514
20
15.091810513714226
30
0
10
-38.625793141906726
20
15.102722829776106
30
0
10
-38.49999913945603
20
15.105684591341058
30
0
0
LINE
5
238
100
AcDbEntity
8
0
100
AcDbLine
10
-38.49999913945603
20
15.10568459134106
30
0
11
-38.499999139457948
21
14.428944495058618
31
0
0
SPLINE
5
239
100
AcDbEntity
8
0
100
AcDbSpline
70
0
71
3
72
9
73
5
74
0
42
0.000000001
43
0.0000000001
44
0.0000000001
40
0.01991077496809493
40
0.01991077496809493
40
0.01991077496809493
40
0.01991077496809493
40
0.050605847217606491
40
0.089743617769631329
40
0.089743617769631329
40
0.089743617769631329
40
0.089743617769631329
10
-38.499999139457948
20
14.428944495058618
30
0
10
-38.602474944367515
20
14.425931175043583
30
0
10
-38.834706721318362
20
14.412027282670451
30
0
10
-39.061700477007776
20
14.357366934509962
30
0
10
-39.188918977222109
20
14.326732578542543
30
0
0
SPLINE
5
240
100
AcDbEntity
8
0
100
AcDbSpline
70
0
71
3
72
9
73
5
74
0
42
0.000000001
43
0.0000000001
44
0.0000000001
40
0
40
0
40
0
40
0
40
0.031615850233130488
40
0.059741208107125486
40
0.059741208107125486
40
0.059741208107125486
40
0.059741208107125486
10
-39.188918977222109
20
14.326732578542543
30
0
10
-39.288753292746009
20
14.290064853530895
30
0
10
-39.477399891713489
20
14.22077763921963
30
0
10
-39.630508123779784
20
14.090969341913468
30
0
10
-39.702589421710634
20
14.029857340123964
30
0
0
SPLINE
5
241
100
AcDbEntity
8
0
100
AcDbSpline
70
0
71
3
72
9
73
5
74
0
42
0.000000001
43
0.0000000001
44
0.0000000001
40
0
40
0
40
0
40
0
40
0.039658849005746448
40
0.084323387308729472
40
0.084323387308729472
40
0.084323387308729472
40
0.084323387308729472
10
-39.702589421710634
20
14.029857340123964
30
0
10
-39.788757363690721
20
13.928233296201221
30
0
10
-39.971969255294781
20
13.712158351254251
30
0
10
-40.070383233226082
20
13.446148397384396
30
0
10
-40.122511296710641
20
13.305247845914675
30
0
0
SPLINE
5
242
100
AcDbEntity
8
0
100
AcDbSpline
70
0
71
3
72
9
73
5
74
0
42
0.000000001
43
0.0000000001
44
0.0000000001
40
0
40
0
40
0
40
0
40
0.051589963214792228
40
0.11171736617009304
40
0.11171736617009304
40
0.11171736617009304
40
0.11171736617009304
10
-40.122511296710641
20
13.305247845914675
30
0
10
-40.166308503169461
20
13.138324860736521
30
0
10
-40.261150760195619
20
12.776855398552341
30
0
10
-40.268791194254533
20
12.402964394120303
30
0
10
-40.272903352222116
20
12.201732518937899
30
0
0
SPLINE
5
243
100
AcDbEntity
8
0
100
AcDbSpline
70
0
71
3
72
9
73
5
74
0
42
0.000000001
43
0.0000000001
44
0.0000000001
40
0
40
0
40
0
40
0
40
0.079784778117106048
40
0.14246015393652345
40
0.14246015393652345
40
0.14246015393652345
40
0.14246015393652345
10
-40.272903352222116
20
12.201732518937899
30
0
10
-40.267726593606845
20
11.932448098508832
30
0
10
-40.258483203493725
20
11.45162580517958
30
0
10
-40.063683934827978
20
11.01358802190536
30
0
10
-39.977981954059267
20
10.820873203542543
30
0
0
SPLINE
5
244
100
AcDbEntity
8
0
100
AcDbSpline
70
0
71
3
72
9
73
5
74
0
42
0.000000001
43
0.0000000001
44
0.0000000001
40
0
40
0
40
0
40
0
40
0.051863450443980122
40
0.097860494909902423
40
0.097860494909902423
40
0.097860494909902423
40
0.097860494909902423
10
-39.977981954059267
20
10.820873203542543
30
0
10
-39.879096226738099
20
10.675280537833896
30
0
10
-39.692509986672427
20
10.400563560858178
30
0
10
-39.399096036317829
20
10.246705911113596
30
0
10
-39.261183648547792
20
10.174388709333254
30
0
0
SPLINE
5
245
100
AcDbEntity
8
0
100
AcDbSpline
70
0
71
3
72
9
73
5
74
0
42
0.000000001
43
0.0000000001
44
0.0000000001
40
0
40
0
40
0
40
0
40
0.040706213254638295
40
0.077248178874270629
40
0.077248178874270629
40
0.077248178874270629
40
0.077248178874270629
10
-39.261183648547792
20
10.174388709333254
30
0
10
-39.129319160727583
20
10.140472557296293
30
0
10
-38.879079928731727
20
10.07610987725802
30
0
10
-38.622117144866564
20
10.061652920785235
30
0
10
-38.499999139457948
20
10.05899083826119
30
0
0
LINE
5
246
100
AcDbEntity
8
0
100
AcDbLine
10
-38.499999139457948
20
10.05899083826119
30
0
11
-38.499999139457948
21
9.3830630357167006
31
0
0
LWPOLYLINE
5
247
100
AcDbEntity
8
0
100
AcDbPolyline
90
4
70
1
43
0.0
10
-80
20
50
10
0
20
50
10
0
20
0
10
-80
20
0
0
LINE
5
248
100
AcDbEntity
8
0
100
AcDbLine
10
-29.406030718440455
20
42.517089200634231
30
0
11
-29.406030718440455
21
41.184081388134231
31
0
0
LINE
5
249
100
AcDbEntity
8
0
100
AcDbLine
10
-29.406030718440455
20
41.184081388134231
30
0
11
-27.301538530940455
21
41.184081388134231
31
0
0
LINE
5
250
100
AcDbEntity
8
0
100
AcDbLine
10
-27.301538530940455
20
41.184081388134231
30
0
11
-27.301538530940455
21
40.344237638134231
31
0
0
LINE
5
251
100
AcDbEntity
8
0
100
AcDbLine
10
-27.301538530940455
20
40.344237638134231
30
0
11
-30.333765093440455
21
40.339354825634231
31
0
0
LINE
5
252
100
AcDbEntity
8
0
100
AcDbLine
10
-30.333765093440455
20
40.339354825634231
30
0
11
-30.333765093440455
21
42.995604825634231
31
0
0
SPLINE
5
253
100
AcDbEntity
8
0
100
AcDbSpline
70
0
71
3
72
9
73
5
74
0
42
0.000000001
43
0.0000000001
44
0.0000000001
40
0
40
0
40
0
40
0
40
0.086071365305685682
40
0.16712488081190807
40
0.16712488081190807
40
0.16712488081190807
40
0.16712488081190807
10
-30.333765093440455
20
42.995604825634231
30
0
10
-30.103127138285856
20
43.168143444473216
30
0
10
-29.655297123866774
20
43.503161902778196
30
0
10
-29.142187348072927
20
43.725281763675525
30
0
10
-28.893335405940455
20
43.833007169384231
30
0
0
SPLINE
5
254
100
AcDbEntity
8
0
100
AcDbSpline
70
0
71
3
72
9
73
5
74
0
42
0.000000001
43
0.0000000001
44
0.0000000001
40
0
40
0
40
0
40
0
40
0.078088012522711095
40
0.15555509180732441
40
0.15555509180732441
40
0.15555509180732441
40
0.15555509180732441
10
-28.893335405940455
20
43.833007169384231
30
0
10
-28.644835838374533
20
43.914895629723773
30
0
10
-28.149812699764681
20
44.078021397105431
30
0
10
-27.629176758614893
20
44.10188480985628
30
0
10
-27.369897905940455
20
44.113768888134231
30
0
0
SPLINE
5
255
100
AcDbEntity
8
0
100
AcDbSpline
70
0
71
3
72
9
73
5
74
0
42
0.000000001
43
0.0000000001
44
0.0000000001
40
0
40
0
40
0
40
0
40
0.10127838449211557
40
0.19838196128606658
40
0.19838196128606658
40
0.19838196128606658
40
0.19838196128606658
10
-27.369897905940455
20
44.113768888134231
30
0
10
-27.029531648470243
20
44.096584940333337
30
0
10
-26.362829409378001
20
44.062925386179955
30
0
10
-25.752256108873674
20
43.793826619072874
30
0
10
-25.453393999690455
20
43.662108731884231
30
0
0
SPLINE
5
256
100
AcDbEntity
8
0
100
AcDbSpline
70
0
71
3
72
9
73
5
74
0
42
0.000000001
43
0.0000000001
44
0.0000000001
40
0
40
0
40
0
40
0
40
0.093647622793976579
40
0.18666716331471733
40
0.18666716331471733
40
0.18666716331471733
40
0.18666716331471733
10
-25.453393999690455
20
43.662108731884231
30
0
10
-25.183968837413921
20
43.495252720185192
30
0
10
-24.646925511942523
20
43.162659778083629
30
0
10
-24.316687764030021
20
42.624253656615622
30
0
10
-24.152124468440455
20
42.355956388134231
30
0
0
SPLINE
5
257
100
AcDbEntity
8
0
100
AcDbSpline
70
0
71
3
72
9
73
5
74
0
42
0.000000001
43
0.0000000001
44
0.0000000001
40
0
40
0
40
0
40
0
40
0.09627169438890415
40
0.19733448682973176
40
0.19733448682973176
40
0.19733448682973176
40
0.19733448682973176
10
-24.152124468440455
20
42.355956388134231
30
0
10
-24.023971715779645
20
42.05870910554404
30
0
10
-23.761288506112844
20
41.44942160578826
30
0
10
-23.729137265087704
20
40.786357859648618
30
0
10
-23.712671343440455
20
40.446776700634231
30
0
0
SPLINE
5
258
100
AcDbEntity
8
0
100
AcDbSpline
70
0
71
3
72
9
73
5
74
0
42
0.000000001
43
0.0000000001
44
0.0000000001
40
0
40
0
40
0
40
0
40
0.10160228976847747
40
0.20120467091129454
40
0.20120467091129454
40
0.20120467091129454
40
0.20120467091129454
10
-23.712671343440455
20
40.446776700634231
30
0
10
-23.730145303891021
20
40.10579953025087
30
0
10
-23.764749272659675
20
39.430556880586366
30
0
10
-24.022224873435306
20
38.805510111295725
30
0
10
-24.149683062190455
20
38.496093106884231
30
0
0
SPLINE
5
259
100
AcDbEntity
8
0
100
AcDbSpline
70
0
71
3
72
9
73
5
74
0
42
0.000000001
43
0.0000000001
44
0.0000000001
40
0
40
0
40
0
40
0
40
0.095222238106808493
40
0.18654865923631184
40
0.18654865923631184
40
0.18654865923631184
40
0.18654865923631184
10
-24.149683062190455
20
38.496093106884231
30
0
10
-24.308361745190371
20
38.215214180286679
30
0
10
-24.619227107647149
20
37.664947895789837
30
0
10
-25.148095457077218
20
37.319832383453296
30
0
10
-25.407007280940455
20
37.150878263134231
30
0
0
SPLINE
5
260
100
AcDbEntity
8
0
100
AcDbSpline
70
0
71
3
72
9
73
5
74
0
42
0.000000001
43
0.0000000001
44
0.0000000001
40
0
40
0
40
0
40
0
40
0.094210210384704507
40
0.19551570008409211
40
0.19551570008409211
40
0.19551570008409211
40
0.19551570008409211
10
-25.407007280940455
20
37.150878263134231
30
0
10
-25.696861854978135
20
37.022750974935533
30
0
10
-26.29840089978164
20
36.756846713075269
30
0
10
-26.955949944291469
20
36.726927585569598
30
0
10
-27.296655718440455
20
36.711425138134231
30
0
0
SPLINE
5
261
100
AcDbEntity
8
0
100
AcDbSpline
70
0
71
3
72
9
73
5
74
0
42
0.000000001
43
0.0000000001
44
0.0000000001
40
0
40
0
40
0
40
0
40
0.074180442561143076
40
0.14327164633578932
40
0.14327164633578932
40
0.14327164633578932
40
0.14327164633578932
10
-27.296655718440455
20
36.711425138134231
30
0
10
-27.545235065095017
20
36.720331855746117
30
0
10
-28.025339672329181
20
36.737534234859062
30
0
10
-28.480815847114371
20
36.889571603309989
30
0
10
-28.700464312190455
20
36.962889981884231
30
0
0
SPLINE
5
262
100
AcDbEntity
8
0
100
AcDbSpline
70
0
71
3
72
9
73
5
74
0
42
0.000000001
43
0.0000000001
44
0.0000000001
40
0
40
0
40
0
40
0
40
0.063545131328326093
40
0.12183450443108118
40
0.12183450443108118
40
0.12183450443108118
40
0.12183450443108118
10
-28.700464312190455
20
36.962889981884231
30
0
10
-28.895482195863114
20
37.051462403889715
30
0
10
-29.269388216919129
20
37.221281505931422
30
0
10
-29.550066100916588
20
37.520444703303284
30
0
10
-29.684351030940455
20
37.663573575634231
30
0
0
SPLINE
5
263
100
AcDbEntity
8
0
100
AcDbSpline
70
0
71
3
72
9
73
5
74
0
42
0.000000001
43
0.0000000001
44
0.0000000001
40
0
40
0
40
0
40
0
40
0.060523366979023899
40
0.12982071694376146
40
0.12982071694376146
40
0.12982071694376146
40
0.12982071694376146
10
-29.684351030940455
20
37.663573575634231
30
0
10
-29.797809847934683
20
37.831913393890922
30
0
10
-30.041175438796248
20
38.1929970048513
30
0
10
-30.161900867088711
20
38.611861675524366
30
0
10
-30.226343218440455
20
38.835448575634231
30
0
0
LINE
5
264
100
AcDbEntity
8
0
100
AcDbLine
10
-30.226343218440455
20
38.835448575634231
30
0
11
-29.371851030940455
21
39.069823575634231
31
0
0
SPLINE
5
265
100
AcDbEntity
8
0
100
AcDbSpline
70
0
71
3
72
9
73
5
74
0
42
0.000000001
43
0.0000000001
44
0.0000000001
40
0
40
0
40
0
40
0
40
0.05206323871798281
40
0.095189835332731926
40
0.095189835332731926
40
0.095189835332731926
40
0.095189835332731926
10
-29.371851030940455
20
39.069823575634231
30
0
10
-29.319340998073056
20
38.903390458748987
30
0
10
-29.223334266547205
20
38.59909242850086
30
0
10
-29.04999382551501
20
38.331626417148719
30
0
10
-28.971460405940455
20
38.210448575634231
30
0
0
SPLINE
5
266
100
AcDbEntity
8
0
100
AcDbSpline
70
0
71
3
72
9
73
5
74
0
42
0.000000001
43
0.0000000001
44
0.0000000001
40
0
40
0
40
0
40
0
40
0.04044457682043083
40
0.085446033865497387
40
0.085446033865497387
40
0.085446033865497387
40
0.085446033865497387
10
-28.971460405940455
20
38.210448575634231
30
0
10
-28.879567214986494
20
38.109996193913716
30
0
10
-28.685427250532854
20
37.897773486071586
30
0
10
-28.425016139579256
20
37.774751630876935
30
0
10
-28.287866655940455
20
37.709960294384231
30
0
0
SPLINE
5
267
100
AcDbEntity
8
0
100
AcDbSpline
70
0
71
3
72
9
73
5
74
0
42
0.000000001
43
0.0000000001
44
0.0000000001
40
0
40
0
40
0
40
0
40
0.04894947232214282
40
0.10092021794855016
40
0.10092021794855016
40
0.10092021794855016
40
0.10092021794855016
10
-28.287866655940455
20
37.709960294384231
30
0
10
-28.133131504220302
20
37.655144011109336
30
0
10
-27.814110593573311
20
37.542128058274855
30
0
10
-27.475772191710309
20
37.528823462496213
30
0
10
-27.301538530940455
20
37.521972013134231
30
0
0
SPLINE
5
268
100
AcDbEntity
8
0
100
AcDbSpline
70
0
71
3
72
9
73
5
74
0
42
0.000000001
43
0.0000000001
44
0.0000000001
40
0
40
0
40
0
40
0
40
0.060748380241071723
40
0.11458931096871641
40
0.11458931096871641
40
0.11458931096871641
40
0.11458931096871641
10
-27.301538530940455
20
37.521972013134231
30
0
10
-27.097816949733627
20
37.528033822557923
30
0
10
-26.713538133947772
20
37.539468177882746
30
0
10
-26.349526263908274
20
37.66210417357685
30
0
10
-26.178491655940455
20
37.719725919384231
30
0
0
SPLINE
5
269
100
AcDbEntity
8
0
100
AcDbSpline
70
0
71
3
72
9
73
5
74
0
42
0.000000001
43
0.0000000001
44
0.0000000001
40
0
40
0
40
0
40
0
40
0.048522987605625539
40
0.09300459544776718
40
0.09300459544776718
40
0.09300459544776718
40
0.09300459544776718
10
-26.178491655940455
20
37.719725919384231
30
0
10
-26.030568806806329
20
37.788306378139836
30
0
10
-25.747043298174916
20
37.9197553703995
30
0
10
-25.521975433339801
20
38.136217438937209
30
0
10
-25.414331499690455
20
38.239745450634231
30
0
0
SPLINE
5
270
100
AcDbEntity
8
0
100
AcDbSpline
70
0
71
3
72
9
73
5
74
0
42
0.000000001
43
0.0000000001
44
0.0000000001
40
0
40
0
40
0
40
0
40
0.042543080107771095
40
0.084285281832741227
40
0.084285281832741227
40
0.084285281832741227
40
0.084285281832741227
10
-25.414331499690455
20
38.239745450634231
30
0
10
-25.323141549997139
20
38.349190057161813
30
0
10
-25.142478311916008
20
38.566018962894141
30
0
10
-25.022226120999949
20
38.821317110351217
30
0
10
-24.962671343440455
20
38.947753263134231
30
0
0
SPLINE
5
271
100
AcDbEntity
8
0
100
AcDbSpline
70
0
71
3
72
9
73
5
74
0
42
0.000000001
43
0.0000000001
44
0.0000000001
40
0
40
0
40
0
40
0
40
0.072188155431372844
40
0.14732885333972906
40
0.14732885333972906
40
0.14732885333972906
40
0.14732885333972906
10
-24.962671343440455
20
38.947753263134231
30
0
10
-24.882927711001997
20
39.176281713264672
30
0
10
-24.720178879727701
20
39.642685575671578
30
0
10
-24.699685752973146
20
40.136385827255879
30
0
10
-24.689233843440455
20
40.388182950634231
30
0
0
SPLINE
5
272
100
AcDbEntity
8
0
100
AcDbSpline
70
0
71
3
72
9
73
5
74
0
42
0.000000001
43
0.0000000001
44
0.0000000001
40
0
40
0
40
0
40
0
40
0.088276018139583606
40
0.16465246279266915
40
0.16465246279266915
40
0.16465246279266915
40
0.16465246279266915
10
-24.689233843440455
20
40.388182950634231
30
0
10
-24.698532903008086
20
40.685052889034587
30
0
10
-24.715877512469802
20
41.238774811668605
30
0
10
-24.922827103246998
20
41.751780353207238
30
0
10
-25.018823687190455
20
41.989745450634231
30
0
0
SPLINE
5
273
100
AcDbEntity
8
0
100
AcDbSpline
70
0
71
3
72
9
73
5
74
0
42
0.000000001
43
0.0000000001
44
0.0000000001
40
0
40
0
40
0
40
0
40
0.069214217035395043
40
0.13734938336372188
40
0.13734938336372188
40
0.13734938336372188
40
0.13734938336372188
10
-25.018823687190455
20
41.989745450634231
30
0
10
-25.140362918177832
20
42.190337184248193
30
0
10
-25.381546581674023
20
42.588393423266965
30
0
10
-25.780424316880403
20
42.827942928220182
30
0
10
-25.978296343440455
20
42.946776700634231
30
0
0
SPLINE
5
274
100
AcDbEntity
8
0
100
AcDbSpline
70
0
71
3
72
9
73
5
74
0
42
0.000000001
43
0.0000000001
44
0.0000000001
40
0
40
0
40
0
40
0
40
0.069041311198278527
40
0.13833081204341496
40
0.13833081204341496
40
0.13833081204341496
40
0.13833081204341496
10
-25.978296343440455
20
42.946776700634231
30
0
10
-26.191723466800951
20
43.037922450287944
30
0
10
-26.619344941163728
20
43.220541600258791
30
0
10
-27.083628623998329
20
43.246349565842557
30
0
10
-27.316186968440455
20
43.259276700634231
30
0
0
SPLINE
5
275
100
AcDbEntity
8
0
100
AcDbSpline
70
0
71
3
72
9
73
5
74
0
42
0.000000001
43
0.0000000001
44
0.0000000001
40
0
40
0
40
0
40
0
40
0.061078628317417394
40
0.12300645709500409
40
0.12300645709500409
40
0.12300645709500409
40
0.12300645709500409
10
-27.316186968440455
20
43.259276700634231
30
0
10
-27.52070921983136
20
43.249139667608191
30
0
10
-27.932597276811748
20
43.228724662354509
30
0
10
-28.321543264933588
20
43.091530799089782
30
0
10
-28.517358843440455
20
43.022460294384231
30
0
0
SPLINE
5
276
100
AcDbEntity
8
0
100
AcDbSpline
70
0
71
3
72
9
73
5
74
0
42
0.000000001
43
0.0000000001
44
0.0000000001
40
0
40
0
40
0
40
0
40
0.057032348674485957
40
0.10257917715216794
40
0.10257917715216794
40
0.10257917715216794
40
0.10257917715216794
10
-28.517358843440455
20
43.022460294384231
30
0
10
-28.693464039385589
20
42.948437048136839
30
0
10
-29.010209299086853
20
42.815297805817913
30
0
10
-29.284320757934658
20
42.608784484883046
30
0
10
-29.406030718440455
20
42.517089200634231
30
0
0
LWPOLYLINE
5
277
100
AcDbEntity
8
0
100
AcDbPolyline
90
10
70
1
43
0.0
10
-67.99847250603564
20
29.770505261370552
10
-67.99847250603564
20
25.833005440184486
10
-70.63030844353564
20
29.770505261370552
10
-71.310483271111323
20
29.770505261370552
10
-71.310483271111323
20
24.759763312289131
10
-70.674740129937007
20
24.759763312289131
10
-70.674740129937007
20
28.693845105120552
10
-68.042904192437007
20
24.759763312289131
10
-67.362729364861323
20
24.759763312289131
10
-67.362729364861323
20
29.770505261370552
0
LINE
5
278
100
AcDbEntity
8
0
100
AcDbLine
10
-62.69999859854579
20
27.712887954661262
30
0
11
-63.350035006035633
21
27.712887954661262
31
0
0
LINE
5
279
100
AcDbEntity
8
0
100
AcDbLine
10
-63.350035006035633
20
27.712887954661262
30
0
11
-62.827087694634265
21
26.325192880579841
31
0
0
SPLINE
5
280
100
AcDbEntity
8
0
100
AcDbSpline
70
0
71
3
72
9
73
5
74
0
42
0.000000001
43
0.0000000001
44
0.0000000001
40
0
40
0
40
0
40
0
40
0.061250619806081784
40
0.10984027954848544
40
0.10984027954848544
40
0.10984027954848544
40
0.10984027954848544
10
-62.827087694634265
20
26.325192880579841
30
0
10
-62.755430240924063
20
26.133949809212552
30
0
10
-62.626927463773711
20
25.790995036065787
30
0
10
-62.519248635881027
20
25.440969853995135
30
0
10
-62.471615129937
20
25.286130440184486
30
0
0
SPLINE
5
281
100
AcDbEntity
8
0
100
AcDbSpline
70
0
71
3
72
9
73
5
74
0
42
0.000000001
43
0.0000000001
44
0.0000000001
40
0
40
0
40
0
40
0
40
0.049388416691365844
40
0.099514910322542394
40
0.099514910322542394
40
0.099514910322542394
40
0.099514910322542394
10
-62.471615129937
20
25.286130440184486
30
0
10
-62.436228167889695
20
25.447068682884204
30
0
10
-62.364925409254383
20
25.771350282956842
30
0
10
-62.256308033866603
20
26.085115515298103
30
0
10
-62.201596552361316
20
26.243161690184486
30
0
0
LINE
5
282
100
AcDbEntity
8
0
100
AcDbLine
10
-62.201596552361316
20
26.24316169018449
30
0
11
-61.651302629937
21
27.712887954661262
31
0
0
LINE
5
283
100
AcDbEntity
8
0
100
AcDbLine
10
-61.651302629937
20
27.712887954661262
30
0
11
-62.399998605251312
21
27.712887954661262
31
0
0
LINE
5
284
100
AcDbEntity
8
0
100
AcDbLine
10
-62.399998605251312
20
27.712887954661262
30
0
11
-62.399998605251312
21
28.252927195975197
31
0
0
LINE
5
285
100
AcDbEntity
8
0
100
AcDbLine
10
-62.399998605251312
20
28.252927195975197
30
0
11
-61.459900194634265
21
28.252927195975197
31
0
0
LINE
5
286
100
AcDbEntity
8
0
100
AcDbLine
10
-61.459900194634265
20
28.252927195975197
30
0
11
-60.909606272209949
21
29.770505261370552
31
0
0
LINE
5
287
100
AcDbEntity
8
0
100
AcDbLine
10
-60.909606272209949
20
29.770505261370552
30
0
11
-60.205503756035633
21
29.770505261370552
31
0
0
LINE
5
288
100
AcDbEntity
8
0
100
AcDbLine
10
-60.205503756035633
20
29.770505261370552
30
0
11
-62.129818254937
21
24.759763312289131
31
0
0
LINE
5
289
100
AcDbEntity
8
0
100
AcDbLine
10
-62.129818254937
20
24.759763312289131
30
0
11
-62.844177538384265
21
24.759763312289131
31
0
0
LINE
5
290
100
AcDbEntity
8
0
100
AcDbLine
10
-62.844177538384265
20
24.759763312289131
30
0
11
-64.894958788384272
21
29.770505261370552
31
0
0
LINE
5
291
100
AcDbEntity
8
0
100
AcDbLine
10
-64.894958788384272
20
29.770505261370552
30
0
11
-64.139586740959956
21
29.770505261370552
31
0
0
LINE
5
292
100
AcDbEntity
8
0
100
AcDbLine
10
-64.139586740959956
20
29.770505261370552
30
0
11
-63.555113131035633
21
28.252927195975197
31
0
0
LINE
5
293
100
AcDbEntity
8
0
100
AcDbLine
10
-63.555113131035633
20
28.252927195975197
30
0
11
-62.69999859854579
21
28.252927195975197
31
0
0
LINE
5
294
100
AcDbEntity
8
0
100
AcDbLine
10
-62.69999859854579
20
28.252927195975197
30
0
11
-62.69999859854579
21
27.712887954661262
31
0
0
LWPOLYLINE
5
295
100
AcDbEntity
8
0
100
AcDbPolyline
90
12
70
1
43
0.0
10
-51.329032236565418
20
29.770505261370545
10
-51.329032236565418
20
27.408689093539124
10
-53.933526331414051
20
27.408689093539124
10
-53.933526331414051
20
29.770505261370545
10
-54.596611315239734
20
29.770505261370545
10
-54.596611315239734
20
24.759763312289124
10
-53.933526331414051
20
24.759763312289124
10
-53.933526331414051
20
26.81738032097519
10
-51.329032236565418
20
26.81738032097519
10
-51.329032236565418
20
24.759763312289124
10
-50.665947252739734
20
24.759763312289124
10
-50.665947252739734
20
29.770505261370545
0
LWPOLYLINE
5
296
100
AcDbEntity
8
0
100
AcDbPolyline
90
6
70
1
43
0.0
10
-24.566340500344104
20
29.770505261370541
10
-24.566340500344104
20
29.179196786829831
10
-22.098567539681262
20
29.179196786829831
10
-22.098567539681262
20
24.75976331228912
10
-21.435481363762683
20
24.75976331228912
10
-21.435481363762683
20
29.770505261370541
0
LINE
5
297
100
AcDbEntity
8
0
100
AcDbLine
10
-48.140084653339059
20
10.232982459333254
30
0
11
-48.140084653339059
21
15.107982578542543
31
0
0
LINE
5
298
100
AcDbEntity
8
0
100
AcDbLine
10
-48.140084653339059
20
15.107982578542543
30
0
11
-47.409617810687692
21
15.107982578542543
31
0
0
LINE
5
299
100
AcDbEntity
8
0
100
AcDbLine
10
-47.409617810687692
20
15.107982578542543
30
0
11
-47.409617810687692
21
9.3814198401239643
31
0
0
LINE
5
300
100
AcDbEntity
8
0
100
AcDbLine
10
-47.409617810687692
20
9.3814198401239643
30
0
11
-48.550240903339059
21
9.3814198401239643
31
0
0
LINE
5
301
100
AcDbEntity
8
0
100
AcDbLine
10
-48.550240903339059
20
9.3814198401239643
30
0
11
-49.905712514362008
21
13.436107459333254
31
0
0
SPLINE
5
302
100
AcDbEntity
8
0
100
AcDbSpline
70
0
71
3
72
9
73
5
74
0
42
0.000000001
43
0.0000000001
44
0.0000000001
40
0
40
0
40
0
40
0
40
0.052097923191248625
40
0.08906796826580414
40
0.08906796826580414
40
0.08906796826580414
40
0.08906796826580414
10
-49.905712514362008
20
13.436107459333254
30
0
10
-49.960256329589129
20
13.600982989387786
30
0
10
-50.053505858671357
20
13.88285849572604
30
0
10
-50.142295497410096
20
14.166168278854773
30
0
10
-50.179150014362008
20
14.283763590123964
30
0
0
SPLINE
5
303
100
AcDbEntity
8
0
100
AcDbSpline
70
0
71
3
72
9
73
5
74
0
42
0.000000001
43
0.0000000001
44
0.0000000001
40
0
40
0
40
0
40
0
40
0.040548928269901897
40
0.096722976438163577
40
0.096722976438163577
40
0.096722976438163577
40
0.096722976438163577
10
-50.179150014362008
20
14.283763590123964
30
0
10
-50.220487115581001
20
14.155074045904003
30
0
10
-50.319090152401429
20
13.84810574157364
30
0
10
-50.423307867059535
20
13.542994860071072
30
0
10
-50.483834653339059
20
13.365794840123964
30
0
0
LINE
5
304
100
AcDbEntity
8
0
100
AcDbLine
10
-50.483834653339052
20
13.365794840123966
30
0
11
-51.854932218036325
21
9.3814198401239643
31
0
0
LINE
5
305
100
AcDbEntity
8
0
100
AcDbLine
10
-51.854932218036325
20
9.3814198401239643
30
0
11
-52.874462514362008
21
9.3814198401239643
31
0
0
LINE
5
306
100
AcDbEntity
8
0
100
AcDbLine
10
-52.874462514362008
20
9.3814198401239643
30
0
11
-52.874462514362008
21
15.107982578542545
31
0
0
LINE
5
307
100
AcDbEntity
8
0
100
AcDbLine
10
-52.874462514362008
20
15.107982578542545
30
0
11
-52.143995671710641
21
15.107982578542543
31
0
0
LINE
5
308
100
AcDbEntity
8
0
100
AcDbLine
10
-52.143995671710641
20
15.107982578542543
30
0
11
-52.143995671710641
21
10.315013649728609
31
0
0
LINE
5
309
100
AcDbEntity
8
0
100
AcDbLine
10
-52.143995671710641
20
10.315013649728609
30
0
11
-50.479929357013376
21
15.107982578542545
31
0
0
LINE
5
310
100
AcDbEntity
8
0
100
AcDbLine
10
-50.479929357013376
20
15.107982578542545
30
0
11
-49.796335607013376
21
15.107982578542543
31
0
0
LINE
5
311
100
AcDbEntity
8
0
100
AcDbLine
10
-49.796335607013376
20
15.107982578542543
30
0
11
-48.140084653339059
21
10.232982459333254
31
0
0
SPLINE
5
312
100
AcDbEntity
8
0
100
AcDbSpline
70
0
71
3
72
9
73
5
74
0
42
0.000000001
43
0.0000000001
44
0.0000000001
40
0
40
0
40
0
40
0
40
0.025098849730892572
40
0.04835590000605626
40
0.04835590000605626
40
0.04835590000605626
40
0.04835590000605626
10
-60.331499486407907
20
14.051341834333256
30
0
10
-60.275017389889513
20
14.113263278378522
30
0
10
-60.166197956303506
20
14.232562257757571
30
0
10
-60.077351763096054
20
14.367366383852056
30
0
10
-60.034620671710641
20
14.432201209333256
30
0
0
LINE
5
313
100
AcDbEntity
8
0
100
AcDbLine
10
-60.034620671710641
20
14.432201209333254
30
0
11
-62.843215375384958
21
14.432201209333256
31
0
0
LINE
5
314
100
AcDbEntity
8
0
100
AcDbLine
10
-62.843215375384958
20
14.432201209333256
30
0
11
-62.843215375384958
21
15.107982578542545
31
0
0
LINE
5
315
100
AcDbEntity
8
0
100
AcDbLine
10
-62.843215375384958
20
15.107982578542545
30
0
11
-59.058058171710641
21
15.107982578542545
31
0
0
SPLINE
5
316
100
AcDbEntity
8
0
100
AcDbSpline
70
0
71
3
72
9
73
5
74
0
42
0.000000001
43
0.0000000001
44
0.0000000001
40
0
40
0
40
0
40
0
40
0.024957633628878133
40
0.049761986965887503
40
0.049761986965887503
40
0.049761986965887503
40
0.049761986965887503
10
-59.058058171710641
20
15.107982578542545
30
0
10
-59.059477318869931
20
15.024282045991221
30
0
10
-59.062306897326522
20
14.857395037719838
30
0
10
-59.114217756512694
20
14.698769695374931
30
0
10
-59.140093236407907
20
14.619701328542545
30
0
0
SPLINE
5
317
100
AcDbEntity
8
0
100
AcDbSpline
70
0
71
3
72
9
73
5
74
0
42
0.000000001
43
0.0000000001
44
0.0000000001
40
0
40
0
40
0
40
0
40
0.04273564634816341
40
0.089469115411016431
40
0.089469115411016431
40
0.089469115411016431
40
0.089469115411016431
10
-59.140093236407907
20
14.619701328542545
30
0
10
-59.197709012000004
20
14.488731450163145
30
0
10
-59.318330388214818
20
14.214539758556803
30
0
10
-59.505313691206013
20
13.980323531217573
30
0
10
-59.60298290773359
20
13.857982578542545
30
0
0
SPLINE
5
318
100
AcDbEntity
8
0
100
AcDbSpline
70
0
71
3
72
9
73
5
74
0
42
0.000000001
43
0.0000000001
44
0.0000000001
40
0
40
0
40
0
40
0
40
0.056116176401829206
40
0.12654140997206983
40
0.12654140997206983
40
0.12654140997206983
40
0.12654140997206983
10
-59.60298290773359
20
13.857982578542545
30
0
10
-59.73020829500723
20
13.720596221276857
30
0
10
-60.017100255973482
20
13.410791375792765
30
0
10
-60.342053023597074
20
13.140964426435406
30
0
10
-60.522901921710641
20
12.990795197751835
30
0
0
SPLINE
5
319
100
AcDbEntity
8
0
100
AcDbSpline
70
0
71
3
72
9
73
5
74
0
42
0.000000001
43
0.0000000001
44
0.0000000001
40
0
40
0
40
0
40
0
40
0.10404406099297653
40
0.17528274822279677
40
0.17528274822279677
40
0.17528274822279677
40
0.17528274822279677
10
-60.522901921710641
20
12.990795197751835
30
0
10
-60.791746799092707
20
12.770371225132585
30
0
10
-61.244669037069634
20
12.399023554480859
30
0
10
-61.628589163848105
20
11.957392737321895
30
0
10
-61.784622579059274
20
11.777904453542545
30
0
0
SPLINE
5
320
100
AcDbEntity
8
0
100
AcDbSpline
70
0
71
3
72
9
73
5
74
0
42
0.000000001
43
0.0000000001
44
0.0000000001
40
0
40
0
40
0
40
0
40
0.049983918228835647
40
0.091859663315405779
40
0.091859663315405779
40
0.091859663315405779
40
0.091859663315405779
10
-61.784622579059274
20
11.777904453542545
30
0
10
-61.880092954793412
20
11.63788150324031
30
0
10
-62.055546918433961
20
11.380549514733403
30
0
10
-62.094837343411527
20
11.07258979487346
30
0
10
-62.11274853273359
20
10.9322012689379
30
0
0
SPLINE
5
321
100
AcDbEntity
8
0
100
AcDbSpline
70
0
71
3
72
9
73
5
74
0
42
0.000000001
43
0.0000000001
44
0.0000000001
40
0
40
0
40
0
40
0
40
0.03924301626151161
40
0.078296676928686443
40
0.078296676928686443
40
0.078296676928686443
40
0.078296676928686443
10
-62.11274853273359
20
10.9322012689379
30
0
10
-62.100418806034234
20
10.798447276830208
30
0
10
-62.075818846093199
20
10.531584683032872
30
0
10
-61.901078385128194
20
10.328446485173426
30
0
10
-61.813919454059274
20
10.227123024728611
30
0
0
SPLINE
5
322
100
AcDbEntity
8
0
100
AcDbSpline
70
0
71
3
72
9
73
5
74
0
42
0.000000001
43
0.0000000001
44
0.0000000001
40
0
40
0
40
0
40
0
40
0.040603919345435405
40
0.084697718911232969
40
0.084697718911232969
40
0.084697718911232969
40
0.084697718911232969
10
-61.813919454059274
20
10.227123024728611
30
0
10
-61.703678510409233
20
10.143421856873573
30
0
10
-61.473721486350925
20
9.9688254607174258
30
0
10
-61.184956242212806
20
9.9498778650299666
30
0
10
-61.034624486407907
20
9.9400137093332557
30
0
0
SPLINE
5
323
100
AcDbEntity
8
0
100
AcDbSpline
70
0
71
3
72
9
73
5
74
0
42
0.000000001
43
0.0000000001
44
0.0000000001
40
0
40
0
40
0
40
0
40
0.04633335506150562
40
0.088592102792996466
40
0.088592102792996466
40
0.088592102792996466
40
0.088592102792996466
10
-61.034624486407907
20
9.9400137093332557
30
0
10
-60.876416668323344
20
9.9502045510801
30
0
10
-60.573914005526788
20
9.969690040494477
30
0
10
-60.33573487187666
20
10.15588545460399
30
0
10
-60.222122579059274
20
10.244701328542545
30
0
0
SPLINE
5
324
100
AcDbEntity
8
0
100
AcDbSpline
70
0
71
3
72
9
73
5
74
0
42
0.000000001
43
0.0000000001
44
0.0000000001
40
0
40
0
40
0
40
0
40
0.042969988298394754
40
0.091663600609119697
40
0.091663600609119697
40
0.091663600609119697
40
0.091663600609119697
10
-60.222122579059274
20
10.244701328542545
30
0
10
-60.133146516530125
20
10.361051618715972
30
0
10
-59.943342735276858
20
10.60925011612191
30
0
10
-59.923871435209733
20
10.922203773218531
30
0
10
-59.913527875384958
20
11.0884512689379
30
0
0
LINE
5
325
100
AcDbEntity
8
0
100
AcDbLine
10
-59.913527875384958
20
11.0884512689379
30
0
11
-59.190871625384958
21
11.014232459333256
31
0
0
SPLINE
5
326
100
AcDbEntity
8
0
100
AcDbSpline
70
0
71
3
72
9
73
5
74
0
42
0.000000001
43
0.0000000001
44
0.0000000001
40
0
40
0
40
0
40
0
40
0.073400321411930619
40
0.13791542656731698
40
0.13791542656731698
40
0.13791542656731698
40
0.13791542656731698
10
-59.190871625384958
20
11.014232459333256
30
0
10
-59.226935713067405
20
10.766053006867418
30
0
10
-59.294698277873792
20
10.299736587624793
30
0
10
-59.604531289530094
20
9.9468747860616507
30
0
10
-59.74946728273359
20
9.7818104651239661
30
0
0
SPLINE
5
327
100
AcDbEntity
8
0
100
AcDbSpline
70
0
71
3
72
9
73
5
74
0
42
0.000000001
43
0.0000000001
44
0.0000000001
40
0
40
0
40
0
40
0
40
0.065035851638976933
40
0.13913676568736724
40
0.13913676568736724
40
0.13913676568736724
40
0.13913676568736724
10
-59.74946728273359
20
9.7818104651239661
30
0
10
-59.932651773618375
20
9.6583347848823724
30
0
10
-60.324554038960926
20
9.3941726903313345
30
0
10
-60.798065037543829
20
9.3705588593986349
30
0
10
-61.050245671710641
20
9.3579826977518348
30
0
0
SPLINE
5
328
100
AcDbEntity
8
0
100
AcDbSpline
70
0
71
3
72
9
73
5
74
0
42
0.000000001
43
0.0000000001
44
0.0000000001
40
0
40
0
40
0
40
0
40
0.074707125039663688
40
0.14091208015648027
40
0.14091208015648027
40
0.14091208015648027
40
0.14091208015648027
10
-61.050245671710641
20
9.3579826977518348
30
0
10
-61.305099618858506
20
9.3719870366762255
30
0
10
-61.785803431374788
20
9.3984019271971011
30
0
10
-62.173011513356322
20
9.6818438447538551
30
0
10
-62.354934125384958
20
9.8150138285425452
30
0
0
SPLINE
5
329
100
AcDbEntity
8
0
100
AcDbSpline
70
0
71
3
72
9
73
5
74
0
42
0.000000001
43
0.0000000001
44
0.0000000001
40
0
40
0
40
0
40
0
40
0.062586900863912484
40
0.12584709378608527
40
0.12584709378608527
40
0.12584709378608527
40
0.12584709378608527
10
-62.354934125384958
20
9.8150138285425452
30
0
10
-62.495071448350487
20
9.9770688184445842
30
0
10
-62.776853651698765
20
10.302922139685871
30
0
10
-62.815818251143256
20
10.732092899579921
30
0
10
-62.83540478273359
20
10.947826328542545
30
0
0
SPLINE
5
330
100
AcDbEntity
8
0
100
AcDbSpline
70
0
71
3
72
9
73
5
74
0
42
0.000000001
43
0.0000000001
44
0.0000000001
40
0
40
0
40
0
40
0
40
0.034262876959451502
40
0.069380109864227837
40
0.069380109864227837
40
0.069380109864227837
40
0.069380109864227837
10
-62.83540478273359
20
10.947826328542545
30
0
10
-62.829261511842603
20
11.062586086653294
30
0
10
-62.816821785609264
20
11.294967174649457
30
0
10
-62.735793683102834
20
11.513165018897029
30
0
10
-62.694780736407907
20
11.623607399728611
30
0
0
SPLINE
5
331
100
AcDbEntity
8
0
100
AcDbSpline
70
0
71
3
72
9
73
5
74
0
42
0.000000001
43
0.0000000001
44
0.0000000001
40
0
40
0
40
0
40
0
40
0.038875860702268603
40
0.08434329140405919
40
0.08434329140405919
40
0.08434329140405919
40
0.08434329140405919
10
-62.694780736407907
20
11.623607399728611
30
0
10
-62.63645283313798
20
11.739855243756057
30
0
10
-62.509907278811589
20
11.992061255578928
30
0
10
-62.326728340507778
20
12.206972662188338
30
0
10
-62.227981000384958
20
12.322826209333256
30
0
0
SPLINE
5
332
100
AcDbEntity
8
0
100
AcDbSpline
70
0
71
3
72
9
73
5
74
0
42
0.000000001
43
0.0000000001
44
0.0000000001
40
0
40
0
40
0
40
0
40
0.061492296883357375
40
0.14808665293003459
40
0.14808665293003459
40
0.14808665293003459
40
0.14808665293003459
10
-62.227981000384958
20
12.322826209333256
30
0
10
-62.085184212702472
20
12.470027454110145
30
0
10
-61.741298890331571
20
12.824519654775424
30
0
10
-61.364393687864819
20
13.143887185849595
30
0
10
-61.143996625384958
20
13.330638828542545
30
0
0
SPLINE
5
333
100
AcDbEntity
8
0
100
AcDbSpline
70
0
71
3
72
9
73
5
74
0
42
0.000000001
43
0.0000000001
44
0.0000000001
40
0
40
0
40
0
40
0
40
0.068457853067033989
40
0.10863273553848807
40
0.10863273553848807
40
0.10863273553848807
40
0.10863273553848807
10
-61.143996625384958
20
13.330638828542545
30
0
10
-60.968687272114792
20
13.476861881884382
30
0
10
-60.690496622569128
20
13.708896770091581
30
0
10
-60.428421054979104
20
13.958888972088532
30
0
10
-60.331499486407907
20
14.051341834333256
30
0
0
SPLINE
5
334
100
AcDbEntity
8
0
100
AcDbSpline
70
0
71
3
72
9
73
5
74
0
42
0.000000001
43
0.0000000001
44
0.0000000001
40
0
40
0
40
0
40
0
40
0.025098849730892572
40
0.04835590000605626
40
0.04835590000605626
40
0.04835590000605626
40
0.04835590000605626
10
-69.229934125384958
20
14.051341834333257
30
0
10
-69.173452028866564
20
14.113263278378522
30
0
10
-69.064632595280557
20
14.232562257757571
30
0
10
-68.975786402073098
20
14.367366383852058
30
0
10
-68.933055310687692
20
14.432201209333257
30
0
0
LINE
5
335
100
AcDbEntity
8
0
100
AcDbLine
10
-68.933055310687692
20
14.432201209333256
30
0
11
-71.741650014362008
21
14.432201209333257
31
0
0
LINE
5
336
100
AcDbEntity
8
0
100
AcDbLine
10
-71.741650014362008
20
14.432201209333257
30
0
11
-71.741650014362008
21
15.107982578542547
31
0
0
LINE
5
337
100
AcDbEntity
8
0
100
AcDbLine
10
-71.741650014362008
20
15.107982578542547
30
0
11
-67.956492810687692
21
15.107982578542547
31
0
0
SPLINE
5
338
100
AcDbEntity
8
0
100
AcDbSpline
70
0
71
3
72
9
73
5
74
0
42
0.000000001
43
0.0000000001
44
0.0000000001
40
0
40
0
40
0
40
0
40
0.024957633628878133
40
0.049761986965887503
40
0.049761986965887503
40
0.049761986965887503
40
0.049761986965887503
10
-67.956492810687692
20
15.107982578542547
30
0
10
-67.957911957846989
20
15.024282045991221
30
0
10
-67.960741536303587
20
14.857395037719838
30
0
10
-68.012652395489738
20
14.698769695374931
30
0
10
-68.038527875384958
20
14.619701328542547
30
0
0
SPLINE
5
339
100
AcDbEntity
8
0
100
AcDbSpline
70
0
71
3
72
9
73
5
74
0
42
0.000000001
43
0.0000000001
44
0.0000000001
40
0
40
0
40
0
40
0
40
0.04273564634816341
40
0.089469115411016431
40
0.089469115411016431
40
0.089469115411016431
40
0.089469115411016431
10
-68.038527875384958
20
14.619701328542547
30
0
10
-68.096143650977069
20
14.488731450163147
30
0
10
-68.216765027191869
20
14.214539758556805
30
0
10
-68.403748330183063
20
13.980323531217575
30
0
10
-68.501417546710641
20
13.857982578542547
30
0
0
SPLINE
5
340
100
AcDbEntity
8
0
100
AcDbSpline
70
0
71
3
72
9
73
5
74
0
42
0.000000001
43
0.0000000001
44
0.0000000001
40
0
40
0
40
0
40
0
40
0.056115845720197774
40
0.12654143865819478
40
0.12654143865819478
40
0.12654143865819478
40
0.12654143865819478
10
-68.501417546710641
20
13.857982578542547
30
0
10
-68.628641070244043
20
13.720595937565276
30
0
10
-68.915530584114222
20
13.410788556449333
30
0
10
-69.240485554693961
20
13.14096388880939
30
0
10
-69.421336560687692
20
12.990795197751837
30
0
0
SPLINE
5
341
100
AcDbEntity
8
0
100
AcDbSpline
70
0
71
3
72
9
73
5
74
0
42
0.000000001
43
0.0000000001
44
0.0000000001
40
0
40
0
40
0
40
0
40
0.10404441948856279
40
0.17528278576665351
40
0.17528278576665351
40
0.17528278576665351
40
0.17528278576665351
10
-69.421336560687692
20
12.990795197751837
30
0
10
-69.690183663571531
20
12.770371857063711
30
0
10
-70.143108187254967
20
12.399026450998436
30
0
10
-70.527025630047802
20
11.957392972037344
30
0
10
-70.683057218036325
20
11.777904453542547
30
0
0
SPLINE
5
342
100
AcDbEntity
8
0
100
AcDbSpline
70
0
71
3
72
9
73
5
74
0
42
0.000000001
43
0.0000000001
44
0.0000000001
40
0
40
0
40
0
40
0
40
0.049983918228835647
40
0.091859663315405779
40
0.091859663315405779
40
0.091859663315405779
40
0.091859663315405779
10
-70.683057218036325
20
11.777904453542547
30
0
10
-70.778527593770463
20
11.637881503240312
30
0
10
-70.953981557411012
20
11.380549514733403
30
0
10
-70.993271982388592
20
11.07258979487346
30
0
10
-71.011183171710641
20
10.932201268937902
30
0
0
SPLINE
5
343
100
AcDbEntity
8
0
100
AcDbSpline
70
0
71
3
72
9
73
5
74
0
42
0.000000001
43
0.0000000001
44
0.0000000001
40
0
40
0
40
0
40
0
40
0.03924301626151161
40
0.078296676928686443
40
0.078296676928686443
40
0.078296676928686443
40
0.078296676928686443
10
-71.011183171710641
20
10.932201268937902
30
0
10
-70.998853445011292
20
10.79844727683021
30
0
10
-70.97425348507025
20
10.531584683032872
30
0
10
-70.799513024105238
20
10.328446485173426
30
0
10
-70.712354093036325
20
10.227123024728613
30
0
0
SPLINE
5
344
100
AcDbEntity
8
0
100
AcDbSpline
70
0
71
3
72
9
73
5
74
0
42
0.000000001
43
0.0000000001
44
0.0000000001
40
0
40
0
40
0
40
0
40
0.040603919345435405
40
0.084697718911232969
40
0.084697718911232969
40
0.084697718911232969
40
0.084697718911232969
10
-70.712354093036325
20
10.227123024728613
30
0
10
-70.602113149386284
20
10.143421856873577
30
0
10
-70.372156125327976
20
9.9688254607174276
30
0
10
-70.083390881189857
20
9.9498778650299684
30
0
10
-69.933059125384958
20
9.9400137093332557
30
0
0
SPLINE
5
345
100
AcDbEntity
8
0
100
AcDbSpline
70
0
71
3
72
9
73
5
74
0
42
0.000000001
43
0.0000000001
44
0.0000000001
40
0
40
0
40
0
40
0
40
0.04633335506150562
40
0.088592102792996466
40
0.088592102792996466
40
0.088592102792996466
40
0.088592102792996466
10
-69.933059125384958
20
9.9400137093332557
30
0
10
-69.774851307300395
20
9.9502045510801
30
0
10
-69.472348644503839
20
9.9696900404944788
30
0
10
-69.234169510853704
20
10.15588545460399
30
0
10
-69.120557218036325
20
10.244701328542547
30
0
0
SPLINE
5
346
100
AcDbEntity
8
0
100
AcDbSpline
70
0
71
3
72
9
73
5
74
0
42
0.000000001
43
0.0000000001
44
0.0000000001
40
0
40
0
40
0
40
0
40
0.042969988298394754
40
0.091663600609119697
40
0.091663600609119697
40
0.091663600609119697
40
0.091663600609119697
10
-69.120557218036325
20
10.244701328542547
30
0
10
-69.031581155507169
20
10.361051618715972
30
0
10
-68.841777374253923
20
10.60925011612191
30
0
10
-68.822306074186798
20
10.922203773218532
30
0
10
-68.811962514362008
20
11.088451268937902
30
0
0
LINE
5
347
100
AcDbEntity
8
0
100
AcDbLine
10
-68.811962514362008
20
11.088451268937902
30
0
11
-68.089306264362008
21
11.014232459333257
31
0
0
SPLINE
5
348
100
AcDbEntity
8
0
100
AcDbSpline
70
0
71
3
72
9
73
5
74
0
42
0.000000001
43
0.0000000001
44
0.0000000001
40
0
40
0
40
0
40
0
40
0.073400321411930619
40
0.13791542656731698
40
0.13791542656731698
40
0.13791542656731698
40
0.13791542656731698
10
-68.089306264362008
20
11.014232459333257
30
0
10
-68.125370352044442
20
10.766053006867418
30
0
10
-68.193132916850828
20
10.299736587624794
30
0
10
-68.502965928507138
20
9.9468747860616507
30
0
10
-68.647901921710641
20
9.7818104651239661
30
0
0
SPLINE
5
349
100
AcDbEntity
8
0
100
AcDbSpline
70
0
71
3
72
9
73
5
74
0
42
0.000000001
43
0.0000000001
44
0.0000000001
40
0
40
0
40
0
40
0
40
0.065035435638595193
40
0.13913682162425578
40
0.13913682162425578
40
0.13913682162425578
40
0.13913682162425578
10
-68.647901921710641
20
9.7818104651239661
30
0
10
-68.831084806154593
20
9.6583348115042895
30
0
10
-69.222986299044265
20
9.394170977989134
30
0
10
-69.696497868024125
20
9.3705583133137829
30
0
10
-69.948680310687692
20
9.3579826977518348
30
0
0
SPLINE
5
350
100
AcDbEntity
8
0
100
AcDbSpline
70
0
71
3
72
9
73
5
74
0
42
0.000000001
43
0.0000000001
44
0.0000000001
40
0
40
0
40
0
40
0
40
0.074707125039663688
40
0.14091208015648027
40
0.14091208015648027
40
0.14091208015648027
40
0.14091208015648027
10
-69.948680310687692
20
9.3579826977518348
30
0
10
-70.203534257835571
20
9.3719870366762255
30
0
10
-70.684238070351853
20
9.3984019271971029
30
0
10
-71.07144615233338
20
9.6818438447538551
30
0
10
-71.253368764362008
20
9.815013828542547
30
0
0
SPLINE
5
351
100
AcDbEntity
8
0
100
AcDbSpline
70
0
71
3
72
9
73
5
74
0
42
0.000000001
43
0.0000000001
44
0.0000000001
40
0
40
0
40
0
40
0
40
0.062586900863912484
40
0.12584709378608527
40
0.12584709378608527
40
0.12584709378608527
40
0.12584709378608527
10
-71.253368764362008
20
9.815013828542547
30
0
10
-71.393506087327538
20
9.9770688184445859
30
0
10
-71.675288290675809
20
10.302922139685871
30
0
10
-71.714252890120306
20
10.732092899579921
30
0
10
-71.733839421710641
20
10.947826328542547
30
0
0
SPLINE
5
352
100
AcDbEntity
8
0
100
AcDbSpline
70
0
71
3
72
9
73
5
74
0
42
0.000000001
43
0.0000000001
44
0.0000000001
40
0
40
0
40
0
40
0
40
0.034262876959451502
40
0.069380109864227837
40
0.069380109864227837
40
0.069380109864227837
40
0.069380109864227837
10
-71.733839421710641
20
10.947826328542547
30
0
10
-71.727696150819668
20
11.062586086653297
30
0
10
-71.715256424586315
20
11.294967174649457
30
0
10
-71.634228322079892
20
11.513165018897029
30
0
10
-71.593215375384958
20
11.623607399728613
30
0
0
SPLINE
5
353
100
AcDbEntity
8
0
100
AcDbSpline
70
0
71
3
72
9
73
5
74
0
42
0.000000001
43
0.0000000001
44
0.0000000001
40
0
40
0
40
0
40
0
40
0.038875631318069474
40
0.084343355443544654
40
0.084343355443544654
40
0.084343355443544654
40
0.084343355443544654
10
-71.593215375384958
20
11.623607399728613
30
0
10
-71.534889487340109
20
11.739855516986427
30
0
10
-71.408347462422796
20
11.992063801227504
30
0
10
-71.225165286893485
20
12.206973125199294
30
0
10
-71.126415639362008
20
12.322826209333257
30
0
0
SPLINE
5
354
100
AcDbEntity
8
0
100
AcDbSpline
70
0
71
3
72
9
73
5
74
0
42
0.000000001
43
0.0000000001
44
0.0000000001
40
0
40
0
40
0
40
0
40
0.061492296883357375
40
0.14808665293003459
40
0.14808665293003459
40
0.14808665293003459
40
0.14808665293003459
10
-71.126415639362008
20
12.322826209333257
30
0
10
-70.983618851679509
20
12.470027454110145
30
0
10
-70.639733529308614
20
12.824519654775425
30
0
10
-70.26282832684187
20
13.143887185849596
30
0
10
-70.042431264362008
20
13.330638828542547
30
0
0
SPLINE
5
355
100
AcDbEntity
8
0
100
AcDbSpline
70
0
71
3
72
9
73
5
74
0
42
0.000000001
43
0.0000000001
44
0.0000000001
40
0
40
0
40
0
40
0
40
0.068457853067033989
40
0.10863273553848807
40
0.10863273553848807
40
0.10863273553848807
40
0.10863273553848807
10
-70.042431264362008
20
13.330638828542547
30
0
10
-69.867121911091857
20
13.476861881884382
30
0
10
-69.588931261546193
20
13.708896770091581
30
0
10
-69.326855693956148
20
13.958888972088532
30
0
10
-69.229934125384958
20
14.051341834333257
30
0
0
LINE
5
356
100
AcDbEntity
8
0
100
AcDbLine
10
-56.46821728273359
20
12.682201090123966
30
0
11
-56.46821728273359
21
15.107982578542545
31
0
0
LINE
5
357
100
AcDbEntity
8
0
100
AcDbLine
10
-56.46821728273359
20
15.107982578542545
30
0
11
-55.710403829059274
21
15.107982578542545
31
0
0
LINE
5
358
100
AcDbEntity
8
0
100
AcDbLine
10
-55.710403829059274
20
15.107982578542545
30
0
11
-55.710403829059274
21
12.682201090123966
31
0
0
LINE
5
359
100
AcDbEntity
8
0
100
AcDbLine
10
-55.710403829059274
20
12.682201090123966
30
0
11
-53.503372579059274
21
9.3814198401239661
31
0
0
LINE
5
360
100
AcDbEntity
8
0
100
AcDbLine
10
-53.503372579059274
20
9.3814198401239661
30
0
11
-54.425246625384958
21
9.3814198401239661
31
0
0
LINE
5
361
100
AcDbEntity
8
0
100
AcDbLine
10
-54.425246625384958
20
9.3814198401239661
30
0
11
-55.554153829059274
21
11.1079825189379
31
0
0
SPLINE
5
362
100
AcDbEntity
8
0
100
AcDbSpline
70
0
71
3
72
9
73
5
74
0
42
0.000000001
43
0.0000000001
44
0.0000000001
40
0
40
0
40
0
40
0
40
0.057068064643489243
40
0.11302996840819539
40
0.11302996840819539
40
0.11302996840819539
40
0.11302996840819539
10
-55.554153829059274
20
11.1079825189379
30
0
10
-55.656080908038781
20
11.268635204582196
30
0
10
-55.857959394526198
20
11.586826615076058
30
0
10
-56.044050877640387
20
11.914499547500046
30
0
10
-56.13618603273359
20
12.07673263814719
30
0
0
SPLINE
5
363
100
AcDbEntity
8
0
100
AcDbSpline
70
0
71
3
72
9
73
5
74
0
42
0.000000001
43
0.0000000001
44
0.0000000001
40
0
40
0
40
0
40
0
40
0.055620021034584098
40
0.11893199019624029
40
0.11893199019624029
40
0.11893199019624029
40
0.11893199019624029
10
-56.13618603273359
20
12.07673263814719
30
0
10
-56.230194668258363
20
11.916909296013049
30
0
10
-56.431212825220989
20
11.575159907820467
30
0
10
-56.646552584185734
20
11.242239745675718
30
0
10
-56.76118603273359
20
11.065013828542545
30
0
0
LINE
5
364
100
AcDbEntity
8
0
100
AcDbLine
10
-56.76118603273359
20
11.065013828542545
30
0
11
-57.870561986407907
21
9.3814198401239661
31
0
0
LINE
5
365
100
AcDbEntity
8
0
100
AcDbLine
10
-57.870561986407907
20
9.3814198401239661
30
0
11
-58.75337353273359
21
9.3814198401239661
31
0
0
LINE
5
366
100
AcDbEntity
8
0
100
AcDbLine
10
-58.75337353273359
20
9.3814198401239661
30
0
11
-56.46821728273359
21
12.682201090123966
31
0
0
LWPOLYLINE
5
367
100
AcDbEntity
8
0
100
AcDbPolyline
90
12
70
1
43
0.0
10
-46.386182218036325
20
15.107982578542543
10
-46.386182218036325
20
14.432201209333254
10
-42.870559602222116
20
14.432201209333254
10
-42.870559602222116
20
12.482982399728609
10
-46.038525014362008
20
12.482982399728609
10
-46.038525014362008
20
11.811107518937899
10
-42.870559602222116
20
11.811107518937899
10
-42.870559602222116
20
10.057201209333254
10
-46.253368764362008
20
10.057201209333254
10
-46.253368764362008
20
9.3814198401239643
10
-42.112746148547799
20
9.3814198401239643
10
-42.112746148547799
20
15.107982578542543
0
SPLINE
5
368
100
AcDbEntity
8
0
100
AcDbSpline
70
0
71
3
72
9
73
5
74
0
42
0.000000001
43
0.0000000001
44
0.0000000001
40
0
40
0
40
0
40
0
40
0.059501380396473166
40
0.11573052537727069
40
0.11573052537727069
40
0.11573052537727069
40
0.11573052537727069
10
-27.616653352222112
20
14.557201090123964
30
0
10
-27.818540002597913
20
14.543707641531016
30
0
10
-28.211210692907372
20
14.51746280679933
30
0
10
-28.536657378780077
20
14.297086469667498
30
0
10
-28.694779782733587
20
14.190013828542543
30
0
0
SPLINE
5
369
100
AcDbEntity
8
0
100
AcDbSpline
70
0
71
3
72
9
73
5
74
0
42
0.000000001
43
0.0000000001
44
0.0000000001
40
0
40
0
40
0
40
0
40
0.058734318184853015
40
0.12607398850782292
40
0.12607398850782292
40
0.12607398850782292
40
0.12607398850782292
10
-28.694779782733587
20
14.190013828542543
30
0
10
-28.83147998946032
20
14.045507153525346
30
0
10
-29.124908785852263
20
13.735321670004744
30
0
10
-29.234108767947518
20
13.321306754954936
30
0
10
-29.292435555896429
20
13.100169720914675
30
0
0
LINE
5
370
100
AcDbEntity
8
0
100
AcDbLine
10
-29.292435555896429
20
13.100169720914675
30
0
11
-30.050246625384954
21
13.291576328542543
31
0
0
SPLINE
5
371
100
AcDbEntity
8
0
100
AcDbSpline
70
0
71
3
72
9
73
5
74
0
42
0.000000001
43
0.0000000001
44
0.0000000001
40
0
40
0
40
0
40
0
40
0.088777362987701003
40
0.16851367934514283
40
0.16851367934514283
40
0.16851367934514283
40
0.16851367934514283
10
-30.050246625384954
20
13.291576328542543
30
0
10
-29.961018243108338
20
13.579307559652669
30
0
10
-29.791648456786447
20
14.125467602991556
30
0
10
-29.385164402900021
20
14.525920416285205
30
0
10
-29.192826657733587
20
14.715404334333254
30
0
0
SPLINE
5
372
100
AcDbEntity
8
0
100
AcDbSpline
70
0
71
3
72
9
73
5
74
0
42
0.000000001
43
0.0000000001
44
0.0000000001
40
0
40
0
40
0
40
0
40
0.078007445481012364
40
0.16148024505909958
40
0.16148024505909958
40
0.16148024505909958
40
0.16148024505909958
10
-29.192826657733587
20
14.715404334333254
30
0
10
-28.97022990871665
20
14.858344202781153
30
0
10
-28.509440847378102
20
15.154238586238446
30
0
10
-27.962091875306587
20
15.188123136380112
30
0
10
-27.679154782733587
20
15.205638828542543
30
0
0
SPLINE
5
373
100
AcDbEntity
8
0
100
AcDbSpline
70
0
71
3
72
9
73
5
74
0
42
0.000000001
43
0.0000000001
44
0.0000000001
40
0
40
0
40
0
40
0
40
0.084463110492125903
40
0.15686165124437018
40
0.15686165124437018
40
0.15686165124437018
40
0.15686165124437018
10
-27.679154782733587
20
15.205638828542543
30
0
10
-27.393824099993008
20
15.195368257669903
30
0
10
-26.863918893038267
20
15.176294147127237
30
0
10
-26.391387493062428
20
14.938457841689377
30
0
10
-26.173293500384954
20
14.828685941961119
30
0
0
SPLINE
5
374
100
AcDbEntity
8
0
100
AcDbSpline
70
0
71
3
72
9
73
5
74
0
42
0.000000001
43
0.0000000001
44
0.0000000001
40
0
40
0
40
0
40
0
40
0.068830947649587151
40
0.14202962199932959
40
0.14202962199932959
40
0.14202962199932959
40
0.14202962199932959
10
-26.173293500384954
20
14.828685941961119
30
0
10
-25.990053140964029
20
14.685484814478439
30
0
10
-25.611944748267351
20
14.389995609393171
30
0
10
-25.399810749519474
20
13.959008863480037
30
0
10
-25.29048195405927
20
13.736888590123961
30
0
0
SPLINE
5
375
100
AcDbEntity
8
0
100
AcDbSpline
70
0
71
3
72
9
73
5
74
0
42
0.000000001
43
0.0000000001
44
0.0000000001
40
0
40
0
40
0
40
0
40
0.077520711075998144
40
0.15727511553645507
40
0.15727511553645507
40
0.15727511553645507
40
0.15727511553645507
10
-25.29048195405927
20
13.736888590123961
30
0
10
-25.202189445466082
20
13.492323568707413
30
0
10
-25.023060354707582
20
12.996146592702186
30
0
10
-24.999629429858761
20
12.469032648258928
30
0
10
-24.98774757905927
20
12.201732518937895
30
0
0
SPLINE
5
376
100
AcDbEntity
8
0
100
AcDbSpline
70
0
71
3
72
9
73
5
74
0
42
0.000000001
43
0.0000000001
44
0.0000000001
40
0
40
0
40
0
40
0
40
0.084175070793137949
40
0.1608987282613904
40
0.1608987282613904
40
0.1608987282613904
40
0.1608987282613904
10
-24.98774757905927
20
12.201732518937895
30
0
10
-24.999158780244706
20
11.918759659802493
30
0
10
-25.020971031085391
20
11.377863492583739
30
0
10
-25.229912083416419
20
10.879044707304438
30
0
10
-25.32954445405927
20
10.641185763147185
30
0
0
SPLINE
5
377
100
AcDbEntity
8
0
100
AcDbSpline
70
0
71
3
72
9
73
5
74
0
42
0.000000001
43
0.0000000001
44
0.0000000001
40
0
40
0
40
0
40
0
40
0.071747466343758171
40
0.1419841166856346
40
0.1419841166856346
40
0.1419841166856346
40
0.1419841166856346
10
-25.32954445405927
20
10.641185763147185
30
0
10
-25.454380343476707
20
10.433156171127479
30
0
10
-25.701423401480696
20
10.021477552040457
30
0
10
-26.103367901223947
20
9.7592069018174357
30
0
10
-26.302201657733587
20
9.6294669535425399
30
0
0
SPLINE
5
378
100
AcDbEntity
8
0
100
AcDbSpline
70
0
71
3
72
9
73
5
74
0
42
0.000000001
43
0.0000000001
44
0.0000000001
40
0
40
0
40
0
40
0
40
0.071151851140348443
40
0.1442719292296416
40
0.1442719292296416
40
0.1442719292296416
40
0.1442719292296416
10
-26.302201657733587
20
9.6294669535425399
30
0
10
-26.51945579386172
20
9.5286420954957567
30
0
10
-26.959973824664583
20
9.3242033275426728
30
0
10
-27.445034170087389
20
9.2973655472264074
30
0
10
-27.690873055896429
20
9.2837635901239608
30
0
0
SPLINE
5
379
100
AcDbEntity
8
0
100
AcDbSpline
70
0
71
3
72
9
73
5
74
0
42
0.000000001
43
0.0000000001
44
0.0000000001
40
0
40
0
40
0
40
0
40
0.079854154751013651
40
0.15305049056001788
40
0.15305049056001788
40
0.15305049056001788
40
0.15305049056001788
10
-27.690873055896429
20
9.2837635901239608
30
0
10
-27.961258552158213
20
9.2986044339313256
30
0
10
-28.479486225749042
20
9.327048770135546
30
0
10
-28.923727394752483
20
9.5937254537757681
30
0
10
-29.136185555896429
20
9.721263470914673
30
0
0
SPLINE
5
380
100
AcDbEntity
8
0
100
AcDbSpline
70
0
71
3
72
9
73
5
74
0
42
0.000000001
43
0.0000000001
44
0.0000000001
40
0
40
0
40
0
40
0
40
0.072397719906680508
40
0.14971089523810055
40
0.14971089523810055
40
0.14971089523810055
40
0.14971089523810055
10
-29.136185555896429
20
9.721263470914673
30
0
10
-29.317837728046996
20
9.8860023860457176
30
0
10
-29.693475377266626
20
10.226665192783456
30
0
10
-29.864348616569391
20
10.704810431894725
30
0
10
-29.952590375384954
20
10.951732518937899
30
0
0
LINE
5
381
100
AcDbEntity
8
0
100
AcDbLine
10
-29.952590375384954
20
10.951732518937895
30
0
11
-29.20649757905927
21
11.127513768937899
31
0
0
SPLINE
5
382
100
AcDbEntity
8
0
100
AcDbSpline
70
0
71
3
72
9
73
5
74
0
42
0.000000001
43
0.0000000001
44
0.0000000001
40
0
40
0
40
0
40
0
40
0.059266069976499858
40
0.1091190692042938
40
0.1091190692042938
40
0.1091190692042938
40
0.1091190692042938
10
-29.20649757905927
20
11.127513768937899
30
0
10
-29.138958635947468
20
10.938445216269066
30
0
10
-29.014607778697727
20
10.590337361450848
30
0
10
-28.749494706557886
20
10.334322410796981
30
0
10
-28.628373055896429
20
10.217357399728606
30
0
0
SPLINE
5
383
100
AcDbEntity
8
0
100
AcDbSpline
70
0
71
3
72
9
73
5
74
0
42
0.000000001
43
0.0000000001
44
0.0000000001
40
0
40
0
40
0
40
0
40
0.047822190260695417
40
0.1008427470826444
40
0.1008427470826444
40
0.1008427470826444
40
0.1008427470826444
10
-28.628373055896429
20
10.217357399728606
30
0
10
-28.489441929949294
20
10.134246965446319
30
0
10
-28.196477590185278
20
9.9589918284781174
30
0
10
-27.854860629314441
20
9.941433206372249
30
0
10
-27.675247102222112
20
9.9322013285425399
30
0
0
SPLINE
5
384
100
AcDbEntity
8
0
100
AcDbSpline
70
0
71
3
72
9
73
5
74
0
42
0.000000001
43
0.0000000001
44
0.0000000001
40
0
40
0
40
0
40
0
40
0.06110962925774524
40
0.1162349329199622
40
0.1162349329199622
40
0.1162349329199622
40
0.1162349329199622
10
-27.675247102222112
20
9.9322013285425399
30
0
10
-27.468497069144263
20
9.94244888952122
30
0
10
-27.075243558725397
20
9.9619404913754224
30
0
10
-26.733707539721024
20
10.15638888490988
30
0
10
-26.571731477222112
20
10.248607518937895
30
0
0
SPLINE
5
385
100
AcDbEntity
8
0
100
AcDbSpline
70
0
71
3
72
9
73
5
74
0
42
0.000000001
43
0.0000000001
44
0.0000000001
40
0
40
0
40
0
40
0
40
0.052897199921276027
40
0.10672716289112197
40
0.10672716289112197
40
0.10672716289112197
40
0.10672716289112197
10
-26.571731477222112
20
10.248607518937895
30
0
10
-26.434675138008345
20
10.36387396530772
30
0
10
-26.158145675913985
20
10.596439409525967
30
0
10
-26.018910267314951
20
10.929986033674577
30
0
10
-25.948684125384954
20
11.098216893937895
30
0
0
SPLINE
5
386
100
AcDbEntity
8
0
100
AcDbSpline
70
0
71
3
72
9
73
5
74
0
42
0.000000001
43
0.0000000001
44
0.0000000001
40
0
40
0
40
0
40
0
40
0.055802109854589756
40
0.11179318422454998
40
0.11179318422454998
40
0.11179318422454998
40
0.11179318422454998
10
-25.948684125384954
20
11.098216893937895
30
0
10
-25.896276187459325
20
11.277493674101349
30
0
10
-25.791282840888449
20
11.636654325270682
30
0
10
-25.776434365816762
20
12.010558323589411
30
0
10
-25.76899757905927
20
12.19782632854254
30
0
0
SPLINE
5
387
100
AcDbEntity
8
0
100
AcDbSpline
70
0
71
3
72
9
73
5
74
0
42
0.000000001
43
0.0000000001
44
0.0000000001
40
0
40
0
40
0
40
0
40
0.06861491548947117
40
0.12986357889136135
40
0.12986357889136135
40
0.12986357889136135
40
0.12986357889136135
10
-25.76899757905927
20
12.19782632854254
30
0
10
-25.775673552763845
20
12.42776083887998
30
0
10
-25.788308791496949
20
12.862944912343348
30
0
10
-25.919849172883072
20
13.277633576212224
30
0
10
-25.981888680896429
20
13.473216715123961
30
0
0
SPLINE
5
388
100
AcDbEntity
8
0
100
AcDbSpline
70
0
71
3
72
9
73
5
74
0
42
0.000000001
43
0.0000000001
44
0.0000000001
40
0
40
0
40
0
40
0
40
0.054828421180368486
40
0.10647221942776204
40
0.10647221942776204
40
0.10647221942776204
40
0.10647221942776204
10
-25.981888680896429
20
13.473216715123961
30
0
10
-26.060339141771799
20
13.641935364283073
30
0
10
-26.212683391427536
20
13.969572904232091
30
0
10
-26.503122532527087
20
14.18377329101463
30
0
10
-26.643998532733587
20
14.28767007854254
30
0
0
SPLINE
5
389
100
AcDbEntity
8
0
100
AcDbSpline
70
0
71
3
72
9
73
5
74
0
42
0.000000001
43
0.0000000001
44
0.0000000001
40
0
40
0
40
0
40
0
40
0.050958305959342413
40
0.10189421160707408
40
0.10189421160707408
40
0.10189421160707408
40
0.10189421160707408
10
-26.643998532733587
20
14.28767007854254
30
0
10
-26.796811019574932
20
14.366283140134577
30
0
10
-27.102368819766305
20
14.523474706497282
30
0
10
-27.445250300966308
20
14.545960610007182
30
0
10
-27.616653352222112
20
14.557201090123964
30
0
0
LWPOLYLINE
5
390
100
AcDbEntity
8
0
100
AcDbPolyline
90
10
70
1
43
0.0
10
-5.5502457015129592
20
15.107982578542538
10
-5.5502457015129592
20
12.506420138147183
10
-8.2377459697338615
20
12.506420138147183
10
-8.2377459697338615
20
11.830638768937893
10
-5.55024570151296
20
11.830638768937893
10
-5.55024570151296
20
10.057201209333249
10
-8.655714600524572
20
10.057201209333249
10
-8.655714600524572
20
9.381419840123959
10
-4.7924332164141212
20
9.381419840123959
10
-4.7924332164141203
20
15.107982578542538
0
LWPOLYLINE
5
391
100
AcDbEntity
8
0
100
AcDbPolyline
90
10
70
1
43
0.0
10
-8.9325516464603627
20
29.770505261370541
10
-8.9325516464603627
20
27.49413831228912
10
-11.284113878239461
20
27.49413831228912
10
-11.284113878239461
20
26.902829539725186
10
-8.9325516464603645
20
26.902829539725186
10
-8.9325516464603627
20
25.351071786829831
10
-11.649836653698751
20
25.351071786829831
10
-11.649836653698751
20
24.75976331228912
10
-8.2694657313121063
20
24.75976331228912
10
-8.2694657313121045
20
29.770505261370541
0
LINE
5
392
100
AcDbEntity
8
0
100
AcDbLine
10
-47.999998927116394
20
27.712887954661252
30
0
11
-48.570734316338367
21
27.712887954661255
31
0
0
LINE
5
393
100
AcDbEntity
8
0
100
AcDbLine
10
-48.570734316338367
20
27.712887954661255
30
0
11
-48.047787004937
21
26.325192880579834
31
0
0
SPLINE
5
394
100
AcDbEntity
8
0
100
AcDbSpline
70
0
71
3
72
9
73
5
74
0
42
0.000000001
43
0.0000000001
44
0.0000000001
40
0
40
0
40
0
40
0
40
0.061250619806081784
40
0.10984020743142192
40
0.10984020743142192
40
0.10984020743142192
40
0.10984020743142192
10
-48.047787004937
20
26.325192880579834
30
0
10
-47.976129296044235
20
26.133949890225374
30
0
10
-47.847626145647375
20
25.790995487529621
30
0
10
-47.739949379083804
20
25.440969903608384
30
0
10
-47.692316824425525
20
25.286130440184479
30
0
0
SPLINE
5
395
100
AcDbEntity
8
0
100
AcDbSpline
70
0
71
3
72
9
73
5
74
0
42
0.000000001
43
0.0000000001
44
0.0000000001
40
0
40
0
40
0
40
0
40
0.049388528063716609
40
0.099514948130590419
40
0.099514948130590419
40
0.099514948130590419
40
0.099514948130590419
10
-47.692316824425525
20
25.286130440184479
30
0
10
-47.656927736865157
20
25.44706853984799
30
0
10
-47.585620829147324
20
25.771349243650047
30
0
10
-47.477005973751417
20
26.085115361334054
30
0
10
-47.422295862664051
20
26.243161690184479
30
0
0
LINE
5
396
100
AcDbEntity
8
0
100
AcDbLine
10
-47.422295862664058
20
26.243161690184479
30
0
11
-46.872004324425525
21
27.712887954661255
31
0
0
LINE
5
397
100
AcDbEntity
8
0
100
AcDbLine
10
-46.872004324425525
20
27.712887954661255
30
0
11
-47.699998933821917
21
27.712887954661252
31
0
0
LINE
5
398
100
AcDbEntity
8
0
100
AcDbLine
10
-47.699998933821917
20
27.712887954661252
30
0
11
-47.699998933821917
21
28.252927195975186
31
0
0
LINE
5
399
100
AcDbEntity
8
0
100
AcDbLine
10
-47.699998933821917
20
28.252927195975186
30
0
11
-46.680597120751209
21
28.25292719597519
31
0
0
LINE
5
400
100
AcDbEntity
8
0
100
AcDbLine
10
-46.680597120751209
20
28.25292719597519
30
0
11
-46.130305582512683
21
29.770505261370545
31
0
0
LINE
5
401
100
AcDbEntity
8
0
100
AcDbLine
10
-46.130305582512683
20
29.770505261370545
30
0
11
-45.426203066338367
21
29.770505261370545
31
0
0
LINE
5
402
100
AcDbEntity
8
0
100
AcDbLine
10
-45.426203066338367
20
29.770505261370545
30
0
11
-47.350519949425525
21
24.759763312289124
31
0
0
LINE
5
403
100
AcDbEntity
8
0
100
AcDbLine
10
-47.350519949425525
20
24.759763312289124
30
0
11
-48.064876848687
21
24.759763312289124
31
0
0
LINE
5
404
100
AcDbEntity
8
0
100
AcDbLine
10
-48.064876848687
20
24.759763312289124
30
0
11
-50.115658098687
21
29.770505261370545
31
0
0
LINE
5
405
100
AcDbEntity
8
0
100
AcDbLine
10
-50.115658098687
20
29.770505261370545
30
0
11
-49.360286051262683
21
29.770505261370545
31
0
0
LINE
5
406
100
AcDbEntity
8
0
100
AcDbLine
10
-49.360286051262683
20
29.770505261370545
30
0
11
-48.775812441338367
21
28.25292719597519
31
0
0
LINE
5
407
100
AcDbEntity
8
0
100
AcDbLine
10
-48.775812441338367
20
28.25292719597519
30
0
11
-47.999998927116394
21
28.252927195975186
31
0
0
LINE
5
408
100
AcDbEntity
8
0
100
AcDbLine
10
-47.999998927116394
20
28.252927195975186
30
0
11
-47.999998927116394
21
27.712887954661252
31
0
0
LWPOLYLINE
5
409
100
AcDbEntity
8
0
100
AcDbPolyline
90
4
70
1
43
0.0
10
-66.200615221489741
20
29.770505261370552
10
-66.200615221489741
20
24.759763312289131
10
-65.537530237664058
20
24.759763312289131
10
-65.537530237664058
20
29.770505261370552
0
LWPOLYLINE
5
410
100
AcDbEntity
8
0
100
AcDbPolyline
90
4
70
1
43
0.0
10
-53.976343218440455
20
43.991698575634231
10
-53.976343218440455
20
42.990722013134231
10
-52.975366655940455
20
42.990722013134231
10
-52.975366655940455
20
43.991698575634231
0
LINE
5
411
100
AcDbEntity
8
0
100
AcDbLine
10
-58.004663530940455
20
36.804198575634238
30
0
11
-58.571069780940455
21
36.804198575634238
31
0
0
LINE
5
412
100
AcDbEntity
8
0
100
AcDbLine
10
-58.571069780940455
20
36.804198575634238
30
0
11
-58.571069780940455
21
43.991698575634231
31
0
0
LINE
5
413
100
AcDbEntity
8
0
100
AcDbLine
10
-58.571069780940455
20
43.991698575634231
30
0
11
-57.692163530940455
21
43.991698575634231
31
0
0
LINE
5
414
100
AcDbEntity
8
0
100
AcDbLine
10
-57.692163530940455
20
43.991698575634231
30
0
11
-57.692163530940455
21
38.391112638134231
31
0
0
SPLINE
5
415
100
AcDbEntity
8
0
100
AcDbSpline
70
0
71
3
72
9
73
5
74
0
42
0.000000001
43
0.0000000001
44
0.0000000001
40
0
40
0
40
0
40
0
40
0.047561114359959522
40
0.10310595701732674
40
0.10310595701732674
40
0.10310595701732674
40
0.10310595701732674
10
-57.692163530940455
20
38.391112638134238
30
0
10
-57.57234532779816
20
38.495369440281188
30
0
10
-57.312595936528993
20
38.721383853643573
30
0
10
-57.018225892215639
20
38.900232653779781
30
0
10
-56.859643999690455
20
38.996581388134238
30
0
0
SPLINE
5
416
100
AcDbEntity
8
0
100
AcDbSpline
70
0
71
3
72
9
73
5
74
0
42
0.000000001
43
0.0000000001
44
0.0000000001
40
0
40
0
40
0
40
0
40
0.055604233294242578
40
0.10316957709110147
40
0.10316957709110147
40
0.10316957709110147
40
0.10316957709110147
10
-56.859643999690455
20
38.996581388134238
30
0
10
-56.698590274897171
20
39.088804866295831
30
0
10
-56.399766899562714
20
39.259918766733108
30
0
10
-56.081215909159269
20
39.390486123396514
30
0
10
-55.934351030940455
20
39.450682950634238
30
0
0
LINE
5
417
100
AcDbEntity
8
0
100
AcDbLine
10
-55.934351030940455
20
39.450682950634246
30
0
11
-55.934351030940455
21
38.601073575634238
31
0
0
SPLINE
5
418
100
AcDbEntity
8
0
100
AcDbSpline
70
0
71
3
72
9
73
5
74
0
42
0.000000001
43
0.0000000001
44
0.0000000001
40
0
40
0
40
0
40
0
40
0.079011842685035916
40
0.15425866072934563
40
0.15425866072934563
40
0.15425866072934563
40
0.15425866072934563
10
-55.934351030940455
20
38.601073575634238
30
0
10
-56.17002191604125
20
38.481509215341212
30
0
10
-56.630133639463089
20
38.248077903489822
30
0
10
-57.028897808344695
20
37.920850279687755
30
0
10
-57.223413530940455
20
37.761229825634238
30
0
0
SPLINE
5
419
100
AcDbEntity
8
0
100
AcDbSpline
70
0
71
3
72
9
73
5
74
0
42
0.000000001
43
0.0000000001
44
0.0000000001
40
0
40
0
40
0
40
0
40
0.06768025525209527
40
0.12408572244119673
40
0.12408572244119673
40
0.12408572244119673
40
0.12408572244119673
10
-57.223413530940455
20
37.761229825634238
30
0
10
-57.389491110781719
20
37.606513556762152
30
0
10
-57.693979567557314
20
37.322855052152647
30
0
10
-57.907571400633799
20
36.966284386740021
30
0
10
-58.004663530940455
20
36.804198575634238
30
0
0
LWPOLYLINE
5
420
100
AcDbEntity
8
0
100
AcDbPolyline
90
10
70
1
43
0.0
10
-32.726343218440455
20
43.991698575634231
10
-32.726343218440455
20
40.739745450634231
10
-36.085718218440455
20
40.739745450634231
10
-36.085718218440455
20
39.895018888134231
10
-32.726343218440455
20
39.895018888134231
10
-32.726343218440455
20
37.678222013134231
10
-36.608179155940455
20
37.678222013134231
10
-36.608179155940455
20
36.833495450634231
10
-31.779077593440455
20
36.833495450634231
10
-31.779077593440455
20
43.991698575634231
0
LINE
5
421
100
AcDbEntity
8
0
100
AcDbLine
10
-33.299999255686998
20
12.756420197751833
30
0
11
-33.948683648547792
21
12.756420197751833
31
0
0
LINE
5
422
100
AcDbEntity
8
0
100
AcDbLine
10
-33.948683648547792
20
12.756420197751833
30
0
11
-33.351027875384951
21
11.170482459333254
31
0
0
SPLINE
5
423
100
AcDbEntity
8
0
100
AcDbSpline
70
0
71
3
72
9
73
5
74
0
42
0.000000001
43
0.0000000001
44
0.0000000001
40
0
40
0
40
0
40
0
40
0.070000626776686642
40
0.12553162121435327
40
0.12553162121435327
40
0.12553162121435327
40
0.12553162121435327
10
-33.351027875384951
20
11.170482459333254
30
0
10
-33.269134347577619
20
10.951918976814872
30
0
10
-33.122275272366579
20
10.559970653461793
30
0
10
-32.999214773983326
20
10.159942004584718
30
0
10
-32.944776921710634
20
9.9829826977518312
30
0
0
SPLINE
5
424
100
AcDbEntity
8
0
100
AcDbSpline
70
0
71
3
72
9
73
5
74
0
42
0.000000001
43
0.0000000001
44
0.0000000001
40
0
40
0
40
0
40
0
40
0.056444027933105455
40
0.11373124627260106
40
0.11373124627260106
40
0.11373124627260106
40
0.11373124627260106
10
-32.944776921710634
20
9.9829826977518312
30
0
10
-32.904332032757367
20
10.166911869709869
30
0
10
-32.822838067949192
20
10.537517843781504
30
0
10
-32.698709183232616
20
10.896108032246179
30
0
10
-32.636184602222109
20
11.076732399728609
30
0
0
LINE
5
425
100
AcDbEntity
8
0
100
AcDbLine
10
-32.636184602222109
20
11.076732399728606
30
0
11
-32.007276921710634
21
12.756420197751833
31
0
0
LINE
5
426
100
AcDbEntity
8
0
100
AcDbLine
10
-32.007276921710634
20
12.756420197751833
30
0
11
-32.799999266862869
21
12.756420197751833
31
0
0
LINE
5
427
100
AcDbEntity
8
0
100
AcDbLine
10
-32.799999266862869
20
12.756420197751833
30
0
11
-32.799999266862869
21
13.373607220914675
31
0
0
LINE
5
428
100
AcDbEntity
8
0
100
AcDbLine
10
-32.799999266862869
20
13.373607220914675
30
0
11
-31.788527875384954
21
13.373607220914675
31
0
0
LINE
5
429
100
AcDbEntity
8
0
100
AcDbLine
10
-31.788527875384954
20
13.373607220914675
30
0
11
-31.159620194873479
21
15.107982578542543
31
0
0
LINE
5
430
100
AcDbEntity
8
0
100
AcDbLine
10
-31.159620194873479
20
15.107982578542543
30
0
11
-30.354933648547796
21
15.107982578542543
31
0
0
LINE
5
431
100
AcDbEntity
8
0
100
AcDbLine
10
-30.354933648547796
20
15.107982578542543
30
0
11
-32.554151921710634
21
9.3814198401239643
31
0
0
LINE
5
432
100
AcDbEntity
8
0
100
AcDbLine
10
-32.554151921710634
20
9.3814198401239643
30
0
11
-33.370559125384951
21
9.3814198401239626
31
0
0
LINE
5
433
100
AcDbEntity
8
0
100
AcDbLine
10
-33.370559125384951
20
9.3814198401239626
30
0
11
-35.714309125384951
21
15.107982578542543
31
0
0
LINE
5
434
100
AcDbEntity
8
0
100
AcDbLine
10
-35.714309125384951
20
15.107982578542543
30
0
11
-34.851026444873476
21
15.107982578542543
31
0
0
LINE
5
435
100
AcDbEntity
8
0
100
AcDbLine
10
-34.851026444873476
20
15.107982578542543
30
0
11
-34.183058648547792
21
13.373607220914675
31
0
0
LINE
5
436
100
AcDbEntity
8
0
100
AcDbLine
10
-34.183058648547792
20
13.373607220914675
30
0
11
-33.299999255686998
21
13.373607220914675
31
0
0
LINE
5
437
100
AcDbEntity
8
0
100
AcDbLine
10
-33.299999255686998
20
13.373607220914675
30
0
11
-33.299999255686998
21
12.756420197751833
31
0
0
LWPOLYLINE
5
438
100
AcDbEntity
8
0
100
AcDbPolyline
90
8
70
1
43
0.0
10
-38.021135347804751
20
10.057201209333254
10
-38.021135347804751
20
9.3814198401239643
10
-36.319777875384951
20
9.3814198401239643
10
-36.319777875384951
20
15.107982578542543
10
-38.021135347804751
20
15.107982578542543
10
-38.021135347804751
20
14.432201209333254
10
-37.077591329059267
20
14.432201209333254
10
-37.077591329059267
20
10.057201209333254
0
LWPOLYLINE
5
439
100
AcDbEntity
8
0
100
AcDbPolyline
90
12
70
1
43
0.0
10
-15.999999642372131
20
12.463451149728604
10
-15.999999642372131
20
11.787670078542538
10
-15.261183886966375
20
11.787670078542538
10
-15.261183886966375
20
10.05720120933325
10
-15.999999642372131
20
10.057201209333249
10
-15.999999642372131
20
9.3814198401239608
10
-14.503371625384954
20
9.381419840123959
10
-14.503371625384954
20
15.107982578542538
10
-15.999999642372131
20
15.107982578542538
10
-15.999999642372131
20
14.432201209333249
10
-15.261183886966375
20
14.432201209333249
10
-15.261183886966375
20
12.463451149728606
0
LINE
5
440
100
AcDbEntity
8
0
100
AcDbLine
10
-16.349999634549022
20
10.057201209333249
30
0
11
-16.349999634549022
21
9.3814198401239608
31
0
0
LINE
5
441
100
AcDbEntity
8
0
100
AcDbLine
10
-16.349999634549022
20
9.3814198401239608
30
0
11
-16.651809125384954
21
9.3814198401239608
31
0
0
SPLINE
5
442
100
AcDbEntity
8
0
100
AcDbSpline
70
0
71
3
72
9
73
5
74
0
42
0.000000001
43
0.0000000001
44
0.0000000001
40
0
40
0
40
0
40
0
40
0.059290381001767249
40
0.10723934870448051
40
0.10723934870448051
40
0.10723934870448051
40
0.10723934870448051
10
-16.651809125384954
20
9.3814198401239608
30
0
10
-16.850823435507472
20
9.3850551859085769
30
0
10
-17.210783426315675
20
9.3916304871239014
30
0
10
-17.551985400285396
20
9.5046945334367088
30
0
10
-17.704543977222112
20
9.5552478459146712
30
0
0
SPLINE
5
443
100
AcDbEntity
8
0
100
AcDbSpline
70
0
71
3
72
9
73
5
74
0
42
0.000000001
43
0.0000000001
44
0.0000000001
40
0
40
0
40
0
40
0
40
0.041675290907762827
40
0.082964396415573516
40
0.082964396415573516
40
0.082964396415573516
40
0.082964396415573516
10
-17.704543977222112
20
9.5552478459146712
30
0
10
-17.829367563405615
20
9.6207205912297979
30
0
10
-18.077858054067381
20
9.7510593765969418
30
0
10
-18.24330104705242
20
9.97764107401159
30
0
10
-18.325637488803533
20
10.090404572751829
30
0
0
SPLINE
5
444
100
AcDbEntity
8
0
100
AcDbSpline
70
0
71
3
72
9
73
5
74
0
42
0.000000001
43
0.0000000001
44
0.0000000001
40
0
40
0
40
0
40
0
40
0.040620576492757257
40
0.079649693678042685
40
0.079649693678042685
40
0.079649693678042685
40
0.079649693678042685
10
-18.325637488803533
20
10.090404572751829
30
0
10
-18.391140931599146
20
10.210864345633473
30
0
10
-18.519581480798589
20
10.447064440239718
30
0
10
-18.540162141702549
20
10.714981800642748
30
0
10
-18.550246863803533
20
10.846263888147185
30
0
0
SPLINE
5
445
100
AcDbEntity
8
0
100
AcDbSpline
70
0
71
3
72
9
73
5
74
0
42
0.000000001
43
0.0000000001
44
0.0000000001
40
0
40
0
40
0
40
0
40
0.035990767079023614
40
0.072668233459297515
40
0.072668233459297515
40
0.072668233459297515
40
0.072668233459297515
10
-18.550246863803533
20
10.846263888147185
30
0
10
-18.541636863731959
20
10.967369974310854
30
0
10
-18.524252585872251
20
11.211892835503569
30
0
10
-18.409132066994243
20
11.428395655973429
30
0
10
-18.351027875384954
20
11.537670018937895
30
0
0
SPLINE
5
446
100
AcDbEntity
8
0
100
AcDbSpline
70
0
71
3
72
9
73
5
74
0
42
0.000000001
43
0.0000000001
44
0.0000000001
40
0
40
0
40
0
40
0
40
0.038513807905438506
40
0.080550825883395683
40
0.080550825883395683
40
0.080550825883395683
40
0.080550825883395683
10
-18.351027875384954
20
11.537670018937895
30
0
10
-18.273439382137973
20
11.641846202418503
30
0
10
-18.111164666912792
20
11.85972851718069
30
0
10
-17.873497076624272
20
11.992051993941292
30
0
10
-17.749465613803533
20
12.06110757854254
30
0
0
SPLINE
5
447
100
AcDbEntity
8
0
100
AcDbSpline
70
0
71
3
72
9
73
5
74
0
42
0.000000001
43
0.0000000001
44
0.0000000001
40
0
40
0
40
0
40
0
40
0.050356034729255074
40
0.096554469760122968
40
0.096554469760122968
40
0.096554469760122968
40
0.096554469760122968
10
-17.749465613803533
20
12.06110757854254
30
0
10
-17.910409053459873
20
12.118003079341497
30
0
10
-18.219007785686109
20
12.22709655623888
30
0
10
-18.441728027968548
20
12.466223524791737
30
0
10
-18.548293023547796
20
12.580638649728606
30
0
0
SPLINE
5
448
100
AcDbEntity
8
0
100
AcDbSpline
70
0
71
3
72
9
73
5
74
0
42
0.000000001
43
0.0000000001
44
0.0000000001
40
0
40
0
40
0
40
0
40
0.045187662479290389
40
0.092386656066289818
40
0.092386656066289818
40
0.092386656066289818
40
0.092386656066289818
10
-18.548293023547796
20
12.580638649728606
30
0
10
-18.629744681362013
20
12.710310525725481
30
0
10
-18.796273461202308
20
12.975426053989077
30
0
10
-18.817001301350828
20
13.288090585043637
30
0
10
-18.827590852222112
20
13.44782632854254
30
0
0
SPLINE
5
449
100
AcDbEntity
8
0
100
AcDbSpline
70
0
71
3
72
9
73
5
74
0
42
0.000000001
43
0.0000000001
44
0.0000000001
40
0
40
0
40
0
40
0
40
0.039050118272273934
40
0.077226359485492418
40
0.077226359485492418
40
0.077226359485492418
40
0.077226359485492418
10
-18.827590852222112
20
13.44782632854254
30
0
10
-18.820836282562603
20
13.578913386940489
30
0
10
-18.807478299340673
20
13.838153992184017
30
0
10
-18.707227118636265
20
14.077536240346383
30
0
10
-18.657668738803533
20
14.195872965123961
30
0
0
SPLINE
5
450
100
AcDbEntity
8
0
100
AcDbSpline
70
0
71
3
72
9
73
5
74
0
42
0.000000001
43
0.0000000001
44
0.0000000001
40
0
40
0
40
0
40
0
40
0.036028805986747146
40
0.068346408664470198
40
0.068346408664470198
40
0.068346408664470198
40
0.068346408664470198
10
-18.657668738803533
20
14.195872965123961
30
0
10
-18.600192658930034
20
14.302582857576422
30
0
10
-18.491160912362837
20
14.505010823709423
30
0
10
-18.319103988610067
20
14.657141466073792
30
0
10
-18.237746863803533
20
14.729076447751829
30
0
0
SPLINE
5
451
100
AcDbEntity
8
0
100
AcDbSpline
70
0
71
3
72
9
73
5
74
0
42
0.000000001
43
0.0000000001
44
0.0000000001
40
0
40
0
40
0
40
0
40
0.032627197563456653
40
0.069130928962045632
40
0.069130928962045632
40
0.069130928962045632
40
0.069130928962045632
10
-18.237746863803533
20
14.729076447751829
30
0
10
-18.145943648052004
20
14.788528418525214
30
0
10
-17.951429804984016
20
14.91449602454454
30
0
10
-17.728505463116178
20
14.978488917612939
30
0
10
-17.610793023547796
20
15.012279572751828
30
0
0
SPLINE
5
452
100
AcDbEntity
8
0
100
AcDbSpline
70
0
71
3
72
9
73
5
74
0
42
0.000000001
43
0.0000000001
44
0.0000000001
40
0
40
0
40
0
40
0
40
0.04255303660292406
40
0.093049227784220784
40
0.093049227784220784
40
0.093049227784220784
40
0.093049227784220784
10
-17.610793023547796
20
15.012279572751828
30
0
10
-17.471410286738596
20
15.040139332602859
30
0
10
-17.166626960754854
20
15.101059289140441
30
0
10
-16.855699850556999
20
15.105547114229074
30
0
10
-16.686965136966375
20
15.107982578542538
30
0
0
LINE
5
453
100
AcDbEntity
8
0
100
AcDbLine
10
-16.686965136966375
20
15.10798257854254
30
0
11
-16.349999634549022
21
15.107982578542538
31
0
0
LINE
5
454
100
AcDbEntity
8
0
100
AcDbLine
10
-16.349999634549022
20
15.107982578542538
30
0
11
-16.349999634549022
21
14.432201209333249
31
0
0
LINE
5
455
100
AcDbEntity
8
0
100
AcDbLine
10
-16.349999634549022
20
14.432201209333249
30
0
11
-16.686965136966375
21
14.432201209333249
31
0
0
SPLINE
5
456
100
AcDbEntity
8
0
100
AcDbSpline
70
0
71
3
72
9
73
5
74
0
42
0.000000001
43
0.0000000001
44
0.0000000001
40
0
40
0
40
0
40
0
40
0.031257476173122585
40
0.051673283758184668
40
0.051673283758184668
40
0.051673283758184668
40
0.051673283758184668
10
-16.686965136966375
20
14.432201209333249
30
0
10
-16.791283654340347
20
14.43239879876074
30
0
10
-16.963737768026377
20
14.432725443640763
30
0
10
-17.13494690170134
20
14.412749826329971
30
0
10
-17.202590613803533
20
14.404857578542538
30
0
0
SPLINE
5
457
100
AcDbEntity
8
0
100
AcDbSpline
70
0
71
3
72
9
73
5
74
0
42
0.000000001
43
0.0000000001
44
0.0000000001
40
0
40
0
40
0
40
0
40
0.024823103286185855
40
0.046664043795939823
40
0.046664043795939823
40
0.046664043795939823
40
0.046664043795939823
10
-17.202590613803533
20
14.404857578542538
30
0
10
-17.284090251814042
20
14.387929913434871
30
0
10
-17.437298439913231
20
14.356108215042038
30
0
10
-17.575435388677985
20
14.282881216152163
30
0
10
-17.640089898547796
20
14.248607578542538
30
0
0
SPLINE
5
458
100
AcDbEntity
8
0
100
AcDbSpline
70
0
71
3
72
9
73
5
74
0
42
0.000000001
43
0.0000000001
44
0.0000000001
40
0
40
0
40
0
40
0
40
0.02089997312710503
40
0.043372802233993243
40
0.043372802233993243
40
0.043372802233993243
40
0.043372802233993243
10
-17.640089898547796
20
14.248607578542538
30
0
10
-17.696710245692572
20
14.206813616200694
30
0
10
-17.814211981421852
20
14.120080429884926
30
0
10
-17.889924359641981
20
13.995037278164197
30
0
10
-17.929153352222112
20
13.930248441961119
30
0
0
SPLINE
5
459
100
AcDbEntity
8
0
100
AcDbSpline
70
0
71
3
72
9
73
5
74
0
42
0.000000001
43
0.0000000001
44
0.0000000001
40
0
40
0
40
0
40
0
40
0.024059754998302933
40
0.049947588281986866
40
0.049947588281986866
40
0.049947588281986866
40
0.049947588281986866
10
-17.929153352222112
20
13.930248441961119
30
0
10
-17.962181302734518
20
13.856344390263995
30
0
10
-18.030746692286812
20
13.702921001422379
30
0
10
-18.038444559495037
20
13.534907645250861
30
0
10
-18.042434363803533
20
13.44782632854254
30
0
0
SPLINE
5
460
100
AcDbEntity
8
0
100
AcDbSpline
70
0
71
3
72
9
73
5
74
0
42
0.000000001
43
0.0000000001
44
0.0000000001
40
0
40
0
40
0
40
0
40
0.030211312341834138
40
0.058734409254601772
40
0.058734409254601772
40
0.058734409254601772
40
0.058734409254601772
10
-18.042434363803533
20
13.44782632854254
30
0
10
-18.036419548638523
20
13.345760126497108
30
0
10
-18.024726027632369
20
13.147331206423409
30
0
10
-17.926212401255075
20
12.974915611986484
30
0
10
-17.878371386966375
20
12.89118570354254
30
0
0
SPLINE
5
461
100
AcDbEntity
8
0
100
AcDbSpline
70
0
71
3
72
9
73
5
74
0
42
0.000000001
43
0.0000000001
44
0.0000000001
40
0
40
0
40
0
40
0
40
0.028072707957766545
40
0.057115646285781252
40
0.057115646285781252
40
0.057115646285781252
40
0.057115646285781252
10
-17.878371386966375
20
12.89118570354254
30
0
10
-17.817595111256708
20
12.818010578117093
30
0
10
-17.693942050382674
20
12.669131296965983
30
0
10
-17.51452560663861
20
12.596226217144206
30
0
10
-17.423293500384954
20
12.55915445354254
30
0
0
SPLINE
5
462
100
AcDbEntity
8
0
100
AcDbSpline
70
0
71
3
72
9
73
5
74
0
42
0.000000001
43
0.0000000001
44
0.0000000001
40
0
40
0
40
0
40
0
40
0.03621654399562807
40
0.084566746392660652
40
0.084566746392660652
40
0.084566746392660652
40
0.084566746392660652
10
-17.423293500384954
20
12.55915445354254
30
0
10
-17.305447461291593
20
12.531384606496644
30
0
10
-17.030273328094609
20
12.466541157801576
30
0
10
-16.747229762777906
20
12.464575178809147
30
0
10
-16.585402398547796
20
12.463451149728606
30
0
0
LINE
5
463
100
AcDbEntity
8
0
100
AcDbLine
10
-16.585402398547792
20
12.463451149728609
30
0
11
-16.349999634549022
21
12.463451149728604
31
0
0
LINE
5
464
100
AcDbEntity
8
0
100
AcDbLine
10
-16.349999634549022
20
12.463451149728604
30
0
11
-16.349999634549022
21
11.787670078542538
31
0
0
LINE
5
465
100
AcDbEntity
8
0
100
AcDbLine
10
-16.349999634549022
20
11.787670078542538
30
0
11
-16.499465613803533
21
11.787670078542538
31
0
0
SPLINE
5
466
100
AcDbEntity
8
0
100
AcDbSpline
70
0
71
3
72
9
73
5
74
0
42
0.000000001
43
0.0000000001
44
0.0000000001
40
0
40
0
40
0
40
0
40
0.043293490029408285
40
0.072721977165983137
40
0.072721977165983137
40
0.072721977165983137
40
0.072721977165983137
10
-16.499465613803533
20
11.78767007854254
30
0
10
-16.644259161287959
20
11.787758885383825
30
0
10
-16.887475244047558
20
11.787908058136585
30
0
10
-17.12571365056607
20
11.740463211169168
30
0
10
-17.222121863803533
20
11.721263649728606
30
0
0
SPLINE
5
467
100
AcDbEntity
8
0
100
AcDbSpline
70
0
71
3
72
9
73
5
74
0
42
0.000000001
43
0.0000000001
44
0.0000000001
40
0
40
0
40
0
40
0
40
0.027798422988172262
40
0.052773871187884236
40
0.052773871187884236
40
0.052773871187884236
40
0.052773871187884236
10
-17.222121863803533
20
11.721263649728606
30
0
10
-17.311045565518338
20
11.689846152007108
30
0
10
-17.479862623300484
20
11.630201654241697
30
0
10
-17.600551839972923
20
11.498456504188166
30
0
10
-17.657668500384954
20
11.43610757854254
30
0
0
SPLINE
5
468
100
AcDbEntity
8
0
100
AcDbSpline
70
0
71
3
72
9
73
5
74
0
42
0.000000001
43
0.0000000001
44
0.0000000001
40
0
40
0
40
0
40
0
40
0.025003862082667794
40
0.052785360693000646
40
0.052785360693000646
40
0.052785360693000646
40
0.052785360693000646
10
-17.657668500384954
20
11.43610757854254
30
0
10
-17.700360998176052
20
11.363073126443783
30
0
10
-17.790488630752872
20
11.208890949134426
30
0
10
-17.799441096912517
20
11.030170132352449
30
0
10
-17.804152875384954
20
10.93610745933325
30
0
0
SPLINE
5
469
100
AcDbEntity
8
0
100
AcDbSpline
70
0
71
3
72
9
73
5
74
0
42
0.000000001
43
0.0000000001
44
0.0000000001
40
0
40
0
40
0
40
0
40
0.027023647668181685
40
0.052561328124514028
40
0.052561328124514028
40
0.052561328124514028
40
0.052561328124514028
10
-17.804152875384954
20
10.93610745933325
30
0
10
-17.799128572426749
20
10.844989408475822
30
0
10
-17.789356241184656
20
10.667763675370132
30
0
10
-17.70730157172558
20
10.510542549040711
30
0
10
-17.667434125384954
20
10.434154393937895
30
0
0
SPLINE
5
470
100
AcDbEntity
8
0
100
AcDbSpline
70
0
71
3
72
9
73
5
74
0
42
0.000000001
43
0.0000000001
44
0.0000000001
40
0
40
0
40
0
40
0
40
0.024679994738597309
40
0.04988003685064156
40
0.04988003685064156
40
0.04988003685064156
40
0.04988003685064156
10
-17.667434125384954
20
10.434154393937895
30
0
10
-17.616545247817889
20
10.367450342173168
30
0
10
-17.513695181794024
20
10.232636676475407
30
0
10
-17.356318080086922
20
10.169285360659261
30
0
10
-17.276809125384954
20
10.13727945354254
30
0
0
SPLINE
5
471
100
AcDbEntity
8
0
100
AcDbSpline
70
0
71
3
72
9
73
5
74
0
42
0.000000001
43
0.0000000001
44
0.0000000001
40
0
40
0
40
0
40
0
40
0.034991967231453508
40
0.087666647575672191
40
0.087666647575672191
40
0.087666647575672191
40
0.087666647575672191
10
-17.276809125384954
20
10.13727945354254
30
0
10
-17.162228732106747
20
10.114149224243407
30
0
10
-16.875166307460514
20
10.056200219921953
30
0
10
-16.581915928376773
20
10.056825505340354
30
0
10
-16.405715852222112
20
10.05720120933325
30
0
0
LINE
5
472
100
AcDbEntity
8
0
100
AcDbLine
10
-16.405715852222112
20
10.05720120933325
30
0
11
-16.349999634549022
21
10.057201209333249
31
0
0
LINE
5
473
100
AcDbEntity
8
0
100
AcDbLine
10
-36.349999187514186
20
24.759763312289124
30
0
11
-36.546319777001209
21
24.759763312289124
31
0
0
SPLINE
5
474
100
AcDbEntity
8
0
100
AcDbSpline
70
0
71
3
72
9
73
5
74
0
42
0.000000001
43
0.0000000001
44
0.0000000001
40
0
40
0
40
0
40
0
40
0.051878993527443372
40
0.093834340773762029
40
0.093834340773762029
40
0.093834340773762029
40
0.093834340773762029
10
-36.546319777001209
20
24.759763312289124
30
0
10
-36.720456996874795
20
24.76294422817341
30
0
10
-37.035421689132555
20
24.768697600102275
30
0
10
-37.333973125021245
20
24.867628579231894
30
0
10
-37.467461878289051
20
24.91186274285019
30
0
0
SPLINE
5
475
100
AcDbEntity
8
0
100
AcDbSpline
70
0
71
3
72
9
73
5
74
0
42
0.000000001
43
0.0000000001
44
0.0000000001
40
0
40
0
40
0
40
0
40
0.036465943547769192
40
0.072593953477142759
40
0.072593953477142759
40
0.072593953477142759
40
0.072593953477142759
10
-37.467461878289051
20
24.91186274285019
30
0
10
-37.576682816475035
20
24.969151292661898
30
0
10
-37.794112531272269
20
25.083197493450765
30
0
10
-37.938875700468188
20
25.281456524932992
30
0
10
-38.010920340050525
20
25.380124580809479
30
0
0
SPLINE
5
476
100
AcDbEntity
8
0
100
AcDbSpline
70
0
71
3
72
9
73
5
74
0
42
0.000000001
43
0.0000000001
44
0.0000000001
40
0
40
0
40
0
40
0
40
0.035543017990538307
40
0.069693462348866406
40
0.069693462348866406
40
0.069693462348866406
40
0.069693462348866406
10
-38.010920340050525
20
25.380124580809479
30
0
10
-38.068235852040459
20
25.485526932030581
30
0
10
-38.180621257183596
20
25.692201975727357
30
0
10
-38.19862939047529
20
25.926629586976702
30
0
10
-38.207453543175525
20
26.0415012955159
30
0
0
SPLINE
5
477
100
AcDbEntity
8
0
100
AcDbSpline
70
0
71
3
72
9
73
5
74
0
42
0.000000001
43
0.0000000001
44
0.0000000001
40
0
40
0
40
0
40
0
40
0.031491999218710126
40
0.063584715259957042
40
0.063584715259957042
40
0.063584715259957042
40
0.063584715259957042
10
-38.207453543175525
20
26.0415012955159
30
0
10
-38.199919103489506
20
26.147469276664435
30
0
10
-38.184706503020692
20
26.361426601545826
30
0
10
-38.083976837797316
20
26.550866876941232
30
0
10
-38.033136183251209
20
26.64648188347519
30
0
0
SPLINE
5
478
100
AcDbEntity
8
0
100
AcDbSpline
70
0
71
3
72
9
73
5
74
0
42
0.000000001
43
0.0000000001
44
0.0000000001
40
0
40
0
40
0
40
0
40
0.033699423339019194
40
0.070481925812790225
40
0.070481925812790225
40
0.070481925812790225
40
0.070481925812790225
10
-38.033136183251209
20
26.64648188347519
30
0
10
-37.965246872127551
20
26.737635871544359
30
0
10
-37.823257220199018
20
26.928283306665065
30
0
10
-37.615297948931968
20
27.044065972516478
30
0
10
-37.506769949425525
20
27.104489636370545
30
0
0
SPLINE
5
479
100
AcDbEntity
8
0
100
AcDbSpline
70
0
71
3
72
9
73
5
74
0
42
0.000000001
43
0.0000000001
44
0.0000000001
40
0
40
0
40
0
40
0
40
0.044061539411496771
40
0.084485180174588781
40
0.084485180174588781
40
0.084485180174588781
40
0.084485180174588781
10
-37.506769949425525
20
27.104489636370545
30
0
10
-37.64759552287537
20
27.154273139886485
30
0
10
-37.917619541668408
20
27.249729819803775
30
0
10
-38.112499723202461
20
27.458966057254379
30
0
10
-38.205744081963367
20
27.559079360911255
30
0
0
SPLINE
5
480
100
AcDbEntity
8
0
100
AcDbSpline
70
0
71
3
72
9
73
5
74
0
42
0.000000001
43
0.0000000001
44
0.0000000001
40
0
40
0
40
0
40
0
40
0.039539126302256491
40
0.080838258979197775
40
0.080838258979197775
40
0.080838258979197775
40
0.080838258979197775
10
-38.205744081963367
20
27.559079360911255
30
0
10
-38.277013833537765
20
27.672542204125804
30
0
10
-38.42272576938359
20
27.904518465669316
30
0
10
-38.440862230375075
20
28.178099718032463
30
0
10
-38.450127893914051
20
28.317868542620545
30
0
0
SPLINE
5
481
100
AcDbEntity
8
0
100
AcDbSpline
70
0
71
3
72
9
73
5
74
0
42
0.000000001
43
0.0000000001
44
0.0000000001
40
0
40
0
40
0
40
0
40
0.034168834036084186
40
0.067573092211104552
40
0.067573092211104552
40
0.067573092211104552
40
0.067573092211104552
10
-38.450127893914051
20
28.317868542620545
30
0
10
-38.444218379679391
20
28.432569732470284
30
0
10
-38.43253158492719
20
28.659405511246192
30
0
10
-38.344811472403421
20
28.868865032219354
30
0
10
-38.301447683800525
20
28.972409796664124
30
0
0
SPLINE
5
482
100
AcDbEntity
8
0
100
AcDbSpline
70
0
71
3
72
9
73
5
74
0
42
0.000000001
43
0.0000000001
44
0.0000000001
40
0
40
0
40
0
40
0
40
0.031525140402800744
40
0.05980305334983136
40
0.05980305334983136
40
0.05980305334983136
40
0.05980305334983136
10
-38.301447683800525
20
28.972409796664124
30
0
10
-38.251156137467845
20
29.065780712759107
30
0
10
-38.155753294214783
20
29.242904931880894
30
0
10
-38.005203576028762
20
29.376019067292901
30
0
10
-37.934016043175525
20
29.438962173411255
30
0
0
SPLINE
5
483
100
AcDbEntity
8
0
100
AcDbSpline
70
0
71
3
72
9
73
5
74
0
42
0.000000001
43
0.0000000001
44
0.0000000001
40
0
40
0
40
0
40
0
40
0.028548935650338399
40
0.060489533941569827
40
0.060489533941569827
40
0.060489533941569827
40
0.060489533941569827
10
-37.934016043175525
20
29.438962173411255
30
0
10
-37.853687651474679
20
29.490982559939461
30
0
10
-37.683487717026225
20
29.60120344435672
30
0
10
-37.488429284642208
20
29.65719787951749
30
0
10
-37.385431581963367
20
29.686764907786255
30
0
0
SPLINE
5
484
100
AcDbEntity
8
0
100
AcDbSpline
70
0
71
3
72
9
73
5
74
0
42
0.000000001
43
0.0000000001
44
0.0000000001
40
0
40
0
40
0
40
0
40
0.037234002693902514
40
0.081418243340609181
40
0.081418243340609181
40
0.081418243340609181
40
0.081418243340609181
10
-37.385431581963367
20
29.686764907786255
30
0
10
-37.263471394892839
20
29.711142395572651
30
0
10
-36.996785476905274
20
29.764447764026912
30
0
10
-36.72472367183331
20
29.76837436465695
30
0
10
-36.577080542076892
20
29.770505261370545
30
0
0
LINE
5
485
100
AcDbEntity
8
0
100
AcDbLine
10
-36.577080542076892
20
29.770505261370541
30
0
11
-36.349999187514186
21
29.770505261370545
31
0
0
LINE
5
486
100
AcDbEntity
8
0
100
AcDbLine
10
-36.349999187514186
20
29.770505261370545
30
0
11
-36.349999187514186
21
29.179196786829831
31
0
0
LINE
5
487
100
AcDbEntity
8
0
100
AcDbLine
10
-36.349999187514186
20
29.179196786829831
30
0
11
-36.577080542076892
21
29.179196786829834
31
0
0
SPLINE
5
488
100
AcDbEntity
8
0
100
AcDbSpline
70
0
71
3
72
9
73
5
74
0
42
0.000000001
43
0.0000000001
44
0.0000000001
40
0
40
0
40
0
40
0
40
0.027350529524214288
40
0.045214276696904643
40
0.045214276696904643
40
0.045214276696904643
40
0.045214276696904643
10
-36.577080542076892
20
29.179196786829834
30
0
10
-36.668360050264745
20
29.179369892302375
30
0
10
-36.819257930918553
20
29.179656060024513
30
0
10
-36.969066377426252
20
29.162176787192948
30
0
10
-37.028254324425525
20
29.155270886370545
30
0
0
SPLINE
5
489
100
AcDbEntity
8
0
100
AcDbSpline
70
0
71
3
72
9
73
5
74
0
42
0.000000001
43
0.0000000001
44
0.0000000001
40
0
40
0
40
0
40
0
40
0.021720390890833965
40
0.040831050468221698
40
0.040831050468221698
40
0.040831050468221698
40
0.040831050468221698
10
-37.028254324425525
20
29.155270886370545
30
0
10
-37.099567069989966
20
29.140458992918852
30
0
10
-37.233624248233369
20
29.112614872981251
30
0
10
-37.354494128462647
20
29.048541286445122
30
0
10
-37.411066347588367
20
29.018552136370545
30
0
0
SPLINE
5
490
100
AcDbEntity
8
0
100
AcDbSpline
70
0
71
3
72
9
73
5
74
0
42
0.000000001
43
0.0000000001
44
0.0000000001
40
0
40
0
40
0
40
0
40
0.0182872709478294
40
0.037951084318883145
40
0.037951084318883145
40
0.037951084318883145
40
0.037951084318883145
10
-37.411066347588367
20
29.018552136370545
30
0
10
-37.46060808439109
20
28.981982242599567
30
0
10
-37.563420725821722
20
28.906089720090648
30
0
10
-37.629669317808172
20
28.796677715438399
30
0
10
-37.663995081414051
20
28.739987444826966
30
0
0
SPLINE
5
491
100
AcDbEntity
8
0
100
AcDbSpline
70
0
71
3
72
9
73
5
74
0
42
0.000000001
43
0.0000000001
44
0.0000000001
40
0
40
0
40
0
40
0
40
0.021052338107058376
40
0.043704133728382617
40
0.043704133728382617
40
0.043704133728382617
40
0.043704133728382617
10
-37.663995081414051
20
28.739987444826966
30
0
10
-37.692894853774405
20
28.675321344977718
30
0
10
-37.752890067110513
20
28.541076119524256
30
0
10
-37.75962625056146
20
28.394064482647359
30
0
10
-37.763117605675525
20
28.317868542620545
30
0
0
SPLINE
5
492
100
AcDbEntity
8
0
100
AcDbSpline
70
0
71
3
72
9
73
5
74
0
42
0.000000001
43
0.0000000001
44
0.0000000001
40
0
40
0
40
0
40
0
40
0.026434976871597609
40
0.051392651888996096
40
0.051392651888996096
40
0.051392651888996096
40
0.051392651888996096
10
-37.763117605675525
20
28.317868542620545
30
0
10
-37.757854378746522
20
28.228560358944797
30
0
10
-37.747622056974919
20
28.054934922585232
30
0
10
-37.661422075496191
20
27.904071427997394
30
0
10
-37.619561010826892
20
27.830807995745545
30
0
0
SPLINE
5
493
100
AcDbEntity
8
0
100
AcDbSpline
70
0
71
3
72
9
73
5
74
0
42
0.000000001
43
0.0000000001
44
0.0000000001
40
0
40
0
40
0
40
0
40
0.024563661891170999
40
0.049976132968862108
40
0.049976132968862108
40
0.049976132968862108
40
0.049976132968862108
10
-37.619561010826892
20
27.830807995745545
30
0
10
-37.566381749907642
20
27.766779575883504
30
0
10
-37.458185593053614
20
27.636510203222837
30
0
10
-37.301196384570105
20
27.572718322361119
30
0
10
-37.221368605126209
20
27.540280651995545
30
0
0
SPLINE
5
494
100
AcDbEntity
8
0
100
AcDbSpline
70
0
71
3
72
9
73
5
74
0
42
0.000000001
43
0.0000000001
44
0.0000000001
40
0
40
0
40
0
40
0
40
0.031689538110053088
40
0.073995815272336507
40
0.073995815272336507
40
0.073995815272336507
40
0.073995815272336507
10
-37.221368605126209
20
27.540280651995545
30
0
10
-37.118253125694352
20
27.51598194407282
30
0
10
-36.877476060996869
20
27.45924389075811
30
0
10
-36.629813229986397
20
27.457523762463929
30
0
10
-36.488214785088367
20
27.456540298411255
30
0
0
LINE
5
495
100
AcDbEntity
8
0
100
AcDbLine
10
-36.488214785088367
20
27.456540298411255
30
0
11
-36.349999187514186
21
27.456540298411252
31
0
0
LINE
5
496
100
AcDbEntity
8
0
100
AcDbLine
10
-36.349999187514186
20
27.456540298411252
30
0
11
-36.349999187514186
21
26.865231823870541
31
0
0
LINE
5
497
100
AcDbEntity
8
0
100
AcDbLine
10
-36.349999187514186
20
26.865231823870541
30
0
11
-36.413019949425525
21
26.865231823870545
31
0
0
SPLINE
5
498
100
AcDbEntity
8
0
100
AcDbSpline
70
0
71
3
72
9
73
5
74
0
42
0.000000001
43
0.0000000001
44
0.0000000001
40
0
40
0
40
0
40
0
40
0.037881817808821938
40
0.063631727475712663
40
0.063631727475712663
40
0.063631727475712663
40
0.063631727475712663
10
-36.413019949425525
20
26.865231823870545
30
0
10
-36.53971435232026
20
26.865309618697935
30
0
10
-36.752528419437652
20
26.86544029403354
30
0
10
-36.96098703039997
20
26.823926114954592
30
0
10
-37.045344168175525
20
26.807126533934479
30
0
0
SPLINE
5
499
100
AcDbEntity
8
0
100
AcDbSpline
70
0
71
3
72
9
73
5
74
0
42
0.000000001
43
0.0000000001
44
0.0000000001
40
0
40
0
40
0
40
0
40
0.0243234980526362
40
0.046177069559516511
40
0.046177069559516511
40
0.046177069559516511
40
0.046177069559516511
10
-37.045344168175525
20
26.807126533934479
30
0
10
-37.12315180987656
20
26.779635951860222
30
0
10
-37.270866126103421
20
26.727446315405491
30
0
10
-37.376469369898523
20
26.612169888000491
30
0
10
-37.426446730126209
20
26.557614636370545
30
0
0
SPLINE
5
500
100
AcDbEntity
8
0
100
AcDbSpline
70
0
71
3
72
9
73
5
74
0
42
0.000000001
43
0.0000000001
44
0.0000000001
40
0
40
0
40
0
40
0
40
0.021878379322334319
40
0.046187168449677532
40
0.046187168449677532
40
0.046187168449677532
40
0.046187168449677532
10
-37.426446730126209
20
26.557614636370545
30
0
10
-37.463802666166629
20
26.493709491278551
30
0
10
-37.542664307839182
20
26.358800151894719
30
0
10
-37.550497740716565
20
26.202419516962156
30
0
10
-37.554620558251209
20
26.120114755579834
30
0
0
SPLINE
5
501
100
AcDbEntity
8
0
100
AcDbSpline
70
0
71
3
72
9
73
5
74
0
42
0.000000001
43
0.0000000001
44
0.0000000001
40
0
40
0
40
0
40
0
40
0.023645724968014252
40
0.045991174896464877
40
0.045991174896464877
40
0.045991174896464877
40
0.045991174896464877
10
-37.554620558251209
20
26.120114755579834
30
0
10
-37.550224318347553
20
26.040386341683977
30
0
10
-37.541673587144793
20
25.885313767987796
30
0
10
-37.469875666921887
20
25.747745272387448
30
0
10
-37.434991652001209
20
25.68090571160019
30
0
0
SPLINE
5
502
100
AcDbEntity
8
0
100
AcDbSpline
70
0
71
3
72
9
73
5
74
0
42
0.000000001
43
0.0000000001
44
0.0000000001
40
0
40
0
40
0
40
0
40
0.021594999531010031
40
0.043645038912636797
40
0.043645038912636797
40
0.043645038912636797
40
0.043645038912636797
10
-37.434991652001209
20
25.68090571160019
30
0
10
-37.390463885495919
20
25.622539648005336
30
0
10
-37.300470083966758
20
25.504577658095737
30
0
10
-37.162765113167907
20
25.449145215503396
30
0
10
-37.093194777001209
20
25.421140026995545
30
0
0
SPLINE
5
503
100
AcDbEntity
8
0
100
AcDbSpline
70
0
71
3
72
9
73
5
74
0
42
0.000000001
43
0.0000000001
44
0.0000000001
40
0
40
0
40
0
40
0
40
0.030617880370042917
40
0.074813864926077056
40
0.074813864926077056
40
0.074813864926077056
40
0.074813864926077056
10
-37.093194777001209
20
25.421140026995545
30
0
10
-36.992937228943923
20
25.400901146814576
30
0
10
-36.747960941639704
20
25.351448055032431
30
0
10
-36.497834336212904
20
25.350747207946686
30
0
10
-36.349999187514186
20
25.35103252483125
30
0
0
LINE
5
504
100
AcDbEntity
8
0
100
AcDbLine
10
-36.349999187514186
20
25.351032524831254
30
0
11
-36.349999187514186
21
24.759763312289124
31
0
0
LWPOLYLINE
5
505
100
AcDbEntity
8
0
100
AcDbPolyline
90
12
70
1
43
0.0
10
-36.099999193102121
20
25.351071786829831
10
-36.099999193102121
20
24.759763312289124
10
-34.666436964501209
20
24.759763312289124
10
-34.666436964501209
20
29.770505261370545
10
-36.099999193102121
20
29.770505261370545
10
-36.099999193102121
20
29.179196786829831
10
-35.329521948326892
20
29.179196786829834
10
-35.329521948326892
20
27.456540298411255
10
-36.099999193102121
20
27.456540298411252
10
-36.099999193102121
20
26.865231823870541
10
-35.329521948326892
20
26.865231823870545
10
-35.329521948326892
20
25.351071786829834
0
LINE
5
506
100
AcDbEntity
8
0
100
AcDbLine
10
-74.599998332560062
20
9.9820071014314689
30
0
11
-74.599998332560062
21
9.3727335063154875
31
0
0
SPLINE
5
507
100
AcDbEntity
8
0
100
AcDbSpline
70
0
71
3
72
9
73
5
74
0
42
0.000000001
43
0.0000000001
44
0.0000000001
40
0.023614835697545699
40
0.023614835697545699
40
0.023614835697545699
40
0.023614835697545699
40
0.043509505662192659
40
0.083599894115890735
40
0.083599894115890735
40
0.083599894115890735
40
0.083599894115890735
10
-74.599998332560062
20
9.3727335063154875
30
0
10
-74.666049256400996
20
9.3793210630269019
30
0
10
-74.863013618988731
20
9.4085001935787496
30
0
10
-75.047823598521518
20
9.4894365815845596
30
0
10
-75.171339421710641
20
9.5435295727518366
30
0
0
SPLINE
5
508
100
AcDbEntity
8
0
100
AcDbSpline
70
0
71
3
72
9
73
5
74
0
42
0.000000001
43
0.0000000001
44
0.0000000001
40
0
40
0
40
0
40
0
40
0.038995179519074372
40
0.079144123017253917
40
0.079144123017253917
40
0.079144123017253917
40
0.079144123017253917
10
-75.171339421710641
20
9.5435295727518366
30
0
10
-75.282711956696687
20
9.6130423517667491
30
0
10
-75.508752244711431
20
9.7541246086374027
30
0
10
-75.665858160500605
20
9.9694523219078484
30
0
10
-75.745556264362008
20
10.078685703542547
30
0
0
SPLINE
5
509
100
AcDbEntity
8
0
100
AcDbSpline
70
0
71
3
72
9
73
5
74
0
42
0.000000001
43
0.0000000001
44
0.0000000001
40
0
40
0
40
0
40
0
40
0.043723252235655742
40
0.092578187578819665
40
0.092578187578819665
40
0.092578187578819665
40
0.092578187578819665
10
-75.745556264362008
20
10.078685703542547
30
0
10
-75.818050852746254
20
10.205756884515099
30
0
10
-75.971548528667384
20
10.474813256729457
30
0
10
-76.056302731146914
20
10.772928185613546
30
0
10
-76.101028829059274
20
10.930248024728613
30
0
0
SPLINE
5
510
100
AcDbEntity
8
0
100
AcDbSpline
70
0
71
3
72
9
73
5
74
0
42
0.000000001
43
0.0000000001
44
0.0000000001
40
0
40
0
40
0
40
0
40
0.059723254798806795
40
0.13620718597390064
40
0.13620718597390064
40
0.13620718597390064
40
0.13620718597390064
10
-76.101028829059274
20
10.930248024728613
30
0
10
-76.138481370876491
20
11.126162978944201
30
0
10
-76.223897099568418
20
11.572974270354997
30
0
10
-76.22776198360566
20
12.028163140491852
30
0
10
-76.229932218036325
20
12.283763709333257
30
0
0
SPLINE
5
511
100
AcDbEntity
8
0
100
AcDbSpline
70
0
71
3
72
9
73
5
74
0
42
0.000000001
43
0.0000000001
44
0.0000000001
40
0
40
0
40
0
40
0
40
0.091211437310190518
40
0.16450575655663285
40
0.16450575655663285
40
0.16450575655663285
40
0.16450575655663285
10
-76.229932218036325
20
12.283763709333257
30
0
10
-76.225751187475254
20
12.589089056832181
30
0
10
-76.218210427062758
20
13.139763169283817
30
0
10
-76.083100883650872
20
13.673094692789574
30
0
10
-76.022903829059274
20
13.910716595914678
30
0
0
SPLINE
5
512
100
AcDbEntity
8
0
100
AcDbSpline
70
0
71
3
72
9
73
5
74
0
42
0.000000001
43
0.0000000001
44
0.0000000001
40
0
40
0
40
0
40
0
40
0.060657457956885555
40
0.11514020292157662
40
0.11514020292157662
40
0.11514020292157662
40
0.11514020292157662
10
-76.022903829059274
20
13.910716595914678
30
0
10
-75.949396811635538
20
14.101944506777597
30
0
10
-75.809865529128672
20
14.464934008854581
30
0
10
-75.534200332154342
20
14.738364792516736
30
0
10
-75.403759389362008
20
14.867748441961126
30
0
0
SPLINE
5
513
100
AcDbEntity
8
0
100
AcDbSpline
70
0
71
3
72
9
73
5
74
0
42
0.000000001
43
0.0000000001
44
0.0000000001
40
0
40
0
40
0
40
0
40
0.05307206722090678
40
0.087753253347048768
40
0.087753253347048768
40
0.087753253347048768
40
0.087753253347048768
10
-75.403759389362008
20
14.867748441961126
30
0
10
-75.252999738079481
20
14.966245096245803
30
0
10
-75.003722659452777
20
15.129106697647208
30
0
10
-74.716088904438479
20
15.176944869967084
30
0
10
-74.599998332560048
20
15.188611733348779
30
0
0
LINE
5
514
100
AcDbEntity
8
0
100
AcDbLine
10
-74.599998332560062
20
15.188611733348775
30
0
11
-74.599998332560062
21
14.585795162434705
31
0
0
SPLINE
5
515
100
AcDbEntity
8
0
100
AcDbSpline
70
0
71
3
72
9
73
5
74
0
42
0.000000001
43
0.0000000001
44
0.0000000001
40
0.023491350650797851
40
0.023491350650797851
40
0.023491350650797851
40
0.023491350650797851
40
0.046094511215844257
40
0.097035726548678453
40
0.097035726548678453
40
0.097035726548678453
40
0.097035726548678453
10
-74.599998332560062
20
14.585795162434705
30
0
10
-74.673828680832273
20
14.568362752353853
30
0
10
-74.903424180057186
20
14.492614112906308
30
0
10
-75.065167023198981
20
14.295379884179141
30
0
10
-75.177199750384958
20
14.158763709333257
30
0
0
SPLINE
5
516
100
AcDbEntity
8
0
100
AcDbSpline
70
0
71
3
72
9
73
5
74
0
42
0.000000001
43
0.0000000001
44
0.0000000001
40
0
40
0
40
0
40
0
40
0.074543309233353228
40
0.19202096738546143
40
0.19202096738546143
40
0.19202096738546143
40
0.19202096738546143
10
-75.177199750384958
20
14.158763709333257
30
0
10
-75.272349176182303
20
13.927006947813084
30
0
10
-75.517450781888869
20
13.330009604887048
30
0
10
-75.511138063712707
20
12.680891539698999
30
0
10
-75.507275968036325
20
12.283763709333257
30
0
0
SPLINE
5
517
100
AcDbEntity
8
0
100
AcDbSpline
70
0
71
3
72
9
73
5
74
0
42
0.000000001
43
0.0000000001
44
0.0000000001
40
0
40
0
40
0
40
0
40
0.1179647717375053
40
0.19241581022676524
40
0.19241581022676524
40
0.19241581022676524
40
0.19241581022676524
10
-75.507275968036325
20
12.283763709333257
30
0
10
-75.511415551360017
20
11.884948061089393
30
0
10
-75.51816774752416
20
11.234428122317217
30
0
10
-75.272323673048092
20
10.636292757967812
30
0
10
-75.177199750384958
20
10.404857518937902
30
0
0
SPLINE
5
518
100
AcDbEntity
8
0
100
AcDbSpline
70
0
71
3
72
9
73
5
74
0
42
0.000000001
43
0.0000000001
44
0.0000000001
40
0
40
0
40
0
40
0
40
0.050881700864940399
40
0.073262908976160807
40
0.073262908976160807
40
0.073262908976160807
40
0.073262908976160807
10
-75.177199750384958
20
10.404857518937902
30
0
10
-75.064287049440921
20
10.269354763522681
30
0
10
-74.901707717561393
20
10.07424874569605
30
0
10
-74.673056418585034
20
9.9991309424492556
30
0
10
-74.599998332560062
20
9.9820071014314689
30
0
0
LINE
5
519
100
AcDbEntity
8
0
100
AcDbLine
10
-74.199998341500745
20
14.601585848949043
30
0
11
-74.199998341500759
21
15.190951623295387
31
0
0
SPLINE
5
520
100
AcDbEntity
8
0
100
AcDbSpline
70
0
71
3
72
9
73
5
74
0
42
0.000000001
43
0.0000000001
44
0.0000000001
40
0.015821074346585449
40
0.015821074346585449
40
0.015821074346585449
40
0.015821074346585449
40
0.075401502649960567
40
0.14706820211188473
40
0.14706820211188473
40
0.14706820211188473
40
0.14706820211188473
10
-74.199998341500745
20
15.190951623295387
30
0
10
-73.996582479084609
20
15.17061183491608
30
0
10
-73.55947076061112
20
15.102126234853452
30
0
10
-73.237677618576498
20
14.785034803802334
30
0
10
-73.061964421710641
20
14.611888947751837
30
0
0
SPLINE
5
521
100
AcDbEntity
8
0
100
AcDbSpline
70
0
71
3
72
9
73
5
74
0
42
0.000000001
43
0.0000000001
44
0.0000000001
40
0
40
0
40
0
40
0
40
0.10310341510237823
40
0.24269069639991075
40
0.24269069639991075
40
0.24269069639991075
40
0.24269069639991075
10
-73.061964421710641
20
14.611888947751837
30
0
10
-72.897689897229739
20
14.304845725528175
30
0
10
-72.511011156206067
20
13.582109884505449
30
0
10
-72.50120076746424
20
12.757849645088557
30
0
10
-72.495558171710641
20
12.283763709333257
30
0
0
SPLINE
5
522
100
AcDbEntity
8
0
100
AcDbSpline
70
0
71
3
72
9
73
5
74
0
42
0.000000001
43
0.0000000001
44
0.0000000001
40
0
40
0
40
0
40
0
40
0.091799197893655399
40
0.1653155917305765
40
0.1653155917305765
40
0.1653155917305765
40
0.1653155917305765
10
-72.495558171710641
20
12.283763709333257
30
0
10
-72.499695959163333
20
11.976446773542124
30
0
10
-72.507147448902828
20
11.423018396662481
30
0
10
-72.64378044495669
20
10.887254245196045
30
0
10
-72.704541593036325
20
10.648998143937902
30
0
0
SPLINE
5
523
100
AcDbEntity
8
0
100
AcDbSpline
70
0
71
3
72
9
73
5
74
0
42
0.000000001
43
0.0000000001
44
0.0000000001
40
0
40
0
40
0
40
0
40
0.060675807179694528
40
0.11508114846901096
40
0.11508114846901096
40
0.11508114846901096
40
0.11508114846901096
10
-72.704541593036325
20
10.648998143937902
30
0
10
-72.778546352227266
20
10.457894474253679
30
0
10
-72.918907940737256
20
10.095436506141757
30
0
10
-73.195076067099848
20
9.8228071117831703
30
0
10
-73.325636296710641
20
9.6939198401239679
30
0
0
SPLINE
5
524
100
AcDbEntity
8
0
100
AcDbSpline
70
0
71
3
72
9
73
5
74
0
42
0.000000001
43
0.0000000001
44
0.0000000001
40
0
40
0
40
0
40
0
40
0.052916697890420777
40
0.094687399600769634
40
0.094687399600769634
40
0.094687399600769634
40
0.094687399600769634
10
-73.325636296710641
20
9.6939198401239679
30
0
10
-73.476110705980602
20
9.5959901542188533
30
0
10
-73.74536466717332
20
9.4207579936392722
30
0
10
-74.059164532028177
20
9.3794784333603101
30
0
10
-74.199998341500773
20
9.3684946300704652
30
0
0
LINE
5
525
100
AcDbEntity
8
0
100
AcDbLine
10
-74.199998341500773
20
9.3684946300704652
30
0
11
-74.199998341500773
21
9.9599513196419274
31
0
0
SPLINE
5
526
100
AcDbEntity
8
0
100
AcDbSpline
70
0
71
3
72
9
73
5
74
0
42
0.000000001
43
0.0000000001
44
0.0000000001
40
0.015120652164214409
40
0.015120652164214409
40
0.015120652164214409
40
0.015120652164214409
40
0.044745521608457149
40
0.090439704019565692
40
0.090439704019565692
40
0.090439704019565692
40
0.090439704019565692
10
-74.199998341500773
20
9.9599513196419274
30
0
10
-74.100119688275015
20
9.9754495310147675
30
0
10
-73.855937481674189
20
10.033363307561942
30
0
10
-73.685125145473705
20
10.230544853675676
30
0
10
-73.581497579059274
20
10.350169959333257
30
0
0
SPLINE
5
527
100
AcDbEntity
8
0
100
AcDbSpline
70
0
71
3
72
9
73
5
74
0
42
0.000000001
43
0.0000000001
44
0.0000000001
40
0
40
0
40
0
40
0
40
0.079337033385932745
40
0.1985311945550505
40
0.1985311945550505
40
0.1985311945550505
40
0.1985311945550505
10
-73.581497579059274
20
10.350169959333257
30
0
10
-73.476555092717817
20
10.595482094338795
30
0
10
-73.21394939291055
20
11.209345622164314
30
0
10
-73.216614402949062
20
11.880697475122448
30
0
10
-73.218214421710641
20
12.283763709333257
30
0
0
SPLINE
5
528
100
AcDbEntity
8
0
100
AcDbSpline
70
0
71
3
72
9
73
5
74
0
42
0.000000001
43
0.0000000001
44
0.0000000001
40
0
40
0
40
0
40
0
40
0.11772123044788069
40
0.1922183374178347
40
0.1922183374178347
40
0.1922183374178347
40
0.1922183374178347
10
-73.218214421710641
20
12.283763709333257
30
0
10
-73.214215094081098
20
12.681735270181056
30
0
10
-73.207684886192396
20
13.331553756402306
30
0
10
-73.453155004128348
20
13.929120843558398
30
0
10
-73.548290639362008
20
14.160716953542547
30
0
0
SPLINE
5
529
100
AcDbEntity
8
0
100
AcDbSpline
70
0
71
3
72
9
73
5
74
0
42
0.000000001
43
0.0000000001
44
0.0000000001
40
0
40
0
40
0
40
0
40
0.050840256674568082
40
0.080936780551973342
40
0.080936780551973342
40
0.080936780551973342
40
0.080936780551973342
10
-73.548290639362008
20
14.160716953542547
30
0
10
-73.660406021626841
20
14.296767668396257
30
0
10
-73.838891707664033
20
14.513357976398421
30
0
10
-74.099254449604857
20
14.582815481677599
30
0
10
-74.199998341500745
20
14.601585848949043
30
0
0
LINE
5
530
100
AcDbEntity
8
0
100
AcDbLine
10
-42.999999038875103
20
24.759763312289124
30
0
11
-43.160089308251209
21
24.759763312289124
31
0
0
SPLINE
5
531
100
AcDbEntity
8
0
100
AcDbSpline
70
0
71
3
72
9
73
5
74
0
42
0.000000001
43
0.0000000001
44
0.0000000001
40
0
40
0
40
0
40
0
40
0.051878993527443372
40
0.093834340773762029
40
0.093834340773762029
40
0.093834340773762029
40
0.093834340773762029
10
-43.160089308251209
20
24.759763312289124
30
0
10
-43.334226528124795
20
24.76294422817341
30
0
10
-43.649191220382555
20
24.768697600102275
30
0
10
-43.947742656271245
20
24.867628579231894
30
0
10
-44.081231409539051
20
24.91186274285019
30
0
0
SPLINE
5
532
100
AcDbEntity
8
0
100
AcDbSpline
70
0
71
3
72
9
73
5
74
0
42
0.000000001
43
0.0000000001
44
0.0000000001
40
0
40
0
40
0
40
0
40
0.036465943547769192
40
0.072593953477142759
40
0.072593953477142759
40
0.072593953477142759
40
0.072593953477142759
10
-44.081231409539051
20
24.91186274285019
30
0
10
-44.190452347725035
20
24.969151292661902
30
0
10
-44.407882062522262
20
25.083197493450765
30
0
10
-44.552645231718188
20
25.281456524932992
30
0
10
-44.624689871300525
20
25.380124580809479
30
0
0
SPLINE
5
533
100
AcDbEntity
8
0
100
AcDbSpline
70
0
71
3
72
9
73
5
74
0
42
0.000000001
43
0.0000000001
44
0.0000000001
40
0
40
0
40
0
40
0
40
0.035543017990538307
40
0.069693462348866406
40
0.069693462348866406
40
0.069693462348866406
40
0.069693462348866406
10
-44.624689871300525
20
25.380124580809479
30
0
10
-44.682005383290459
20
25.485526932030581
30
0
10
-44.794390788433603
20
25.692201975727357
30
0
10
-44.812398921725283
20
25.926629586976702
30
0
10
-44.821223074425525
20
26.0415012955159
30
0
0
SPLINE
5
534
100
AcDbEntity
8
0
100
AcDbSpline
70
0
71
3
72
9
73
5
74
0
42
0.000000001
43
0.0000000001
44
0.0000000001
40
0
40
0
40
0
40
0
40
0.031491999218710126
40
0.063584715259957042
40
0.063584715259957042
40
0.063584715259957042
40
0.063584715259957042
10
-44.821223074425525
20
26.0415012955159
30
0
10
-44.81368863473952
20
26.147469276664435
30
0
10
-44.798476034270706
20
26.361426601545826
30
0
10
-44.697746369047316
20
26.550866876941232
30
0
10
-44.646905714501209
20
26.64648188347519
30
0
0
SPLINE
5
535
100
AcDbEntity
8
0
100
AcDbSpline
70
0
71
3
72
9
73
5
74
0
42
0.000000001
43
0.0000000001
44
0.0000000001
40
0
40
0
40
0
40
0
40
0.033699423339019194
40
0.070481925812790225
40
0.070481925812790225
40
0.070481925812790225
40
0.070481925812790225
10
-44.646905714501209
20
26.64648188347519
30
0
10
-44.579016403377551
20
26.737635871544359
30
0
10
-44.437026751449011
20
26.928283306665072
30
0
10
-44.229067480181968
20
27.044065972516478
30
0
10
-44.120539480675525
20
27.104489636370545
30
0
0
SPLINE
5
536
100
AcDbEntity
8
0
100
AcDbSpline
70
0
71
3
72
9
73
5
74
0
42
0.000000001
43
0.0000000001
44
0.0000000001
40
0
40
0
40
0
40
0
40
0.044061539411496771
40
0.084485180174588781
40
0.084485180174588781
40
0.084485180174588781
40
0.084485180174588781
10
-44.120539480675525
20
27.104489636370545
30
0
10
-44.261365054125378
20
27.154273139886485
30
0
10
-44.531389072918415
20
27.249729819803775
30
0
10
-44.726269254452461
20
27.458966057254383
30
0
10
-44.819513613213367
20
27.559079360911255
30
0
0
SPLINE
5
537
100
AcDbEntity
8
0
100
AcDbSpline
70
0
71
3
72
9
73
5
74
0
42
0.000000001
43
0.0000000001
44
0.0000000001
40
0
40
0
40
0
40
0
40
0.039539126302256491
40
0.080838258979197775
40
0.080838258979197775
40
0.080838258979197775
40
0.080838258979197775
10
-44.819513613213367
20
27.559079360911255
30
0
10
-44.890783364787765
20
27.672542204125811
30
0
10
-45.03649530063359
20
27.904518465669316
30
0
10
-45.054631761625075
20
28.178099718032463
30
0
10
-45.063897425164051
20
28.317868542620545
30
0
0
SPLINE
5
538
100
AcDbEntity
8
0
100
AcDbSpline
70
0
71
3
72
9
73
5
74
0
42
0.000000001
43
0.0000000001
44
0.0000000001
40
0
40
0
40
0
40
0
40
0.034168834036084186
40
0.067573092211104552
40
0.067573092211104552
40
0.067573092211104552
40
0.067573092211104552
10
-45.063897425164051
20
28.317868542620545
30
0
10
-45.057987910929391
20
28.432569732470284
30
0
10
-45.04630111617719
20
28.659405511246195
30
0
10
-44.958581003653421
20
28.868865032219357
30
0
10
-44.915217215050525
20
28.972409796664124
30
0
0
SPLINE
5
539
100
AcDbEntity
8
0
100
AcDbSpline
70
0
71
3
72
9
73
5
74
0
42
0.000000001
43
0.0000000001
44
0.0000000001
40
0
40
0
40
0
40
0
40
0.031525140402800744
40
0.05980305334983136
40
0.05980305334983136
40
0.05980305334983136
40
0.05980305334983136
10
-44.915217215050525
20
28.972409796664124
30
0
10
-44.864925668717845
20
29.065780712759107
30
0
10
-44.769522825464783
20
29.242904931880894
30
0
10
-44.618973107278762
20
29.376019067292901
30
0
10
-44.547785574425525
20
29.438962173411255
30
0
0
SPLINE
5
540
100
AcDbEntity
8
0
100
AcDbSpline
70
0
71
3
72
9
73
5
74
0
42
0.000000001
43
0.0000000001
44
0.0000000001
40
0
40
0
40
0
40
0
40
0.028548935650338399
40
0.060489533941569827
40
0.060489533941569827
40
0.060489533941569827
40
0.060489533941569827
10
-44.547785574425525
20
29.438962173411255
30
0
10
-44.467457182724672
20
29.490982559939461
30
0
10
-44.297257248276232
20
29.601203444356724
30
0
10
-44.102198815892208
20
29.65719787951749
30
0
10
-43.999201113213367
20
29.686764907786255
30
0
0
SPLINE
5
541
100
AcDbEntity
8
0
100
AcDbSpline
70
0
71
3
72
9
73
5
74
0
42
0.000000001
43
0.0000000001
44
0.0000000001
40
0
40
0
40
0
40
0
40
0.037234002693902514
40
0.081418243340609181
40
0.081418243340609181
40
0.081418243340609181
40
0.081418243340609181
10
-43.999201113213367
20
29.686764907786255
30
0
10
-43.877240926142846
20
29.711142395572651
30
0
10
-43.610555008155281
20
29.764447764026912
30
0
10
-43.33849320308331
20
29.768374364656953
30
0
10
-43.190850073326892
20
29.770505261370545
30
0
0
LINE
5
542
100
AcDbEntity
8
0
100
AcDbLine
10
-43.190850073326899
20
29.770505261370541
30
0
11
-42.999999038875103
21
29.770505261370541
31
0
0
LINE
5
543
100
AcDbEntity
8
0
100
AcDbLine
10
-42.999999038875103
20
29.770505261370541
30
0
11
-42.999999038875103
21
29.179196786829831
31
0
0
LINE
5
544
100
AcDbEntity
8
0
100
AcDbLine
10
-42.999999038875103
20
29.179196786829831
30
0
11
-43.190850073326892
21
29.179196786829834
31
0
0
SPLINE
5
545
100
AcDbEntity
8
0
100
AcDbSpline
70
0
71
3
72
9
73
5
74
0
42
0.000000001
43
0.0000000001
44
0.0000000001
40
0
40
0
40
0
40
0
40
0.027350529524214288
40
0.045214276696904643
40
0.045214276696904643
40
0.045214276696904643
40
0.045214276696904643
10
-43.190850073326892
20
29.179196786829834
30
0
10
-43.282129581514745
20
29.179369892302375
30
0
10
-43.43302746216856
20
29.179656060024513
30
0
10
-43.582835908676259
20
29.162176787192951
30
0
10
-43.642023855675525
20
29.155270886370545
30
0
0
SPLINE
5
546
100
AcDbEntity
8
0
100
AcDbSpline
70
0
71
3
72
9
73
5
74
0
42
0.000000001
43
0.0000000001
44
0.0000000001
40
0
40
0
40
0
40
0
40
0.021720390890833965
40
0.040831050468221698
40
0.040831050468221698
40
0.040831050468221698
40
0.040831050468221698
10
-43.642023855675525
20
29.155270886370545
30
0
10
-43.713336601239973
20
29.140458992918852
30
0
10
-43.847393779483362
20
29.112614872981251
30
0
10
-43.968263659712647
20
29.048541286445122
30
0
10
-44.024835878838367
20
29.018552136370545
30
0
0
SPLINE
5
547
100
AcDbEntity
8
0
100
AcDbSpline
70
0
71
3
72
9
73
5
74
0
42
0.000000001
43
0.0000000001
44
0.0000000001
40
0
40
0
40
0
40
0
40
0.0182872709478294
40
0.037951084318883145
40
0.037951084318883145
40
0.037951084318883145
40
0.037951084318883145
10
-44.024835878838367
20
29.018552136370545
30
0
10
-44.074377615641083
20
28.981982242599571
30
0
10
-44.177190257071715
20
28.906089720090648
30
0
10
-44.243438849058172
20
28.796677715438399
30
0
10
-44.277764612664051
20
28.739987444826966
30
0
0
SPLINE
5
548
100
AcDbEntity
8
0
100
AcDbSpline
70
0
71
3
72
9
73
5
74
0
42
0.000000001
43
0.0000000001
44
0.0000000001
40
0
40
0
40
0
40
0
40
0.021052338107058376
40
0.043704133728382617
40
0.043704133728382617
40
0.043704133728382617
40
0.043704133728382617
10
-44.277764612664051
20
28.739987444826966
30
0
10
-44.306664385024405
20
28.675321344977718
30
0
10
-44.366659598360499
20
28.541076119524256
30
0
10
-44.37339578181146
20
28.394064482647359
30
0
10
-44.376887136925525
20
28.317868542620545
30
0
0
SPLINE
5
549
100
AcDbEntity
8
0
100
AcDbSpline
70
0
71
3
72
9
73
5
74
0
42
0.000000001
43
0.0000000001
44
0.0000000001
40
0
40
0
40
0
40
0
40
0.026434976871597609
40
0.051392651888996096
40
0.051392651888996096
40
0.051392651888996096
40
0.051392651888996096
10
-44.376887136925525
20
28.317868542620545
30
0
10
-44.371623909996522
20
28.228560358944801
30
0
10
-44.361391588224919
20
28.054934922585232
30
0
10
-44.275191606746191
20
27.904071427997394
30
0
10
-44.233330542076892
20
27.830807995745545
30
0
0
SPLINE
5
550
100
AcDbEntity
8
0
100
AcDbSpline
70
0
71
3
72
9
73
5
74
0
42
0.000000001
43
0.0000000001
44
0.0000000001
40
0
40
0
40
0
40
0
40
0.024563661891170999
40
0.049976132968862108
40
0.049976132968862108
40
0.049976132968862108
40
0.049976132968862108
10
-44.233330542076892
20
27.830807995745545
30
0
10
-44.180151281157634
20
27.766779575883504
30
0
10
-44.071955124303621
20
27.636510203222837
30
0
10
-43.914965915820112
20
27.572718322361119
30
0
10
-43.835138136376209
20
27.540280651995545
30
0
0
SPLINE
5
551
100
AcDbEntity
8
0
100
AcDbSpline
70
0
71
3
72
9
73
5
74
0
42
0.000000001
43
0.0000000001
44
0.0000000001
40
0
40
0
40
0
40
0
40
0.031689538110053088
40
0.073995815272336507
40
0.073995815272336507
40
0.073995815272336507
40
0.073995815272336507
10
-43.835138136376209
20
27.540280651995545
30
0
10
-43.732022656944352
20
27.51598194407282
30
0
10
-43.491245592246855
20
27.45924389075811
30
0
10
-43.243582761236397
20
27.457523762463929
30
0
10
-43.101984316338367
20
27.456540298411255
30
0
0
LINE
5
552
100
AcDbEntity
8
0
100
AcDbLine
10
-43.10198431633836
20
27.456540298411255
30
0
11
-42.999999038875103
21
27.456540298411252
31
0
0
LINE
5
553
100
AcDbEntity
8
0
100
AcDbLine
10
-42.999999038875103
20
27.456540298411252
30
0
11
-42.999999038875103
21
26.865231823870541
31
0
0
LINE
5
554
100
AcDbEntity
8
0
100
AcDbLine
10
-42.999999038875103
20
26.865231823870541
30
0
11
-43.026789480675525
21
26.865231823870545
31
0
0
SPLINE
5
555
100
AcDbEntity
8
0
100
AcDbSpline
70
0
71
3
72
9
73
5
74
0
42
0.000000001
43
0.0000000001
44
0.0000000001
40
0
40
0
40
0
40
0
40
0.037881817808821938
40
0.063631727475712663
40
0.063631727475712663
40
0.063631727475712663
40
0.063631727475712663
10
-43.026789480675525
20
26.865231823870545
30
0
10
-43.15348388357026
20
26.865309618697935
30
0
10
-43.36629795068766
20
26.86544029403354
30
0
10
-43.574756561649977
20
26.823926114954592
30
0
10
-43.659113699425525
20
26.807126533934479
30
0
0
SPLINE
5
556
100
AcDbEntity
8
0
100
AcDbSpline
70
0
71
3
72
9
73
5
74
0
42
0.000000001
43
0.0000000001
44
0.0000000001
40
0
40
0
40
0
40
0
40
0.0243234980526362
40
0.046177069559516511
40
0.046177069559516511
40
0.046177069559516511
40
0.046177069559516511
10
-43.659113699425525
20
26.807126533934479
30
0
10
-43.736921341126575
20
26.779635951860222
30
0
10
-43.884635657353428
20
26.727446315405494
30
0
10
-43.99023890114853
20
26.612169888000491
30
0
10
-44.040216261376209
20
26.557614636370545
30
0
0
SPLINE
5
557
100
AcDbEntity
8
0
100
AcDbSpline
70
0
71
3
72
9
73
5
74
0
42
0.000000001
43
0.0000000001
44
0.0000000001
40
0
40
0
40
0
40
0
40
0.021878379322334319
40
0.046187168449677532
40
0.046187168449677532
40
0.046187168449677532
40
0.046187168449677532
10
-44.040216261376209
20
26.557614636370545
30
0
10
-44.077572197416629
20
26.493709491278551
30
0
10
-44.156433839089182
20
26.358800151894719
30
0
10
-44.164267271966573
20
26.202419516962156
30
0
10
-44.168390089501209
20
26.120114755579834
30
0
0
SPLINE
5
558
100
AcDbEntity
8
0
100
AcDbSpline
70
0
71
3
72
9
73
5
74
0
42
0.000000001
43
0.0000000001
44
0.0000000001
40
0
40
0
40
0
40
0
40
0.023645724968014252
40
0.045991174896464877
40
0.045991174896464877
40
0.045991174896464877
40
0.045991174896464877
10
-44.168390089501209
20
26.120114755579834
30
0
10
-44.16399384959756
20
26.040386341683977
30
0
10
-44.155443118394793
20
25.885313767987796
30
0
10
-44.083645198171894
20
25.747745272387448
30
0
10
-44.048761183251209
20
25.68090571160019
30
0
0
SPLINE
5
559
100
AcDbEntity
8
0
100
AcDbSpline
70
0
71
3
72
9
73
5
74
0
42
0.000000001
43
0.0000000001
44
0.0000000001
40
0
40
0
40
0
40
0
40
0.021594999531010031
40
0.043645038912636797
40
0.043645038912636797
40
0.043645038912636797
40
0.043645038912636797
10
-44.048761183251209
20
25.68090571160019
30
0
10
-44.004233416745919
20
25.622539648005336
30
0
10
-43.914239615216758
20
25.504577658095737
30
0
10
-43.776534644417907
20
25.449145215503396
30
0
10
-43.706964308251209
20
25.421140026995545
30
0
0
SPLINE
5
560
100
AcDbEntity
8
0
100
AcDbSpline
70
0
71
3
72
9
73
5
74
0
42
0.000000001
43
0.0000000001
44
0.0000000001
40
0
40
0
40
0
40
0
40
0.030617880370042917
40
0.071203217990181242
40
0.071203217990181242
40
0.071203217990181242
40
0.071203217990181242
10
-43.706964308251209
20
25.421140026995545
30
0
10
-43.606706760193923
20
25.400901146814576
30
0
10
-43.373553453589828
20
25.353834747051227
30
0
10
-43.135734959346017
20
25.350928409628128
30
0
10
-42.999999038875103
20
25.350985495191601
30
0
0
LINE
5
561
100
AcDbEntity
8
0
100
AcDbLine
10
-42.999999038875096
20
25.350985495191601
30
0
11
-42.999999038875103
21
24.759763312289124
31
0
0
LINE
5
562
100
AcDbEntity
8
0
100
AcDbLine
10
-27.299999396502969
20
27.712887954661252
30
0
11
-27.950130754937
21
27.712887954661252
31
0
0
LINE
5
563
100
AcDbEntity
8
0
100
AcDbLine
10
-27.950130754937
20
27.712887954661252
30
0
11
-27.427179867256946
21
26.325192880579831
31
0
0
SPLINE
5
564
100
AcDbEntity
8
0
100
AcDbSpline
70
0
71
3
72
9
73
5
74
0
42
0.000000001
43
0.0000000001
44
0.0000000001
40
0
40
0
40
0
40
0
40
0.061250579227354329
40
0.10984013079456126
40
0.10984013079456126
40
0.10984013079456126
40
0.10984013079456126
10
-27.427179867256946
20
26.325192880579831
30
0
10
-27.355522528153816
20
26.13394989456981
30
0
10
-27.22702004542198
20
25.790995511740039
30
0
10
-27.11934421108846
20
25.440969906268961
30
0
10
-27.071712070931262
20
25.286130440184479
30
0
0
SPLINE
5
565
100
AcDbEntity
8
0
100
AcDbSpline
70
0
71
3
72
9
73
5
74
0
42
0.000000001
43
0.0000000001
44
0.0000000001
40
0
40
0
40
0
40
0
40
0.049388528063716609
40
0.099514911348823828
40
0.099514911348823828
40
0.099514911348823828
40
0.099514911348823828
10
-27.071712070931262
20
25.286130440184479
30
0
10
-27.036322896599149
20
25.447068511653285
30
0
10
-26.96501584039725
20
25.771349038787182
30
0
10
-26.856401920971386
20
26.085115330985573
30
0
10
-26.801692301262683
20
26.243161690184476
30
0
0
LINE
5
566
100
AcDbEntity
8
0
100
AcDbLine
10
-26.801692301262683
20
26.243161690184476
30
0
11
-26.251399570931262
21
27.712887954661252
31
0
0
LINE
5
567
100
AcDbEntity
8
0
100
AcDbLine
10
-26.251399570931262
20
27.712887954661252
30
0
11
-26.999999396502972
21
27.712887954661252
31
0
0
LINE
5
568
100
AcDbEntity
8
0
100
AcDbLine
10
-26.999999396502972
20
27.712887954661252
30
0
11
-26.999999396502972
21
28.252927195975186
31
0
0
LINE
5
569
100
AcDbEntity
8
0
100
AcDbLine
10
-26.999999396502972
20
28.252927195975186
30
0
11
-26.059992367256946
21
28.25292719597519
31
0
0
LINE
5
570
100
AcDbEntity
8
0
100
AcDbLine
10
-26.059992367256946
20
28.25292719597519
30
0
11
-25.509699636925525
21
29.770505261370541
31
0
0
LINE
5
571
100
AcDbEntity
8
0
100
AcDbLine
10
-25.509699636925525
20
29.770505261370541
30
0
11
-24.805598312844104
21
29.770505261370541
31
0
0
LINE
5
572
100
AcDbEntity
8
0
100
AcDbLine
10
-24.805598312844104
20
29.770505261370541
30
0
11
-26.729915195931262
21
24.75976331228912
31
0
0
LINE
5
573
100
AcDbEntity
8
0
100
AcDbLine
10
-26.729915195931262
20
24.75976331228912
30
0
11
-27.444269711006946
21
24.75976331228912
31
0
0
LINE
5
574
100
AcDbEntity
8
0
100
AcDbLine
10
-27.444269711006946
20
24.75976331228912
30
0
11
-29.484471532557141
21
29.744653294768707
31
0
0
LINE
5
575
100
AcDbEntity
8
0
100
AcDbLine
10
-29.484471532557141
20
29.744653294768707
30
0
11
-31.398860270012683
21
24.75976331228912
31
0
0
LINE
5
576
100
AcDbEntity
8
0
100
AcDbLine
10
-31.398860270012683
20
24.75976331228912
30
0
11
-32.113214785088367
21
24.759763312289124
31
0
0
LINE
5
577
100
AcDbEntity
8
0
100
AcDbLine
10
-32.113214785088367
20
24.759763312289124
30
0
11
-34.163996035088367
21
29.770505261370545
31
0
0
LINE
5
578
100
AcDbEntity
8
0
100
AcDbLine
10
-34.163996035088367
20
29.770505261370545
30
0
11
-33.408626371849842
21
29.770505261370545
31
0
0
LINE
5
579
100
AcDbEntity
8
0
100
AcDbLine
10
-33.408626371849842
20
29.770505261370545
30
0
11
-32.824152761925525
21
28.25292719597519
31
0
0
LINE
5
580
100
AcDbEntity
8
0
100
AcDbLine
10
-32.824152761925525
20
28.25292719597519
30
0
11
-31.999999291449782
21
28.25292719597519
31
0
0
LINE
5
581
100
AcDbEntity
8
0
100
AcDbLine
10
-31.999999291449782
20
28.25292719597519
30
0
11
-31.999999291449782
21
27.712887954661252
31
0
0
LINE
5
582
100
AcDbEntity
8
0
100
AcDbLine
10
-31.999999291449782
20
27.712887954661252
30
0
11
-32.619074636925525
21
27.712887954661255
31
0
0
LINE
5
583
100
AcDbEntity
8
0
100
AcDbLine
10
-32.619074636925525
20
27.712887954661255
30
0
11
-32.096124941338367
21
26.325192880579834
31
0
0
SPLINE
5
584
100
AcDbEntity
8
0
100
AcDbSpline
70
0
71
3
72
9
73
5
74
0
42
0.000000001
43
0.0000000001
44
0.0000000001
40
0
40
0
40
0
40
0
40
0.061250619806081784
40
0.10984013531542122
40
0.10984013531542122
40
0.10984013531542122
40
0.10984013531542122
10
-32.096124941338367
20
26.325192880579834
30
0
10
-32.024466977261604
20
26.133949971237346
30
0
10
-31.895963453615018
20
25.790995938987571
30
0
10
-31.788288748385206
20
25.440969953220819
30
0
10
-31.740657145012683
20
25.286130440184479
30
0
0
SPLINE
5
585
100
AcDbEntity
8
0
100
AcDbSpline
70
0
71
3
72
9
73
5
74
0
42
0.000000001
43
0.0000000001
44
0.0000000001
40
0
40
0
40
0
40
0
40
0.049388528063716609
40
0.099514948130590419
40
0.099514948130590419
40
0.099514948130590419
40
0.099514948130590419
10
-31.740657145012683
20
25.286130440184479
30
0
10
-31.705268057452312
20
25.447068539847987
30
0
10
-31.633961149734475
20
25.771349243650043
30
0
10
-31.525346294338572
20
26.085115361334047
30
0
10
-31.470636183251209
20
26.243161690184479
30
0
0
LINE
5
586
100
AcDbEntity
8
0
100
AcDbLine
10
-31.470636183251205
20
26.243161690184479
30
0
11
-30.920344645012683
21
27.712887954661255
31
0
0
LINE
5
587
100
AcDbEntity
8
0
100
AcDbLine
10
-30.920344645012683
20
27.712887954661255
30
0
11
-31.699999291449785
21
27.712887954661252
31
0
0
LINE
5
588
100
AcDbEntity
8
0
100
AcDbLine
10
-31.699999291449785
20
27.712887954661252
30
0
11
-31.699999291449785
21
28.25292719597519
31
0
0
LINE
5
589
100
AcDbEntity
8
0
100
AcDbLine
10
-31.699999291449785
20
28.25292719597519
30
0
11
-30.728937441338367
21
28.25292719597519
31
0
0
LINE
5
590
100
AcDbEntity
8
0
100
AcDbLine
10
-30.728937441338367
20
28.25292719597519
30
0
11
-30.178645903099842
21
29.770505261370545
31
0
0
LINE
5
591
100
AcDbEntity
8
0
100
AcDbLine
10
-30.178645903099842
20
29.770505261370545
30
0
11
-28.739680105675525
21
29.770505261370541
31
0
0
LINE
5
592
100
AcDbEntity
8
0
100
AcDbLine
10
-28.739680105675525
20
29.770505261370541
30
0
11
-28.155208879937
21
28.252927195975186
31
0
0
LINE
5
593
100
AcDbEntity
8
0
100
AcDbLine
10
-28.155208879937
20
28.252927195975186
30
0
11
-27.299999396502969
21
28.252927195975186
31
0
0
LINE
5
594
100
AcDbEntity
8
0
100
AcDbLine
10
-27.299999396502969
20
28.252927195975186
30
0
11
-27.299999396502969
21
27.712887954661252
31
0
0
SPLINE
5
595
100
AcDbEntity
8
0
100
AcDbSpline
70
0
71
3
72
9
73
5
74
0
42
0.000000001
43
0.0000000001
44
0.0000000001
40
0.021969205846871676
40
0.021969205846871676
40
0.021969205846871676
40
0.021969205846871676
40
0.094979253938041727
40
0.18661699116996422
40
0.18661699116996422
40
0.18661699116996422
40
0.18661699116996422
10
-41.199999085813758
20
36.720015485244481
30
0
10
-41.445126822371662
20
36.736683251114542
30
0
10
-41.992680140052286
20
36.793862236934473
30
0
10
-42.489109098956149
20
37.042044666398958
30
0
10
-42.765405718440455
20
37.180175138134238
30
0
0
SPLINE
5
596
100
AcDbEntity
8
0
100
AcDbSpline
70
0
71
3
72
9
73
5
74
0
42
0.000000001
43
0.0000000001
44
0.0000000001
40
0
40
0
40
0
40
0
40
0.09018431261474795
40
0.18131178359718653
40
0.18131178359718653
40
0.18131178359718653
40
0.18131178359718653
10
-42.765405718440455
20
37.180175138134238
30
0
10
-43.015295133020324
20
37.354344418108909
30
0
10
-43.517687335676229
20
37.704504461296743
30
0
10
-43.824553436936107
20
38.234566330952489
30
0
10
-43.978784624690455
20
38.500975919384238
30
0
0
SPLINE
5
597
100
AcDbEntity
8
0
100
AcDbSpline
70
0
71
3
72
9
73
5
74
0
42
0.000000001
43
0.0000000001
44
0.0000000001
40
0
40
0
40
0
40
0
40
0.095662361338619731
40
0.19794187759588336
40
0.19794187759588336
40
0.19794187759588336
40
0.19794187759588336
10
-43.978784624690455
20
38.500975919384238
30
0
10
-44.10051213947024
20
38.798444083386386
30
0
10
-44.352387302213721
20
39.413956873198892
30
0
10
-44.38131679410872
20
40.078818653793547
30
0
10
-44.396265093440455
20
40.422362638134231
30
0
0
SPLINE
5
598
100
AcDbEntity
8
0
100
AcDbSpline
70
0
71
3
72
9
73
5
74
0
42
0.000000001
43
0.0000000001
44
0.0000000001
40
0
40
0
40
0
40
0
40
0.10373283485525323
40
0.20115236300809725
40
0.20115236300809725
40
0.20115236300809725
40
0.20115236300809725
10
-44.396265093440455
20
40.422362638134231
30
0
10
-44.380365032332485
20
40.77095007426496
30
0
10
-44.349532607205894
20
41.446909490494846
30
0
10
-44.08495082027828
20
42.069216897399038
30
0
10
-43.956811968440455
20
42.370604825634231
30
0
0
SPLINE
5
599
100
AcDbEntity
8
0
100
AcDbSpline
70
0
71
3
72
9
73
5
74
0
42
0.000000001
43
0.0000000001
44
0.0000000001
40
0
40
0
40
0
40
0
40
0.092303824176536653
40
0.18221266996431201
40
0.18221266996431201
40
0.18221266996431201
40
0.18221266996431201
10
-43.956811968440455
20
42.370604825634231
30
0
10
-43.796875398684733
20
42.638668229148287
30
0
10
-43.481152083208798
20
43.167839679083002
30
0
10
-42.96592318231739
20
43.505341490150506
30
0
10
-42.711694780940455
20
43.671874356884231
30
0
0
SPLINE
5
600
100
AcDbEntity
8
0
100
AcDbSpline
70
0
71
3
72
9
73
5
74
0
42
0.000000001
43
0.0000000001
44
0.0000000001
40
0
40
0
40
0
40
0
40
0.090060118656323837
40
0.15832946745225082
40
0.15832946745225082
40
0.15832946745225082
40
0.15832946745225082
10
-42.711694780940455
20
43.671874356884231
30
0
10
-42.437250932207533
20
43.800759708009323
30
0
10
-41.954767130678825
20
44.027345563219036
30
0
10
-41.428794552915747
20
44.08321548817586
30
0
10
-41.199999085813765
20
44.099439868086193
30
0
0
LINE
5
601
100
AcDbEntity
8
0
100
AcDbLine
10
-41.199999085813758
20
44.099439868086201
30
0
11
-41.199999085813765
21
43.281762325459667
31
0
0
SPLINE
5
602
100
AcDbEntity
8
0
100
AcDbSpline
70
0
71
3
72
9
73
5
74
0
42
0.000000001
43
0.0000000001
44
0.0000000001
40
0.022634758424865294
40
0.022634758424865294
40
0.022634758424865294
40
0.022634758424865294
40
0.099269380191896239
40
0.19597004625078479
40
0.19597004625078479
40
0.19597004625078479
40
0.19597004625078479
10
-41.199999085813772
20
43.281762325459667
30
0
10
-41.460086126765496
20
43.254894094565643
30
0
10
-42.035256673564078
20
43.163687879228888
30
0
10
-42.480430233952603
20
42.770577922705343
30
0
10
-42.728784624690455
20
42.551268888134231
30
0
0
SPLINE
5
603
100
AcDbEntity
8
0
100
AcDbSpline
70
0
71
3
72
9
73
5
74
0
42
0.000000001
43
0.0000000001
44
0.0000000001
40
0
40
0
40
0
40
0
40
0.10466952738995691
40
0.22831845397719019
40
0.22831845397719019
40
0.22831845397719019
40
0.22831845397719019
10
-42.728784624690455
20
42.551268888134231
30
0
10
-42.929935042001894
20
42.257831826559112
30
0
10
-43.368709854907188
20
41.617749675534995
30
0
10
-43.401788440790092
20
40.839144123948614
30
0
10
-43.419702593440455
20
40.417479825634231
30
0
0
SPLINE
5
604
100
AcDbEntity
8
0
100
AcDbSpline
70
0
71
3
72
9
73
5
74
0
42
0.000000001
43
0.0000000001
44
0.0000000001
40
0
40
0
40
0
40
0
40
0.082180659150849905
40
0.15630885523537802
40
0.15630885523537802
40
0.15630885523537802
40
0.15630885523537802
10
-43.419702593440455
20
40.417479825634231
30
0
10
-43.410136891673162
20
40.141652333953544
30
0
10
-43.391942782399539
20
39.617024277759526
30
0
10
-43.210391600315951
20
39.124958899995121
30
0
10
-43.124292437190455
20
38.891600919384231
30
0
0
SPLINE
5
605
100
AcDbEntity
8
0
100
AcDbSpline
70
0
71
3
72
9
73
5
74
0
42
0.000000001
43
0.0000000001
44
0.0000000001
40
0
40
0
40
0
40
0
40
0.068346294786530773
40
0.13446920392439315
40
0.13446920392439315
40
0.13446920392439315
40
0.13446920392439315
10
-43.124292437190455
20
38.891600919384231
30
0
10
-43.016043137556778
20
38.687551840606943
30
0
10
-42.803066015789199
20
38.286091640454337
30
0
10
-42.439038747955692
20
38.014439152290578
30
0
10
-42.260034624690455
20
37.880858731884231
30
0
0
SPLINE
5
606
100
AcDbEntity
8
0
100
AcDbSpline
70
0
71
3
72
9
73
5
74
0
42
0.000000001
43
0.0000000001
44
0.0000000001
40
0
40
0
40
0
40
0
40
0.066092986424862332
40
0.11252150148259907
40
0.11252150148259907
40
0.11252150148259907
40
0.11252150148259907
10
-42.260034624690455
20
37.880858731884231
30
0
10
-42.06305527982483
20
37.776188905242364
30
0
10
-41.727703333358662
20
37.597991388520114
30
0
10
-41.355542523775817
20
37.549771587127367
30
0
10
-41.199999085813765
20
37.536876741736933
30
0
0
LINE
5
607
100
AcDbEntity
8
0
100
AcDbLine
10
-41.199999085813765
20
37.536876741736933
30
0
11
-41.199999085813758
21
36.720015485244481
31
0
0
LINE
5
608
100
AcDbEntity
8
0
100
AcDbLine
10
-13.799999691545963
20
27.712887954661252
30
0
11
-13.799999691545963
21
28.252927195975186
31
0
0
LINE
5
609
100
AcDbEntity
8
0
100
AcDbLine
10
-13.799999691545963
20
28.252927195975186
30
0
11
-12.829036170471975
21
28.252927195975186
31
0
0
LINE
5
610
100
AcDbEntity
8
0
100
AcDbLine
10
-12.829036170471975
20
28.252927195975186
30
0
11
-12.27874314211733
21
29.770505261370541
31
0
0
LINE
5
611
100
AcDbEntity
8
0
100
AcDbLine
10
-12.27874314211733
20
29.770505261370541
30
0
11
-11.574641520012685
21
29.770505261370541
31
0
0
LINE
5
612
100
AcDbEntity
8
0
100
AcDbLine
10
-11.574641520012685
20
29.770505261370541
30
0
11
-13.498957807053396
21
24.75976331228912
31
0
0
LINE
5
613
100
AcDbEntity
8
0
100
AcDbLine
10
-13.498957807053396
20
24.75976331228912
30
0
11
-14.213312918175527
21
24.75976331228912
31
0
0
LINE
5
614
100
AcDbEntity
8
0
100
AcDbLine
10
-14.213312918175527
20
24.75976331228912
30
0
11
-16.264094168175525
21
29.770505261370541
31
0
0
LINE
5
615
100
AcDbEntity
8
0
100
AcDbLine
10
-16.264094168175525
20
29.770505261370541
30
0
11
-15.508723312844106
21
29.770505261370541
31
0
0
LINE
5
616
100
AcDbEntity
8
0
100
AcDbLine
10
-15.508723312844106
20
29.770505261370541
30
0
11
-14.924250895012685
21
28.252927195975186
31
0
0
LINE
5
617
100
AcDbEntity
8
0
100
AcDbLine
10
-14.924250895012685
20
28.252927195975186
30
0
11
-14.099999684840441
21
28.252927195975186
31
0
0
LINE
5
618
100
AcDbEntity
8
0
100
AcDbLine
10
-14.099999684840441
20
28.252927195975186
30
0
11
-14.099999684840441
21
27.712887954661252
31
0
0
LINE
5
619
100
AcDbEntity
8
0
100
AcDbLine
10
-14.099999684840441
20
27.712887954661252
30
0
11
-14.719172770012685
21
27.712887954661252
31
0
0
LINE
5
620
100
AcDbEntity
8
0
100
AcDbLine
10
-14.719172770012685
20
27.712887954661252
30
0
11
-14.196223074425527
21
26.325192880579831
31
0
0
SPLINE
5
621
100
AcDbEntity
8
0
100
AcDbSpline
70
0
71
3
72
9
73
5
74
0
42
0.000000001
43
0.0000000001
44
0.0000000001
40
0
40
0
40
0
40
0
40
0.061250579227354329
40
0.10984014882359465
40
0.10984014882359465
40
0.10984014882359465
40
0.10984014882359465
10
-14.196223074425527
20
26.325192880579831
30
0
10
-14.124565799118274
20
26.133949874316812
30
0
10
-13.996063409698799
20
25.790995398875374
30
0
10
-13.888387060032077
20
25.440969893865809
30
0
10
-13.840754682053396
20
25.286130440184476
30
0
0
SPLINE
5
622
100
AcDbEntity
8
0
100
AcDbSpline
70
0
71
3
72
9
73
5
74
0
42
0.000000001
43
0.0000000001
44
0.0000000001
40
0
40
0
40
0
40
0
40
0.049388514141934729
40
0.099514897427041948
40
0.099514897427041948
40
0.099514897427041948
40
0.099514897427041948
10
-13.840754682053396
20
25.286130440184476
30
0
10
-13.805365751717718
20
25.447068522484329
30
0
10
-13.73405917702938
20
25.771349117485592
30
0
10
-13.625445176597143
20
26.085115342643984
30
0
10
-13.570735508431264
20
26.243161690184476
30
0
0
LINE
5
623
100
AcDbEntity
8
0
100
AcDbLine
10
-13.570735508431266
20
26.243161690184476
30
0
11
-13.020442182053396
21
27.712887954661252
31
0
0
LINE
5
624
100
AcDbEntity
8
0
100
AcDbLine
10
-13.020442182053396
20
27.712887954661252
30
0
11
-13.799999691545963
21
27.712887954661252
31
0
0
LINE
5
625
100
AcDbEntity
8
0
100
AcDbLine
10
-47.599998936057091
20
37.624511075634231
30
0
11
-47.599998936057091
21
36.833495450634231
31
0
0
LINE
5
626
100
AcDbEntity
8
0
100
AcDbLine
10
-47.599998936057091
20
36.833495450634231
30
0
11
-48.805444780940455
21
36.833495450634238
31
0
0
SPLINE
5
627
100
AcDbEntity
8
0
100
AcDbSpline
70
0
71
3
72
9
73
5
74
0
42
0.000000001
43
0.0000000001
44
0.0000000001
40
0
40
0
40
0
40
0
40
0.084366417377672087
40
0.14732988342163039
40
0.14732988342163039
40
0.14732988342163039
40
0.14732988342163039
10
-48.805444780940455
20
36.833495450634238
30
0
10
-49.088228631755477
20
36.835671398776967
30
0
10
-49.582056781261834
20
36.839471277877742
30
0
10
-50.057384866094033
20
36.97040864654123
30
0
10
-50.260522905940455
20
37.026366544384238
30
0
0
SPLINE
5
628
100
AcDbEntity
8
0
100
AcDbSpline
70
0
71
3
72
9
73
5
74
0
42
0.000000001
43
0.0000000001
44
0.0000000001
40
0
40
0
40
0
40
0
40
0.052138636950395244
40
0.10624832538475472
40
0.10624832538475472
40
0.10624832538475472
40
0.10624832538475472
10
-50.260522905940455
20
37.026366544384238
30
0
10
-50.41907880167156
20
37.104428703036774
30
0
10
-50.742184647674733
20
37.263504085859722
30
0
10
-50.950388290912727
20
37.557694741282319
30
0
10
-51.056421343440455
20
37.707518888134238
30
0
0
SPLINE
5
629
100
AcDbEntity
8
0
100
AcDbSpline
70
0
71
3
72
9
73
5
74
0
42
0.000000001
43
0.0000000001
44
0.0000000001
40
0
40
0
40
0
40
0
40
0.056036788794322577
40
0.11304375542793882
40
0.11304375542793882
40
0.11304375542793882
40
0.11304375542793882
10
-51.056421343440455
20
37.707518888134238
30
0
10
-51.143292903174284
20
37.875383108970077
30
0
10
-51.318540049977045
20
38.214017822585056
30
0
10
-51.34229399927699
20
38.594663965440922
30
0
10
-51.354272905940455
20
38.786620450634238
30
0
0
SPLINE
5
630
100
AcDbEntity
8
0
100
AcDbSpline
70
0
71
3
72
9
73
5
74
0
42
0.000000001
43
0.0000000001
44
0.0000000001
40
0
40
0
40
0
40
0
40
0.071265020627614514
40
0.14024695314128743
40
0.14024695314128743
40
0.14024695314128743
40
0.14024695314128743
10
-51.354272905940455
20
38.786620450634238
30
0
10
-51.335095658054982
20
39.029087809566832
30
0
10
-51.297355535876036
20
39.506254700518852
30
0
10
-51.004937645102821
20
39.884671749806884
30
0
10
-50.861108843440455
20
40.070800138134231
30
0
0
SPLINE
5
631
100
AcDbEntity
8
0
100
AcDbSpline
70
0
71
3
72
9
73
5
74
0
42
0.000000001
43
0.0000000001
44
0.0000000001
40
0
40
0
40
0
40
0
40
0.075909284208297692
40
0.16858565715655371
40
0.16858565715655371
40
0.16858565715655371
40
0.16858565715655371
10
-50.861108843440455
20
40.070800138134231
30
0
10
-50.65995029451048
20
40.230721654484533
30
0
10
-50.213200644349598
20
40.585888670068648
30
0
10
-49.648244142655216
20
40.68201773365849
30
0
10
-49.337671343440455
20
40.734862638134231
30
0
0
SPLINE
5
632
100
AcDbEntity
8
0
100
AcDbSpline
70
0
71
3
72
9
73
5
74
0
42
0.000000001
43
0.0000000001
44
0.0000000001
40
0
40
0
40
0
40
0
40
0.03763449709342772
40
0.067494103234043187
40
0.067494103234043187
40
0.067494103234043187
40
0.067494103234043187
10
-49.337671343440455
20
40.734862638134231
30
0
10
-49.450517238207937
20
40.790620886750972
30
0
10
-49.652896253717742
20
40.89061831674038
30
0
10
-49.83042231241312
20
41.029753917787758
30
0
10
-49.908960405940455
20
41.091307950634231
30
0
0
SPLINE
5
633
100
AcDbEntity
8
0
100
AcDbSpline
70
0
71
3
72
9
73
5
74
0
42
0.000000001
43
0.0000000001
44
0.0000000001
40
0
40
0
40
0
40
0
40
0.058893327990548881
40
0.12371829592943009
40
0.12371829592943009
40
0.12371829592943009
40
0.12371829592943009
10
-49.908960405940455
20
41.091307950634231
30
0
10
-50.048161668978523
20
41.230377792081299
30
0
10
-50.340584319249821
20
41.522524362602283
30
0
10
-50.573205925558256
20
41.864349475690886
30
0
10
-50.695093218440455
20
42.043456388134231
30
0
0
LINE
5
634
100
AcDbEntity
8
0
100
AcDbLine
10
-50.695093218440455
20
42.043456388134224
30
0
11
-51.940210405940455
21
43.991698575634231
31
0
0
LINE
5
635
100
AcDbEntity
8
0
100
AcDbLine
10
-51.940210405940455
20
43.991698575634231
30
0
11
-50.748804155940455
21
43.991698575634231
31
0
0
LINE
5
636
100
AcDbEntity
8
0
100
AcDbLine
10
-50.748804155940455
20
43.991698575634231
30
0
11
-49.801538530940455
21
42.502440763134231
31
0
0
SPLINE
5
637
100
AcDbEntity
8
0
100
AcDbSpline
70
0
71
3
72
9
73
5
74
0
42
0.000000001
43
0.0000000001
44
0.0000000001
40
0
40
0
40
0
40
0
40
0.068321871687915148
40
0.12003475202243796
40
0.12003475202243796
40
0.12003475202243796
40
0.12003475202243796
10
-49.801538530940455
20
42.502440763134231
30
0
10
-49.677749300428189
20
42.311185434567321
30
0
10
-49.460263900504408
20
41.975168792014479
30
0
10
-49.22101640657683
20
41.654333559300099
30
0
10
-49.117944780940455
20
41.516112638134231
30
0
0
SPLINE
5
638
100
AcDbEntity
8
0
100
AcDbSpline
70
0
71
3
72
9
73
5
74
0
42
0.000000001
43
0.0000000001
44
0.0000000001
40
0
40
0
40
0
40
0
40
0.038624453127177744
40
0.068054856128901775
40
0.068054856128901775
40
0.068054856128901775
40
0.068054856128901775
10
-49.117944780940455
20
41.516112638134231
30
0
10
-49.037141541373607
20
41.415125989134211
30
0
10
-48.89476922543777
20
41.237191253177997
30
0
10
-48.71481092814102
20
41.097853701926951
30
0
10
-48.636987749690455
20
41.037597013134231
30
0
0
SPLINE
5
639
100
AcDbEntity
8
0
100
AcDbSpline
70
0
71
3
72
9
73
5
74
0
42
0.000000001
43
0.0000000001
44
0.0000000001
40
0
40
0
40
0
40
0
40
0.024360674658869392
40
0.047387436134399982
40
0.047387436134399982
40
0.047387436134399982
40
0.047387436134399982
10
-48.636987749690455
20
41.037597013134231
30
0
10
-48.566971861426509
20
40.995754978059566
30
0
10
-48.430773932593986
20
40.914362044875233
30
0
10
-48.278737308980588
20
40.869141257382331
30
0
10
-48.204858843440455
20
40.847167325634231
30
0
0
SPLINE
5
640
100
AcDbEntity
8
0
100
AcDbSpline
70
0
71
3
72
9
73
5
74
0
42
0.000000001
43
0.0000000001
44
0.0000000001
40
0
40
0
40
0
40
0
40
0.021394367679167768
40
0.05290009811992686
40
0.05290009811992686
40
0.05290009811992686
40
0.05290009811992686
10
-48.204858843440455
20
40.847167325634231
30
0
10
-48.134156650740117
20
40.837285613648461
30
0
10
-47.959337138089424
20
40.812851914953555
30
0
10
-47.782709361684503
20
40.812936977439151
30
0
10
-47.677515093440455
20
40.812987638134231
30
0
0
LINE
5
641
100
AcDbEntity
8
0
100
AcDbLine
10
-47.677515093440455
20
40.812987638134224
30
0
11
-47.599998936057091
21
40.812987638134231
31
0
0
LINE
5
642
100
AcDbEntity
8
0
100
AcDbLine
10
-47.599998936057091
20
40.812987638134231
30
0
11
-47.599998936057091
21
39.992675138134231
31
0
0
LINE
5
643
100
AcDbEntity
8
0
100
AcDbLine
10
-47.599998936057091
20
39.992675138134231
30
0
11
-48.615015093440455
21
39.992675138134238
31
0
0
SPLINE
5
644
100
AcDbEntity
8
0
100
AcDbSpline
70
0
71
3
72
9
73
5
74
0
42
0.000000001
43
0.0000000001
44
0.0000000001
40
0
40
0
40
0
40
0
40
0.057958625721645292
40
0.10280518023393662
40
0.10280518023393662
40
0.10280518023393662
40
0.10280518023393662
10
-48.615015093440455
20
39.992675138134238
30
0
10
-48.809185650147654
20
39.990560511641618
30
0
10
-49.153599252607371
20
39.986809653939346
30
0
10
-49.485747531834043
20
39.897400583409784
30
0
10
-49.630640093440455
20
39.858397794384238
30
0
0
SPLINE
5
645
100
AcDbEntity
8
0
100
AcDbSpline
70
0
71
3
72
9
73
5
74
0
42
0.000000001
43
0.0000000001
44
0.0000000001
40
0
40
0
40
0
40
0
40
0.03665058220300732
40
0.071294687449909855
40
0.071294687449909855
40
0.071294687449909855
40
0.071294687449909855
10
-49.630640093440455
20
39.858397794384238
30
0
10
-49.744429292104627
20
39.808379763628558
30
0
10
-49.965778172976492
20
39.711081994937366
30
0
10
-50.114844953390048
20
39.521051491255399
30
0
10
-50.187280718440455
20
39.428710294384238
30
0
0
SPLINE
5
646
100
AcDbEntity
8
0
100
AcDbSpline
70
0
71
3
72
9
73
5
74
0
42
0.000000001
43
0.0000000001
44
0.0000000001
40
0
40
0
40
0
40
0
40
0.033970931013851097
40
0.067694884683139833
40
0.067694884683139833
40
0.067694884683139833
40
0.067694884683139833
10
-50.187280718440455
20
39.428710294384238
30
0
10
-50.242822498624321
20
39.328316302363397
30
0
10
-50.353502256064871
20
39.128258208284088
30
0
10
-50.369660673384985
20
38.900222381969975
30
0
10
-50.377710405940455
20
38.786620450634238
30
0
0
SPLINE
5
647
100
AcDbEntity
8
0
100
AcDbSpline
70
0
71
3
72
9
73
5
74
0
42
0.000000001
43
0.0000000001
44
0.0000000001
40
0
40
0
40
0
40
0
40
0.047173700714918491
40
0.093548732972748239
40
0.093548732972748239
40
0.093548732972748239
40
0.093548732972748239
10
-50.377710405940455
20
38.786620450634238
30
0
10
-50.362881226099432
20
38.625351912961733
30
0
10
-50.333473929997396
20
38.305545174482553
30
0
10
-50.116579442205534
20
38.068948087620257
30
0
10
-50.009058062190455
20
37.951659513134238
30
0
0
SPLINE
5
648
100
AcDbEntity
8
0
100
AcDbSpline
70
0
71
3
72
9
73
5
74
0
42
0.000000001
43
0.0000000001
44
0.0000000001
40
0
40
0
40
0
40
0
40
0.053504025114018902
40
0.12289638106134912
40
0.12289638106134912
40
0.12289638106134912
40
0.12289638106134912
10
-50.009058062190455
20
37.951659513134238
30
0
10
-49.854622365156217
20
37.856644715046095
30
0
10
-49.499890394397951
20
37.638399923043558
30
0
10
-49.081019200454804
20
37.629523224853784
30
0
10
-48.844507280940455
20
37.624511075634238
30
0
0
LINE
5
649
100
AcDbEntity
8
0
100
AcDbLine
10
-48.844507280940455
20
37.624511075634231
30
0
11
-47.599998936057091
21
37.624511075634231
31
0
0
LWPOLYLINE
5
650
100
AcDbEntity
8
0
100
AcDbPolyline
90
10
70
1
43
0.0
10
-47.299998942762613
20
40.812987638134231
10
-47.299998942762613
20
39.992675138134231
10
-46.578882280940455
20
39.992675138134238
10
-46.578882280940455
20
37.624511075634238
10
-47.299998942762613
20
37.624511075634231
10
-47.299998942762613
20
36.833495450634231
10
-45.631616655940455
20
36.833495450634231
10
-45.631616655940455
20
43.991698575634231
10
-46.578882280940455
20
43.991698575634231
10
-46.578882280940455
20
40.812987638134231
0
ENDSEC
0
SECTION
2
OBJECTS
0
DICTIONARY
5
C
100
AcDbDictionary
3
ACAD_GROUP
350
D
3
ACAD_MLINESTYLE
350
17
0
DICTIONARY
5
D
100
AcDbDictionary
0
DICTIONARY
5
1A
330
C
100
AcDbDictionary
0
DICTIONARY
5
17
100
AcDbDictionary
0
ENDSEC
0
EOF
