0
SECTION
2
HEADER
9
$INSUNITS
70
4
9
$ACADVER
1
AC1014
9
$HANDSEED
5
FFFF
0
ENDSEC
0
SECTION
2
TABLES
0
TABLE
2
VPORT
5
8
100
AcDbSymbolTable
0
ENDTAB
0
TABLE
2
LTYPE
5
5
100
AcDbSymbolTable
0
LTYPE
5
14
100
AcDbSymbolTableRecord
100
AcDbLinetypeTableRecord
2
BYBLOCK
70
0
0
LTYPE
5
15
100
AcDbSymbolTableRecord
100
AcDbLinetypeTableRecord
2
BYLAYER
70
0
0
ENDTAB
0
TABLE
2
LAYER
5
2
100
AcDbSymbolTable
70
2
0
LAYER
5
50
100
AcDbSymbolTableRecord
100
AcDbLayerTableRecord
2
0
70
0
6
CONTINUOUS
0
ENDTAB
0
TABLE
2
STYLE
5
3
100
AcDbSymbolTable
70
1
0
STYLE
5
11
100
AcDbSymbolTableRecord
100
AcDbTextStyleTableRecord
2
STANDARD
70
0
0
ENDTAB
0
TABLE
2
VIEW
5
6
100
AcDbSymbolTable
70
0
0
ENDTAB
0
TABLE
2
UCS
5
7
100
AcDbSymbolTable
70
0
0
ENDTAB
0
TABLE
2
APPID
5
9
100
AcDbSymbolTable
70
2
0
APPID
5
12
100
AcDbSymbolTableRecord
100
AcDbRegAppTableRecord
2
ACAD
70
0
0
ENDTAB
0
TABLE
2
DIMSTYLE
5
A
100
AcDbSymbolTable
70
1
0
ENDTAB
0
TABLE
2
BLOCK_RECORD
5
1
100
AcDbSymbolTable
70
1
0
BLOCK_RECORD
5
1F
100
AcDbSymbolTableRecord
100
AcDbBlockTableRecord
2
*MODEL_SPACE
0
BLOCK_RECORD
5
1B
100
AcDbSymbolTableRecord
100
AcDbBlockTableRecord
2
*PAPER_SPACE
0
ENDTAB
0
ENDSEC
0
SECTION
2
BLOCKS
0
BLOCK
5
20
100
AcDbEntity
100
AcDbBlockBegin
2
*MODEL_SPACE
0
ENDBLK
5
21
100
AcDbEntity
100
AcDbBlockEnd
0
BLOCK
5
1C
100
AcDbEntity
100
AcDbBlockBegin
2
*PAPER_SPACE
0
ENDBLK
5
1D
100
AcDbEntity
100
AcDbBlockEnd
0
ENDSEC
0
SECTION
2
ENTITIES
0
LWPOLYLINE
5
100
100
AcDbEntity
8
0
100
AcDbPolyline
90
4
70
1
43
0.0
10
-12.649999999999997
20
7.249999999999992
10
-12.649999999999997
20
28.249999999999989
10
-54.349999999999994
20
28.249999999999986
10
-54.349999999999994
20
7.2499999999999893
0
CIRCLE
5
101
100
AcDbEntity
8
0
100
AcDbCircle
10
-8.9999999999999947
20
22.699999999999996
30
0
40
2.1499999999999986
210
0
220
-0
230
1
0
CIRCLE
5
102
100
AcDbEntity
8
0
100
AcDbCircle
10
-58
20
22.699999999999989
30
0
40
2.1500000000000075
210
0
220
-0
230
1
0
CIRCLE
5
103
100
AcDbEntity
8
0
100
AcDbCircle
10
-8.9999999999999947
20
12.799999999999997
30
0
40
2.1500000000000026
210
0
220
-0
230
1
0
CIRCLE
5
104
100
AcDbEntity
8
0
100
AcDbCircle
10
-58
20
12.799999999999997
30
0
40
2.1500000000000075
210
0
220
-0
230
1
0
SPLINE
5
105
100
AcDbEntity
8
0
100
AcDbSpline
70
0
71
3
72
9
73
5
74
0
42
0.000000001
43
0.0000000001
44
0.0000000001
40
0
40
0
40
0
40
0
40
0.045850625296429783
40
0.10673935351410424
40
0.10673935351410424
40
0.10673935351410424
40
0.10673935351410424
10
-89.28495112422786
20
32.373225245598064
30
0
10
-89.420818218093473
20
32.302057358909707
30
0
10
-89.73711413923516
20
32.136379919028158
30
0
10
-90.084829356557918
20
32.053008775932987
30
0
10
-90.28318110469661
20
32.005450282219158
30
0
0
SPLINE
5
106
100
AcDbEntity
8
0
100
AcDbSpline
70
0
71
3
72
9
73
5
74
0
42
0.000000001
43
0.0000000001
44
0.0000000001
40
0
40
0
40
0
40
0
40
0.079119711228122572
40
0.1791273286939031
40
0.1791273286939031
40
0.1791273286939031
40
0.1791273286939031
10
-90.28318110469661
20
32.005450282219158
30
0
10
-90.541900301797483
20
31.953649171572025
30
0
10
-91.127641553113364
20
31.836371259032063
30
0
10
-91.721496230485897
20
31.770870806612823
30
0
10
-92.053048048055985
20
31.734301600578533
30
0
0
LINE
5
107
100
AcDbEntity
8
0
100
AcDbLine
10
-92.053048048055985
20
31.734301600578533
30
0
11
-92.04892817500911
21
31.29904464257072
31
0
0
SPLINE
5
108
100
AcDbEntity
8
0
100
AcDbSpline
70
0
71
3
72
9
73
5
74
0
42
0.000000001
43
0.0000000001
44
0.0000000001
40
0
40
0
40
0
40
0
40
0.04183138462201532
40
0.075620083955939887
40
0.075620083955939887
40
0.075620083955939887
40
0.075620083955939887
10
-92.04892817500911
20
31.29904464257072
30
0
10
-92.043413644806236
20
31.154456268106408
30
0
10
-92.033444832138713
20
30.893078713553983
30
0
10
-91.860691491658599
20
30.69950322683329
30
0
10
-91.783501539266922
20
30.61300948632072
30
0
0
SPLINE
5
109
100
AcDbEntity
8
0
100
AcDbSpline
70
0
71
3
72
9
73
5
74
0
42
0.000000001
43
0.0000000001
44
0.0000000001
40
0
40
0
40
0
40
0
40
0.036003412797974955
40
0.081080328653633252
40
0.081080328653633252
40
0.081080328653633252
40
0.081080328653633252
10
-91.783501539266922
20
30.61300948632072
30
0
10
-91.67708157722214
20
30.553986395838276
30
0
10
-91.437421922002329
20
30.421065341900327
30
0
10
-91.162301253834457
20
30.413948135630555
30
0
10
-91.009346876180985
20
30.409991297844158
30
0
0
SPLINE
5
110
100
AcDbEntity
8
0
100
AcDbSpline
70
0
71
3
72
9
73
5
74
0
42
0.000000001
43
0.0000000001
44
0.0000000001
40
0
40
0
40
0
40
0
40
0.023525530810364532
40
0.0439183867042389
40
0.0439183867042389
40
0.0439183867042389
40
0.0439183867042389
10
-91.009346876180985
20
30.409991297844158
30
0
10
-90.930631476936099
20
30.411646119784159
30
0
10
-90.783682471981336
20
30.414735406503052
30
0
10
-90.641410611052436
20
30.451275070423364
30
0
10
-90.575348768270828
20
30.468241725090252
30
0
0
SPLINE
5
111
100
AcDbEntity
8
0
100
AcDbSpline
70
0
71
3
72
9
73
5
74
0
42
0.000000001
43
0.0000000001
44
0.0000000001
40
0
40
0
40
0
40
0
40
0.017669752780478228
40
0.033080131766100175
40
0.033080131766100175
40
0.033080131766100175
40
0.033080131766100175
10
-90.575348768270828
20
30.468241725090252
30
0
10
-90.51939963012579
20
30.488081008637668
30
0
10
-90.41465538808508
20
30.525222791097605
30
0
10
-90.327227958390196
20
30.59362048261027
30
0
10
-90.286499891317703
20
30.625483546379314
30
0
0
SPLINE
5
112
100
AcDbEntity
8
0
100
AcDbSpline
70
0
71
3
72
9
73
5
74
0
42
0.000000001
43
0.0000000001
44
0.0000000001
40
0
40
0
40
0
40
0
40
0.014242926207637497
40
0.028275968751019454
40
0.028275968751019454
40
0.028275968751019454
40
0.028275968751019454
10
-90.286499891317703
20
30.625483546379314
30
0
10
-90.25302720331365
20
30.659683816821254
30
0
10
-90.186575080609558
20
30.727580382751221
30
0
10
-90.146305893770048
20
30.813613578692198
30
0
10
-90.12632075313411
20
30.856310877922283
30
0
0
SPLINE
5
113
100
AcDbEntity
8
0
100
AcDbSpline
70
0
71
3
72
9
73
5
74
0
42
0.000000001
43
0.0000000001
44
0.0000000001
40
0
40
0
40
0
40
0
40
0.012545360568966385
40
0.040156890000484981
40
0.040156890000484981
40
0.040156890000484981
40
0.040156890000484981
10
-90.12632075313411
20
30.856310877922283
30
0
10
-90.113539810067465
20
30.896136066266912
30
0
10
-90.072628835687112
20
31.023613925417472
30
0
10
-90.040564540086777
20
31.153640050406569
30
0
10
-90.018517408407547
20
31.243044886711345
30
0
0
SPLINE
5
114
100
AcDbEntity
8
0
100
AcDbSpline
70
0
71
3
72
9
73
5
74
0
42
0.000000001
43
0.0000000001
44
0.0000000001
40
0
40
0
40
0
40
0
40
0.042795733659823344
40
0.079356417400450296
40
0.079356417400450296
40
0.079356417400450296
40
0.079356417400450296
10
-90.018517408407547
20
31.243044886711345
30
0
10
-89.970199268837774
20
31.390007168722782
30
0
10
-89.880602616933373
20
31.662520318891548
30
0
10
-89.603554886285053
20
31.720958556274578
30
0
10
-89.475914869345047
20
31.747881922844158
30
0
0
SPLINE
5
115
100
AcDbEntity
8
0
100
AcDbSpline
70
0
71
3
72
9
73
5
74
0
42
0.000000001
43
0.0000000001
44
0.0000000001
40
0
40
0
40
0
40
0
40
0.021643660188787293
40
0.041970703033012993
40
0.041970703033012993
40
0.041970703033012993
40
0.041970703033012993
10
-89.475914869345047
20
31.747881922844158
30
0
10
-89.401879183807992
20
31.742255722713672
30
0
10
-89.258311518061163
20
31.731345572913618
30
0
10
-89.149300671935109
20
31.637732891918766
30
0
10
-89.096505079305985
20
31.592394862297283
30
0
0
SPLINE
5
116
100
AcDbEntity
8
0
100
AcDbSpline
70
0
71
3
72
9
73
5
74
0
42
0.000000001
43
0.0000000001
44
0.0000000001
40
0
40
0
40
0
40
0
40
0.021022381395126886
40
0.044405892920250191
40
0.044405892920250191
40
0.044405892920250191
40
0.044405892920250191
10
-89.096505079305985
20
31.592394862297283
30
0
10
-89.054747123410152
20
31.534302210655461
30
0
10
-88.9665411640934
20
31.411592227434525
30
0
10
-88.957818356436675
20
31.260303127395193
30
0
10
-88.95322505000911
20
31.18063643944572
30
0
0
SPLINE
5
117
100
AcDbEntity
8
0
100
AcDbSpline
70
0
71
3
72
9
73
5
74
0
42
0.000000001
43
0.0000000001
44
0.0000000001
40
0
40
0
40
0
40
0
40
0.035011698057437292
40
0.073324451767332738
40
0.073324451767332738
40
0.073324451767332738
40
0.073324451767332738
10
-88.95322505000911
20
31.18063643944572
30
0
10
-88.965515929666083
20
31.062658741921251
30
0
10
-88.991256526740429
20
30.815579894800983
30
0
10
-89.132093170855285
20
30.610395325648255
30
0
10
-89.205681715048172
20
30.503184352043377
30
0
0
SPLINE
5
118
100
AcDbEntity
8
0
100
AcDbSpline
70
0
71
3
72
9
73
5
74
0
42
0.000000001
43
0.0000000001
44
0.0000000001
40
0
40
0
40
0
40
0
40
0.043317529810144112
40
0.093300137069566191
40
0.093300137069566191
40
0.093300137069566191
40
0.093300137069566191
10
-89.205681715048172
20
30.503184352043377
30
0
10
-89.305521241630061
20
30.39694382967269
30
0
10
-89.520562162843191
20
30.168116023863544
30
0
10
-89.806930477792434
20
30.03792096114616
30
0
10
-89.960343275106766
20
29.96817306053947
30
0
0
SPLINE
5
119
100
AcDbEntity
8
0
100
AcDbSpline
70
0
71
3
72
9
73
5
74
0
42
0.000000001
43
0.0000000001
44
0.0000000001
40
0
40
0
40
0
40
0
40
0.056735039109996638
40
0.12017723628342585
40
0.12017723628342585
40
0.12017723628342585
40
0.12017723628342585
10
-89.960343275106766
20
29.96817306053947
30
0
10
-90.140635194799827
20
29.90767531506043
30
0
10
-90.522532959793637
20
29.779527842755815
30
0
10
-90.925486205265287
20
29.767124843891537
30
0
10
-91.138207349813797
20
29.760577235344158
30
0
0
SPLINE
5
120
100
AcDbEntity
8
0
100
AcDbSpline
70
0
71
3
72
9
73
5
74
0
42
0.000000001
43
0.0000000001
44
0.0000000001
40
0
40
0
40
0
40
0
40
0.059164499972679252
40
0.11187081312118508
40
0.11187081312118508
40
0.11187081312118508
40
0.11187081312118508
10
-91.138207349813797
20
29.760577235344158
30
0
10
-91.336695873718824
20
29.76683096833716
30
0
10
-91.71200661875568
20
29.778655799026055
30
0
10
-92.066037981695374
20
29.90278621230615
30
0
10
-92.232834730184891
20
29.961268458488689
30
0
0
SPLINE
5
121
100
AcDbEntity
8
0
100
AcDbSpline
70
0
71
3
72
9
73
5
74
0
42
0.000000001
43
0.0000000001
44
0.0000000001
40
0
40
0
40
0
40
0
40
0.047119714528533183
40
0.090811781865413305
40
0.090811781865413305
40
0.090811781865413305
40
0.090811781865413305
10
-92.232834730184891
20
29.961268458488689
30
0
10
-92.375515136225602
20
30.033046819962969
30
0
10
-92.650496893638206
20
30.171382142451218
30
0
10
-92.829966319889479
20
30.420925682562938
30
0
10
-92.916314039266922
20
30.54098800194572
30
0
0
SPLINE
5
122
100
AcDbEntity
8
0
100
AcDbSpline
70
0
71
3
72
9
73
5
74
0
42
0.000000001
43
0.0000000001
44
0.0000000001
40
0
40
0
40
0
40
0
40
0.03872852165702325
40
0.095813063360597153
40
0.095813063360597153
40
0.095813063360597153
40
0.095813063360597153
10
-92.916314039266922
20
30.54098800194572
30
0
10
-92.96199318469678
20
30.662702322060756
30
0
10
-93.075001858100052
20
30.963819466896545
30
0
10
-93.074573820734003
20
31.28676604638806
30
0
10
-93.07431880000911
20
31.479174647453533
30
0
0
LINE
5
123
100
AcDbEntity
8
0
100
AcDbLine
10
-93.07431880000911
20
31.479174647453533
30
0
11
-93.07431880000911
21
33.320147547844158
31
0
0
SPLINE
5
124
100
AcDbEntity
8
0
100
AcDbSpline
70
0
71
3
72
9
73
5
74
0
42
0.000000001
43
0.0000000001
44
0.0000000001
40
0
40
0
40
0
40
0
40
0.032017783824844201
40
0.050176481691429402
40
0.050176481691429402
40
0.050176481691429402
40
0.050176481691429402
10
-93.07431880000911
20
33.320147547844158
30
0
10
-93.073634455515901
20
33.42699664555775
30
0
10
-93.072561989066585
20
33.594444580883348
30
0
10
-93.090209909668147
20
33.760866182006929
30
0
10
-93.09659663204036
20
33.821093592766033
30
0
0
SPLINE
5
125
100
AcDbEntity
8
0
100
AcDbSpline
70
0
71
3
72
9
73
5
74
0
42
0.000000001
43
0.0000000001
44
0.0000000001
40
0
40
0
40
0
40
0
40
0.015228719169595248
40
0.028715624915542477
40
0.028715624915542477
40
0.028715624915542477
40
0.028715624915542477
10
-93.09659663204036
20
33.821093592766033
30
0
10
-93.111844684833045
20
33.870489823941647
30
0
10
-93.140596765675241
20
33.963632499361928
30
0
10
-93.210018054374558
20
34.03172652654667
30
0
10
-93.242623243368485
20
34.063708338859783
30
0
0
SPLINE
5
126
100
AcDbEntity
8
0
100
AcDbSpline
70
0
71
3
72
9
73
5
74
0
42
0.000000001
43
0.0000000001
44
0.0000000001
40
0
40
0
40
0
40
0
40
0.013695643643736757
40
0.029644403065095047
40
0.029644403065095047
40
0.029644403065095047
40
0.029644403065095047
10
-93.242623243368485
20
34.063708338859783
30
0
10
-93.282433827861666
20
34.087481885167023
30
0
10
-93.368604368193473
20
34.138940042764517
30
0
10
-93.469192183874483
20
34.143103116671483
30
0
10
-93.523308668173172
20
34.145342860344158
30
0
0
SPLINE
5
127
100
AcDbEntity
8
0
100
AcDbSpline
70
0
71
3
72
9
73
5
74
0
42
0.000000001
43
0.0000000001
44
0.0000000001
40
0
40
0
40
0
40
0
40
0.026218125760641225
40
0.063942824691320829
40
0.063942824691320829
40
0.063942824691320829
40
0.063942824691320829
10
-93.523308668173172
20
34.145342860344158
30
0
10
-93.610572195079698
20
34.138649144536856
30
0
10
-93.823397339556905
20
34.122323984595695
30
0
10
-94.030962189657828
20
34.071830673834413
30
0
10
-94.15342036250911
20
34.042040858391033
30
0
0
LINE
5
128
100
AcDbEntity
8
0
100
AcDbLine
10
-94.15342036250911
20
34.042040858391033
30
0
11
-94.15342036250911
21
34.630267176750408
31
0
0
SPLINE
5
129
100
AcDbEntity
8
0
100
AcDbSpline
70
0
71
3
72
9
73
5
74
0
42
0.000000001
43
0.0000000001
44
0.0000000001
40
0
40
0
40
0
40
0
40
0.045836874708651318
40
0.08308073213401268
40
0.08308073213401268
40
0.08308073213401268
40
0.08308073213401268
10
-94.15342036250911
20
34.630267176750408
30
0
10
-94.005633286105564
20
34.670983304737561
30
0
10
-93.737764706810083
20
34.744782527401334
30
0
10
-93.460678447808817
20
34.762431215689041
30
0
10
-93.33646479610286
20
34.770342860344158
30
0
0
SPLINE
5
130
100
AcDbEntity
8
0
100
AcDbSpline
70
0
71
3
72
9
73
5
74
0
42
0.000000001
43
0.0000000001
44
0.0000000001
40
0
40
0
40
0
40
0
40
0.033657485374527049
40
0.06263612348129044
40
0.06263612348129044
40
0.06263612348129044
40
0.06263612348129044
10
-93.33646479610286
20
34.770342860344158
30
0
10
-93.223592934784307
20
34.767475153166345
30
0
10
-93.01353993277182
20
34.762138389029069
30
0
10
-92.814003724753576
20
34.696990726569432
30
0
10
-92.721688184774735
20
34.666850123527752
30
0
0
SPLINE
5
131
100
AcDbEntity
8
0
100
AcDbSpline
70
0
71
3
72
9
73
5
74
0
42
0.000000001
43
0.0000000001
44
0.0000000001
40
0
40
0
40
0
40
0
40
0.026328968746050976
40
0.052246150056087751
40
0.052246150056087751
40
0.052246150056087751
40
0.052246150056087751
10
-92.721688184774735
20
34.666850123527752
30
0
10
-92.641813232505328
20
34.628388347413058
30
0
10
-92.48331257939428
20
34.552066340816687
30
0
10
-92.364410757193212
20
34.422458150707847
30
0
10
-92.305428419149735
20
34.358164820793377
30
0
0
SPLINE
5
132
100
AcDbEntity
8
0
100
AcDbSpline
70
0
71
3
72
9
73
5
74
0
42
0.000000001
43
0.0000000001
44
0.0000000001
40
0
40
0
40
0
40
0
40
0.024062721141801302
40
0.044772524043770329
40
0.044772524043770329
40
0.044772524043770329
40
0.044772524043770329
10
-92.305428419149735
20
34.358164820793377
30
0
10
-92.256779108799947
20
34.292955167755679
30
0
10
-92.16625932076299
20
34.171622225346077
30
0
10
-92.135227378698886
20
34.02381593000537
30
0
10
-92.120873365438797
20
33.955447230461345
30
0
0
SPLINE
5
133
100
AcDbEntity
8
0
100
AcDbSpline
70
0
71
3
72
9
73
5
74
0
42
0.000000001
43
0.0000000001
44
0.0000000001
40
0
40
0
40
0
40
0
40
0.059316993713092368
40
0.11287861235067267
40
0.11287861235067267
40
0.11287861235067267
40
0.11287861235067267
10
-92.120873365438797
20
33.955447230461345
30
0
10
-91.973570762105595
20
34.089261736497349
30
0
10
-91.693257947529787
20
34.343907071808744
30
0
10
-91.351002082756096
20
34.505361810292989
30
0
10
-91.188599500692703
20
34.581973109367595
30
0
0
SPLINE
5
134
100
AcDbEntity
8
0
100
AcDbSpline
70
0
71
3
72
9
73
5
74
0
42
0.000000001
43
0.0000000001
44
0.0000000001
40
0
40
0
40
0
40
0
40
0.050428848896838248
40
0.099805352653813281
40
0.099805352653813281
40
0.099805352653813281
40
0.099805352653813281
10
-91.188599500692703
20
34.581973109367595
30
0
10
-91.028741606732325
20
34.636912522964948
30
0
10
-90.71236172041273
20
34.745644878920444
30
0
10
-90.378273484143747
20
34.762168273957464
30
0
10
-90.21299067500911
20
34.770342860344158
30
0
0
SPLINE
5
135
100
AcDbEntity
8
0
100
AcDbSpline
70
0
71
3
72
9
73
5
74
0
42
0.000000001
43
0.0000000001
44
0.0000000001
40
0
40
0
40
0
40
0
40
0.064256866856407177
40
0.12246597012339552
40
0.12246597012339552
40
0.12246597012339552
40
0.12246597012339552
10
-90.21299067500911
20
34.770342860344158
30
0
10
-89.99446951352661
20
34.757741318796704
30
0
10
-89.577994086966385
20
34.733724274608903
30
0
10
-89.234951365894688
20
34.49808820567219
30
0
10
-89.071900281942703
20
34.386088404777752
30
0
0
SPLINE
5
136
100
AcDbEntity
8
0
100
AcDbSpline
70
0
71
3
72
9
73
5
74
0
42
0.000000001
43
0.0000000001
44
0.0000000001
40
0
40
0
40
0
40
0
40
0.053513176678452332
40
0.10409219652961614
40
0.10409219652961614
40
0.10409219652961614
40
0.10409219652961614
10
-89.071900281942703
20
34.386088404777752
30
0
10
-88.943322575271139
20
34.254551994094513
30
0
10
-88.693217148104964
20
33.998691386268682
30
0
10
-88.651318317154889
20
33.644060757349493
30
0
10
-88.63095942500911
20
33.471743617180095
30
0
0
SPLINE
5
137
100
AcDbEntity
8
0
100
AcDbSpline
70
0
71
3
72
9
73
5
74
0
42
0.000000001
43
0.0000000001
44
0.0000000001
40
0
40
0
40
0
40
0
40
0.031209649573757763
40
0.062909160255579619
40
0.062909160255579619
40
0.062909160255579619
40
0.062909160255579619
10
-88.63095942500911
20
33.471743617180095
30
0
10
-88.637966821415375
20
33.366824916466776
30
0
10
-88.652091601075384
20
33.155340729776903
30
0
10
-88.746528098994872
20
32.965538779648341
30
0
10
-88.794114027059891
20
32.869898829582439
30
0
0
SPLINE
5
138
100
AcDbEntity
8
0
100
AcDbSpline
70
0
71
3
72
9
73
5
74
0
42
0.000000001
43
0.0000000001
44
0.0000000001
40
0
40
0
40
0
40
0
40
0.033549878553045094
40
0.070327651725987955
40
0.070327651725987955
40
0.070327651725987955
40
0.070327651725987955
10
-88.794114027059891
20
32.869898829582439
30
0
10
-88.857668494477622
20
32.776749469542075
30
0
10
-88.990892119806631
20
32.581488680712084
30
0
10
-89.183977383875572
20
32.444738573555718
30
0
10
-89.28495112422786
20
32.373225245598064
30
0
0
SPLINE
5
139
100
AcDbEntity
8
0
100
AcDbSpline
70
0
71
3
72
9
73
5
74
0
42
0.000000001
43
0.0000000001
44
0.0000000001
40
0
40
0
40
0
40
0
40
0.045850625296429783
40
0.10673935351410424
40
0.10673935351410424
40
0.10673935351410424
40
0.10673935351410424
10
-101.29666987422786
20
32.373225245598064
30
0
10
-101.43253696809347
20
32.302057358909707
30
0
10
-101.74883288923517
20
32.136379919028158
30
0
10
-102.09654810655792
20
32.053008775932987
30
0
10
-102.29489985469661
20
32.005450282219158
30
0
0
SPLINE
5
140
100
AcDbEntity
8
0
100
AcDbSpline
70
0
71
3
72
9
73
5
74
0
42
0.000000001
43
0.0000000001
44
0.0000000001
40
0
40
0
40
0
40
0
40
0.079119711228122572
40
0.1791273286939031
40
0.1791273286939031
40
0.1791273286939031
40
0.1791273286939031
10
-102.29489985469661
20
32.005450282219158
30
0
10
-102.55361905179747
20
31.953649171572028
30
0
10
-103.13936030311336
20
31.836371259032067
30
0
10
-103.7332149804859
20
31.770870806612823
30
0
10
-104.06476679805598
20
31.734301600578533
30
0
0
LINE
5
141
100
AcDbEntity
8
0
100
AcDbLine
10
-104.06476679805598
20
31.734301600578533
30
0
11
-104.06064692500911
21
31.29904464257072
31
0
0
SPLINE
5
142
100
AcDbEntity
8
0
100
AcDbSpline
70
0
71
3
72
9
73
5
74
0
42
0.000000001
43
0.0000000001
44
0.0000000001
40
0
40
0
40
0
40
0
40
0.04183138462201532
40
0.075620083955939887
40
0.075620083955939887
40
0.075620083955939887
40
0.075620083955939887
10
-104.06064692500911
20
31.29904464257072
30
0
10
-104.05513239480624
20
31.154456268106408
30
0
10
-104.04516358213871
20
30.893078713553987
30
0
10
-103.8724102416586
20
30.69950322683329
30
0
10
-103.79522028926692
20
30.613009486320728
30
0
0
SPLINE
5
143
100
AcDbEntity
8
0
100
AcDbSpline
70
0
71
3
72
9
73
5
74
0
42
0.000000001
43
0.0000000001
44
0.0000000001
40
0
40
0
40
0
40
0
40
0.036003412797974955
40
0.081080328653633252
40
0.081080328653633252
40
0.081080328653633252
40
0.081080328653633252
10
-103.79522028926692
20
30.613009486320728
30
0
10
-103.68880032722214
20
30.55398639583828
30
0
10
-103.44914067200233
20
30.421065341900331
30
0
10
-103.17402000383446
20
30.413948135630555
30
0
10
-103.02106562618098
20
30.409991297844165
30
0
0
SPLINE
5
144
100
AcDbEntity
8
0
100
AcDbSpline
70
0
71
3
72
9
73
5
74
0
42
0.000000001
43
0.0000000001
44
0.0000000001
40
0
40
0
40
0
40
0
40
0.023525530810364532
40
0.0439183867042389
40
0.0439183867042389
40
0.0439183867042389
40
0.0439183867042389
10
-103.02106562618098
20
30.409991297844165
30
0
10
-102.9423502269361
20
30.411646119784159
30
0
10
-102.79540122198135
20
30.414735406503052
30
0
10
-102.65312936105244
20
30.451275070423371
30
0
10
-102.58706751827083
20
30.468241725090259
30
0
0
SPLINE
5
145
100
AcDbEntity
8
0
100
AcDbSpline
70
0
71
3
72
9
73
5
74
0
42
0.000000001
43
0.0000000001
44
0.0000000001
40
0
40
0
40
0
40
0
40
0.017669752780478228
40
0.033080131766100175
40
0.033080131766100175
40
0.033080131766100175
40
0.033080131766100175
10
-102.58706751827083
20
30.468241725090259
30
0
10
-102.53111838012579
20
30.488081008637668
30
0
10
-102.42637413808509
20
30.525222791097608
30
0
10
-102.33894670839021
20
30.59362048261027
30
0
10
-102.2982186413177
20
30.625483546379321
30
0
0
SPLINE
5
146
100
AcDbEntity
8
0
100
AcDbSpline
70
0
71
3
72
9
73
5
74
0
42
0.000000001
43
0.0000000001
44
0.0000000001
40
0
40
0
40
0
40
0
40
0.014242926207637497
40
0.028275968751019454
40
0.028275968751019454
40
0.028275968751019454
40
0.028275968751019454
10
-102.2982186413177
20
30.625483546379321
30
0
10
-102.26474595331365
20
30.659683816821254
30
0
10
-102.19829383060956
20
30.727580382751221
30
0
10
-102.15802464377005
20
30.813613578692198
30
0
10
-102.13803950313411
20
30.856310877922283
30
0
0
SPLINE
5
147
100
AcDbEntity
8
0
100
AcDbSpline
70
0
71
3
72
9
73
5
74
0
42
0.000000001
43
0.0000000001
44
0.0000000001
40
0
40
0
40
0
40
0
40
0.012545360568966385
40
0.040156890000484981
40
0.040156890000484981
40
0.040156890000484981
40
0.040156890000484981
10
-102.13803950313411
20
30.856310877922283
30
0
10
-102.12525856006746
20
30.896136066266912
30
0
10
-102.08434758568711
20
31.023613925417479
30
0
10
-102.05228329008678
20
31.153640050406569
30
0
10
-102.03023615840755
20
31.243044886711345
30
0
0
SPLINE
5
148
100
AcDbEntity
8
0
100
AcDbSpline
70
0
71
3
72
9
73
5
74
0
42
0.000000001
43
0.0000000001
44
0.0000000001
40
0
40
0
40
0
40
0
40
0.042795733659823344
40
0.079356417400450296
40
0.079356417400450296
40
0.079356417400450296
40
0.079356417400450296
10
-102.03023615840755
20
31.243044886711345
30
0
10
-101.98191801883777
20
31.390007168722782
30
0
10
-101.89232136693337
20
31.662520318891548
30
0
10
-101.61527363628505
20
31.720958556274578
30
0
10
-101.48763361934505
20
31.747881922844158
30
0
0
SPLINE
5
149
100
AcDbEntity
8
0
100
AcDbSpline
70
0
71
3
72
9
73
5
74
0
42
0.000000001
43
0.0000000001
44
0.0000000001
40
0
40
0
40
0
40
0
40
0.021643660188787293
40
0.041970703033012993
40
0.041970703033012993
40
0.041970703033012993
40
0.041970703033012993
10
-101.48763361934505
20
31.747881922844158
30
0
10
-101.41359793380799
20
31.742255722713672
30
0
10
-101.27003026806116
20
31.731345572913618
30
0
10
-101.16101942193511
20
31.637732891918766
30
0
10
-101.10822382930598
20
31.592394862297283
30
0
0
SPLINE
5
150
100
AcDbEntity
8
0
100
AcDbSpline
70
0
71
3
72
9
73
5
74
0
42
0.000000001
43
0.0000000001
44
0.0000000001
40
0
40
0
40
0
40
0
40
0.021022381395126886
40
0.044405892920250191
40
0.044405892920250191
40
0.044405892920250191
40
0.044405892920250191
10
-101.10822382930598
20
31.592394862297283
30
0
10
-101.06646587341015
20
31.534302210655461
30
0
10
-100.9782599140934
20
31.411592227434525
30
0
10
-100.96953710643668
20
31.260303127395193
30
0
10
-100.96494380000911
20
31.18063643944572
30
0
0
SPLINE
5
151
100
AcDbEntity
8
0
100
AcDbSpline
70
0
71
3
72
9
73
5
74
0
42
0.000000001
43
0.0000000001
44
0.0000000001
40
0
40
0
40
0
40
0
40
0.035011698057437292
40
0.073324451767332738
40
0.073324451767332738
40
0.073324451767332738
40
0.073324451767332738
10
-100.96494380000911
20
31.18063643944572
30
0
10
-100.97723467966608
20
31.062658741921251
30
0
10
-101.00297527674043
20
30.815579894800983
30
0
10
-101.14381192085528
20
30.610395325648255
30
0
10
-101.21740046504817
20
30.503184352043377
30
0
0
SPLINE
5
152
100
AcDbEntity
8
0
100
AcDbSpline
70
0
71
3
72
9
73
5
74
0
42
0.000000001
43
0.0000000001
44
0.0000000001
40
0
40
0
40
0
40
0
40
0.043317529810144112
40
0.093300137069566191
40
0.093300137069566191
40
0.093300137069566191
40
0.093300137069566191
10
-101.21740046504817
20
30.503184352043377
30
0
10
-101.31723999163006
20
30.39694382967269
30
0
10
-101.53228091284319
20
30.168116023863544
30
0
10
-101.81864922779243
20
30.03792096114616
30
0
10
-101.97206202510677
20
29.96817306053947
30
0
0
SPLINE
5
153
100
AcDbEntity
8
0
100
AcDbSpline
70
0
71
3
72
9
73
5
74
0
42
0.000000001
43
0.0000000001
44
0.0000000001
40
0
40
0
40
0
40
0
40
0.056735039109996638
40
0.12017723628342585
40
0.12017723628342585
40
0.12017723628342585
40
0.12017723628342585
10
-101.97206202510677
20
29.96817306053947
30
0
10
-102.15235394479983
20
29.90767531506043
30
0
10
-102.53425170979364
20
29.779527842755815
30
0
10
-102.93720495526529
20
29.767124843891537
30
0
10
-103.1499260998138
20
29.760577235344165
30
0
0
SPLINE
5
154
100
AcDbEntity
8
0
100
AcDbSpline
70
0
71
3
72
9
73
5
74
0
42
0.000000001
43
0.0000000001
44
0.0000000001
40
0
40
0
40
0
40
0
40
0.059164499972679252
40
0.11187081312118508
40
0.11187081312118508
40
0.11187081312118508
40
0.11187081312118508
10
-103.1499260998138
20
29.760577235344165
30
0
10
-103.34841462371882
20
29.766830968337167
30
0
10
-103.72372536875567
20
29.778655799026058
30
0
10
-104.07775673169537
20
29.902786212306154
30
0
10
-104.24455348018489
20
29.961268458488696
30
0
0
SPLINE
5
155
100
AcDbEntity
8
0
100
AcDbSpline
70
0
71
3
72
9
73
5
74
0
42
0.000000001
43
0.0000000001
44
0.0000000001
40
0
40
0
40
0
40
0
40
0.047119714528533183
40
0.090811781865413305
40
0.090811781865413305
40
0.090811781865413305
40
0.090811781865413305
10
-104.24455348018489
20
29.961268458488696
30
0
10
-104.3872338862256
20
30.033046819962973
30
0
10
-104.66221564363821
20
30.171382142451218
30
0
10
-104.84168506988948
20
30.420925682562942
30
0
10
-104.92803278926692
20
30.540988001945728
30
0
0
SPLINE
5
156
100
AcDbEntity
8
0
100
AcDbSpline
70
0
71
3
72
9
73
5
74
0
42
0.000000001
43
0.0000000001
44
0.0000000001
40
0
40
0
40
0
40
0
40
0.03872852165702325
40
0.095813063360597153
40
0.095813063360597153
40
0.095813063360597153
40
0.095813063360597153
10
-104.92803278926692
20
30.540988001945728
30
0
10
-104.97371193469678
20
30.66270232206076
30
0
10
-105.08672060810005
20
30.963819466896545
30
0
10
-105.086292570734
20
31.286766046388067
30
0
10
-105.08603755000911
20
31.47917464745354
30
0
0
LINE
5
157
100
AcDbEntity
8
0
100
AcDbLine
10
-105.08603755000911
20
31.47917464745354
30
0
11
-105.08603755000911
21
33.320147547844165
31
0
0
SPLINE
5
158
100
AcDbEntity
8
0
100
AcDbSpline
70
0
71
3
72
9
73
5
74
0
42
0.000000001
43
0.0000000001
44
0.0000000001
40
0
40
0
40
0
40
0
40
0.032017783824844201
40
0.050176481691429402
40
0.050176481691429402
40
0.050176481691429402
40
0.050176481691429402
10
-105.08603755000911
20
33.320147547844165
30
0
10
-105.0853532055159
20
33.42699664555775
30
0
10
-105.08428073906657
20
33.594444580883348
30
0
10
-105.10192865966815
20
33.760866182006936
30
0
10
-105.10831538204036
20
33.82109359276604
30
0
0
SPLINE
5
159
100
AcDbEntity
8
0
100
AcDbSpline
70
0
71
3
72
9
73
5
74
0
42
0.000000001
43
0.0000000001
44
0.0000000001
40
0
40
0
40
0
40
0
40
0.015228719169595248
40
0.028715624915542477
40
0.028715624915542477
40
0.028715624915542477
40
0.028715624915542477
10
-105.10831538204036
20
33.82109359276604
30
0
10
-105.12356343483304
20
33.870489823941647
30
0
10
-105.15231551567524
20
33.963632499361935
30
0
10
-105.22173680437456
20
34.031726526546677
30
0
10
-105.25434199336848
20
34.06370833885979
30
0
0
SPLINE
5
160
100
AcDbEntity
8
0
100
AcDbSpline
70
0
71
3
72
9
73
5
74
0
42
0.000000001
43
0.0000000001
44
0.0000000001
40
0
40
0
40
0
40
0
40
0.013695643643736757
40
0.029644403065095047
40
0.029644403065095047
40
0.029644403065095047
40
0.029644403065095047
10
-105.25434199336848
20
34.06370833885979
30
0
10
-105.29415257786167
20
34.08748188516703
30
0
10
-105.38032311819347
20
34.138940042764524
30
0
10
-105.48091093387448
20
34.143103116671483
30
0
10
-105.53502741817317
20
34.145342860344165
30
0
0
SPLINE
5
161
100
AcDbEntity
8
0
100
AcDbSpline
70
0
71
3
72
9
73
5
74
0
42
0.000000001
43
0.0000000001
44
0.0000000001
40
0
40
0
40
0
40
0
40
0.026218125760641225
40
0.063942824691320829
40
0.063942824691320829
40
0.063942824691320829
40
0.063942824691320829
10
-105.53502741817317
20
34.145342860344165
30
0
10
-105.6222909450797
20
34.138649144536856
30
0
10
-105.83511608955692
20
34.122323984595695
30
0
10
-106.04268093965783
20
34.071830673834413
30
0
10
-106.16513911250911
20
34.04204085839104
30
0
0
LINE
5
162
100
AcDbEntity
8
0
100
AcDbLine
10
-106.16513911250911
20
34.04204085839104
30
0
11
-106.16513911250911
21
34.630267176750415
31
0
0
SPLINE
5
163
100
AcDbEntity
8
0
100
AcDbSpline
70
0
71
3
72
9
73
5
74
0
42
0.000000001
43
0.0000000001
44
0.0000000001
40
0
40
0
40
0
40
0
40
0.045836874708651318
40
0.08308073213401268
40
0.08308073213401268
40
0.08308073213401268
40
0.08308073213401268
10
-106.16513911250911
20
34.630267176750415
30
0
10
-106.01735203610556
20
34.670983304737568
30
0
10
-105.74948345681008
20
34.744782527401341
30
0
10
-105.47239719780882
20
34.762431215689041
30
0
10
-105.34818354610286
20
34.770342860344165
30
0
0
SPLINE
5
164
100
AcDbEntity
8
0
100
AcDbSpline
70
0
71
3
72
9
73
5
74
0
42
0.000000001
43
0.0000000001
44
0.0000000001
40
0
40
0
40
0
40
0
40
0.033657485374527049
40
0.06263612348129044
40
0.06263612348129044
40
0.06263612348129044
40
0.06263612348129044
10
-105.34818354610286
20
34.770342860344165
30
0
10
-105.23531168478431
20
34.767475153166352
30
0
10
-105.02525868277182
20
34.762138389029076
30
0
10
-104.82572247475358
20
34.696990726569439
30
0
10
-104.73340693477473
20
34.666850123527759
30
0
0
SPLINE
5
165
100
AcDbEntity
8
0
100
AcDbSpline
70
0
71
3
72
9
73
5
74
0
42
0.000000001
43
0.0000000001
44
0.0000000001
40
0
40
0
40
0
40
0
40
0.026328968746050976
40
0.052246150056087751
40
0.052246150056087751
40
0.052246150056087751
40
0.052246150056087751
10
-104.73340693477473
20
34.666850123527759
30
0
10
-104.65353198250533
20
34.628388347413065
30
0
10
-104.49503132939428
20
34.552066340816687
30
0
10
-104.37612950719321
20
34.422458150707847
30
0
10
-104.31714716914973
20
34.358164820793377
30
0
0
SPLINE
5
166
100
AcDbEntity
8
0
100
AcDbSpline
70
0
71
3
72
9
73
5
74
0
42
0.000000001
43
0.0000000001
44
0.0000000001
40
0
40
0
40
0
40
0
40
0.024062721141801302
40
0.044772524043770329
40
0.044772524043770329
40
0.044772524043770329
40
0.044772524043770329
10
-104.31714716914973
20
34.358164820793377
30
0
10
-104.26849785879995
20
34.292955167755679
30
0
10
-104.17797807076298
20
34.171622225346077
30
0
10
-104.14694612869891
20
34.02381593000537
30
0
10
-104.1325921154388
20
33.955447230461345
30
0
0
SPLINE
5
167
100
AcDbEntity
8
0
100
AcDbSpline
70
0
71
3
72
9
73
5
74
0
42
0.000000001
43
0.0000000001
44
0.0000000001
40
0
40
0
40
0
40
0
40
0.059316993713092368
40
0.11287861235067267
40
0.11287861235067267
40
0.11287861235067267
40
0.11287861235067267
10
-104.1325921154388
20
33.955447230461345
30
0
10
-103.9852895121056
20
34.089261736497349
30
0
10
-103.70497669752979
20
34.343907071808751
30
0
10
-103.3627208327561
20
34.505361810292996
30
0
10
-103.2003182506927
20
34.581973109367595
30
0
0
SPLINE
5
168
100
AcDbEntity
8
0
100
AcDbSpline
70
0
71
3
72
9
73
5
74
0
42
0.000000001
43
0.0000000001
44
0.0000000001
40
0
40
0
40
0
40
0
40
0.050428848896838248
40
0.099805352653813281
40
0.099805352653813281
40
0.099805352653813281
40
0.099805352653813281
10
-103.2003182506927
20
34.581973109367595
30
0
10
-103.04046035673232
20
34.636912522964948
30
0
10
-102.72408047041273
20
34.745644878920444
30
0
10
-102.38999223414375
20
34.762168273957464
30
0
10
-102.22470942500911
20
34.770342860344158
30
0
0
SPLINE
5
169
100
AcDbEntity
8
0
100
AcDbSpline
70
0
71
3
72
9
73
5
74
0
42
0.000000001
43
0.0000000001
44
0.0000000001
40
0
40
0
40
0
40
0
40
0.064256866856407177
40
0.12246597012339552
40
0.12246597012339552
40
0.12246597012339552
40
0.12246597012339552
10
-102.22470942500911
20
34.770342860344158
30
0
10
-102.00618826352661
20
34.757741318796704
30
0
10
-101.58971283696638
20
34.733724274608903
30
0
10
-101.24667011589469
20
34.49808820567219
30
0
10
-101.0836190319427
20
34.386088404777752
30
0
0
SPLINE
5
170
100
AcDbEntity
8
0
100
AcDbSpline
70
0
71
3
72
9
73
5
74
0
42
0.000000001
43
0.0000000001
44
0.0000000001
40
0
40
0
40
0
40
0
40
0.053513176678452332
40
0.10409219652961614
40
0.10409219652961614
40
0.10409219652961614
40
0.10409219652961614
10
-101.0836190319427
20
34.386088404777752
30
0
10
-100.95504132527114
20
34.254551994094513
30
0
10
-100.70493589810496
20
33.998691386268682
30
0
10
-100.66303706715489
20
33.644060757349493
30
0
10
-100.64267817500911
20
33.471743617180095
30
0
0
SPLINE
5
171
100
AcDbEntity
8
0
100
AcDbSpline
70
0
71
3
72
9
73
5
74
0
42
0.000000001
43
0.0000000001
44
0.0000000001
40
0
40
0
40
0
40
0
40
0.031209649573757763
40
0.062909160255579619
40
0.062909160255579619
40
0.062909160255579619
40
0.062909160255579619
10
-100.64267817500911
20
33.471743617180095
30
0
10
-100.64968557141538
20
33.366824916466776
30
0
10
-100.66381035107538
20
33.155340729776903
30
0
10
-100.75824684899487
20
32.965538779648341
30
0
10
-100.80583277705989
20
32.869898829582439
30
0
0
SPLINE
5
172
100
AcDbEntity
8
0
100
AcDbSpline
70
0
71
3
72
9
73
5
74
0
42
0.000000001
43
0.0000000001
44
0.0000000001
40
0
40
0
40
0
40
0
40
0.033549878553045094
40
0.070327651725987955
40
0.070327651725987955
40
0.070327651725987955
40
0.070327651725987955
10
-100.80583277705989
20
32.869898829582439
30
0
10
-100.86938724447762
20
32.776749469542075
30
0
10
-101.00261086980663
20
32.581488680712084
30
0
10
-101.19569613387557
20
32.444738573555725
30
0
10
-101.29666987422786
20
32.373225245598064
30
0
0
SPLINE
5
173
100
AcDbEntity
8
0
100
AcDbSpline
70
0
71
3
72
9
73
5
74
0
42
0.000000001
43
0.0000000001
44
0.0000000001
40
0
40
0
40
0
40
0
40
0.045850625296429783
40
0.10673935351410424
40
0.10673935351410424
40
0.10673935351410424
40
0.10673935351410424
10
-112.30741206172786
20
32.373225245598071
30
0
10
-112.44327915559347
20
32.302057358909707
30
0
10
-112.75957507673517
20
32.136379919028158
30
0
10
-113.10729029405792
20
32.053008775932994
30
0
10
-113.30564204219661
20
32.005450282219165
30
0
0
SPLINE
5
174
100
AcDbEntity
8
0
100
AcDbSpline
70
0
71
3
72
9
73
5
74
0
42
0.000000001
43
0.0000000001
44
0.0000000001
40
0
40
0
40
0
40
0
40
0.079119711228122572
40
0.1791273286939031
40
0.1791273286939031
40
0.1791273286939031
40
0.1791273286939031
10
-113.30564204219661
20
32.005450282219165
30
0
10
-113.56436123929747
20
31.953649171572028
30
0
10
-114.15010249061336
20
31.836371259032067
30
0
10
-114.7439571679859
20
31.770870806612827
30
0
10
-115.07550898555598
20
31.73430160057854
30
0
0
LINE
5
175
100
AcDbEntity
8
0
100
AcDbLine
10
-115.07550898555598
20
31.73430160057854
30
0
11
-115.07138911250911
21
31.299044642570728
31
0
0
SPLINE
5
176
100
AcDbEntity
8
0
100
AcDbSpline
70
0
71
3
72
9
73
5
74
0
42
0.000000001
43
0.0000000001
44
0.0000000001
40
0
40
0
40
0
40
0
40
0.04183138462201532
40
0.075620083955939887
40
0.075620083955939887
40
0.075620083955939887
40
0.075620083955939887
10
-115.07138911250911
20
31.299044642570728
30
0
10
-115.06587458230624
20
31.154456268106415
30
0
10
-115.05590576963871
20
30.893078713553987
30
0
10
-114.8831524291586
20
30.699503226833293
30
0
10
-114.80596247676692
20
30.613009486320728
30
0
0
SPLINE
5
177
100
AcDbEntity
8
0
100
AcDbSpline
70
0
71
3
72
9
73
5
74
0
42
0.000000001
43
0.0000000001
44
0.0000000001
40
0
40
0
40
0
40
0
40
0.036003412797974955
40
0.081080328653633252
40
0.081080328653633252
40
0.081080328653633252
40
0.081080328653633252
10
-114.80596247676692
20
30.613009486320728
30
0
10
-114.69954251472214
20
30.55398639583828
30
0
10
-114.45988285950233
20
30.421065341900331
30
0
10
-114.18476219133446
20
30.413948135630555
30
0
10
-114.03180781368098
20
30.409991297844165
30
0
0
SPLINE
5
178
100
AcDbEntity
8
0
100
AcDbSpline
70
0
71
3
72
9
73
5
74
0
42
0.000000001
43
0.0000000001
44
0.0000000001
40
0
40
0
40
0
40
0
40
0.023525530810364532
40
0.0439183867042389
40
0.0439183867042389
40
0.0439183867042389
40
0.0439183867042389
10
-114.03180781368098
20
30.409991297844165
30
0
10
-113.9530924144361
20
30.411646119784159
30
0
10
-113.80614340948135
20
30.414735406503052
30
0
10
-113.66387154855244
20
30.451275070423371
30
0
10
-113.59780970577083
20
30.468241725090259
30
0
0
SPLINE
5
179
100
AcDbEntity
8
0
100
AcDbSpline
70
0
71
3
72
9
73
5
74
0
42
0.000000001
43
0.0000000001
44
0.0000000001
40
0
40
0
40
0
40
0
40
0.017669752780478228
40
0.033080131766100175
40
0.033080131766100175
40
0.033080131766100175
40
0.033080131766100175
10
-113.59780970577083
20
30.468241725090259
30
0
10
-113.54186056762579
20
30.488081008637668
30
0
10
-113.43711632558509
20
30.525222791097608
30
0
10
-113.34968889589021
20
30.59362048261027
30
0
10
-113.3089608288177
20
30.625483546379321
30
0
0
SPLINE
5
180
100
AcDbEntity
8
0
100
AcDbSpline
70
0
71
3
72
9
73
5
74
0
42
0.000000001
43
0.0000000001
44
0.0000000001
40
0
40
0
40
0
40
0
40
0.014242926207637497
40
0.028275968751019454
40
0.028275968751019454
40
0.028275968751019454
40
0.028275968751019454
10
-113.3089608288177
20
30.625483546379321
30
0
10
-113.27548814081366
20
30.659683816821254
30
0
10
-113.20903601810957
20
30.727580382751224
30
0
10
-113.16876683127005
20
30.813613578692202
30
0
10
-113.14878169063411
20
30.85631087792229
30
0
0
SPLINE
5
181
100
AcDbEntity
8
0
100
AcDbSpline
70
0
71
3
72
9
73
5
74
0
42
0.000000001
43
0.0000000001
44
0.0000000001
40
0
40
0
40
0
40
0
40
0.012545360568966385
40
0.040156890000484981
40
0.040156890000484981
40
0.040156890000484981
40
0.040156890000484981
10
-113.14878169063411
20
30.85631087792229
30
0
10
-113.13600074756746
20
30.896136066266916
30
0
10
-113.09508977318711
20
31.023613925417479
30
0
10
-113.06302547758678
20
31.153640050406569
30
0
10
-113.04097834590755
20
31.243044886711353
30
0
0
SPLINE
5
182
100
AcDbEntity
8
0
100
AcDbSpline
70
0
71
3
72
9
73
5
74
0
42
0.000000001
43
0.0000000001
44
0.0000000001
40
0
40
0
40
0
40
0
40
0.042795733659823344
40
0.079356417400450296
40
0.079356417400450296
40
0.079356417400450296
40
0.079356417400450296
10
-113.04097834590755
20
31.243044886711353
30
0
10
-112.99266020633777
20
31.390007168722782
30
0
10
-112.90306355443337
20
31.662520318891548
30
0
10
-112.62601582378505
20
31.720958556274581
30
0
10
-112.49837580684505
20
31.747881922844165
30
0
0
SPLINE
5
183
100
AcDbEntity
8
0
100
AcDbSpline
70
0
71
3
72
9
73
5
74
0
42
0.000000001
43
0.0000000001
44
0.0000000001
40
0
40
0
40
0
40
0
40
0.021643660188787293
40
0.041970703033012993
40
0.041970703033012993
40
0.041970703033012993
40
0.041970703033012993
10
-112.49837580684505
20
31.747881922844165
30
0
10
-112.42434012130799
20
31.742255722713676
30
0
10
-112.28077245556116
20
31.731345572913622
30
0
10
-112.17176160943511
20
31.637732891918766
30
0
10
-112.11896601680598
20
31.59239486229729
30
0
0
SPLINE
5
184
100
AcDbEntity
8
0
100
AcDbSpline
70
0
71
3
72
9
73
5
74
0
42
0.000000001
43
0.0000000001
44
0.0000000001
40
0
40
0
40
0
40
0
40
0.021022381395126886
40
0.044405892920250191
40
0.044405892920250191
40
0.044405892920250191
40
0.044405892920250191
10
-112.11896601680598
20
31.59239486229729
30
0
10
-112.07720806091015
20
31.534302210655465
30
0
10
-111.9890021015934
20
31.411592227434525
30
0
10
-111.98027929393668
20
31.260303127395197
30
0
10
-111.97568598750911
20
31.180636439445728
30
0
0
SPLINE
5
185
100
AcDbEntity
8
0
100
AcDbSpline
70
0
71
3
72
9
73
5
74
0
42
0.000000001
43
0.0000000001
44
0.0000000001
40
0
40
0
40
0
40
0
40
0.035011698057437292
40
0.073324451767332738
40
0.073324451767332738
40
0.073324451767332738
40
0.073324451767332738
10
-111.97568598750911
20
31.180636439445728
30
0
10
-111.98797686716608
20
31.062658741921251
30
0
10
-112.01371746424043
20
30.81557989480099
30
0
10
-112.15455410835526
20
30.610395325648255
30
0
10
-112.22814265254817
20
30.503184352043384
30
0
0
SPLINE
5
186
100
AcDbEntity
8
0
100
AcDbSpline
70
0
71
3
72
9
73
5
74
0
42
0.000000001
43
0.0000000001
44
0.0000000001
40
0
40
0
40
0
40
0
40
0.043317529810144112
40
0.093300137069566191
40
0.093300137069566191
40
0.093300137069566191
40
0.093300137069566191
10
-112.22814265254817
20
30.503184352043384
30
0
10
-112.32798217913006
20
30.396943829672693
30
0
10
-112.54302310034319
20
30.168116023863544
30
0
10
-112.82939141529243
20
30.037920961146163
30
0
10
-112.98280421260677
20
29.968173060539478
30
0
0
SPLINE
5
187
100
AcDbEntity
8
0
100
AcDbSpline
70
0
71
3
72
9
73
5
74
0
42
0.000000001
43
0.0000000001
44
0.0000000001
40
0
40
0
40
0
40
0
40
0.056735039109996638
40
0.12017723628342585
40
0.12017723628342585
40
0.12017723628342585
40
0.12017723628342585
10
-112.98280421260677
20
29.968173060539478
30
0
10
-113.16309613229983
20
29.90767531506043
30
0
10
-113.54499389729364
20
29.779527842755815
30
0
10
-113.94794714276529
20
29.767124843891537
30
0
10
-114.1606682873138
20
29.760577235344165
30
0
0
SPLINE
5
188
100
AcDbEntity
8
0
100
AcDbSpline
70
0
71
3
72
9
73
5
74
0
42
0.000000001
43
0.0000000001
44
0.0000000001
40
0
40
0
40
0
40
0
40
0.059164499972679252
40
0.11187081312118508
40
0.11187081312118508
40
0.11187081312118508
40
0.11187081312118508
10
-114.1606682873138
20
29.760577235344165
30
0
10
-114.35915681121882
20
29.766830968337167
30
0
10
-114.73446755625567
20
29.778655799026058
30
0
10
-115.08849891919537
20
29.902786212306154
30
0
10
-115.25529566768489
20
29.961268458488696
30
0
0
SPLINE
5
189
100
AcDbEntity
8
0
100
AcDbSpline
70
0
71
3
72
9
73
5
74
0
42
0.000000001
43
0.0000000001
44
0.0000000001
40
0
40
0
40
0
40
0
40
0.047119714528533183
40
0.090811781865413305
40
0.090811781865413305
40
0.090811781865413305
40
0.090811781865413305
10
-115.25529566768489
20
29.961268458488696
30
0
10
-115.3979760737256
20
30.033046819962973
30
0
10
-115.67295783113821
20
30.171382142451218
30
0
10
-115.85242725738945
20
30.420925682562942
30
0
10
-115.93877497676692
20
30.540988001945728
30
0
0
SPLINE
5
190
100
AcDbEntity
8
0
100
AcDbSpline
70
0
71
3
72
9
73
5
74
0
42
0.000000001
43
0.0000000001
44
0.0000000001
40
0
40
0
40
0
40
0
40
0.03872852165702325
40
0.095813063360597153
40
0.095813063360597153
40
0.095813063360597153
40
0.095813063360597153
10
-115.93877497676692
20
30.540988001945728
30
0
10
-115.98445412219678
20
30.66270232206076
30
0
10
-116.09746279560005
20
30.963819466896553
30
0
10
-116.097034758234
20
31.286766046388067
30
0
10
-116.09677973750911
20
31.47917464745354
30
0
0
LINE
5
191
100
AcDbEntity
8
0
100
AcDbLine
10
-116.09677973750911
20
31.47917464745354
30
0
11
-116.09677973750911
21
33.320147547844165
31
0
0
SPLINE
5
192
100
AcDbEntity
8
0
100
AcDbSpline
70
0
71
3
72
9
73
5
74
0
42
0.000000001
43
0.0000000001
44
0.0000000001
40
0
40
0
40
0
40
0
40
0.032017783824844201
40
0.050176481691429402
40
0.050176481691429402
40
0.050176481691429402
40
0.050176481691429402
10
-116.09677973750911
20
33.320147547844165
30
0
10
-116.0960953930159
20
33.42699664555775
30
0
10
-116.09502292656659
20
33.594444580883355
30
0
10
-116.11267084716815
20
33.760866182006936
30
0
10
-116.11905756954036
20
33.82109359276604
30
0
0
SPLINE
5
193
100
AcDbEntity
8
0
100
AcDbSpline
70
0
71
3
72
9
73
5
74
0
42
0.000000001
43
0.0000000001
44
0.0000000001
40
0
40
0
40
0
40
0
40
0.015228719169595248
40
0.028715624915542477
40
0.028715624915542477
40
0.028715624915542477
40
0.028715624915542477
10
-116.11905756954036
20
33.82109359276604
30
0
10
-116.13430562233304
20
33.870489823941647
30
0
10
-116.16305770317524
20
33.963632499361935
30
0
10
-116.23247899187456
20
34.031726526546677
30
0
10
-116.26508418086848
20
34.06370833885979
30
0
0
SPLINE
5
194
100
AcDbEntity
8
0
100
AcDbSpline
70
0
71
3
72
9
73
5
74
0
42
0.000000001
43
0.0000000001
44
0.0000000001
40
0
40
0
40
0
40
0
40
0.013695643643736757
40
0.029644403065095047
40
0.029644403065095047
40
0.029644403065095047
40
0.029644403065095047
10
-116.26508418086848
20
34.06370833885979
30
0
10
-116.30489476536167
20
34.08748188516703
30
0
10
-116.39106530569347
20
34.138940042764524
30
0
10
-116.49165312137448
20
34.143103116671483
30
0
10
-116.54576960567317
20
34.145342860344165
30
0
0
SPLINE
5
195
100
AcDbEntity
8
0
100
AcDbSpline
70
0
71
3
72
9
73
5
74
0
42
0.000000001
43
0.0000000001
44
0.0000000001
40
0
40
0
40
0
40
0
40
0.026218125760641225
40
0.063942824691320829
40
0.063942824691320829
40
0.063942824691320829
40
0.063942824691320829
10
-116.54576960567317
20
34.145342860344165
30
0
10
-116.6330331325797
20
34.138649144536856
30
0
10
-116.84585827705691
20
34.122323984595695
30
0
10
-117.05342312715783
20
34.071830673834413
30
0
10
-117.17588130000911
20
34.04204085839104
30
0
0
LINE
5
196
100
AcDbEntity
8
0
100
AcDbLine
10
-117.17588130000911
20
34.04204085839104
30
0
11
-117.17588130000911
21
34.630267176750415
31
0
0
SPLINE
5
197
100
AcDbEntity
8
0
100
AcDbSpline
70
0
71
3
72
9
73
5
74
0
42
0.000000001
43
0.0000000001
44
0.0000000001
40
0
40
0
40
0
40
0
40
0.045836874708651318
40
0.08308073213401268
40
0.08308073213401268
40
0.08308073213401268
40
0.08308073213401268
10
-117.17588130000911
20
34.630267176750415
30
0
10
-117.02809422360556
20
34.670983304737568
30
0
10
-116.76022564431008
20
34.744782527401341
30
0
10
-116.48313938530882
20
34.762431215689041
30
0
10
-116.35892573360286
20
34.770342860344165
30
0
0
SPLINE
5
198
100
AcDbEntity
8
0
100
AcDbSpline
70
0
71
3
72
9
73
5
74
0
42
0.000000001
43
0.0000000001
44
0.0000000001
40
0
40
0
40
0
40
0
40
0.033657485374527049
40
0.06263612348129044
40
0.06263612348129044
40
0.06263612348129044
40
0.06263612348129044
10
-116.35892573360286
20
34.770342860344165
30
0
10
-116.24605387228431
20
34.767475153166352
30
0
10
-116.03600087027182
20
34.762138389029076
30
0
10
-115.83646466225358
20
34.696990726569439
30
0
10
-115.74414912227473
20
34.666850123527759
30
0
0
SPLINE
5
199
100
AcDbEntity
8
0
100
AcDbSpline
70
0
71
3
72
9
73
5
74
0
42
0.000000001
43
0.0000000001
44
0.0000000001
40
0
40
0
40
0
40
0
40
0.026328968746050976
40
0.052246150056087751
40
0.052246150056087751
40
0.052246150056087751
40
0.052246150056087751
10
-115.74414912227473
20
34.666850123527759
30
0
10
-115.66427417000533
20
34.628388347413065
30
0
10
-115.50577351689428
20
34.552066340816687
30
0
10
-115.38687169469324
20
34.422458150707847
30
0
10
-115.32788935664973
20
34.358164820793384
30
0
0
SPLINE
5
200
100
AcDbEntity
8
0
100
AcDbSpline
70
0
71
3
72
9
73
5
74
0
42
0.000000001
43
0.0000000001
44
0.0000000001
40
0
40
0
40
0
40
0
40
0.024062721141801302
40
0.044772524043770329
40
0.044772524043770329
40
0.044772524043770329
40
0.044772524043770329
10
-115.32788935664973
20
34.358164820793384
30
0
10
-115.27924004629995
20
34.292955167755686
30
0
10
-115.18872025826299
20
34.171622225346077
30
0
10
-115.15768831619889
20
34.023815930005377
30
0
10
-115.1433343029388
20
33.955447230461353
30
0
0
SPLINE
5
201
100
AcDbEntity
8
0
100
AcDbSpline
70
0
71
3
72
9
73
5
74
0
42
0.000000001
43
0.0000000001
44
0.0000000001
40
0
40
0
40
0
40
0
40
0.059316993713092368
40
0.11287861235067267
40
0.11287861235067267
40
0.11287861235067267
40
0.11287861235067267
10
-115.1433343029388
20
33.955447230461353
30
0
10
-114.9960316996056
20
34.089261736497349
30
0
10
-114.71571888502979
20
34.343907071808751
30
0
10
-114.3734630202561
20
34.505361810292996
30
0
10
-114.2110604381927
20
34.581973109367603
30
0
0
SPLINE
5
202
100
AcDbEntity
8
0
100
AcDbSpline
70
0
71
3
72
9
73
5
74
0
42
0.000000001
43
0.0000000001
44
0.0000000001
40
0
40
0
40
0
40
0
40
0.050428848896838248
40
0.099805352653813281
40
0.099805352653813281
40
0.099805352653813281
40
0.099805352653813281
10
-114.2110604381927
20
34.581973109367603
30
0
10
-114.05120254423232
20
34.636912522964948
30
0
10
-113.73482265791273
20
34.745644878920444
30
0
10
-113.40073442164375
20
34.762168273957464
30
0
10
-113.23545161250911
20
34.770342860344165
30
0
0
SPLINE
5
203
100
AcDbEntity
8
0
100
AcDbSpline
70
0
71
3
72
9
73
5
74
0
42
0.000000001
43
0.0000000001
44
0.0000000001
40
0
40
0
40
0
40
0
40
0.064256866856407177
40
0.12246597012339552
40
0.12246597012339552
40
0.12246597012339552
40
0.12246597012339552
10
-113.23545161250911
20
34.770342860344165
30
0
10
-113.01693045102661
20
34.757741318796704
30
0
10
-112.60045502446638
20
34.733724274608903
30
0
10
-112.25741230339469
20
34.498088205672197
30
0
10
-112.0943612194427
20
34.386088404777759
30
0
0
SPLINE
5
204
100
AcDbEntity
8
0
100
AcDbSpline
70
0
71
3
72
9
73
5
74
0
42
0.000000001
43
0.0000000001
44
0.0000000001
40
0
40
0
40
0
40
0
40
0.053513176678452332
40
0.10409219652961614
40
0.10409219652961614
40
0.10409219652961614
40
0.10409219652961614
10
-112.0943612194427
20
34.386088404777759
30
0
10
-111.96578351277114
20
34.25455199409452
30
0
10
-111.71567808560496
20
33.998691386268682
30
0
10
-111.67377925465487
20
33.644060757349493
30
0
10
-111.65342036250911
20
33.471743617180103
30
0
0
SPLINE
5
205
100
AcDbEntity
8
0
100
AcDbSpline
70
0
71
3
72
9
73
5
74
0
42
0.000000001
43
0.0000000001
44
0.0000000001
40
0
40
0
40
0
40
0
40
0.031209649573757763
40
0.062909160255579619
40
0.062909160255579619
40
0.062909160255579619
40
0.062909160255579619
10
-111.65342036250911
20
33.471743617180103
30
0
10
-111.66042775891538
20
33.366824916466776
30
0
10
-111.67455253857538
20
33.155340729776903
30
0
10
-111.76898903649487
20
32.965538779648341
30
0
10
-111.81657496455989
20
32.869898829582446
30
0
0
SPLINE
5
206
100
AcDbEntity
8
0
100
AcDbSpline
70
0
71
3
72
9
73
5
74
0
42
0.000000001
43
0.0000000001
44
0.0000000001
40
0
40
0
40
0
40
0
40
0.033549878553045094
40
0.070327651725987955
40
0.070327651725987955
40
0.070327651725987955
40
0.070327651725987955
10
-111.81657496455989
20
32.869898829582446
30
0
10
-111.88012943197762
20
32.776749469542075
30
0
10
-112.01335305730663
20
32.581488680712091
30
0
10
-112.20643832137557
20
32.444738573555725
30
0
10
-112.30741206172786
20
32.373225245598071
30
0
0
SPLINE
5
207
100
AcDbEntity
8
0
100
AcDbSpline
70
0
71
3
72
9
73
5
74
0
42
0.000000001
43
0.0000000001
44
0.0000000001
40
0
40
0
40
0
40
0
40
0.078919289186992203
40
0.15176531569926388
40
0.15176531569926388
40
0.15176531569926388
40
0.15176531569926388
10
-162.7572030163177
20
29.27553847801995
30
0
10
-162.87762775934411
20
29.037826297042901
30
0
10
-163.10920991538836
20
28.58069516264986
30
0
10
-163.50703235718683
20
28.258632306737617
30
0
10
-163.69798365596614
20
28.104044947746512
30
0
0
SPLINE
5
208
100
AcDbEntity
8
0
100
AcDbSpline
70
0
71
3
72
9
73
5
74
0
42
0.000000001
43
0.0000000001
44
0.0000000001
40
0
40
0
40
0
40
0
40
0.070993610540279681
40
0.14455391560889963
40
0.14455391560889963
40
0.14455391560889963
40
0.14455391560889963
10
-163.69798365596614
20
28.104044947746512
30
0
10
-163.90698281871772
20
27.986217789189411
30
0
10
-164.33253727502438
20
27.746303563037525
30
0
10
-164.82038669926439
20
27.715636270385488
30
0
10
-165.06864253047786
20
27.700030360344169
30
0
0
SPLINE
5
209
100
AcDbEntity
8
0
100
AcDbSpline
70
0
71
3
72
9
73
5
74
0
42
0.000000001
43
0.0000000001
44
0.0000000001
40
0
40
0
40
0
40
0
40
0.072667554085109304
40
0.14170281974040921
40
0.14170281974040921
40
0.14170281974040921
40
0.14170281974040921
10
-165.06864253047786
20
27.700030360344169
30
0
10
-165.31402256272207
20
27.714668287580189
30
0
10
-165.79251730380392
20
27.743212465110496
30
0
10
-166.2096212668811
20
27.978581473727814
30
0
10
-166.41282740596614
20
28.093249354484794
30
0
0
SPLINE
5
210
100
AcDbEntity
8
0
100
AcDbSpline
70
0
71
3
72
9
73
5
74
0
42
0.000000001
43
0.0000000001
44
0.0000000001
40
0
40
0
40
0
40
0
40
0.072320485467643941
40
0.15506596371742726
40
0.15506596371742726
40
0.15506596371742726
40
0.15506596371742726
10
-166.41282740596614
20
28.093249354484794
30
0
10
-166.59908108785635
20
28.250659886051896
30
0
10
-166.99843690649445
20
28.588171665997653
30
0
10
-167.22358542157934
20
29.061246019699141
30
0
10
-167.34372797969661
20
29.3136854506762
30
0
0
SPLINE
5
211
100
AcDbEntity
8
0
100
AcDbSpline
70
0
71
3
72
9
73
5
74
0
42
0.000000001
43
0.0000000001
44
0.0000000001
40
0
40
0
40
0
40
0
40
0.094825756143166726
40
0.20280577336379679
40
0.20280577336379679
40
0.20280577336379679
40
0.20280577336379679
10
-167.34372797969661
20
29.3136854506762
30
0
10
-167.44704038895912
20
29.614367649749077
30
0
10
-167.66799673996286
20
30.257442784606276
30
0
10
-167.68779893904795
20
30.937795695939833
30
0
10
-167.69834223750911
20
31.300036463859794
30
0
0
SPLINE
5
212
100
AcDbEntity
8
0
100
AcDbSpline
70
0
71
3
72
9
73
5
74
0
42
0.000000001
43
0.0000000001
44
0.0000000001
40
0
40
0
40
0
40
0
40
0.15555066081001973
40
0.2889756225811162
40
0.2889756225811162
40
0.2889756225811162
40
0.2889756225811162
10
-167.69834223750911
20
31.300036463859794
30
0
10
-167.67445474904287
20
31.830028349268037
30
0
10
-167.6300775550439
20
32.814625484704457
30
0
10
-167.07857530346593
20
33.626983372328418
30
0
10
-166.82393733028255
20
34.00206283104729
30
0
0
SPLINE
5
213
100
AcDbEntity
8
0
100
AcDbSpline
70
0
71
3
72
9
73
5
74
0
42
0.000000001
43
0.0000000001
44
0.0000000001
40
0
40
0
40
0
40
0
40
0.1009680605425199
40
0.20333541511018616
40
0.20333541511018616
40
0.20333541511018616
40
0.20333541511018616
10
-166.82393733028255
20
34.00206283104729
30
0
10
-166.56744436763319
20
34.234686302020108
30
0
10
-166.0509037630805
20
34.70315712121257
30
0
10
-165.35620347152044
20
34.767331653932828
30
0
10
-165.00646296504817
20
34.799639735344165
30
0
0
SPLINE
5
214
100
AcDbEntity
8
0
100
AcDbSpline
70
0
71
3
72
9
73
5
74
0
42
0.000000001
43
0.0000000001
44
0.0000000001
40
0
40
0
40
0
40
0
40
0.070950844486502213
40
0.13943558142890103
40
0.13943558142890103
40
0.13943558142890103
40
0.13943558142890103
10
-165.00646296504817
20
34.799639735344165
30
0
10
-164.76689791115228
20
34.784311885045909
30
0
10
-164.29609459905961
20
34.754188949457749
30
0
10
-163.88767278279039
20
34.518640563290163
30
0
10
-163.68707362178645
20
34.402949366691821
30
0
0
SPLINE
5
215
100
AcDbEntity
8
0
100
AcDbSpline
70
0
71
3
72
9
73
5
74
0
42
0.000000001
43
0.0000000001
44
0.0000000001
40
0
40
0
40
0
40
0
40
0.071479175122181229
40
0.15107468683096326
40
0.15107468683096326
40
0.15107468683096326
40
0.15107468683096326
10
-163.68707362178645
20
34.402949366691821
30
0
10
-163.50236265281069
20
34.2483280492769
30
0
10
-163.11196710411332
20
33.921528431543166
30
0
10
-162.88414069566193
20
33.465376345524248
30
0
10
-162.76410761836848
20
33.225047145012134
30
0
0
SPLINE
5
216
100
AcDbEntity
8
0
100
AcDbSpline
70
0
71
3
72
9
73
5
74
0
42
0.000000001
43
0.0000000001
44
0.0000000001
40
0
40
0
40
0
40
0
40
0.092289008164129285
40
0.20189446638346531
40
0.20189446638346531
40
0.20189446638346531
40
0.20189446638346531
10
-162.76410761836848
20
33.225047145012134
30
0
10
-162.66252216920157
20
32.932710653520218
30
0
10
-162.44029050304903
20
32.293185740117629
30
0
10
-162.4239889691776
20
31.615419173646483
30
0
10
-162.41513911250911
20
31.247469935539481
30
0
0
SPLINE
5
217
100
AcDbEntity
8
0
100
AcDbSpline
70
0
71
3
72
9
73
5
74
0
42
0.000000001
43
0.0000000001
44
0.0000000001
40
0
40
0
40
0
40
0
40
0.10985426720919483
40
0.20120298878782991
40
0.20120298878782991
40
0.20120298878782991
40
0.20120298878782991
10
-162.41513911250911
20
31.247469935539481
30
0
10
-162.42335156827261
20
30.878680307230365
30
0
10
-162.43839304719631
20
30.203225658678154
30
0
10
-162.65765520280718
20
29.565207056172721
30
0
10
-162.7572030163177
20
29.27553847801995
30
0
0
LINE
5
218
100
AcDbEntity
8
0
100
AcDbLine
10
-129.65635005000911
20
33.461749110344165
30
0
11
-129.65635005000911
21
30.761553797844165
31
0
0
LINE
5
219
100
AcDbEntity
8
0
100
AcDbLine
10
-129.65635005000911
20
30.761553797844165
30
0
11
-128.82627192500911
21
30.761553797844165
31
0
0
LINE
5
220
100
AcDbEntity
8
0
100
AcDbLine
10
-128.82627192500911
20
30.761553797844165
30
0
11
-128.82627192500911
21
30.170809779289478
31
0
0
SPLINE
5
221
100
AcDbEntity
8
0
100
AcDbSpline
70
0
71
3
72
9
73
5
74
0
42
0.000000001
43
0.0000000001
44
0.0000000001
40
0
40
0
40
0
40
0
40
0.039398992658325645
40
0.070888860200983173
40
0.070888860200983173
40
0.070888860200983173
40
0.070888860200983173
10
-128.82627192500911
20
30.170809779289478
30
0
10
-128.95715617544994
20
30.157396776607222
30
0
10
-129.19265040273825
20
30.133263355728577
30
0
10
-129.42167276878578
20
30.073760200032645
30
0
10
-129.52340785030208
20
30.047328028801196
30
0
0
SPLINE
5
222
100
AcDbEntity
8
0
100
AcDbSpline
70
0
71
3
72
9
73
5
74
0
42
0.000000001
43
0.0000000001
44
0.0000000001
40
0
40
0
40
0
40
0
40
0.030901611157046725
40
0.068534814667104385
40
0.068534814667104385
40
0.068534814667104385
40
0.068534814667104385
10
-129.52340785030208
20
30.047328028801196
30
0
10
-129.6202682527765
20
30.011827924163583
30
0
10
-129.83508908196978
20
29.933094388891362
30
0
10
-130.03505612744812
20
29.821729108195214
30
0
10
-130.14486018184505
20
29.760577235344165
30
0
0
LINE
5
223
100
AcDbEntity
8
0
100
AcDbLine
10
-130.14486018184505
20
29.760577235344165
30
0
11
-130.62802973750911
21
29.760577235344165
31
0
0
LINE
5
224
100
AcDbEntity
8
0
100
AcDbLine
10
-130.62802973750911
20
29.760577235344165
30
0
11
-130.62802973750911
21
30.56151107323479
31
0
0
SPLINE
5
225
100
AcDbEntity
8
0
100
AcDbSpline
70
0
71
3
72
9
73
5
74
0
42
0.000000001
43
0.0000000001
44
0.0000000001
40
0
40
0
40
0
40
0
40
0.050821703900129883
40
0.090886809385228862
40
0.090886809385228862
40
0.090886809385228862
40
0.090886809385228862
10
-130.62802973750911
20
30.56151107323479
30
0
10
-130.74639335412957
20
30.438998150941803
30
0
10
-130.95806849755002
20
30.219902611808539
30
0
10
-131.2193378267763
20
30.064041191677799
30
0
10
-131.33451167110286
20
29.995333705070728
30
0
0
SPLINE
5
226
100
AcDbEntity
8
0
100
AcDbSpline
70
0
71
3
72
9
73
5
74
0
42
0.000000001
43
0.0000000001
44
0.0000000001
40
0
40
0
40
0
40
0
40
0.051123997820689937
40
0.097252350988887251
40
0.097252350988887251
40
0.097252350988887251
40
0.097252350988887251
10
-131.33451167110286
20
29.995333705070728
30
0
10
-131.49212397935335
20
29.926917483407127
30
0
10
-131.79194731429493
20
29.796770415763891
30
0
10
-132.11756565743258
20
29.772221283394398
30
0
10
-132.27201167110286
20
29.760577235344165
30
0
0
SPLINE
5
227
100
AcDbEntity
8
0
100
AcDbSpline
70
0
71
3
72
9
73
5
74
0
42
0.000000001
43
0.0000000001
44
0.0000000001
40
0
40
0
40
0
40
0
40
0.030685194639791968
40
0.062097285354397569
40
0.062097285354397569
40
0.062097285354397569
40
0.062097285354397569
10
-132.27201167110286
20
29.760577235344165
30
0
10
-132.37470651998183
20
29.765593265682714
30
0
10
-132.58252893760456
20
29.775744150203273
30
0
10
-132.77976694386604
20
29.842100235109491
30
0
10
-132.8795403576263
20
29.875666651848071
30
0
0
SPLINE
5
228
100
AcDbEntity
8
0
100
AcDbSpline
70
0
71
3
72
9
73
5
74
0
42
0.000000001
43
0.0000000001
44
0.0000000001
40
0
40
0
40
0
40
0
40
0.03005163820105217
40
0.056560785459383978
40
0.056560785459383978
40
0.056560785459383978
40
0.056560785459383978
10
-132.8795403576263
20
29.875666651848071
30
0
10
-132.97259475448271
20
29.914355750677757
30
0
10
-133.14773428402972
20
29.98717327243423
30
0
10
-133.29532798385705
20
30.106052247716377
30
0
10
-133.3645028210052
20
30.161768946769946
30
0
0
SPLINE
5
229
100
AcDbEntity
8
0
100
AcDbSpline
70
0
71
3
72
9
73
5
74
0
42
0.000000001
43
0.0000000001
44
0.0000000001
40
0
40
0
40
0
40
0
40
0.024263425252279203
40
0.047914719229275905
40
0.047914719229275905
40
0.047914719229275905
40
0.047914719229275905
10
-133.3645028210052
20
30.161768946769946
30
0
10
-133.42120075365216
20
30.220679259484889
30
0
10
-133.53316621176091
20
30.337013662566747
30
0
10
-133.5920000880769
20
30.487318673534102
30
0
10
-133.62104121211848
20
30.56151107323479
30
0
0
SPLINE
5
230
100
AcDbEntity
8
0
100
AcDbSpline
70
0
71
3
72
9
73
5
74
0
42
0.000000001
43
0.0000000001
44
0.0000000001
40
0
40
0
40
0
40
0
40
0.055999669854841269
40
0.10610970745759402
40
0.10610970745759402
40
0.10610970745759402
40
0.10610970745759402
10
-133.62104121211848
20
30.56151107323479
30
0
10
-133.75558334636239
20
30.430247358933393
30
0
10
-134.01051746548035
20
30.181525279670733
30
0
10
-134.32834114895658
20
30.021451509536746
30
0
10
-134.47843256954036
20
29.945857081535575
30
0
0
SPLINE
5
231
100
AcDbEntity
8
0
100
AcDbSpline
70
0
71
3
72
9
73
5
74
0
42
0.000000001
43
0.0000000001
44
0.0000000001
40
0
40
0
40
0
40
0
40
0.04689451716621286
40
0.092733851590312777
40
0.092733851590312777
40
0.092733851590312777
40
0.092733851590312777
10
-134.47843256954036
20
29.945857081535575
30
0
10
-134.62615430407251
20
29.891819148464137
30
0
10
-134.91827385737159
20
29.784959200467828
30
0
10
-135.22884473026465
20
29.768642670551117
30
0
10
-135.38236323360286
20
29.760577235344169
30
0
0
SPLINE
5
232
100
AcDbEntity
8
0
100
AcDbSpline
70
0
71
3
72
9
73
5
74
0
42
0.000000001
43
0.0000000001
44
0.0000000001
40
0
40
0
40
0
40
0
40
0.042446972774122294
40
0.082275789098274835
40
0.082275789098274835
40
0.082275789098274835
40
0.082275789098274835
10
-135.38236323360286
20
29.760577235344169
30
0
10
-135.52512323396647
20
29.767366662161837
30
0
10
-135.8018377064941
20
29.780526739605332
30
0
10
-136.05442357050495
20
29.893805023193138
30
0
10
-136.17669764522395
20
29.948641810539481
30
0
0
SPLINE
5
233
100
AcDbEntity
8
0
100
AcDbSpline
70
0
71
3
72
9
73
5
74
0
42
0.000000001
43
0.0000000001
44
0.0000000001
40
0
40
0
40
0
40
0
40
0.036856931149413838
40
0.070307614213777292
40
0.070307614213777292
40
0.070307614213777292
40
0.070307614213777292
10
-136.17669764522395
20
29.948641810539481
30
0
10
-136.28332933611264
20
30.012951284699309
30
0
10
-136.48673801806643
20
30.135626872669206
30
0
10
-136.62051766344251
20
30.331490600269994
30
0
10
-136.68416682247005
20
30.424677882316825
30
0
0
SPLINE
5
234
100
AcDbEntity
8
0
100
AcDbSpline
70
0
71
3
72
9
73
5
74
0
42
0.000000001
43
0.0000000001
44
0.0000000001
40
0
40
0
40
0
40
0
40
0.036816255631857323
40
0.083833383320186194
40
0.083833383320186194
40
0.083833383320186194
40
0.083833383320186194
10
-136.68416682247005
20
30.424677882316825
30
0
10
-136.73056544659488
20
30.539355856607781
30
0
10
-136.83621860374052
20
30.800486229920317
30
0
10
-136.84110792328073
20
31.082900732559054
30
0
10
-136.84385005000911
20
31.241290125969169
30
0
0
LINE
5
235
100
AcDbEntity
8
0
100
AcDbLine
10
-136.84385005000911
20
31.241290125969172
30
0
11
-136.84385005000911
21
33.461749110344165
31
0
0
SPLINE
5
236
100
AcDbEntity
8
0
100
AcDbSpline
70
0
71
3
72
9
73
5
74
0
42
0.000000001
43
0.0000000001
44
0.0000000001
40
0
40
0
40
0
40
0
40
0.026549634294999326
40
0.038349010617516319
40
0.038349010617516319
40
0.038349010617516319
40
0.038349010617516319
10
-136.84385005000911
20
33.461749110344165
30
0
10
-136.84299989715396
20
33.550308008633593
30
0
10
-136.84177191335175
20
33.678224879089932
30
0
10
-136.85123736481981
20
33.805739416818128
30
0
10
-136.8541497326263
20
33.844973597648853
30
0
0
SPLINE
5
237
100
AcDbEntity
8
0
100
AcDbSpline
70
0
71
3
72
9
73
5
74
0
42
0.000000001
43
0.0000000001
44
0.0000000001
40
0
40
0
40
0
40
0
40
0.0071103199943209567
40
0.015355861208967654
40
0.015355861208967654
40
0.015355861208967654
40
0.015355861208967654
10
-136.8541497326263
20
33.844973597648853
30
0
10
-136.86226339589376
20
33.867485351924458
30
0
10
-136.87978613567637
20
33.916103047682547
30
0
10
-136.91450782408768
20
33.9545086507298
30
0
10
-136.93315211299739
20
33.975131068351978
30
0
0
SPLINE
5
238
100
AcDbEntity
8
0
100
AcDbSpline
70
0
71
3
72
9
73
5
74
0
42
0.000000001
43
0.0000000001
44
0.0000000001
40
0
40
0
40
0
40
0
40
0.0086029708911562492
40
0.016798043950835666
40
0.016798043950835666
40
0.016798043950835666
40
0.016798043950835666
10
-136.93315211299739
20
33.975131068351978
30
0
10
-136.95426977536835
20
33.994926709246165
30
0
10
-136.99550383568703
20
34.033579408410503
30
0
10
-137.04771699966446
20
34.055136848338421
30
0
10
-137.07318964961848
20
34.065653834465259
30
0
0
SPLINE
5
239
100
AcDbEntity
8
0
100
AcDbSpline
70
0
71
3
72
9
73
5
74
0
42
0.000000001
43
0.0000000001
44
0.0000000001
40
0
40
0
40
0
40
0
40
0.012429352394425811
40
0.033748146018867844
40
0.033748146018867844
40
0.033748146018867844
40
0.033748146018867844
10
-137.07318964961848
20
34.065653834465259
30
0
10
-137.11401785784369
20
34.07311189046721
30
0
10
-137.22487450500819
20
34.093361985161089
30
0
10
-137.3377388744444
20
34.092301704781036
30
0
10
-137.40903559688411
20
34.091631922844165
30
0
0
LINE
5
240
100
AcDbEntity
8
0
100
AcDbLine
10
-137.40903559688411
20
34.091631922844172
30
0
11
-137.66416255000911
21
34.091631922844165
31
0
0
LINE
5
241
100
AcDbEntity
8
0
100
AcDbLine
10
-137.66416255000911
20
34.091631922844165
30
0
11
-137.66416255000911
21
34.687335047844165
31
0
0
LINE
5
242
100
AcDbEntity
8
0
100
AcDbLine
10
-137.66416255000911
20
34.687335047844165
30
0
11
-135.06162348750911
21
34.687335047844165
31
0
0
LINE
5
243
100
AcDbEntity
8
0
100
AcDbLine
10
-135.06162348750911
20
34.687335047844165
30
0
11
-135.06162348750911
21
34.094302210930103
31
0
0
SPLINE
5
244
100
AcDbEntity
8
0
100
AcDbSpline
70
0
71
3
72
9
73
5
74
0
42
0.000000001
43
0.0000000001
44
0.0000000001
40
0
40
0
40
0
40
0
40
0.03885999792520186
40
0.058670048539388162
40
0.058670048539388162
40
0.058670048539388162
40
0.058670048539388162
10
-135.06162348750911
20
34.094302210930103
30
0
10
-135.19168439245215
20
34.095010887364069
30
0
10
-135.3880477484351
20
34.096080832886443
30
0
10
-135.58011509714535
20
34.057392772152362
30
0
10
-135.64496699336848
20
34.044329676750415
30
0
0
SPLINE
5
245
100
AcDbEntity
8
0
100
AcDbSpline
70
0
71
3
72
9
73
5
74
0
42
0.000000001
43
0.0000000001
44
0.0000000001
40
0
40
0
40
0
40
0
40
0.010333733257343889
40
0.020729606408260562
40
0.020729606408260562
40
0.020729606408260562
40
0.020729606408260562
10
-135.64496699336848
20
34.044329676750415
30
0
10
-135.67566697030583
20
34.027254531881766
30
0
10
-135.73725153251638
20
33.993001564084324
30
0
10
-135.772840569078
20
33.93216797310366
30
0
10
-135.79068842891536
20
33.90165999901604
30
0
0
SPLINE
5
246
100
AcDbEntity
8
0
100
AcDbSpline
70
0
71
3
72
9
73
5
74
0
42
0.000000001
43
0.0000000001
44
0.0000000001
40
0
40
0
40
0
40
0
40
0.016305536923058771
40
0.044406602137886247
40
0.044406602137886247
40
0.044406602137886247
40
0.044406602137886247
10
-135.79068842891536
20
33.90165999901604
30
0
10
-135.80426516427048
20
33.848840487204768
30
0
10
-135.84124013100046
20
33.704991495467276
30
0
10
-135.83925003388879
20
33.556020107838876
30
0
10
-135.83799067500911
20
33.461749110344165
30
0
0
LINE
5
247
100
AcDbEntity
8
0
100
AcDbLine
10
-135.83799067500911
20
33.461749110344165
30
0
11
-135.83799067500911
21
31.352755580070731
31
0
0
SPLINE
5
248
100
AcDbEntity
8
0
100
AcDbSpline
70
0
71
3
72
9
73
5
74
0
42
0.000000001
43
0.0000000001
44
0.0000000001
40
0
40
0
40
0
40
0
40
0.031662169823637523
40
0.051359158205152355
40
0.051359158205152355
40
0.051359158205152355
40
0.051359158205152355
10
-135.83799067500911
20
31.352755580070731
30
0
10
-135.83889263149464
20
31.246492111104708
30
0
10
-135.84035569375769
20
31.074122297397892
30
0
10
-135.7947508277127
20
30.908417138330687
30
0
10
-135.77726069454036
20
30.844866786125419
30
0
0
SPLINE
5
249
100
AcDbEntity
8
0
100
AcDbSpline
70
0
71
3
72
9
73
5
74
0
42
0.000000001
43
0.0000000001
44
0.0000000001
40
0
40
0
40
0
40
0
40
0.014684531359401839
40
0.031471459627927773
40
0.031471459627927773
40
0.031471459627927773
40
0.031471459627927773
10
-135.77726069454036
20
30.844866786125419
30
0
10
-135.75127695004622
20
30.802572242369944
30
0
10
-135.69558934614412
20
30.711927808870207
30
0
10
-135.60476127257456
20
30.656051174436495
30
0
10
-135.55631342891536
20
30.62624648583245
30
0
0
SPLINE
5
250
100
AcDbEntity
8
0
100
AcDbSpline
70
0
71
3
72
9
73
5
74
0
42
0.000000001
43
0.0000000001
44
0.0000000001
40
0
40
0
40
0
40
0
40
0.019364549748133716
40
0.041939965089125286
40
0.041939965089125286
40
0.041939965089125286
40
0.041939965089125286
10
-135.55631342891536
20
30.62624648583245
30
0
10
-135.49659541151672
20
30.600240567179164
30
0
10
-135.36725744097436
20
30.543916648750098
30
0
10
-135.2260050924483
20
30.53938416503631
30
0
10
-135.14997187618098
20
30.536944422844169
30
0
0
SPLINE
5
251
100
AcDbEntity
8
0
100
AcDbSpline
70
0
71
3
72
9
73
5
74
0
42
0.000000001
43
0.0000000001
44
0.0000000001
40
0
40
0
40
0
40
0
40
0.031271841427663725
40
0.063187004267707458
40
0.063187004267707458
40
0.063187004267707458
40
0.063187004267707458
10
-135.14997187618098
20
30.536944422844169
30
0
10
-135.04508507737154
20
30.543140650621567
30
0
10
-134.83315375828602
20
30.55566057439772
30
0
10
-134.63751837990321
20
30.638219525155183
30
0
10
-134.53870478633723
20
30.679919276359794
30
0
0
SPLINE
5
252
100
AcDbEntity
8
0
100
AcDbSpline
70
0
71
3
72
9
73
5
74
0
42
0.000000001
43
0.0000000001
44
0.0000000001
40
0
40
0
40
0
40
0
40
0.053800653074935985
40
0.095492666963923639
40
0.095492666963923639
40
0.095492666963923639
40
0.095492666963923639
10
-134.53870478633723
20
30.679919276359794
30
0
10
-134.37841041639334
20
30.762460753766284
30
0
10
-134.09389831458063
20
30.908966518328466
30
0
10
-133.85662364727534
20
31.123033248702431
30
0
10
-133.75302973750911
20
31.216494593742606
30
0
0
LINE
5
253
100
AcDbEntity
8
0
100
AcDbLine
10
-133.75302973750911
20
31.216494593742606
30
0
11
-133.75302973750911
21
33.461749110344165
31
0
0
SPLINE
5
254
100
AcDbEntity
8
0
100
AcDbSpline
70
0
71
3
72
9
73
5
74
0
42
0.000000001
43
0.0000000001
44
0.0000000001
40
0
40
0
40
0
40
0
40
0.02600777964413745
40
0.040398590874807586
40
0.040398590874807586
40
0.040398590874807586
40
0.040398590874807586
10
-133.75302973750911
20
33.461749110344165
30
0
10
-133.75213351363993
20
33.548653225268453
30
0
10
-133.75074138474932
20
33.683643748573452
30
0
10
-133.77116154063592
20
33.81691606063179
30
0
10
-133.77843562129817
20
33.864390406730884
30
0
0
SPLINE
5
255
100
AcDbEntity
8
0
100
AcDbSpline
70
0
71
3
72
9
73
5
74
0
42
0.000000001
43
0.0000000001
44
0.0000000001
40
0
40
0
40
0
40
0
40
0.008252272202068936
40
0.015846519288483081
40
0.015846519288483081
40
0.015846519288483081
40
0.015846519288483081
10
-133.77843562129817
20
33.864390406730884
30
0
10
-133.78771926121817
20
33.890619697877092
30
0
10
-133.80554627606421
20
33.940986791677922
30
0
10
-133.84139997297035
20
33.980522054430239
30
0
10
-133.85858241084895
20
33.999468836906665
30
0
0
SPLINE
5
256
100
AcDbEntity
8
0
100
AcDbSpline
70
0
71
3
72
9
73
5
74
0
42
0.000000001
43
0.0000000001
44
0.0000000001
40
0
40
0
40
0
40
0
40
0.007424996617165335
40
0.015073325030770211
40
0.015073325030770211
40
0.015073325030770211
40
0.015073325030770211
10
-133.85858241084895
20
33.999468836906665
30
0
10
-133.87792248089869
20
34.015281721538749
30
0
10
-133.91718433878339
20
34.04738311659964
30
0
10
-133.96541278343079
20
34.063122539588953
30
0
10
-133.98988429073177
20
34.071108851555103
30
0
0
SPLINE
5
257
100
AcDbEntity
8
0
100
AcDbSpline
70
0
71
3
72
9
73
5
74
0
42
0.000000001
43
0.0000000001
44
0.0000000001
40
0
40
0
40
0
40
0
40
0.017627337072351996
40
0.054998680032195685
40
0.054998680032195685
40
0.054998680032195685
40
0.054998680032195685
10
-133.98988429073177
20
34.071108851555103
30
0
10
-134.04838256183717
20
34.07693256234802
30
0
10
-134.2309017751339
20
34.095102998709734
30
0
10
-134.41444547442796
20
34.093036261204276
30
0
10
-134.53916255000911
20
34.091631922844165
30
0
0
LINE
5
258
100
AcDbEntity
8
0
100
AcDbLine
10
-134.53916255000911
20
34.091631922844165
30
0
11
-134.53916255000911
21
34.687335047844165
31
0
0
LINE
5
259
100
AcDbEntity
8
0
100
AcDbLine
10
-134.53916255000911
20
34.687335047844165
30
0
11
-131.98056880000911
21
34.687335047844165
31
0
0
LINE
5
260
100
AcDbEntity
8
0
100
AcDbLine
10
-131.98056880000911
20
34.687335047844165
30
0
11
-131.98056880000911
21
34.091631922844165
31
0
0
LINE
5
261
100
AcDbEntity
8
0
100
AcDbLine
10
-131.98056880000911
20
34.091631922844165
30
0
11
-132.21234980586848
21
34.091631922844165
31
0
0
SPLINE
5
262
100
AcDbEntity
8
0
100
AcDbSpline
70
0
71
3
72
9
73
5
74
0
42
0.000000001
43
0.0000000001
44
0.0000000001
40
0
40
0
40
0
40
0
40
0.021692181664746995
40
0.035629793490129388
40
0.035629793490129388
40
0.035629793490129388
40
0.035629793490129388
10
-132.21234980586848
20
34.091631922844165
30
0
10
-132.285384949898
20
34.092144852533195
30
0
10
-132.40534647057444
20
34.09298734865358
30
0
10
-132.51833882623998
20
34.054172599011231
30
0
10
-132.56253901485286
20
34.03898910057854
30
0
0
SPLINE
5
263
100
AcDbEntity
8
0
100
AcDbSpline
70
0
71
3
72
9
73
5
74
0
42
0.000000001
43
0.0000000001
44
0.0000000001
40
0
40
0
40
0
40
0
40
0.010534510453837912
40
0.021689644436218791
40
0.021689644436218791
40
0.021689644436218791
40
0.021689644436218791
10
-132.56253901485286
20
34.03898910057854
30
0
10
-132.59181363511158
20
34.018717467593184
30
0
10
-132.6520875422095
20
33.976979931376327
30
0
10
-132.68782202334623
20
33.912882154226921
30
0
10
-132.7062005138763
20
33.879916224601978
30
0
0
SPLINE
5
264
100
AcDbEntity
8
0
100
AcDbSpline
70
0
71
3
72
9
73
5
74
0
42
0.000000001
43
0.0000000001
44
0.0000000001
40
0
40
0
40
0
40
0
40
0.015473491068657572
40
0.042144547789548611
40
0.042144547789548611
40
0.042144547789548611
40
0.042144547789548611
10
-132.7062005138763
20
33.879916224601978
30
0
10
-132.71795963035532
20
33.829546714373677
30
0
10
-132.74998748006391
20
33.692357231952826
30
0
10
-132.7482622006558
20
33.551126546399239
30
0
10
-132.74717036250911
20
33.461749110344165
30
0
0
LINE
5
265
100
AcDbEntity
8
0
100
AcDbLine
10
-132.74717036250911
20
33.461749110344165
30
0
11
-132.74717036250911
21
31.424471888664481
31
0
0
SPLINE
5
266
100
AcDbEntity
8
0
100
AcDbSpline
70
0
71
3
72
9
73
5
74
0
42
0.000000001
43
0.0000000001
44
0.0000000001
40
0
40
0
40
0
40
0
40
0.035421591570554772
40
0.056627229924136116
40
0.056627229924136116
40
0.056627229924136116
40
0.056627229924136116
10
-132.74717036250911
20
31.424471888664481
30
0
10
-132.74842210401803
20
31.305721105114586
30
0
10
-132.75042321834093
20
31.115878480162035
30
0
10
-132.70512148685145
20
30.932025998825296
30
0
10
-132.68815699580989
20
30.863177333000419
30
0
0
SPLINE
5
267
100
AcDbEntity
8
0
100
AcDbSpline
70
0
71
3
72
9
73
5
74
0
42
0.000000001
43
0.0000000001
44
0.0000000001
40
0
40
0
40
0
40
0
40
0.015205750075767386
40
0.033013848863919157
40
0.033013848863919157
40
0.033013848863919157
40
0.033013848863919157
10
-132.68815699580989
20
30.863177333000419
30
0
10
-132.66181858088336
20
30.818996114654574
30
0
10
-132.60463413122665
20
30.723072397782619
30
0
10
-132.50911886696144
20
30.664560550330773
30
0
10
-132.45759669307552
20
30.632998499992603
30
0
0
SPLINE
5
268
100
AcDbEntity
8
0
100
AcDbSpline
70
0
71
3
72
9
73
5
74
0
42
0.000000001
43
0.0000000001
44
0.0000000001
40
0
40
0
40
0
40
0
40
0.02011322414305055
40
0.042270749075189573
40
0.042270749075189573
40
0.042270749075189573
40
0.042270749075189573
10
-132.45759669307552
20
30.632998499992603
30
0
10
-132.39596498061013
20
30.605000585496956
30
0
10
-132.26643733083256
20
30.54615905865586
30
0
10
-132.12413218498028
20
30.540113427848322
30
0
10
-132.04953852657161
20
30.536944422844165
30
0
0
SPLINE
5
269
100
AcDbEntity
8
0
100
AcDbSpline
70
0
71
3
72
9
73
5
74
0
42
0.000000001
43
0.0000000001
44
0.0000000001
40
0
40
0
40
0
40
0
40
0.029179713116122146
40
0.060560179196492356
40
0.060560179196492356
40
0.060560179196492356
40
0.060560179196492356
10
-132.04953852657161
20
30.536944422844165
30
0
10
-131.95176482781417
20
30.543761893910606
30
0
10
-131.74884327427148
20
30.557911014150676
30
0
10
-131.56206327796616
20
30.638829157866443
30
0
10
-131.46527949336848
20
30.680758509758228
30
0
0
SPLINE
5
270
100
AcDbEntity
8
0
100
AcDbSpline
70
0
71
3
72
9
73
5
74
0
42
0.000000001
43
0.0000000001
44
0.0000000001
40
0
40
0
40
0
40
0
40
0.049225671677728344
40
0.097054450846471824
40
0.097054450846471824
40
0.097054450846471824
40
0.097054450846471824
10
-131.46527949336848
20
30.680758509758228
30
0
10
-131.31919476834395
20
30.7567689714738
30
0
10
-131.03117081090292
20
30.906632921907807
30
0
10
-130.78401077252084
20
31.11711636027476
30
0
10
-130.66220942500911
20
31.220843348625415
30
0
0
LINE
5
271
100
AcDbEntity
8
0
100
AcDbLine
10
-130.66220942500911
20
31.220843348625415
30
0
11
-130.66220942500911
21
33.637530360344165
31
0
0
SPLINE
5
272
100
AcDbEntity
8
0
100
AcDbSpline
70
0
71
3
72
9
73
5
74
0
42
0.000000001
43
0.0000000001
44
0.0000000001
40
0
40
0
40
0
40
0
40
0.016773731640653489
40
0.028175378738403836
40
0.028175378738403836
40
0.028175378738403836
40
0.028175378738403836
10
-130.66220942500911
20
33.637530360344165
30
0
10
-130.66214765579164
20
33.694054518770798
30
0
10
-130.66204390004225
20
33.788999973107281
30
0
10
-130.69496776501435
20
33.877649974077592
30
0
10
-130.70829096797786
20
33.913523707512134
30
0
0
SPLINE
5
273
100
AcDbEntity
8
0
100
AcDbSpline
70
0
71
3
72
9
73
5
74
0
42
0.000000001
43
0.0000000001
44
0.0000000001
40
0
40
0
40
0
40
0
40
0.009371263334366664
40
0.019882625871806787
40
0.019882625871806787
40
0.019882625871806787
40
0.019882625871806787
10
-130.70829096797786
20
33.913523707512134
30
0
10
-130.72689025259069
20
33.939126582303338
30
0
10
-130.76635159352688
20
33.993447153879806
30
0
10
-130.82556763695897
20
34.025360134282018
30
0
10
-130.85687342647395
20
34.042231593254321
30
0
0
SPLINE
5
274
100
AcDbEntity
8
0
100
AcDbSpline
70
0
71
3
72
9
73
5
74
0
42
0.000000001
43
0.0000000001
44
0.0000000001
40
0
40
0
40
0
40
0
40
0.013319230395444562
40
0.031242270631477734
40
0.031242270631477734
40
0.031242270631477734
40
0.031242270631477734
10
-130.85687342647395
20
34.042231593254321
30
0
10
-130.89916753642819
20
34.056562111662402
30
0
10
-130.99837477213751
20
34.090176511376349
30
0
10
-131.10337613673258
20
34.091101357739674
30
0
10
-131.16361323360286
20
34.091631922844165
30
0
0
LINE
5
275
100
AcDbEntity
8
0
100
AcDbLine
10
-131.16361323360286
20
34.091631922844165
30
0
11
-131.44345942500911
21
34.091631922844165
31
0
0
LINE
5
276
100
AcDbEntity
8
0
100
AcDbLine
10
-131.44345942500911
20
34.091631922844165
30
0
11
-131.44345942500911
21
34.687335047844165
31
0
0
LINE
5
277
100
AcDbEntity
8
0
100
AcDbLine
10
-131.44345942500911
20
34.687335047844165
30
0
11
-128.83603755000911
21
34.687335047844165
31
0
0
LINE
5
278
100
AcDbEntity
8
0
100
AcDbLine
10
-128.83603755000911
20
34.687335047844165
30
0
11
-128.83603755000911
21
34.091631922844165
31
0
0
LINE
5
279
100
AcDbEntity
8
0
100
AcDbLine
10
-128.83603755000911
20
34.091631922844165
30
0
11
-129.06247797969661
21
34.091631922844165
31
0
0
SPLINE
5
280
100
AcDbEntity
8
0
100
AcDbSpline
70
0
71
3
72
9
73
5
74
0
42
0.000000001
43
0.0000000001
44
0.0000000001
40
0
40
0
40
0
40
0
40
0.024490858307565682
40
0.036922915874578903
40
0.036922915874578903
40
0.036922915874578903
40
0.036922915874578903
10
-129.06247797969661
20
34.091631922844165
30
0
10
-129.144526287134
20
34.093233946607413
30
0
10
-129.26822398343836
20
34.095649190201435
30
0
10
-129.3888400588632
20
34.069756274041318
30
0
10
-129.42945185664973
20
34.061038050773853
30
0
0
SPLINE
5
281
100
AcDbEntity
8
0
100
AcDbSpline
70
0
71
3
72
9
73
5
74
0
42
0.000000001
43
0.0000000001
44
0.0000000001
40
0
40
0
40
0
40
0
40
0.015374276501836825
40
0.031252143254779638
40
0.031252143254779638
40
0.031252143254779638
40
0.031252143254779638
10
-129.42945185664973
20
34.061038050773853
30
0
10
-129.47448859902147
20
34.034357319942281
30
0
10
-129.5660372793227
20
33.980121920833213
30
0
10
-129.61489531049273
20
33.885495899374703
30
0
10
-129.63971796993098
20
33.837420497062915
30
0
0
SPLINE
5
282
100
AcDbEntity
8
0
100
AcDbSpline
70
0
71
3
72
9
73
5
74
0
42
0.000000001
43
0.0000000001
44
0.0000000001
40
0
40
0
40
0
40
0
40
0.011337447774889623
40
0.037639257610249117
40
0.037639257610249117
40
0.037639257610249117
40
0.037639257610249117
10
-129.63971796993098
20
33.837420497062915
30
0
10
-129.64441223696764
20
33.799892288603893
30
0
10
-129.65999676090922
20
33.675302175036279
30
0
10
-129.65785010467587
20
33.54959300037725
30
0
10
-129.65635005000911
20
33.461749110344165
30
0
0
SPLINE
5
283
100
AcDbEntity
8
0
100
AcDbSpline
70
0
71
3
72
9
73
5
74
0
42
0.000000001
43
0.0000000001
44
0.0000000001
40
0
40
0
40
0
40
0
40
0.041095329050476609
40
0.082337526841922498
40
0.082337526841922498
40
0.082337526841922498
40
0.082337526841922498
10
-144.79940119747005
20
29.225413355949637
30
0
10
-144.73773985104003
20
29.349426025687052
30
0
10
-144.61419678947811
20
29.597894568442875
30
0
10
-144.59673642808053
20
29.874845492000162
30
0
10
-144.58799067500911
20
30.013567958000419
30
0
0
SPLINE
5
284
100
AcDbEntity
8
0
100
AcDbSpline
70
0
71
3
72
9
73
5
74
0
42
0.000000001
43
0.0000000001
44
0.0000000001
40
0
40
0
40
0
40
0
40
0.021281088410302872
40
0.050197055125735204
40
0.050197055125735204
40
0.050197055125735204
40
0.050197055125735204
10
-144.58799067500911
20
30.013567958000419
30
0
10
-144.58947587972409
20
30.084499922371613
30
0
10
-144.59297912643376
20
30.251811652724371
30
0
10
-144.60501418791381
20
30.41873781360281
30
0
10
-144.61194697383723
20
30.514895472648856
30
0
0
LINE
5
285
100
AcDbEntity
8
0
100
AcDbLine
10
-144.61194697383723
20
30.514895472648856
30
0
11
-143.9586419201263
21
30.585772547844169
31
0
0
SPLINE
5
286
100
AcDbEntity
8
0
100
AcDbSpline
70
0
71
3
72
9
73
5
74
0
42
0.000000001
43
0.0000000001
44
0.0000000001
40
0
40
0
40
0
40
0
40
0.037773794265861374
40
0.065509315251665728
40
0.065509315251665728
40
0.065509315251665728
40
0.065509315251665728
10
-143.9586419201263
20
30.585772547844169
30
0
10
-143.94435868431847
20
30.460604922451978
30
0
10
-143.91958794006223
20
30.243532595181701
30
0
10
-143.91234589516216
20
30.025207691268857
30
0
10
-143.90927973750911
20
29.932772669914481
30
0
0
SPLINE
5
287
100
AcDbEntity
8
0
100
AcDbSpline
70
0
71
3
72
9
73
5
74
0
42
0.000000001
43
0.0000000001
44
0.0000000001
40
0
40
0
40
0
40
0
40
0.058131537179584358
40
0.11740842767724302
40
0.11740842767724302
40
0.11740842767724302
40
0.11740842767724302
10
-143.90927973750911
20
29.932772669914481
30
0
10
-143.92311820742196
20
29.737195478499054
30
0
10
-143.95106780367823
20
29.342187679846159
30
0
10
-144.13582445380146
20
28.991811090549145
30
0
10
-144.22910395625911
20
28.814913783195731
30
0
0
SPLINE
5
288
100
AcDbEntity
8
0
100
AcDbSpline
70
0
71
3
72
9
73
5
74
0
42
0.000000001
43
0.0000000001
44
0.0000000001
40
0
40
0
40
0
40
0
40
0.060432067355459231
40
0.1223231141423938
40
0.1223231141423938
40
0.1223231141423938
40
0.1223231141423938
10
-144.22910395625911
20
28.814913783195731
30
0
10
-144.3473215252927
20
28.648873755798064
30
0
10
-144.58661072758781
20
28.312785084462288
30
0
10
-144.94124364380087
20
28.101679871654703
30
0
10
-145.12067500118098
20
27.994868312004325
30
0
0
SPLINE
5
289
100
AcDbEntity
8
0
100
AcDbSpline
70
0
71
3
72
9
73
5
74
0
42
0.000000001
43
0.0000000001
44
0.0000000001
40
0
40
0
40
0
40
0
40
0.065007068080127878
40
0.1344416204965789
40
0.1344416204965789
40
0.1344416204965789
40
0.1344416204965789
10
-145.12067500118098
20
27.994868312004325
30
0
10
-145.3216153727486
20
27.908899706889873
30
0
10
-145.73718170998808
20
27.73110736946018
30
0
10
-146.18903522812423
20
27.710614325049711
30
0
10
-146.42240229610286
20
27.700030360344169
30
0
0
SPLINE
5
290
100
AcDbEntity
8
0
100
AcDbSpline
70
0
71
3
72
9
73
5
74
0
42
0.000000001
43
0.0000000001
44
0.0000000001
40
0
40
0
40
0
40
0
40
0.066905913422808883
40
0.12882155468129641
40
0.12882155468129641
40
0.12882155468129641
40
0.12882155468129641
10
-146.42240229610286
20
27.700030360344169
30
0
10
-146.64729194813648
20
27.709728137756979
30
0
10
-147.08029753949026
20
27.728400370140641
30
0
10
-147.47903842509317
20
27.897342548357006
30
0
10
-147.67068568233333
20
27.97854140770745
30
0
0
SPLINE
5
291
100
AcDbEntity
8
0
100
AcDbSpline
70
0
71
3
72
9
73
5
74
0
42
0.000000001
43
0.0000000001
44
0.0000000001
40
0
40
0
40
0
40
0
40
0.058174185713760027
40
0.11417178817183016
40
0.11417178817183016
40
0.11417178817183016
40
0.11417178817183016
10
-147.67068568233333
20
27.97854140770745
30
0
10
-147.83975948034029
20
28.078462315854384
30
0
10
-148.17158119154459
20
28.274565598073437
30
0
10
-148.3933867356497
20
28.589522363264312
30
0
10
-148.50217524532161
20
28.743998561027762
30
0
0
SPLINE
5
292
100
AcDbEntity
8
0
100
AcDbSpline
70
0
71
3
72
9
73
5
74
0
42
0.000000001
43
0.0000000001
44
0.0000000001
40
0
40
0
40
0
40
0
40
0.056275983874703936
40
0.11505225518563228
40
0.11505225518563228
40
0.11505225518563228
40
0.11505225518563228
10
-148.50217524532161
20
28.743998561027762
30
0
10
-148.58672320082124
20
28.913804670299726
30
0
10
-148.75957549556259
20
29.260961209748864
30
0
10
-148.78109742045973
20
29.648401570154
30
0
10
-148.79209223750911
20
29.846331629875419
30
0
0
SPLINE
5
293
100
AcDbEntity
8
0
100
AcDbSpline
70
0
71
3
72
9
73
5
74
0
42
0.000000001
43
0.0000000001
44
0.0000000001
40
0
40
0
40
0
40
0
40
0.050468482956760152
40
0.098961420615297571
40
0.098961420615297571
40
0.098961420615297571
40
0.098961420615297571
10
-148.79209223750911
20
29.846331629875419
30
0
10
-148.78496522809689
20
30.015479089501799
30
0
10
-148.77099018991757
20
30.34715287712956
30
0
10
-148.66006267543787
20
30.659935495364529
30
0
10
-148.60570612911067
20
30.813204798820731
30
0
0
SPLINE
5
294
100
AcDbEntity
8
0
100
AcDbSpline
70
0
71
3
72
9
73
5
74
0
42
0.000000001
43
0.0000000001
44
0.0000000001
40
0
40
0
40
0
40
0
40
0.050796166235770539
40
0.1079676907853553
40
0.1079676907853553
40
0.1079676907853553
40
0.1079676907853553
10
-148.60570612911067
20
30.813204798820731
30
0
10
-148.53061359947156
20
30.965758856081578
30
0
10
-148.37100377807801
20
31.290013824575489
30
0
10
-148.13453326204922
20
31.563628569062551
30
0
10
-148.00931635860286
20
31.708514247062919
30
0
0
SPLINE
5
295
100
AcDbEntity
8
0
100
AcDbSpline
70
0
71
3
72
9
73
5
74
0
42
0.000000001
43
0.0000000001
44
0.0000000001
40
0
40
0
40
0
40
0
40
0.061653446935029818
40
0.15795808351150256
40
0.15795808351150256
40
0.15795808351150256
40
0.15795808351150256
10
-148.00931635860286
20
31.708514247062919
30
0
10
-147.86009206533041
20
31.850056405191904
30
0
10
-147.47777470027683
20
32.212691896727314
30
0
10
-147.053384620272
20
32.525541397329917
30
0
10
-146.79464045528255
20
32.716280970695728
30
0
0
SPLINE
5
296
100
AcDbEntity
8
0
100
AcDbSpline
70
0
71
3
72
9
73
5
74
0
42
0.000000001
43
0.0000000001
44
0.0000000001
40
0
40
0
40
0
40
0
40
0.12139114705097487
40
0.20094823409610429
40
0.20094823409610429
40
0.20094823409610429
40
0.20094823409610429
10
-146.79464045528255
20
32.716280970695728
30
0
10
-146.4703678138726
20
32.960513080370667
30
0
10
-145.93357401761952
20
33.364809541364941
30
0
10
-145.3299142964415
20
33.658123614768989
30
0
10
-145.09092036250911
20
33.774249110344165
30
0
0
LINE
5
297
100
AcDbEntity
8
0
100
AcDbLine
10
-145.09092036250911
20
33.774249110344165
30
0
11
-147.47678462032161
21
33.774249110344165
31
0
0
SPLINE
5
298
100
AcDbEntity
8
0
100
AcDbSpline
70
0
71
3
72
9
73
5
74
0
42
0.000000001
43
0.0000000001
44
0.0000000001
40
0
40
0
40
0
40
0
40
0.033671961966314327
40
0.05249004452936927
40
0.05249004452936927
40
0.05249004452936927
40
0.05249004452936927
10
-147.47678462032161
20
33.774249110344165
30
0
10
-147.59004077801006
20
33.776380623894383
30
0
10
-147.76659184344072
20
33.779703365862247
30
0
10
-147.93481602765667
20
33.72873862249083
30
0
10
-147.99512568477473
20
33.710467372062915
30
0
0
SPLINE
5
299
100
AcDbEntity
8
0
100
AcDbSpline
70
0
71
3
72
9
73
5
74
0
42
0.000000001
43
0.0000000001
44
0.0000000001
40
0
40
0
40
0
40
0
40
0.020405303470003439
40
0.051428296323807035
40
0.051428296323807035
40
0.051428296323807035
40
0.051428296323807035
10
-147.99512568477473
20
33.710467372062915
30
0
10
-148.04348403402059
20
33.660752707127166
30
0
10
-148.16536350120924
20
33.535454863666374
30
0
10
-148.19442335644516
20
33.360899542639999
30
0
10
-148.21195307735286
20
33.25560287010979
30
0
0
LINE
5
300
100
AcDbEntity
8
0
100
AcDbLine
10
-148.21195307735286
20
33.25560287010979
30
0
11
-148.26329890254817
21
32.929522547844165
31
0
0
LINE
5
301
100
AcDbEntity
8
0
100
AcDbLine
10
-148.26329890254817
20
32.929522547844165
30
0
11
-148.85556880000911
21
32.929522547844165
31
0
0
LINE
5
302
100
AcDbEntity
8
0
100
AcDbLine
10
-148.85556880000911
20
32.929522547844165
30
0
11
-148.51079646114192
21
34.921710047844165
31
0
0
LINE
5
303
100
AcDbEntity
8
0
100
AcDbLine
10
-148.51079646114192
20
34.921710047844165
30
0
11
-148.03891840938411
21
34.921710047844165
31
0
0
LINE
5
304
100
AcDbEntity
8
0
100
AcDbLine
10
-148.03891840938411
20
34.921710047844165
30
0
11
-147.98627558711848
21
34.687335047844165
31
0
0
LINE
5
305
100
AcDbEntity
8
0
100
AcDbLine
10
-147.98627558711848
20
34.687335047844165
30
0
11
-143.78720942500911
21
34.687335047844165
31
0
0
LINE
5
306
100
AcDbEntity
8
0
100
AcDbLine
10
-143.78720942500911
20
34.687335047844165
30
0
11
-143.78720942500911
21
34.14030745995354
31
0
0
LINE
5
307
100
AcDbEntity
8
0
100
AcDbLine
10
-143.78720942500911
20
34.14030745995354
30
0
11
-144.59119502071223
21
33.532321009758228
31
0
0
SPLINE
5
308
100
AcDbEntity
8
0
100
AcDbSpline
70
0
71
3
72
9
73
5
74
0
42
0.000000001
43
0.0000000001
44
0.0000000001
40
0
40
0
40
0
40
0
40
0.094891553653489114
40
0.16109079007174443
40
0.16109079007174443
40
0.16109079007174443
40
0.16109079007174443
10
-144.59119502071223
20
33.532321009758228
30
0
10
-144.84524263265905
20
33.34379740911708
30
0
10
-145.27652159215205
20
33.023754005830092
30
0
10
-145.69338584174682
20
32.685197020310596
30
0
10
-145.86469355586848
20
32.54606917870354
30
0
0
SPLINE
5
309
100
AcDbEntity
8
0
100
AcDbSpline
70
0
71
3
72
9
73
5
74
0
42
0.000000001
43
0.0000000001
44
0.0000000001
40
0
40
0
40
0
40
0
40
0.089724148755662744
40
0.15893563992931026
40
0.15893563992931026
40
0.15893563992931026
40
0.15893563992931026
10
-145.86469355586848
20
32.54606917870354
30
0
10
-146.09242869190336
20
32.351667103378695
30
0
10
-146.49583435338994
20
32.007306987692552
30
0
10
-146.85512323752772
20
31.617360349602691
30
0
10
-147.01158228877864
20
31.447550807121512
30
0
0
SPLINE
5
310
100
AcDbEntity
8
0
100
AcDbSpline
70
0
71
3
72
9
73
5
74
0
42
0.000000001
43
0.0000000001
44
0.0000000001
40
0
40
0
40
0
40
0
40
0.053555496746414279
40
0.096542556647565239
40
0.096542556647565239
40
0.096542556647565239
40
0.096542556647565239
10
-147.01158228877864
20
31.447550807121512
30
0
10
-147.12539388987955
20
31.308991325468057
30
0
10
-147.3305579461194
20
31.05921516019551
30
0
10
-147.47116758891872
20
30.768532808577078
30
0
10
-147.53377619747005
20
30.639102015617606
30
0
0
SPLINE
5
311
100
AcDbEntity
8
0
100
AcDbSpline
70
0
71
3
72
9
73
5
74
0
42
0.000000001
43
0.0000000001
44
0.0000000001
40
0
40
0
40
0
40
0
40
0.037879844014246558
40
0.075989862249390833
40
0.075989862249390833
40
0.075989862249390833
40
0.075989862249390833
10
-147.53377619747005
20
30.639102015617606
30
0
10
-147.57465375075233
20
30.518897290103212
30
0
10
-147.65665724690837
20
30.277757423473108
30
0
10
-147.66815958540093
20
30.023305262387382
30
0
10
-147.67392817500911
20
29.895693812492606
30
0
0
SPLINE
5
312
100
AcDbEntity
8
0
100
AcDbSpline
70
0
71
3
72
9
73
5
74
0
42
0.000000001
43
0.0000000001
44
0.0000000001
40
0
40
0
40
0
40
0
40
0.05837305617710211
40
0.11355951177436072
40
0.11355951177436072
40
0.11355951177436072
40
0.11355951177436072
10
-147.67392817500911
20
29.895693812492606
30
0
10
-147.65901505615514
20
29.696557448488257
30
0
10
-147.63000292955087
20
29.309155627273945
30
0
10
-147.38675255288746
20
29.00707331464243
30
0
10
-147.26854029659114
20
28.860270533684012
30
0
0
SPLINE
5
313
100
AcDbEntity
8
0
100
AcDbSpline
70
0
71
3
72
9
73
5
74
0
42
0.000000001
43
0.0000000001
44
0.0000000001
40
0
40
0
40
0
40
0
40
0.055625368332594564
40
0.11543693988374112
40
0.11543693988374112
40
0.11543693988374112
40
0.11543693988374112
10
-147.26854029659114
20
28.860270533684012
30
0
10
-147.11949478003442
20
28.742653626759505
30
0
10
-146.81018701542195
20
28.498568307040376
30
0
10
-146.41629864338648
20
28.471099016207614
30
0
10
-146.21221247676692
20
28.456866297844169
30
0
0
SPLINE
5
314
100
AcDbEntity
8
0
100
AcDbSpline
70
0
71
3
72
9
73
5
74
0
42
0.000000001
43
0.0000000001
44
0.0000000001
40
0
40
0
40
0
40
0
40
0.044601708221561481
40
0.086625899201627443
40
0.086625899201627443
40
0.086625899201627443
40
0.086625899201627443
10
-146.21221247676692
20
28.456866297844169
30
0
10
-146.06216602292537
20
28.464241674643695
30
0
10
-145.77074424774415
20
28.47856620777673
30
0
10
-145.50571082879827
20
28.600090876361925
30
0
10
-145.37713709834895
20
28.659045252922294
30
0
0
SPLINE
5
315
100
AcDbEntity
8
0
100
AcDbSpline
70
0
71
3
72
9
73
5
74
0
42
0.000000001
43
0.0000000001
44
0.0000000001
40
0
40
0
40
0
40
0
40
0.040769337324363587
40
0.081676873605297406
40
0.081676873605297406
40
0.081676873605297406
40
0.081676873605297406
10
-145.37713709834895
20
28.659045252922294
30
0
10
-145.26142404435379
20
28.733291056868289
30
0
10
-145.02960569492978
20
28.882034341469019
30
0
10
-144.87622253911218
20
29.110824645150167
30
0
10
-144.79940119747005
20
29.225413355949637
30
0
0
SPLINE
5
316
100
AcDbEntity
8
0
100
AcDbSpline
70
0
71
3
72
9
73
5
74
0
42
0.000000001
43
0.0000000001
44
0.0000000001
40
0
40
0
40
0
40
0
40
0.041095329050476609
40
0.082337526841922498
40
0.082337526841922498
40
0.082337526841922498
40
0.082337526841922498
10
-157.21151057247005
20
29.225413355949637
30
0
10
-157.14984922604003
20
29.349426025687055
30
0
10
-157.02630616447811
20
29.597894568442875
30
0
10
-157.00884580308053
20
29.874845492000169
30
0
10
-157.00010005000911
20
30.013567958000419
30
0
0
SPLINE
5
317
100
AcDbEntity
8
0
100
AcDbSpline
70
0
71
3
72
9
73
5
74
0
42
0.000000001
43
0.0000000001
44
0.0000000001
40
0
40
0
40
0
40
0
40
0.021281088410302872
40
0.050197055125735204
40
0.050197055125735204
40
0.050197055125735204
40
0.050197055125735204
10
-157.00010005000911
20
30.013567958000419
30
0
10
-157.00158525472409
20
30.08449992237162
30
0
10
-157.00508850143376
20
30.251811652724371
30
0
10
-157.01712356291378
20
30.41873781360281
30
0
10
-157.02405634883723
20
30.514895472648856
30
0
0
LINE
5
318
100
AcDbEntity
8
0
100
AcDbLine
10
-157.02405634883723
20
30.514895472648856
30
0
11
-156.3707512951263
21
30.585772547844169
31
0
0
SPLINE
5
319
100
AcDbEntity
8
0
100
AcDbSpline
70
0
71
3
72
9
73
5
74
0
42
0.000000001
43
0.0000000001
44
0.0000000001
40
0
40
0
40
0
40
0
40
0.037773794265861374
40
0.065509315251665728
40
0.065509315251665728
40
0.065509315251665728
40
0.065509315251665728
10
-156.3707512951263
20
30.585772547844169
30
0
10
-156.35646805931847
20
30.460604922451981
30
0
10
-156.33169731506223
20
30.243532595181701
30
0
10
-156.32445527016216
20
30.025207691268857
30
0
10
-156.32138911250911
20
29.932772669914481
30
0
0
SPLINE
5
320
100
AcDbEntity
8
0
100
AcDbSpline
70
0
71
3
72
9
73
5
74
0
42
0.000000001
43
0.0000000001
44
0.0000000001
40
0
40
0
40
0
40
0
40
0.058131537179584358
40
0.11740842767724302
40
0.11740842767724302
40
0.11740842767724302
40
0.11740842767724302
10
-156.32138911250911
20
29.932772669914481
30
0
10
-156.33522758242196
20
29.737195478499054
30
0
10
-156.36317717867826
20
29.342187679846162
30
0
10
-156.54793382880146
20
28.991811090549145
30
0
10
-156.64121333125911
20
28.814913783195731
30
0
0
SPLINE
5
321
100
AcDbEntity
8
0
100
AcDbSpline
70
0
71
3
72
9
73
5
74
0
42
0.000000001
43
0.0000000001
44
0.0000000001
40
0
40
0
40
0
40
0
40
0.060432067355459231
40
0.1223231141423938
40
0.1223231141423938
40
0.1223231141423938
40
0.1223231141423938
10
-156.64121333125911
20
28.814913783195731
30
0
10
-156.7594309002927
20
28.648873755798068
30
0
10
-156.99872010258781
20
28.312785084462288
30
0
10
-157.35335301880087
20
28.101679871654703
30
0
10
-157.53278437618098
20
27.994868312004325
30
0
0
SPLINE
5
322
100
AcDbEntity
8
0
100
AcDbSpline
70
0
71
3
72
9
73
5
74
0
42
0.000000001
43
0.0000000001
44
0.0000000001
40
0
40
0
40
0
40
0
40
0.065007068080127878
40
0.1344416204965789
40
0.1344416204965789
40
0.1344416204965789
40
0.1344416204965789
10
-157.53278437618098
20
27.994868312004325
30
0
10
-157.7337247477486
20
27.908899706889873
30
0
10
-158.14929108498808
20
27.73110736946018
30
0
10
-158.60114460312423
20
27.710614325049711
30
0
10
-158.83451167110286
20
27.700030360344169
30
0
0
SPLINE
5
323
100
AcDbEntity
8
0
100
AcDbSpline
70
0
71
3
72
9
73
5
74
0
42
0.000000001
43
0.0000000001
44
0.0000000001
40
0
40
0
40
0
40
0
40
0.066905913422808883
40
0.12882155468129641
40
0.12882155468129641
40
0.12882155468129641
40
0.12882155468129641
10
-158.83451167110286
20
27.700030360344169
30
0
10
-159.05940132313648
20
27.709728137756983
30
0
10
-159.49240691449023
20
27.728400370140648
30
0
10
-159.89114780009317
20
27.897342548357006
30
0
10
-160.08279505733333
20
27.97854140770745
30
0
0
SPLINE
5
324
100
AcDbEntity
8
0
100
AcDbSpline
70
0
71
3
72
9
73
5
74
0
42
0.000000001
43
0.0000000001
44
0.0000000001
40
0
40
0
40
0
40
0
40
0.058174185713760027
40
0.11417178817183016
40
0.11417178817183016
40
0.11417178817183016
40
0.11417178817183016
10
-160.08279505733333
20
27.97854140770745
30
0
10
-160.25186885534026
20
28.078462315854388
30
0
10
-160.58369056654465
20
28.274565598073437
30
0
10
-160.80549611064967
20
28.589522363264312
30
0
10
-160.91428462032161
20
28.743998561027762
30
0
0
SPLINE
5
325
100
AcDbEntity
8
0
100
AcDbSpline
70
0
71
3
72
9
73
5
74
0
42
0.000000001
43
0.0000000001
44
0.0000000001
40
0
40
0
40
0
40
0
40
0.056275983874703936
40
0.11505225518563228
40
0.11505225518563228
40
0.11505225518563228
40
0.11505225518563228
10
-160.91428462032161
20
28.743998561027762
30
0
10
-160.99883257582124
20
28.913804670299726
30
0
10
-161.17168487056259
20
29.260961209748864
30
0
10
-161.19320679545973
20
29.648401570154
30
0
10
-161.20420161250911
20
29.846331629875419
30
0
0
SPLINE
5
326
100
AcDbEntity
8
0
100
AcDbSpline
70
0
71
3
72
9
73
5
74
0
42
0.000000001
43
0.0000000001
44
0.0000000001
40
0
40
0
40
0
40
0
40
0.050468482956760152
40
0.098961420615297571
40
0.098961420615297571
40
0.098961420615297571
40
0.098961420615297571
10
-161.20420161250911
20
29.846331629875419
30
0
10
-161.19707460309689
20
30.015479089501802
30
0
10
-161.18309956491757
20
30.34715287712956
30
0
10
-161.07217205043787
20
30.659935495364529
30
0
10
-161.01781550411067
20
30.813204798820731
30
0
0
SPLINE
5
327
100
AcDbEntity
8
0
100
AcDbSpline
70
0
71
3
72
9
73
5
74
0
42
0.000000001
43
0.0000000001
44
0.0000000001
40
0
40
0
40
0
40
0
40
0.050796166235770539
40
0.1079676907853553
40
0.1079676907853553
40
0.1079676907853553
40
0.1079676907853553
10
-161.01781550411067
20
30.813204798820731
30
0
10
-160.94272297447156
20
30.965758856081585
30
0
10
-160.78311315307801
20
31.290013824575489
30
0
10
-160.54664263704922
20
31.563628569062551
30
0
10
-160.42142573360286
20
31.708514247062919
30
0
0
SPLINE
5
328
100
AcDbEntity
8
0
100
AcDbSpline
70
0
71
3
72
9
73
5
74
0
42
0.000000001
43
0.0000000001
44
0.0000000001
40
0
40
0
40
0
40
0
40
0.061653446935029818
40
0.15795808351150256
40
0.15795808351150256
40
0.15795808351150256
40
0.15795808351150256
10
-160.42142573360286
20
31.708514247062919
30
0
10
-160.27220144033041
20
31.850056405191904
30
0
10
-159.8898840752768
20
32.212691896727314
30
0
10
-159.465493995272
20
32.525541397329924
30
0
10
-159.20674983028255
20
32.716280970695728
30
0
0
SPLINE
5
329
100
AcDbEntity
8
0
100
AcDbSpline
70
0
71
3
72
9
73
5
74
0
42
0.000000001
43
0.0000000001
44
0.0000000001
40
0
40
0
40
0
40
0
40
0.12139114705097487
40
0.20094823409610429
40
0.20094823409610429
40
0.20094823409610429
40
0.20094823409610429
10
-159.20674983028255
20
32.716280970695728
30
0
10
-158.8824771888726
20
32.960513080370667
30
0
10
-158.34568339261952
20
33.364809541364941
30
0
10
-157.7420236714415
20
33.658123614768989
30
0
10
-157.50302973750911
20
33.774249110344165
30
0
0
LINE
5
330
100
AcDbEntity
8
0
100
AcDbLine
10
-157.50302973750911
20
33.774249110344165
30
0
11
-159.88889399532161
21
33.774249110344165
31
0
0
SPLINE
5
331
100
AcDbEntity
8
0
100
AcDbSpline
70
0
71
3
72
9
73
5
74
0
42
0.000000001
43
0.0000000001
44
0.0000000001
40
0
40
0
40
0
40
0
40
0.033671961966314327
40
0.05249004452936927
40
0.05249004452936927
40
0.05249004452936927
40
0.05249004452936927
10
-159.88889399532161
20
33.774249110344165
30
0
10
-160.00215015301009
20
33.776380623894383
30
0
10
-160.17870121844069
20
33.779703365862247
30
0
10
-160.34692540265667
20
33.72873862249083
30
0
10
-160.40723505977473
20
33.710467372062915
30
0
0
SPLINE
5
332
100
AcDbEntity
8
0
100
AcDbSpline
70
0
71
3
72
9
73
5
74
0
42
0.000000001
43
0.0000000001
44
0.0000000001
40
0
40
0
40
0
40
0
40
0.020405303470003439
40
0.051428296323807035
40
0.051428296323807035
40
0.051428296323807035
40
0.051428296323807035
10
-160.40723505977473
20
33.710467372062915
30
0
10
-160.45559340902059
20
33.660752707127173
30
0
10
-160.57747287620924
20
33.535454863666374
30
0
10
-160.60653273144513
20
33.360899542640006
30
0
10
-160.62406245235286
20
33.25560287010979
30
0
0
LINE
5
333
100
AcDbEntity
8
0
100
AcDbLine
10
-160.62406245235286
20
33.25560287010979
30
0
11
-160.67540827754817
21
32.929522547844165
31
0
0
LINE
5
334
100
AcDbEntity
8
0
100
AcDbLine
10
-160.67540827754817
20
32.929522547844165
30
0
11
-161.26767817500911
21
32.929522547844165
31
0
0
LINE
5
335
100
AcDbEntity
8
0
100
AcDbLine
10
-161.26767817500911
20
32.929522547844165
30
0
11
-160.92290583614192
21
34.921710047844165
31
0
0
LINE
5
336
100
AcDbEntity
8
0
100
AcDbLine
10
-160.92290583614192
20
34.921710047844165
30
0
11
-160.45102778438411
21
34.921710047844165
31
0
0
LINE
5
337
100
AcDbEntity
8
0
100
AcDbLine
10
-160.45102778438411
20
34.921710047844165
30
0
11
-160.39838496211848
21
34.687335047844165
31
0
0
LINE
5
338
100
AcDbEntity
8
0
100
AcDbLine
10
-160.39838496211848
20
34.687335047844165
30
0
11
-156.19931880000911
21
34.687335047844165
31
0
0
LINE
5
339
100
AcDbEntity
8
0
100
AcDbLine
10
-156.19931880000911
20
34.687335047844165
30
0
11
-156.19931880000911
21
34.14030745995354
31
0
0
LINE
5
340
100
AcDbEntity
8
0
100
AcDbLine
10
-156.19931880000911
20
34.14030745995354
30
0
11
-157.00330439571223
21
33.532321009758228
31
0
0
SPLINE
5
341
100
AcDbEntity
8
0
100
AcDbSpline
70
0
71
3
72
9
73
5
74
0
42
0.000000001
43
0.0000000001
44
0.0000000001
40
0
40
0
40
0
40
0
40
0.094891553653489114
40
0.16109079007174443
40
0.16109079007174443
40
0.16109079007174443
40
0.16109079007174443
10
-157.00330439571223
20
33.532321009758228
30
0
10
-157.25735200765905
20
33.34379740911708
30
0
10
-157.68863096715208
20
33.023754005830092
30
0
10
-158.10549521674682
20
32.685197020310596
30
0
10
-158.27680293086848
20
32.54606917870354
30
0
0
SPLINE
5
342
100
AcDbEntity
8
0
100
AcDbSpline
70
0
71
3
72
9
73
5
74
0
42
0.000000001
43
0.0000000001
44
0.0000000001
40
0
40
0
40
0
40
0
40
0.089724148755662744
40
0.15893563992931026
40
0.15893563992931026
40
0.15893563992931026
40
0.15893563992931026
10
-158.27680293086848
20
32.54606917870354
30
0
10
-158.50453806690336
20
32.351667103378695
30
0
10
-158.90794372838991
20
32.007306987692552
30
0
10
-159.26723261252772
20
31.617360349602691
30
0
10
-159.42369166377864
20
31.447550807121512
30
0
0
SPLINE
5
343
100
AcDbEntity
8
0
100
AcDbSpline
70
0
71
3
72
9
73
5
74
0
42
0.000000001
43
0.0000000001
44
0.0000000001
40
0
40
0
40
0
40
0
40
0.053555496746414279
40
0.096542556647565239
40
0.096542556647565239
40
0.096542556647565239
40
0.096542556647565239
10
-159.42369166377864
20
31.447550807121512
30
0
10
-159.53750326487955
20
31.308991325468057
30
0
10
-159.7426673211194
20
31.05921516019551
30
0
10
-159.88327696391872
20
30.768532808577078
30
0
10
-159.94588557247005
20
30.639102015617606
30
0
0
SPLINE
5
344
100
AcDbEntity
8
0
100
AcDbSpline
70
0
71
3
72
9
73
5
74
0
42
0.000000001
43
0.0000000001
44
0.0000000001
40
0
40
0
40
0
40
0
40
0.037879844014246558
40
0.075989862249390833
40
0.075989862249390833
40
0.075989862249390833
40
0.075989862249390833
10
-159.94588557247005
20
30.639102015617606
30
0
10
-159.98676312575233
20
30.518897290103212
30
0
10
-160.06876662190834
20
30.277757423473108
30
0
10
-160.08026896040093
20
30.023305262387382
30
0
10
-160.08603755000911
20
29.895693812492606
30
0
0
SPLINE
5
345
100
AcDbEntity
8
0
100
AcDbSpline
70
0
71
3
72
9
73
5
74
0
42
0.000000001
43
0.0000000001
44
0.0000000001
40
0
40
0
40
0
40
0
40
0.05837305617710211
40
0.11355951177436072
40
0.11355951177436072
40
0.11355951177436072
40
0.11355951177436072
10
-160.08603755000911
20
29.895693812492606
30
0
10
-160.07112443115514
20
29.69655744848826
30
0
10
-160.04211230455087
20
29.309155627273945
30
0
10
-159.79886192788743
20
29.00707331464243
30
0
10
-159.68064967159114
20
28.860270533684012
30
0
0
SPLINE
5
346
100
AcDbEntity
8
0
100
AcDbSpline
70
0
71
3
72
9
73
5
74
0
42
0.000000001
43
0.0000000001
44
0.0000000001
40
0
40
0
40
0
40
0
40
0.055625368332594564
40
0.11543693988374112
40
0.11543693988374112
40
0.11543693988374112
40
0.11543693988374112
10
-159.68064967159114
20
28.860270533684012
30
0
10
-159.53160415503442
20
28.742653626759509
30
0
10
-159.22229639042195
20
28.498568307040379
30
0
10
-158.82840801838648
20
28.471099016207614
30
0
10
-158.62432185176692
20
28.456866297844169
30
0
0
SPLINE
5
347
100
AcDbEntity
8
0
100
AcDbSpline
70
0
71
3
72
9
73
5
74
0
42
0.000000001
43
0.0000000001
44
0.0000000001
40
0
40
0
40
0
40
0
40
0.044601708221561481
40
0.086625899201627443
40
0.086625899201627443
40
0.086625899201627443
40
0.086625899201627443
10
-158.62432185176692
20
28.456866297844169
30
0
10
-158.47427539792537
20
28.464241674643699
30
0
10
-158.18285362274415
20
28.478566207776733
30
0
10
-157.91782020379827
20
28.600090876361925
30
0
10
-157.78924647334895
20
28.659045252922294
30
0
0
SPLINE
5
348
100
AcDbEntity
8
0
100
AcDbSpline
70
0
71
3
72
9
73
5
74
0
42
0.000000001
43
0.0000000001
44
0.0000000001
40
0
40
0
40
0
40
0
40
0.040769337324363587
40
0.081676873605297406
40
0.081676873605297406
40
0.081676873605297406
40
0.081676873605297406
10
-157.78924647334895
20
28.659045252922294
30
0
10
-157.67353341935382
20
28.733291056868289
30
0
10
-157.44171506992978
20
28.882034341469023
30
0
10
-157.28833191411218
20
29.110824645150167
30
0
10
-157.21151057247005
20
29.225413355949637
30
0
0
SPLINE
5
349
100
AcDbEntity
8
0
100
AcDbSpline
70
0
71
3
72
9
73
5
74
0
42
0.000000001
43
0.0000000001
44
0.0000000001
40
0
40
0
40
0
40
0
40
0.2912850380970321
40
0.54924638391985248
40
0.54924638391985248
40
0.54924638391985248
40
0.54924638391985248
10
-65.362212742629779
20
15.564784659804719
30
0
10
-65.401028685581949
20
14.582968095197174
30
0
10
-65.474219936475549
20
12.731657086206498
30
0
10
-66.261831202717545
20
11.05791336278287
30
0
10
-66.631743992629779
20
10.271815909804719
30
0
0
SPLINE
5
350
100
AcDbEntity
8
0
100
AcDbSpline
70
0
71
3
72
9
73
5
74
0
42
0.000000001
43
0.0000000001
44
0.0000000001
40
0
40
0
40
0
40
0
40
0.23058148229380138
40
0.43972665444330922
40
0.43972665444330922
40
0.43972665444330922
40
0.43972665444330922
10
-66.631743992629779
20
10.271815909804719
30
0
10
-67.052000676021834
20
9.6203745409746162
30
0
10
-67.853444328639029
20
8.3780539051976533
30
0
10
-69.024146864241729
20
7.477490501629978
30
0
10
-69.580962742629779
20
7.0491596598047188
30
0
0
SPLINE
5
351
100
AcDbEntity
8
0
100
AcDbSpline
70
0
71
3
72
9
73
5
74
0
42
0.000000001
43
0.0000000001
44
0.0000000001
40
0
40
0
40
0
40
0
40
0.42247249536316434
40
0.89886786981112232
40
0.89886786981112232
40
0.89886786981112232
40
0.89886786981112232
10
-69.580962742629779
20
7.0491596598047188
30
0
10
-68.886649920977547
20
8.2967314717534695
30
0
10
-67.409404671095402
20
10.951110702000868
30
0
10
-67.271329419760249
20
13.992125086757323
30
0
10
-67.198150242629779
20
15.603847159804719
30
0
0
SPLINE
5
352
100
AcDbEntity
8
0
100
AcDbSpline
70
0
71
3
72
9
73
5
74
0
42
0.000000001
43
0.0000000001
44
0.0000000001
40
0
40
0
40
0
40
0
40
0.14713154565450801
40
0.3469173549181539
40
0.3469173549181539
40
0.3469173549181539
40
0.3469173549181539
10
-67.198150242629779
20
15.603847159804719
30
0
10
-67.215093177867104
20
16.094193069320347
30
0
10
-67.255042450818308
20
17.25036597002206
30
0
10
-67.392453983761683
20
18.399249363802728
30
0
10
-67.471587742629779
20
19.060878409804719
30
0
0
SPLINE
5
353
100
AcDbEntity
8
0
100
AcDbSpline
70
0
71
3
72
9
73
5
74
0
42
0.000000001
43
0.0000000001
44
0.0000000001
40
0
40
0
40
0
40
0
40
0.23187807723725645
40
0.49133007673256629
40
0.49133007673256629
40
0.49133007673256629
40
0.49133007673256629
10
-67.471587742629779
20
19.060878409804719
30
0
10
-67.621971066620233
20
19.823842348422794
30
0
10
-67.940620638825905
20
21.440498545385477
30
0
10
-68.732902498259975
20
22.886922710870131
30
0
10
-69.151275242629779
20
23.650722159804719
30
0
0
SPLINE
5
354
100
AcDbEntity
8
0
100
AcDbSpline
70
0
71
3
72
9
73
5
74
0
42
0.000000001
43
0.0000000001
44
0.0000000001
40
0
40
0
40
0
40
0
40
0.45129657029535641
40
0.91899762647772332
40
0.91899762647772332
40
0.91899762647772332
40
0.91899762647772332
10
-69.151275242629779
20
23.650722159804719
30
0
10
-68.046230860358932
20
22.556874543294359
30
0
10
-65.795974086205277
20
20.329418299513385
30
0
10
-65.508510306086151
20
17.171784228982226
30
0
10
-65.362212742629779
20
15.564784659804719
30
0
0
LINE
5
355
100
AcDbEntity
8
0
100
AcDbLine
10
-101.55361899262978
20
13.260097159804722
30
0
11
-100.73330649262978
21
13.260097159804722
31
0
0
SPLINE
5
356
100
AcDbEntity
8
0
100
AcDbSpline
70
0
71
3
72
9
73
5
74
0
42
0.000000001
43
0.0000000001
44
0.0000000001
40
0
40
0
40
0
40
0
40
0.11156024492479687
40
0.22299218836198403
40
0.22299218836198403
40
0.22299218836198403
40
0.22299218836198403
10
-100.73330649262978
20
13.260097159804722
30
0
10
-100.35252400683081
20
13.296633899062741
30
0
10
-99.591396959687231
20
13.369665357968634
30
0
10
-99.024436245548372
20
13.882655777787075
30
0
10
-98.741118992629779
20
14.139003409804722
30
0
0
LINE
5
357
100
AcDbEntity
8
0
100
AcDbLine
10
-98.741118992629779
20
14.139003409804721
30
0
11
-98.233306492629779
21
13.885097159804722
31
0
0
SPLINE
5
358
100
AcDbEntity
8
0
100
AcDbSpline
70
0
71
3
72
9
73
5
74
0
42
0.000000001
43
0.0000000001
44
0.0000000001
40
0
40
0
40
0
40
0
40
0.19256861665167724
40
0.33774506926220949
40
0.33774506926220949
40
0.33774506926220949
40
0.33774506926220949
10
-98.233306492629779
20
13.885097159804722
30
0
10
-98.596425723500332
20
13.319163450621062
30
0
10
-99.233298605038698
20
12.326575337721046
30
0
10
-100.36433075716631
20
12.050598244922195
30
0
10
-100.85049399262978
20
11.931972159804722
30
0
0
LINE
5
359
100
AcDbEntity
8
0
100
AcDbLine
10
-100.85049399262978
20
11.931972159804722
30
0
11
-101.55361899262978
21
11.931972159804722
31
0
0
LINE
5
360
100
AcDbEntity
8
0
100
AcDbLine
10
-101.55361899262978
20
11.931972159804722
30
0
11
-101.55361899262978
21
8.1624409098047224
31
0
0
SPLINE
5
361
100
AcDbEntity
8
0
100
AcDbSpline
70
0
71
3
72
9
73
5
74
0
42
0.000000001
43
0.0000000001
44
0.0000000001
40
0
40
0
40
0
40
0
40
0.2128419032909375
40
0.36355005150499509
40
0.36355005150499509
40
0.36355005150499509
40
0.36355005150499509
10
-101.55361899262978
20
8.1624409098047224
30
0
10
-101.55601113262931
20
7.4470228543798278
30
0
10
-101.56009708848005
20
6.2250347642724009
30
0
10
-101.94212565398296
20
5.0679053164904451
30
0
10
-102.10049399262978
20
4.5882221598047224
30
0
0
SPLINE
5
362
100
AcDbEntity
8
0
100
AcDbSpline
70
0
71
3
72
9
73
5
74
0
42
0.000000001
43
0.0000000001
44
0.0000000001
40
0
40
0
40
0
40
0
40
0.12812801450579139
40
0.2741437035126828
40
0.2741437035126828
40
0.2741437035126828
40
0.2741437035126828
10
-102.10049399262978
20
4.5882221598047224
30
0
10
-102.32962847284952
20
4.2182783390150451
30
0
10
-102.81988640162635
20
3.4267436421410036
30
0
10
-103.6503539962409
20
2.9994193521872403
30
0
10
-104.09268149262978
20
2.7718159098047224
30
0
0
SPLINE
5
363
100
AcDbEntity
8
0
100
AcDbSpline
70
0
71
3
72
9
73
5
74
0
42
0.000000001
43
0.0000000001
44
0.0000000001
40
0
40
0
40
0
40
0
40
0.19975000492711831
40
0.46240764990896005
40
0.46240764990896005
40
0.46240764990896005
40
0.46240764990896005
10
-104.09268149262978
20
2.7718159098047224
30
0
10
-103.77515598056905
20
3.3670071350561539
30
0
10
-103.04010605718256
20
4.7448342635979905
30
0
10
-103.0138471343448
20
6.3140569176144385
30
0
10
-102.99893149262978
20
7.2054096598047224
30
0
0
LINE
5
364
100
AcDbEntity
8
0
100
AcDbLine
10
-102.99893149262978
20
7.2054096598047215
30
0
11
-102.99893149262978
21
25.857753409804722
31
0
0
SPLINE
5
365
100
AcDbEntity
8
0
100
AcDbSpline
70
0
71
3
72
9
73
5
74
0
42
0.000000001
43
0.0000000001
44
0.0000000001
40
0
40
0
40
0
40
0
40
0.20320949264340638
40
0.34880575875307734
40
0.34880575875307734
40
0.34880575875307734
40
0.34880575875307734
10
-102.99893149262978
20
25.857753409804722
30
0
10
-102.32048689171529
20
25.859152135005338
30
0
10
-101.15594786986375
20
25.861553023854285
30
0
10
-100.00344102097942
20
26.024226351231032
30
0
10
-99.522368992629779
20
26.092128409804722
30
0
0
LINE
5
366
100
AcDbEntity
8
0
100
AcDbLine
10
-99.522368992629779
20
26.092128409804722
30
0
11
-99.522368992629779
21
25.740565909804722
31
0
0
SPLINE
5
367
100
AcDbEntity
8
0
100
AcDbSpline
70
0
71
3
72
9
73
5
74
0
42
0.000000001
43
0.0000000001
44
0.0000000001
40
0
40
0
40
0
40
0
40
0.13182689494451763
40
0.22493638089139104
40
0.22493638089139104
40
0.22493638089139104
40
0.22493638089139104
10
-99.522368992629779
20
25.740565909804722
30
0
10
-99.923953103703923
20
25.540230439493449
30
0
10
-100.60917652951946
20
25.198397798476169
30
0
10
-101.04230135916673
20
24.57346673586968
30
0
10
-101.22158774262978
20
24.314784659804722
30
0
0
SPLINE
5
368
100
AcDbEntity
8
0
100
AcDbSpline
70
0
71
3
72
9
73
5
74
0
42
0.000000001
43
0.0000000001
44
0.0000000001
40
0
40
0
40
0
40
0
40
0.11884910062289941
40
0.31531359875548637
40
0.31531359875548637
40
0.31531359875548637
40
0.31531359875548637
10
-101.22158774262978
20
24.314784659804722
30
0
10
-101.31708483613727
20
23.929005507365364
30
0
10
-101.57044419743426
20
22.905510905866826
30
0
10
-101.56007795489876
20
21.848428118591162
30
0
10
-101.55361899262978
20
21.189784659804722
30
0
0
LINE
5
369
100
AcDbEntity
8
0
100
AcDbLine
10
-101.55361899262978
20
21.189784659804722
30
0
11
-101.55361899262978
21
13.260097159804722
31
0
0
SPLINE
5
370
100
AcDbEntity
8
0
100
AcDbSpline
70
0
71
3
72
9
73
5
74
0
42
0.000000001
43
0.0000000001
44
0.0000000001
40
0
40
0
40
0
40
0
40
0.35460953044530769
40
0.72568047187018703
40
0.72568047187018703
40
0.72568047187018703
40
0.72568047187018703
10
-114.15127524262978
20
24.861659659804722
30
0
10
-113.16590259582625
20
24.114041720882874
30
0
10
-111.14941509081643
20
22.584100497887167
30
0
10
-110.89993741781591
20
20.059065987280796
30
0
10
-110.77236899262978
20
18.767909659804722
30
0
0
SPLINE
5
371
100
AcDbEntity
8
0
100
AcDbSpline
70
0
71
3
72
9
73
5
74
0
42
0.000000001
43
0.0000000001
44
0.0000000001
40
0
40
0
40
0
40
0
40
0.36251816539631443
40
0.707040294602578
40
0.707040294602578
40
0.707040294602578
40
0.707040294602578
10
-110.77236899262978
20
18.767909659804722
30
0
10
-110.89826153974582
20
17.501386746272697
30
0
10
-111.14379710760869
20
15.03121333323662
30
0
10
-113.16593880690422
20
13.603985314595739
30
0
10
-114.15127524262978
20
12.908534659804724
30
0
0
SPLINE
5
372
100
AcDbEntity
8
0
100
AcDbSpline
70
0
71
3
72
9
73
5
74
0
42
0.000000001
43
0.0000000001
44
0.0000000001
40
0
40
0
40
0
40
0
40
0.28385104023089491
40
0.63155563494272182
40
0.63155563494272182
40
0.63155563494272182
40
0.63155563494272182
10
-114.15127524262978
20
12.908534659804724
30
0
10
-113.62289532428917
20
13.714345272544961
30
0
10
-112.44727407397725
20
15.507237180775332
30
0
10
-112.37478051162128
20
17.660532390729301
30
0
10
-112.33486899262978
20
18.846034659804722
30
0
0
SPLINE
5
373
100
AcDbEntity
8
0
100
AcDbSpline
70
0
71
3
72
9
73
5
74
0
42
0.000000001
43
0.0000000001
44
0.0000000001
40
0
40
0
40
0
40
0
40
0.34964108456493936
40
0.63864625532102615
40
0.63864625532102615
40
0.63864625532102615
40
0.63864625532102615
10
-112.33486899262978
20
18.846034659804722
30
0
10
-112.37728674056866
20
20.036598973949602
30
0
10
-112.45476601024322
20
22.211255999434975
30
0
10
-113.62273626062384
20
24.035939630809647
30
0
10
-114.15127524262978
20
24.861659659804722
30
0
0
SPLINE
5
374
100
AcDbEntity
8
0
100
AcDbSpline
70
0
71
3
72
9
73
5
74
0
42
0.000000001
43
0.0000000001
44
0.0000000001
40
0
40
0
40
0
40
0
40
0.18721049528941691
40
0.38142677931596064
40
0.38142677931596064
40
0.38142677931596064
40
0.38142677931596064
10
-172.31533774262977
20
11.717128409804731
30
0
10
-172.95121530643215
20
11.782526459559509
30
0
10
-174.24676623601789
20
11.91576988404246
30
0
10
-175.24470409155444
20
12.754768018063547
30
0
10
-175.75283774262977
20
13.181972159804731
30
0
0
SPLINE
5
375
100
AcDbEntity
8
0
100
AcDbSpline
70
0
71
3
72
9
73
5
74
0
42
0.000000001
43
0.0000000001
44
0.0000000001
40
0
40
0
40
0
40
0
40
0.22737397192942271
40
0.52576176088578497
40
0.52576176088578497
40
0.52576176088578497
40
0.52576176088578497
10
-175.75283774262977
20
13.181972159804731
30
0
10
-176.20162182240369
20
13.806035563384782
30
0
10
-177.23935497205673
20
15.249070890543814
30
0
10
-177.4747256049414
20
17.020420593970798
30
0
10
-177.60830649262977
20
18.025722159804729
30
0
0
LINE
5
376
100
AcDbEntity
8
0
100
AcDbLine
10
-177.60830649262977
20
18.025722159804729
30
0
11
-168.54580649262977
21
18.025722159804729
31
0
0
SPLINE
5
377
100
AcDbEntity
8
0
100
AcDbSpline
70
0
71
3
72
9
73
5
74
0
42
0.000000001
43
0.0000000001
44
0.0000000001
40
0
40
0
40
0
40
0
40
0.078667852759175122
40
0.11920696061501071
40
0.11920696061501071
40
0.11920696061501071
40
0.11920696061501071
10
-168.54580649262977
20
18.025722159804729
30
0
10
-168.53490290472709
20
18.287731517476608
30
0
10
-168.51838048129636
20
18.684759503944839
30
0
10
-168.50969700971265
20
19.082027992621789
30
0
10
-168.50674399262977
20
19.217128409804729
30
0
0
SPLINE
5
378
100
AcDbEntity
8
0
100
AcDbSpline
70
0
71
3
72
9
73
5
74
0
42
0.000000001
43
0.0000000001
44
0.0000000001
40
0
40
0
40
0
40
0
40
0.23161316269808538
40
0.43880672561901479
40
0.43880672561901479
40
0.43880672561901479
40
0.43880672561901479
10
-168.50674399262977
20
19.217128409804729
30
0
10
-168.55052521160147
20
20.005708731190186
30
0
10
-168.63347167766918
20
21.499727226010393
30
0
10
-169.48934212127875
20
22.722022429671323
30
0
10
-169.89346274262977
20
23.299159659804729
30
0
0
SPLINE
5
379
100
AcDbEntity
8
0
100
AcDbSpline
70
0
71
3
72
9
73
5
74
0
42
0.000000001
43
0.0000000001
44
0.0000000001
40
0
40
0
40
0
40
0
40
0.19633824885140475
40
0.4015633868195112
40
0.4015633868195112
40
0.4015633868195112
40
0.4015633868195112
10
-169.89346274262977
20
23.299159659804729
30
0
10
-170.39858629469691
20
23.743434765842192
30
0
10
-171.43169688581719
20
24.652094272095727
30
0
10
-172.80493139830787
20
24.764930481506404
30
0
10
-173.50674399262977
20
24.822597159804729
30
0
0
SPLINE
5
380
100
AcDbEntity
8
0
100
AcDbSpline
70
0
71
3
72
9
73
5
74
0
42
0.000000001
43
0.0000000001
44
0.0000000001
40
0
40
0
40
0
40
0
40
0.17656954860965077
40
0.35064232785372118
40
0.35064232785372118
40
0.35064232785372118
40
0.35064232785372118
10
-173.50674399262977
20
24.822597159804729
30
0
10
-174.10228636208743
20
24.782288094224434
30
0
10
-175.28494987573666
20
24.702239950589373
30
0
10
-176.31546690608639
20
24.117026574619118
30
0
10
-176.82705649262977
20
23.826503409804729
30
0
0
SPLINE
5
381
100
AcDbEntity
8
0
100
AcDbSpline
70
0
71
3
72
9
73
5
74
0
42
0.000000001
43
0.0000000001
44
0.0000000001
40
0
40
0
40
0
40
0
40
0.17679894743213365
40
0.35867633953309352
40
0.35867633953309352
40
0.35867633953309352
40
0.35867633953309352
10
-176.82705649262977
20
23.826503409804729
30
0
10
-177.29776753203186
20
23.462124762416188
30
0
10
-178.2527105056339
20
22.722900907593697
30
0
10
-178.86189935899779
20
21.679705226298459
30
0
10
-179.17080649262977
20
21.150722159804729
30
0
0
LINE
5
382
100
AcDbEntity
8
0
100
AcDbLine
10
-179.17080649262982
20
21.150722159804729
30
0
11
-180.01065024262977
21
21.150722159804729
31
0
0
SPLINE
5
383
100
AcDbEntity
8
0
100
AcDbSpline
70
0
71
3
72
9
73
5
74
0
42
0.000000001
43
0.0000000001
44
0.0000000001
40
0
40
0
40
0
40
0
40
0.46519572292011557
40
0.90711723021136226
40
0.90711723021136226
40
0.90711723021136226
40
0.90711723021136226
10
-180.01065024262977
20
21.150722159804729
30
0
10
-179.29910123028006
20
22.64864258336133
30
0
10
-177.9116027270895
20
25.569540946665981
30
0
10
-174.726435093969
20
26.052269431792233
30
0
10
-173.17471274262977
20
26.287440909804729
30
0
0
SPLINE
5
384
100
AcDbEntity
8
0
100
AcDbSpline
70
0
71
3
72
9
73
5
74
0
42
0.000000001
43
0.0000000001
44
0.0000000001
40
0
40
0
40
0
40
0
40
0.27320415894790229
40
0.52721602475216023
40
0.52721602475216023
40
0.52721602475216023
40
0.52721602475216023
10
-173.17471274262977
20
26.287440909804729
30
0
10
-172.23424309002297
20
26.213073475255015
30
0
10
-170.4193707485592
20
26.06956283703741
30
0
10
-169.12862385218619
20
24.793075524102033
30
0
10
-168.50674399262977
20
24.178065909804729
30
0
0
SPLINE
5
385
100
AcDbEntity
8
0
100
AcDbSpline
70
0
71
3
72
9
73
5
74
0
42
0.000000001
43
0.0000000001
44
0.0000000001
40
0
40
0
40
0
40
0
40
0.2668755210138814
40
0.56221787506145171
40
0.56221787506145171
40
0.56221787506145171
40
0.56221787506145171
10
-168.50674399262977
20
24.178065909804729
30
0
10
-168.02856198296848
20
23.410412912221815
30
0
10
-167.02119168410013
20
21.793223611959348
30
0
10
-166.91952577642493
20
19.886651200084458
30
0
10
-166.86611899262977
20
18.885097159804729
30
0
0
SPLINE
5
386
100
AcDbEntity
8
0
100
AcDbSpline
70
0
71
3
72
9
73
5
74
0
42
0.000000001
43
0.0000000001
44
0.0000000001
40
0
40
0
40
0
40
0
40
0.28526868301978192
40
0.54294289205339596
40
0.54294289205339596
40
0.54294289205339596
40
0.54294289205339596
10
-166.86611899262977
20
18.885097159804729
30
0
10
-166.91565458689132
20
17.919049358873067
30
0
10
-167.00993412197121
20
16.080401031452954
30
0
10
-167.9455326232397
20
14.498927059922057
30
0
10
-168.38955649262977
20
13.748378409804731
30
0
0
SPLINE
5
387
100
AcDbEntity
8
0
100
AcDbSpline
70
0
71
3
72
9
73
5
74
0
42
0.000000001
43
0.0000000001
44
0.0000000001
40
0
40
0
40
0
40
0
40
0.23077114116660452
40
0.45581371339909704
40
0.45581371339909704
40
0.45581371339909704
40
0.45581371339909704
10
-168.38955649262977
20
13.748378409804731
30
0
10
-168.92391744213182
20
13.155957569627347
30
0
10
-169.97937458229543
20
11.985821903221321
30
0
10
-171.54323477562207
20
11.80593933242772
30
0
10
-172.31533774262977
20
11.717128409804731
30
0
0
LINE
5
388
100
AcDbEntity
8
0
100
AcDbLine
10
-130.34268149262977
20
12.049159659804726
30
0
11
-130.34268149262977
21
11.717128409804726
31
0
0
SPLINE
5
389
100
AcDbEntity
8
0
100
AcDbSpline
70
0
71
3
72
9
73
5
74
0
42
0.000000001
43
0.0000000001
44
0.0000000001
40
0
40
0
40
0
40
0
40
0.12793527838451077
40
0.38936691456637862
40
0.38936691456637862
40
0.38936691456637862
40
0.38936691456637862
10
-130.34268149262977
20
11.717128409804726
30
0
10
-130.76726963548919
20
11.757965441239788
30
0
10
-132.05949002406538
20
11.882251636030659
30
0
10
-133.35772777477499
20
11.911998977831395
30
0
10
-134.22940024262977
20
11.931972159804726
30
0
0
LINE
5
390
100
AcDbEntity
8
0
100
AcDbLine
10
-134.22940024262977
20
11.931972159804726
30
0
11
-134.22940024262977
21
25.857753409804726
31
0
0
SPLINE
5
391
100
AcDbEntity
8
0
100
AcDbSpline
70
0
71
3
72
9
73
5
74
0
42
0.000000001
43
0.0000000001
44
0.0000000001
40
0
40
0
40
0
40
0
40
0.24084939773291039
40
0.38962141107458481
40
0.38962141107458481
40
0.38962141107458481
40
0.38962141107458481
10
-134.22940024262977
20
25.857753409804726
30
0
10
-133.42574960907015
20
25.865782782656662
30
0
10
-132.12568618019782
20
25.878771877128411
30
0
10
-130.83537175431849
20
26.033172487450607
30
0
10
-130.34268149262977
20
26.092128409804726
30
0
0
LINE
5
392
100
AcDbEntity
8
0
100
AcDbLine
10
-130.34268149262977
20
26.092128409804726
30
0
11
-130.34268149262977
21
25.740565909804726
31
0
0
SPLINE
5
393
100
AcDbEntity
8
0
100
AcDbSpline
70
0
71
3
72
9
73
5
74
0
42
0.000000001
43
0.0000000001
44
0.0000000001
40
0
40
0
40
0
40
0
40
0.14435050591438625
40
0.24967108506537741
40
0.24967108506537741
40
0.24967108506537741
40
0.24967108506537741
10
-130.34268149262977
20
25.740565909804726
30
0
10
-130.80404896983566
20
25.569864436592002
30
0
10
-131.60203798912033
20
25.274616271237061
30
0
10
-132.14492253544211
20
24.627025225251611
30
0
10
-132.37393149262977
20
24.353847159804726
30
0
0
SPLINE
5
394
100
AcDbEntity
8
0
100
AcDbSpline
70
0
71
3
72
9
73
5
74
0
42
0.000000001
43
0.0000000001
44
0.0000000001
40
0
40
0
40
0
40
0
40
0.12468775851956675
40
0.31206628464086916
40
0.31206628464086916
40
0.31206628464086916
40
0.31206628464086916
10
-132.37393149262977
20
24.353847159804726
30
0
10
-132.50933752733602
20
23.958290415440615
30
0
10
-132.84822932128944
20
22.968298093468
30
0
10
-132.84476289168532
20
21.918054212633105
30
0
10
-132.84268149262977
20
21.287440909804726
30
0
0
LINE
5
395
100
AcDbEntity
8
0
100
AcDbLine
10
-132.84268149262977
20
21.287440909804726
30
0
11
-132.84268149262977
21
16.248378409804726
31
0
0
SPLINE
5
396
100
AcDbEntity
8
0
100
AcDbSpline
70
0
71
3
72
9
73
5
74
0
42
0.000000001
43
0.0000000001
44
0.0000000001
40
0
40
0
40
0
40
0
40
0.17972000491493978
40
0.30618484866493978
40
0.30618484866493978
40
0.30618484866493978
40
0.30618484866493978
10
-132.84268149262977
20
16.248378409804726
30
0
10
-132.84075504643658
20
15.642053596666043
30
0
10
-132.83747300425989
20
14.609071924756279
30
0
10
-132.45413728994424
20
13.654406657449474
30
0
10
-132.29580649262977
20
13.260097159804726
30
0
0
SPLINE
5
397
100
AcDbEntity
8
0
100
AcDbSpline
70
0
71
3
72
9
73
5
74
0
42
0.000000001
43
0.0000000001
44
0.0000000001
40
0
40
0
40
0
40
0
40
0.10841603179284433
40
0.23483090639239268
40
0.23483090639239268
40
0.23483090639239268
40
0.23483090639239268
10
-132.29580649262977
20
13.260097159804726
30
0
10
-132.05725948667137
20
12.977223802288908
30
0
10
-131.54056275187995
20
12.364515461638469
30
0
10
-130.76186980469103
20
12.159515728278624
30
0
10
-130.34268149262977
20
12.049159659804726
30
0
0
SPLINE
5
398
100
AcDbEntity
8
0
100
AcDbSpline
70
0
71
3
72
9
73
5
74
0
42
0.000000001
43
0.0000000001
44
0.0000000001
40
0
40
0
40
0
40
0
40
0.11924064065284445
40
0.22022400297224848
40
0.22022400297224848
40
0.22022400297224848
40
0.22022400297224848
10
-146.43643149262977
20
16.326503409804729
30
0
10
-146.59010712250253
20
15.956819936703798
30
0
10
-146.87392866341816
20
15.274056293090082
30
0
10
-147.3506460169817
20
14.71010319553584
30
0
10
-147.56924399262977
20
14.451503409804729
30
0
0
SPLINE
5
399
100
AcDbEntity
8
0
100
AcDbSpline
70
0
71
3
72
9
73
5
74
0
42
0.000000001
43
0.0000000001
44
0.0000000001
40
0
40
0
40
0
40
0
40
0.107980834461315
40
0.24122436898662641
40
0.24122436898662641
40
0.24122436898662641
40
0.24122436898662641
10
-147.56924399262977
20
14.451503409804729
30
0
10
-147.84217759475513
20
14.215075516963358
30
0
10
-148.4518990909483
20
13.686906147407976
30
0
10
-149.16663659169458
20
13.311311777242977
30
0
10
-149.56143149262977
20
13.103847159804729
30
0
0
SPLINE
5
400
100
AcDbEntity
8
0
100
AcDbSpline
70
0
71
3
72
9
73
5
74
0
42
0.000000001
43
0.0000000001
44
0.0000000001
40
0
40
0
40
0
40
0
40
0.27915086464260302
40
0.62028093407900098
40
0.62028093407900098
40
0.62028093407900098
40
0.62028093407900098
10
-149.56143149262977
20
13.103847159804729
30
0
10
-148.97620192749923
20
13.855794200226395
30
0
10
-147.67580566408597
20
15.52664130008348
30
0
10
-147.59445332381151
20
17.65563872601841
30
0
10
-147.54971274262977
20
18.826503409804726
30
0
0
SPLINE
5
401
100
AcDbEntity
8
0
100
AcDbSpline
70
0
71
3
72
9
73
5
74
0
42
0.000000001
43
0.0000000001
44
0.0000000001
40
0
40
0
40
0
40
0
40
0.32850588535744307
40
0.59641927092930858
40
0.59641927092930858
40
0.59641927092930858
40
0.59641927092930858
10
-147.54971274262977
20
18.826503409804726
30
0
10
-147.58728848957568
20
19.946726156529152
30
0
10
-147.65550918392859
20
21.980547965087723
30
0
10
-148.76850263417907
20
23.67211500233249
30
0
10
-149.26846274262977
20
24.431972159804726
30
0
0
SPLINE
5
402
100
AcDbEntity
8
0
100
AcDbSpline
70
0
71
3
72
9
73
5
74
0
42
0.000000001
43
0.0000000001
44
0.0000000001
40
0
40
0
40
0
40
0
40
0.16957354743084563
40
0.34262086331628849
40
0.34262086331628849
40
0.34262086331628849
40
0.34262086331628849
10
-149.26846274262977
20
24.431972159804726
30
0
10
-148.75926618679924
20
24.162352788291827
30
0
10
-147.73044202053308
20
23.617590806048
30
0
10
-147.11723656018484
20
22.627399828544057
30
0
10
-146.80752524262977
20
22.127284659804726
30
0
0
SPLINE
5
403
100
AcDbEntity
8
0
100
AcDbSpline
70
0
71
3
72
9
73
5
74
0
42
0.000000001
43
0.0000000001
44
0.0000000001
40
0
40
0
40
0
40
0
40
0.17763306801155096
40
0.34358046322800495
40
0.34358046322800495
40
0.34358046322800495
40
0.34358046322800495
10
-146.80752524262977
20
22.127284659804726
30
0
10
-146.55695996002396
20
21.584669889950575
30
0
10
-146.07231294677209
20
20.535136511578017
30
0
10
-145.98858861512298
20
19.382985666703338
30
0
10
-145.94815024262977
20
18.826503409804726
30
0
0
SPLINE
5
404
100
AcDbEntity
8
0
100
AcDbSpline
70
0
71
3
72
9
73
5
74
0
42
0.000000001
43
0.0000000001
44
0.0000000001
40
0
40
0
40
0
40
0
40
0.12753865123641578
40
0.25591948296261979
40
0.25591948296261979
40
0.25591948296261979
40
0.25591948296261979
10
-145.94815024262977
20
18.826503409804726
30
0
10
-145.96876178330106
20
18.399411385936709
30
0
10
-146.01012096955969
20
17.542407106323054
30
0
10
-146.29401657014998
20
16.732692845232034
30
0
10
-146.43643149262977
20
16.326503409804729
30
0
0
SPLINE
5
405
100
AcDbEntity
8
0
100
AcDbSpline
70
0
71
3
72
9
73
5
74
0
42
0.000000001
43
0.0000000001
44
0.0000000001
40
0
40
0
40
0
40
0
40
0.25188924290069814
40
0.53093375369515294
40
0.53093375369515294
40
0.53093375369515294
40
0.53093375369515294
10
-166.78799399262977
20
13.826503409804731
30
0
10
-166.42936245803804
20
14.595118637707314
30
0
10
-165.67343662070758
20
16.215210720236033
30
0
10
-165.59745771391852
20
18.003705908861136
30
0
10
-165.55752524262977
20
18.943690909804729
30
0
0
SPLINE
5
406
100
AcDbEntity
8
0
100
AcDbSpline
70
0
71
3
72
9
73
5
74
0
42
0.000000001
43
0.0000000001
44
0.0000000001
40
0
40
0
40
0
40
0
40
0.29125188671368674
40
0.55957431824216064
40
0.55957431824216064
40
0.55957431824216064
40
0.55957431824216064
10
-165.55752524262977
20
18.943690909804729
30
0
10
-165.6065714424563
20
19.92626409558417
30
0
10
-165.70080257050142
20
21.814055198877718
30
0
10
-166.56764527530333
20
23.491093788155677
30
0
10
-166.98330649262977
20
24.295253409804729
30
0
0
LINE
5
407
100
AcDbEntity
8
0
100
AcDbLine
10
-166.98330649262977
20
24.295253409804729
30
0
11
-166.90518149262977
21
24.412440909804729
31
0
0
SPLINE
5
408
100
AcDbEntity
8
0
100
AcDbSpline
70
0
71
3
72
9
73
5
74
0
42
0.000000001
43
0.0000000001
44
0.0000000001
40
0
40
0
40
0
40
0
40
0.31074718996405526
40
0.63420394347651832
40
0.63420394347651832
40
0.63420394347651832
40
0.63420394347651832
10
-166.90518149262977
20
24.412440909804729
30
0
10
-166.04508945411069
20
23.753747876370657
30
0
10
-164.28972760306823
20
22.409421257060849
30
0
10
-164.06869421269363
20
20.204807149478672
30
0
10
-163.95596274262977
20
19.080409659804729
30
0
0
SPLINE
5
409
100
AcDbEntity
8
0
100
AcDbSpline
70
0
71
3
72
9
73
5
74
0
42
0.000000001
43
0.0000000001
44
0.0000000001
40
0
40
0
40
0
40
0
40
0.13881106845576141
40
0.27785553105440541
40
0.27785553105440541
40
0.27785553105440541
40
0.27785553105440541
10
-163.95596274262977
20
19.080409659804729
30
0
10
-163.97800913263859
20
18.615545783879341
30
0
10
-164.02213898101354
20
17.68503641924303
30
0
10
-164.32949792991246
20
16.805635640418089
30
0
10
-164.48330649262977
20
16.365565909804729
30
0
0
SPLINE
5
410
100
AcDbEntity
8
0
100
AcDbSpline
70
0
71
3
72
9
73
5
74
0
42
0.000000001
43
0.0000000001
44
0.0000000001
40
0
40
0
40
0
40
0
40
0.15460097850573792
40
0.34663026782203538
40
0.34663026782203538
40
0.34663026782203538
40
0.34663026782203538
10
-164.48330649262977
20
16.365565909804729
30
0
10
-164.73244893496349
20
15.909294355013506
30
0
10
-165.29105026043158
20
14.886289631721985
30
0
10
-166.19149914003776
20
14.141469292581057
30
0
10
-166.69033774262977
20
13.728847159804731
30
0
0
LINE
5
411
100
AcDbEntity
8
0
100
AcDbLine
10
-166.69033774262977
20
13.728847159804731
30
0
11
-166.78799399262977
21
13.826503409804731
31
0
0
SPLINE
5
412
100
AcDbEntity
8
0
100
AcDbSpline
70
0
71
3
72
9
73
5
74
0
42
0.000000001
43
0.0000000001
44
0.0000000001
40
0
40
0
40
0
40
0
40
0.31234203160678192
40
0.56445502745785259
40
0.56445502745785259
40
0.56445502745785259
40
0.56445502745785259
10
-178.89736899262977
20
18.025722159804729
30
0
10
-178.83260914984916
20
16.95835447671573
30
0
10
-178.71557713002514
20
15.029440037098741
30
0
10
-177.5586431006933
20
13.495852842272454
30
0
10
-177.04190024262977
20
12.810878409804731
30
0
0
SPLINE
5
413
100
AcDbEntity
8
0
100
AcDbSpline
70
0
71
3
72
9
73
5
74
0
42
0.000000001
43
0.0000000001
44
0.0000000001
40
0
40
0
40
0
40
0
40
0.31524860865189874
40
0.65975136056019301
40
0.65975136056019301
40
0.65975136056019301
40
0.65975136056019301
10
-177.04190024262977
20
12.810878409804731
30
0
10
-177.9803876805459
20
13.382136111131453
30
0
10
-179.94445142909518
20
14.577662547528691
30
0
10
-180.3985390469453
20
16.842888043992019
30
0
10
-180.63565024262977
20
18.025722159804729
30
0
0
LINE
5
414
100
AcDbEntity
8
0
100
AcDbLine
10
-180.63565024262977
20
18.025722159804729
30
0
11
-178.89736899262977
21
18.025722159804729
31
0
0
SPLINE
5
415
100
AcDbEntity
8
0
100
AcDbSpline
70
0
71
3
72
9
73
5
74
0
42
0.000000001
43
0.0000000001
44
0.0000000001
40
0
40
0
40
0
40
0
40
0.20987745887720047
40
0.43883971688369083
40
0.43883971688369083
40
0.43883971688369083
40
0.43883971688369083
10
-151.76846274262977
20
23.123378409804726
30
0
10
-152.2739321957599
20
23.641501885563841
30
0
10
-153.33083498509072
20
24.724863389125588
30
0
10
-154.84542241238006
20
24.840427307829241
30
0
10
-155.63565024262977
20
24.900722159804729
30
0
0
SPLINE
5
416
100
AcDbEntity
8
0
100
AcDbSpline
70
0
71
3
72
9
73
5
74
0
42
0.000000001
43
0.0000000001
44
0.0000000001
40
0
40
0
40
0
40
0
40
0.32616675824018027
40
0.6803676059368412
40
0.6803676059368412
40
0.6803676059368412
40
0.6803676059368412
10
-155.63565024262977
20
24.900722159804729
30
0
10
-156.76025399063445
20
24.730587807497745
30
0
10
-159.10612137388904
20
24.375696025786873
30
0
10
-160.4331023338257
20
22.396131490084667
30
0
10
-161.12393149262977
20
21.365565909804729
30
0
0
LINE
5
417
100
AcDbEntity
8
0
100
AcDbLine
10
-161.12393149262977
20
21.365565909804729
30
0
11
-161.88565024262977
21
21.365565909804729
31
0
0
SPLINE
5
418
100
AcDbEntity
8
0
100
AcDbSpline
70
0
71
3
72
9
73
5
74
0
42
0.000000001
43
0.0000000001
44
0.0000000001
40
0
40
0
40
0
40
0
40
0.21196243507531384
40
0.41880588800475849
40
0.41880588800475849
40
0.41880588800475849
40
0.41880588800475849
10
-161.88565024262977
20
21.365565909804729
30
0
10
-161.65550039077985
20
22.045522466194846
30
0
10
-161.20075890300666
20
23.389014341547369
30
0
10
-160.18184764533476
20
24.374794218351692
30
0
10
-159.67861899262977
20
24.861659659804729
30
0
0
SPLINE
5
419
100
AcDbEntity
8
0
100
AcDbSpline
70
0
71
3
72
9
73
5
74
0
42
0.000000001
43
0.0000000001
44
0.0000000001
40
0
40
0
40
0
40
0
40
0.21441329836383469
40
0.44361284998534412
40
0.44361284998534412
40
0.44361284998534412
40
0.44361284998534412
10
-159.67861899262977
20
24.861659659804729
30
0
10
-159.07331194023638
20
25.265995051186884
30
0
10
-157.82095497974217
20
26.102549391284803
30
0
10
-156.31570503565734
20
26.198700452653011
30
0
10
-155.53799399262977
20
26.248378409804729
30
0
0
SPLINE
5
420
100
AcDbEntity
8
0
100
AcDbSpline
70
0
71
3
72
9
73
5
74
0
42
0.000000001
43
0.0000000001
44
0.0000000001
40
0
40
0
40
0
40
0
40
0.20145137592072079
40
0.37071532309635702
40
0.37071532309635702
40
0.37071532309635702
40
0.37071532309635702
10
-155.53799399262977
20
26.248378409804729
30
0
10
-154.85673331532576
20
26.225798919791444
30
0
10
-153.60306219520893
20
26.184247637764354
30
0
10
-152.49104124981906
20
25.611465856602234
30
0
10
-151.98330649262977
20
25.349940909804726
30
0
0
SPLINE
5
421
100
AcDbEntity
8
0
100
AcDbSpline
70
0
71
3
72
9
73
5
74
0
42
0.000000001
43
0.0000000001
44
0.0000000001
40
0
40
0
40
0
40
0
40
0.16375776782066384
40
0.33273765161189695
40
0.33273765161189695
40
0.33273765161189695
40
0.33273765161189695
10
-151.98330649262977
20
25.349940909804726
30
0
10
-151.54656801590485
20
25.014849469710608
30
0
10
-150.65916379045677
20
24.333980767504869
30
0
10
-150.06068153080091
20
23.388628937227772
30
0
10
-149.75674399262977
20
22.908534659804726
30
0
0
SPLINE
5
422
100
AcDbEntity
8
0
100
AcDbSpline
70
0
71
3
72
9
73
5
74
0
42
0.000000001
43
0.0000000001
44
0.0000000001
40
0
40
0
40
0
40
0
40
0.18597619431444598
40
0.39859170336905791
40
0.39859170336905791
40
0.39859170336905791
40
0.39859170336905791
10
-149.75674399262977
20
22.908534659804726
30
0
10
-149.49501319435728
20
22.339752435906487
30
0
10
-148.9340611591135
20
21.120715363417961
30
0
10
-148.88465863090681
20
19.777416555232247
30
0
10
-148.85830649262977
20
19.060878409804726
30
0
0
SPLINE
5
423
100
AcDbEntity
8
0
100
AcDbSpline
70
0
71
3
72
9
73
5
74
0
42
0.000000001
43
0.0000000001
44
0.0000000001
40
0
40
0
40
0
40
0
40
0.29528059206754143
40
0.56504173157376325
40
0.56504173157376325
40
0.56504173157376325
40
0.56504173157376325
10
-148.85830649262977
20
19.060878409804726
30
0
10
-148.91737830400706
20
18.057630375337826
30
0
10
-149.03041667999415
20
16.137839431327919
30
0
10
-150.10370956329845
20
14.546956964941874
30
0
10
-150.61611899262977
20
13.787440909804729
30
0
0
SPLINE
5
424
100
AcDbEntity
8
0
100
AcDbSpline
70
0
71
3
72
9
73
5
74
0
42
0.000000001
43
0.0000000001
44
0.0000000001
40
0
40
0
40
0
40
0
40
0.27225259451422418
40
0.60347000244061411
40
0.60347000244061411
40
0.60347000244061411
40
0.60347000244061411
10
-150.61611899262977
20
13.787440909804729
30
0
10
-151.32751889476489
20
13.185100283592803
30
0
10
-152.90439459522884
20
11.849963331753035
30
0
10
-154.98305096502986
20
11.764200016891582
30
0
10
-156.12393149262977
20
11.717128409804729
30
0
0
SPLINE
5
425
100
AcDbEntity
8
0
100
AcDbSpline
70
0
71
3
72
9
73
5
74
0
42
0.000000001
43
0.0000000001
44
0.0000000001
40
0
40
0
40
0
40
0
40
0.26572775255816666
40
0.53805258485459584
40
0.53805258485459584
40
0.53805258485459584
40
0.53805258485459584
10
-156.12393149262977
20
11.717128409804729
30
0
10
-157.01293874688938
20
11.758924877632932
30
0
10
-158.81302415951171
20
11.843555471676115
30
0
10
-160.52890788009134
20
12.395037683488997
30
0
10
-161.39736899262977
20
12.674159659804729
30
0
0
SPLINE
5
426
100
AcDbEntity
8
0
100
AcDbSpline
70
0
71
3
72
9
73
5
74
0
42
0.000000001
43
0.0000000001
44
0.0000000001
40
0
40
0
40
0
40
0
40
0.023457836229422487
40
0.054844864901274437
40
0.054844864901274437
40
0.054844864901274437
40
0.054844864901274437
10
-161.39736899262977
20
12.674159659804729
30
0
10
-161.39497848257315
20
12.7523431675867
30
0
10
-161.38938942483492
20
12.935137687928339
30
0
10
-161.36962018230889
20
13.116972739305787
30
0
10
-161.35830649262977
20
13.221034659804729
30
0
0
SPLINE
5
427
100
AcDbEntity
8
0
100
AcDbSpline
70
0
71
3
72
9
73
5
74
0
42
0.000000001
43
0.0000000001
44
0.0000000001
40
0
40
0
40
0
40
0
40
0.019586104609503496
40
0.035218732142298537
40
0.035218732142298537
40
0.035218732142298537
40
0.035218732142298537
10
-161.35830649262977
20
13.221034659804729
30
0
10
-161.35263298121515
20
13.286096840625923
30
0
10
-161.34243116299746
20
13.403088328449574
30
0
10
-161.33989913866253
20
13.52048707973951
30
0
10
-161.33877524262977
20
13.572597159804729
30
0
0
SPLINE
5
428
100
AcDbEntity
8
0
100
AcDbSpline
70
0
71
3
72
9
73
5
74
0
42
0.000000001
43
0.0000000001
44
0.0000000001
40
0
40
0
40
0
40
0
40
0.077675096155358184
40
0.17804035392437412
40
0.17804035392437412
40
0.17804035392437412
40
0.17804035392437412
10
-161.33877524262977
20
13.572597159804729
30
0
10
-161.34456682677035
20
13.831508907957806
30
0
10
-161.35784181117594
20
14.424964745903004
30
0
10
-161.40809990265527
20
15.016486887252796
30
0
10
-161.43643149262977
20
15.349940909804729
30
0
0
SPLINE
5
429
100
AcDbEntity
8
0
100
AcDbSpline
70
0
71
3
72
9
73
5
74
0
42
0.000000001
43
0.0000000001
44
0.0000000001
40
0
40
0
40
0
40
0
40
0.056324041168273699
40
0.091998659249538983
40
0.091998659249538983
40
0.091998659249538983
40
0.091998659249538983
10
-161.43643149262977
20
15.349940909804729
30
0
10
-161.45320414960807
20
15.536988662598691
30
0
10
-161.48060030091489
20
15.842509042808505
30
0
10
-161.49099460836328
20
16.149043716514548
30
0
10
-161.49502524262977
20
16.267909659804729
30
0
0
SPLINE
5
430
100
AcDbEntity
8
0
100
AcDbSpline
70
0
71
3
72
9
73
5
74
0
42
0.000000001
43
0.0000000001
44
0.0000000001
40
0
40
0
40
0
40
0
40
0.042063098738831586
40
0.10208198169782631
40
0.10208198169782631
40
0.10208198169782631
40
0.10208198169782631
10
-161.49502524262977
20
16.267909659804729
30
0
10
-161.48873571097084
20
16.408050815765819
30
0
10
-161.47347178903101
20
16.748156213296262
30
0
10
-161.42554654023093
20
17.085307362326784
30
0
10
-161.39736899262977
20
17.283534659804729
30
0
0
LINE
5
431
100
AcDbEntity
8
0
100
AcDbLine
10
-161.39736899262977
20
17.283534659804726
30
0
11
-160.98721274262977
21
17.283534659804729
31
0
0
SPLINE
5
432
100
AcDbEntity
8
0
100
AcDbSpline
70
0
71
3
72
9
73
5
74
0
42
0.000000001
43
0.0000000001
44
0.0000000001
40
0
40
0
40
0
40
0
40
0.20287894972213466
40
0.38744990809567392
40
0.38744990809567392
40
0.38744990809567392
40
0.38744990809567392
10
-160.98721274262977
20
17.283534659804729
30
0
10
-160.80259341733466
20
16.619062647391377
30
0
10
-160.45001499204085
20
15.350081215388174
30
0
10
-159.51741593510033
20
14.423941866871106
30
0
10
-159.07315024262977
20
13.982753409804729
30
0
0
SPLINE
5
433
100
AcDbEntity
8
0
100
AcDbSpline
70
0
71
3
72
9
73
5
74
0
42
0.000000001
43
0.0000000001
44
0.0000000001
40
0
40
0
40
0
40
0
40
0.17828418244500269
40
0.36549722478133456
40
0.36549722478133456
40
0.36549722478133456
40
0.36549722478133456
10
-159.07315024262977
20
13.982753409804729
30
0
10
-158.5665376177767
20
13.65240475839096
30
0
10
-157.52794010517852
20
12.975162876098715
30
0
10
-156.28951897155014
20
12.892355872348285
30
0
10
-155.65518149262977
20
12.849940909804729
30
0
0
SPLINE
5
434
100
AcDbEntity
8
0
100
AcDbSpline
70
0
71
3
72
9
73
5
74
0
42
0.000000001
43
0.0000000001
44
0.0000000001
40
0
40
0
40
0
40
0
40
0.21002508558578756
40
0.41196170562730938
40
0.41196170562730938
40
0.41196170562730938
40
0.41196170562730938
10
-155.65518149262977
20
12.849940909804729
30
0
10
-154.93835074690872
20
12.908282511474194
30
0
10
-153.53229577100095
20
13.022718868758595
30
0
10
-152.4535134733236
20
13.929090469699117
30
0
10
-151.92471274262977
20
14.373378409804729
30
0
0
SPLINE
5
435
100
AcDbEntity
8
0
100
AcDbSpline
70
0
71
3
72
9
73
5
74
0
42
0.000000001
43
0.0000000001
44
0.0000000001
40
0
40
0
40
0
40
0
40
0.21304287846911535
40
0.45998771135346883
40
0.45998771135346883
40
0.45998771135346883
40
0.45998771135346883
10
-151.92471274262977
20
14.373378409804729
30
0
10
-151.49239583448235
20
14.956474726635019
30
0
10
-150.5589665333618
20
16.215456684655663
30
0
10
-150.48177701026765
20
17.787329512582421
30
0
10
-150.44033774262977
20
18.631190909804726
30
0
0
SPLINE
5
436
100
AcDbEntity
8
0
100
AcDbSpline
70
0
71
3
72
9
73
5
74
0
42
0.000000001
43
0.0000000001
44
0.0000000001
40
0
40
0
40
0
40
0
40
0.24929136934240881
40
0.47464890387716102
40
0.47464890387716102
40
0.47464890387716102
40
0.47464890387716102
10
-150.44033774262977
20
18.631190909804726
30
0
10
-150.4836256015013
20
19.475288228970641
30
0
10
-150.56604536123371
20
21.08244321538114
30
0
10
-151.38136085087018
20
22.466327133813671
30
0
10
-151.76846274262977
20
23.123378409804726
30
0
0
LINE
5
437
100
AcDbEntity
8
0
100
AcDbLine
10
-139.75674399262977
20
25.740565909804726
30
0
11
-139.75674399262977
21
26.092128409804726
31
0
0
SPLINE
5
438
100
AcDbEntity
8
0
100
AcDbSpline
70
0
71
3
72
9
73
5
74
0
42
0.000000001
43
0.0000000001
44
0.0000000001
40
0
40
0
40
0
40
0
40
0.2179950219732151
40
0.41290733171002592
40
0.41290733171002592
40
0.41290733171002592
40
0.41290733171002592
10
-139.75674399262977
20
26.092128409804726
30
0
10
-139.03299807035478
20
26.023833686788581
30
0
10
-137.66214108977974
20
25.894475724413017
30
0
10
-136.2854943489148
20
25.869529322708999
30
0
10
-135.63565024262977
20
25.857753409804726
30
0
0
LINE
5
439
100
AcDbEntity
8
0
100
AcDbLine
10
-135.63565024262977
20
25.857753409804729
30
0
11
-135.63565024262977
21
11.931972159804726
31
0
0
SPLINE
5
440
100
AcDbEntity
8
0
100
AcDbSpline
70
0
71
3
72
9
73
5
74
0
42
0.000000001
43
0.0000000001
44
0.0000000001
40
0
40
0
40
0
40
0
40
0.071571105706123267
40
0.15786989570572585
40
0.15786989570572585
40
0.15786989570572585
40
0.15786989570572585
10
-135.63565024262977
20
11.931972159804726
30
0
10
-135.87390569733824
20
11.915502387980453
30
0
10
-136.39944408905444
20
11.879173744814427
30
0
10
-136.91585616212689
20
11.77440158673166
30
0
10
-137.19815024262977
20
11.717128409804726
30
0
0
SPLINE
5
441
100
AcDbEntity
8
0
100
AcDbSpline
70
0
71
3
72
9
73
5
74
0
42
0.000000001
43
0.0000000001
44
0.0000000001
40
0
40
0
40
0
40
0
40
0.10397524729848566
40
0.26228684205754382
40
0.26228684205754382
40
0.26228684205754382
40
0.26228684205754382
10
-137.19815024262977
20
11.717128409804726
30
0
10
-137.16168859929178
20
12.061923890410968
30
0
10
-137.06971084943467
20
12.931701266408048
30
0
10
-137.05236804547712
20
13.806377283334371
30
0
10
-137.04190024262977
20
14.334315909804726
30
0
0
SPLINE
5
442
100
AcDbEntity
8
0
100
AcDbSpline
70
0
71
3
72
9
73
5
74
0
42
0.000000001
43
0.0000000001
44
0.0000000001
40
0
40
0
40
0
40
0
40
0.26349277771637575
40
0.39770885038503068
40
0.39770885038503068
40
0.39770885038503068
40
0.39770885038503068
10
-137.04190024262977
20
14.334315909804726
30
0
10
-137.56789997827715
20
13.605111980496902
30
0
10
-138.36182970940743
20
12.50447135218552
30
0
10
-139.56541124703418
20
11.915791929767428
30
0
10
-139.97158774262977
20
11.717128409804726
30
0
0
SPLINE
5
443
100
AcDbEntity
8
0
100
AcDbSpline
70
0
71
3
72
9
73
5
74
0
42
0.000000001
43
0.0000000001
44
0.0000000001
40
0
40
0
40
0
40
0
40
0.073639870869421267
40
0.19645498153118124
40
0.19645498153118124
40
0.19645498153118124
40
0.19645498153118124
10
-139.97158774262977
20
11.717128409804726
30
0
10
-140.21445430643899
20
11.757262438157376
30
0
10
-140.86236889054095
20
11.864331200034648
30
0
10
-141.46798370112865
20
12.122277716043321
30
0
10
-141.84658774262977
20
12.283534659804726
30
0
0
SPLINE
5
444
100
AcDbEntity
8
0
100
AcDbSpline
70
0
71
3
72
9
73
5
74
0
42
0.000000001
43
0.0000000001
44
0.0000000001
40
0
40
0
40
0
40
0
40
0.10709845667420735
40
0.17039635728553693
40
0.17039635728553693
40
0.17039635728553693
40
0.17039635728553693
10
-141.84658774262977
20
12.283534659804726
30
0
10
-142.17519260953645
20
12.427883053519842
30
0
10
-142.6980112760792
20
12.657545004148096
30
0
10
-143.25921035042387
20
12.755105809133315
30
0
10
-143.46768149262977
20
12.791347159804726
30
0
0
SPLINE
5
445
100
AcDbEntity
8
0
100
AcDbSpline
70
0
71
3
72
9
73
5
74
0
42
0.000000001
43
0.0000000001
44
0.0000000001
40
0
40
0
40
0
40
0
40
0.063307316438917752
40
0.15320677691774803
40
0.15320677691774803
40
0.15320677691774803
40
0.15320677691774803
10
-143.46768149262977
20
12.791347159804726
30
0
10
-143.67679630832075
20
12.739955169768447
30
0
10
-144.18286430677512
20
12.615584060775939
30
0
10
-144.53221748691644
20
12.221694469744254
30
0
10
-144.73721274262977
20
11.990565909804726
30
0
0
SPLINE
5
446
100
AcDbEntity
8
0
100
AcDbSpline
70
0
71
3
72
9
73
5
74
0
42
0.000000001
43
0.0000000001
44
0.0000000001
40
0
40
0
40
0
40
0
40
0.007080078125
40
0.011769866384838512
40
0.011769866384838512
40
0.011769866384838512
40
0.011769866384838512
10
-144.73721274262977
20
11.990565909804726
30
0
10
-144.75394988965351
20
11.97387875789072
30
0
10
-144.78177359168828
20
11.946138167334546
30
0
10
-144.80577443377339
20
11.915059002484549
30
0
10
-144.81533774262977
20
11.902675284804726
30
0
0
SPLINE
5
447
100
AcDbEntity
8
0
100
AcDbSpline
70
0
71
3
72
9
73
5
74
0
42
0.000000001
43
0.0000000001
44
0.0000000001
40
0
40
0
40
0
40
0
40
0.0081302860377669497
40
0.025567123279631301
40
0.025567123279631301
40
0.025567123279631301
40
0.025567123279631301
10
-144.81533774262977
20
11.902675284804726
30
0
10
-144.83307142555407
20
11.882172347299139
30
0
10
-144.8888381298768
20
11.817697231864717
30
0
10
-144.94964712038467
20
11.757906100059316
30
0
10
-144.99111899262977
20
11.717128409804726
30
0
0
LINE
5
448
100
AcDbEntity
8
0
100
AcDbLine
10
-144.99111899262977
20
11.717128409804729
30
0
11
-145.44033774262977
21
11.931972159804726
31
0
0
SPLINE
5
449
100
AcDbEntity
8
0
100
AcDbSpline
70
0
71
3
72
9
73
5
74
0
42
0.000000001
43
0.0000000001
44
0.0000000001
40
0
40
0
40
0
40
0
40
0.19122679725467676
40
0.3359426843862604
40
0.3359426843862604
40
0.3359426843862604
40
0.3359426843862604
10
-145.44033774262977
20
11.931972159804726
30
0
10
-145.14929736318973
20
12.54329568777554
30
0
10
-144.6380045541402
20
13.61725430635493
30
0
10
-143.50607171059079
20
13.91366198544209
30
0
10
-143.01846274262977
20
14.041347159804726
30
0
0
SPLINE
5
450
100
AcDbEntity
8
0
100
AcDbSpline
70
0
71
3
72
9
73
5
74
0
42
0.000000001
43
0.0000000001
44
0.0000000001
40
0
40
0
40
0
40
0
40
0.076424985121556141
40
0.20817227881577954
40
0.20817227881577954
40
0.20817227881577954
40
0.20817227881577954
10
-143.01846274262977
20
14.041347159804726
30
0
10
-142.76722903790014
20
13.994934683654614
30
0
10
-142.08289926347211
20
13.868512795442472
30
0
10
-141.44776677064323
20
13.579637945228821
30
0
10
-141.04580649262977
20
13.396815909804726
30
0
0
SPLINE
5
451
100
AcDbEntity
8
0
100
AcDbSpline
70
0
71
3
72
9
73
5
74
0
42
0.000000001
43
0.0000000001
44
0.0000000001
40
0
40
0
40
0
40
0
40
0.057037018784652657
40
0.096212271096242918
40
0.096212271096242918
40
0.096212271096242918
40
0.096212271096242918
10
-141.04580649262977
20
13.396815909804726
30
0
10
-140.87130177901832
20
13.318027697148258
30
0
10
-140.57694041211477
20
13.185124662648636
30
0
10
-140.25778849398435
20
13.141245085947173
30
0
10
-140.12783774262977
20
13.123378409804726
30
0
0
SPLINE
5
452
100
AcDbEntity
8
0
100
AcDbSpline
70
0
71
3
72
9
73
5
74
0
42
0.000000001
43
0.0000000001
44
0.0000000001
40
0
40
0
40
0
40
0
40
0.10130865211404237
40
0.23828525048389737
40
0.23828525048389737
40
0.23828525048389737
40
0.23828525048389737
10
-140.12783774262977
20
13.123378409804726
30
0
10
-139.79080412625123
20
13.198144290607337
30
0
10
-138.99807677252187
20
13.373999030187175
30
0
10
-138.45044976933193
20
13.983784834159916
30
0
10
-138.13565024262977
20
14.334315909804726
30
0
0
SPLINE
5
453
100
AcDbEntity
8
0
100
AcDbSpline
70
0
71
3
72
9
73
5
74
0
42
0.000000001
43
0.0000000001
44
0.0000000001
40
0
40
0
40
0
40
0
40
0.048317644050206957
40
0.087574970695210433
40
0.087574970695210433
40
0.087574970695210433
40
0.087574970695210433
10
-138.13565024262977
20
14.334315909804726
30
0
10
-138.29079416152612
20
14.288898444627218
30
0
10
-138.57199007697201
20
14.20658000257243
30
0
10
-138.86408675118227
20
14.186891635406504
30
0
10
-138.99502524262977
20
14.178065909804726
30
0
0
SPLINE
5
454
100
AcDbEntity
8
0
100
AcDbSpline
70
0
71
3
72
9
73
5
74
0
42
0.000000001
43
0.0000000001
44
0.0000000001
40
0
40
0
40
0
40
0
40
0.079391888601468646
40
0.2125888920463081
40
0.2125888920463081
40
0.2125888920463081
40
0.2125888920463081
10
-138.99502524262977
20
14.178065909804726
30
0
10
-139.25630633032932
20
14.225260412200578
30
0
10
-139.95594275320775
20
14.351633863591506
30
0
10
-140.60197451494957
20
14.653189518387999
30
0
10
-141.00674399262977
20
14.842128409804726
30
0
0
SPLINE
5
455
100
AcDbEntity
8
0
100
AcDbSpline
70
0
71
3
72
9
73
5
74
0
42
0.000000001
43
0.0000000001
44
0.0000000001
40
0
40
0
40
0
40
0
40
0.096868157914250616
40
0.15940819940896928
40
0.15940819940896928
40
0.15940819940896928
40
0.15940819940896928
10
-141.00674399262977
20
14.842128409804726
30
0
10
-141.30494792853165
20
14.970938073335445
30
0
10
-141.79567835535426
20
15.182909860267575
30
0
10
-142.32321496522601
20
15.260791958353181
30
0
10
-142.53018149262977
20
15.291347159804726
30
0
0
SPLINE
5
456
100
AcDbEntity
8
0
100
AcDbSpline
70
0
71
3
72
9
73
5
74
0
42
0.000000001
43
0.0000000001
44
0.0000000001
40
0
40
0
40
0
40
0
40
0.0321116856395652
40
0.067956318749395186
40
0.067956318749395186
40
0.067956318749395186
40
0.067956318749395186
10
-142.53018149262977
20
15.291347159804726
30
0
10
-142.6378898744014
20
15.281560667556287
30
0
10
-142.86582761662427
20
15.26085001430256
30
0
10
-143.06804826782067
20
15.152948838403528
30
0
10
-143.17471274262977
20
15.096034659804726
30
0
0
SPLINE
5
457
100
AcDbEntity
8
0
100
AcDbSpline
70
0
71
3
72
9
73
5
74
0
42
0.000000001
43
0.0000000001
44
0.0000000001
40
0
40
0
40
0
40
0
40
0.13189921803043797
40
0.22825036038514304
40
0.22825036038514304
40
0.22825036038514304
40
0.22825036038514304
10
-143.17471274262977
20
15.096034659804726
30
0
10
-142.89020869810923
20
15.451975443292715
30
0
10
-142.39787711599283
20
16.067927632547963
30
0
10
-141.6394135936342
20
16.249750618108898
30
0
10
-141.31924399262977
20
16.326503409804726
30
0
0
SPLINE
5
458
100
AcDbEntity
8
0
100
AcDbSpline
70
0
71
3
72
9
73
5
74
0
42
0.000000001
43
0.0000000001
44
0.0000000001
40
0
40
0
40
0
40
0
40
0.055350508050559737
40
0.14267780430518209
40
0.14267780430518209
40
0.14267780430518209
40
0.14267780430518209
10
-141.31924399262977
20
16.326503409804726
30
0
10
-141.13655361709417
20
16.295614426887212
30
0
10
-140.66562999656844
20
16.215991449337203
30
0
10
-140.23509856641334
20
16.00588332166468
30
0
10
-139.97158774262977
20
15.877284659804726
30
0
0
SPLINE
5
459
100
AcDbEntity
8
0
100
AcDbSpline
70
0
71
3
72
9
73
5
74
0
42
0.000000001
43
0.0000000001
44
0.0000000001
40
0
40
0
40
0
40
0
40
0.12464090265341395
40
0.19974103519142322
40
0.19974103519142322
40
0.19974103519142322
40
0.19974103519142322
10
-139.97158774262977
20
15.877284659804726
30
0
10
-139.59832002853923
20
15.68812681324442
30
0
10
-139.00014657160193
20
15.384995310806595
30
0
10
-138.34348448074326
20
15.260159037977985
30
0
10
-138.09658774262977
20
15.213222159804726
30
0
0
SPLINE
5
460
100
AcDbEntity
8
0
100
AcDbSpline
70
0
71
3
72
9
73
5
74
0
42
0.000000001
43
0.0000000001
44
0.0000000001
40
0
40
0
40
0
40
0
40
0.054602420565988088
40
0.12231877406985266
40
0.12231877406985266
40
0.12231877406985266
40
0.12231877406985266
10
-138.09658774262977
20
15.213222159804726
30
0
10
-137.913208467533
20
15.245473261934265
30
0
10
-137.50240748312333
20
15.317721254495673
30
0
10
-137.20599554167524
20
15.615034270740946
30
0
10
-137.04190024262977
20
15.779628409804726
30
0
0
LINE
5
461
100
AcDbEntity
8
0
100
AcDbLine
10
-137.04190024262977
20
15.779628409804726
30
0
11
-137.04190024262977
21
21.717128409804726
31
0
0
SPLINE
5
462
100
AcDbEntity
8
0
100
AcDbSpline
70
0
71
3
72
9
73
5
74
0
42
0.000000001
43
0.0000000001
44
0.0000000001
40
0
40
0
40
0
40
0
40
0.17311481321917024
40
0.30123631481489221
40
0.30123631481489221
40
0.30123631481489221
40
0.30123631481489221
10
-137.04190024262977
20
21.717128409804726
30
0
10
-137.04848503319789
20
22.303207464285467
30
0
10
-137.05994319791338
20
23.323041014511222
30
0
10
-137.49948573786926
20
24.238094925986363
30
0
10
-137.68643149262977
20
24.627284659804726
30
0
0
SPLINE
5
463
100
AcDbEntity
8
0
100
AcDbSpline
70
0
71
3
72
9
73
5
74
0
42
0.000000001
43
0.0000000001
44
0.0000000001
40
0
40
0
40
0
40
0
40
0.11175668779198564
40
0.24041949206252369
40
0.24041949206252369
40
0.24041949206252369
40
0.24041949206252369
10
-137.68643149262977
20
24.627284659804726
30
0
10
-137.94864241055402
20
24.904873609238653
30
0
10
-138.51273049285234
20
25.502044083271439
30
0
10
-139.32307847406659
20
25.657416738504971
30
0
10
-139.75674399262977
20
25.740565909804726
30
0
0
SPLINE
5
464
100
AcDbEntity
8
0
100
AcDbSpline
70
0
71
3
72
9
73
5
74
0
42
0.000000001
43
0.0000000001
44
0.0000000001
40
0
40
0
40
0
40
0
40
0.2264725078883166
40
0.45448521318665258
40
0.45448521318665258
40
0.45448521318665258
40
0.45448521318665258
10
-119.44424399262978
20
26.209315909804726
30
0
10
-118.67263180655763
20
26.135085915228508
30
0
10
-117.12415984342933
20
25.986121101687196
30
0
10
-115.95085384198676
20
24.96419703427987
30
0
10
-115.36221274262978
20
24.451503409804722
30
0
0
SPLINE
5
465
100
AcDbEntity
8
0
100
AcDbSpline
70
0
71
3
72
9
73
5
74
0
42
0.000000001
43
0.0000000001
44
0.0000000001
40
0
40
0
40
0
40
0
40
0.25612481013263538
40
0.57778988147445498
40
0.57778988147445498
40
0.57778988147445498
40
0.57778988147445498
10
-115.36221274262978
20
24.451503409804722
30
0
10
-114.86824364026333
20
23.73437362866348
30
0
10
-113.75390274934944
20
22.116606372797776
30
0
10
-113.69550498345178
20
20.141128167230065
30
0
10
-113.66299399262978
20
19.041347159804722
30
0
0
SPLINE
5
466
100
AcDbEntity
8
0
100
AcDbSpline
70
0
71
3
72
9
73
5
74
0
42
0.000000001
43
0.0000000001
44
0.0000000001
40
0
40
0
40
0
40
0
40
0.3328094339005625
40
0.59375910410000399
40
0.59375910410000399
40
0.59375910410000399
40
0.59375910410000399
10
-113.66299399262978
20
19.041347159804722
30
0
10
-113.68973342421688
20
17.909310605611477
30
0
10
-113.73743874541893
20
15.889665301845646
30
0
10
-114.75761019931323
20
14.157903482870932
30
0
10
-115.20596274262978
20
13.396815909804724
30
0
0
SPLINE
5
467
100
AcDbEntity
8
0
100
AcDbSpline
70
0
71
3
72
9
73
5
74
0
42
0.000000001
43
0.0000000001
44
0.0000000001
40
0
40
0
40
0
40
0
40
0.23281544933115075
40
0.48141534957326793
40
0.48141534957326793
40
0.48141534957326793
40
0.48141534957326793
10
-115.20596274262978
20
13.396815909804724
30
0
10
-115.78971937896898
20
12.85010355008148
30
0
10
-116.9968102569855
20
11.719612757789463
30
0
10
-118.64943340197701
20
11.589173785807516
30
0
10
-119.50283774262978
20
11.521815909804724
30
0
0
SPLINE
5
468
100
AcDbEntity
8
0
100
AcDbSpline
70
0
71
3
72
9
73
5
74
0
42
0.000000001
43
0.0000000001
44
0.0000000001
40
0
40
0
40
0
40
0
40
0.23561783918837476
40
0.46110123545827353
40
0.46110123545827353
40
0.46110123545827353
40
0.46110123545827353
10
-119.50283774262978
20
11.521815909804724
30
0
10
-120.30617994165266
20
11.584702721360362
30
0
10
-121.87831081994776
20
11.707771444009813
30
0
10
-123.10311449887467
20
12.697825313487668
30
0
10
-123.70205649262978
20
13.181972159804724
30
0
0
SPLINE
5
469
100
AcDbEntity
8
0
100
AcDbSpline
70
0
71
3
72
9
73
5
74
0
42
0.000000001
43
0.0000000001
44
0.0000000001
40
0
40
0
40
0
40
0
40
0.25297775695486752
40
0.58420164324313084
40
0.58420164324313084
40
0.58420164324313084
40
0.58420164324313084
10
-123.70205649262978
20
13.181972159804724
30
0
10
-124.18408006855546
20
13.893815043608956
30
0
10
-125.29721732033352
20
15.537674122190136
30
0
10
-125.33869577082876
20
17.536807758271536
30
0
10
-125.36221274262978
20
18.670253409804726
30
0
0
SPLINE
5
470
100
AcDbEntity
8
0
100
AcDbSpline
70
0
71
3
72
9
73
5
74
0
42
0.000000001
43
0.0000000001
44
0.0000000001
40
0
40
0
40
0
40
0
40
0.35920412728247247
40
0.62460149427279421
40
0.62460149427279421
40
0.62460149427279421
40
0.62460149427279421
10
-125.36221274262978
20
18.670253409804726
30
0
10
-125.34443931570007
20
19.902339018791157
30
0
10
-125.31353402209265
20
22.044749013539793
30
0
10
-124.10035633446364
20
23.788638193119208
30
0
10
-123.58486899262978
20
24.529628409804726
30
0
0
SPLINE
5
471
100
AcDbEntity
8
0
100
AcDbSpline
70
0
71
3
72
9
73
5
74
0
42
0.000000001
43
0.0000000001
44
0.0000000001
40
0
40
0
40
0
40
0
40
0.23077682335907787
40
0.45543926613890873
40
0.45543926613890873
40
0.45543926613890873
40
0.45543926613890873
10
-123.58486899262978
20
24.529628409804726
30
0
10
-122.96850283519188
20
25.019511692175161
30
0
10
-121.75210100449506
20
25.986298908365232
30
0
10
-120.2066134839468
20
26.135645246038148
30
0
10
-119.44424399262978
20
26.209315909804726
30
0
0
SPLINE
5
472
100
AcDbEntity
8
0
100
AcDbSpline
70
0
71
3
72
9
73
5
74
0
42
0.000000001
43
0.0000000001
44
0.0000000001
40
0
40
0
40
0
40
0
40
0.35132132841105562
40
0.70363748294381478
40
0.70363748294381478
40
0.70363748294381478
40
0.70363748294381478
10
-124.89346274262978
20
12.889003409804724
30
0
10
-125.89036972616178
20
13.606072035658666
30
0
10
-127.88700660498185
20
15.042239789195973
30
0
10
-128.16982324488373
20
17.485805604675022
30
0
10
-128.31143149262977
20
18.709315909804726
30
0
0
SPLINE
5
473
100
AcDbEntity
8
0
100
AcDbSpline
70
0
71
3
72
9
73
5
74
0
42
0.000000001
43
0.0000000001
44
0.0000000001
40
0
40
0
40
0
40
0
40
0.34758114807227286
40
0.71045691146295742
40
0.71045691146295742
40
0.71045691146295742
40
0.71045691146295742
10
-128.31143149262977
20
18.709315909804726
30
0
10
-128.15714020481821
20
19.906484770089875
30
0
10
-127.84176834874319
20
22.353501519113802
30
0
10
-125.89023538599807
20
23.871484803509759
30
0
10
-124.89346274262978
20
24.646815909804726
30
0
0
SPLINE
5
474
100
AcDbEntity
8
0
100
AcDbSpline
70
0
71
3
72
9
73
5
74
0
42
0.000000001
43
0.0000000001
44
0.0000000001
40
0
40
0
40
0
40
0
40
0.27545295172366779
40
0.59696604088786698
40
0.59696604088786698
40
0.59696604088786698
40
0.59696604088786698
10
-124.89346274262978
20
24.646815909804726
30
0
10
-125.41672370655947
20
23.871041139332871
30
0
10
-126.55074323342824
20
22.189769653762198
30
0
10
-126.64147276528271
20
20.156144983196064
30
0
10
-126.69033774262978
20
19.060878409804726
30
0
0
SPLINE
5
475
100
AcDbEntity
8
0
100
AcDbSpline
70
0
71
3
72
9
73
5
74
0
42
0.000000001
43
0.0000000001
44
0.0000000001
40
0
40
0
40
0
40
0
40
0.1878074668171773
40
0.3665184043171773
40
0.3665184043171773
40
0.3665184043171773
40
0.3665184043171773
10
-126.69033774262978
20
19.060878409804726
30
0
10
-126.67427933408715
20
18.433511638624683
30
0
10
-126.64294031240354
20
17.209164855233109
30
0
10
-126.38595424138103
20
16.011860357214523
30
0
10
-126.26065024262978
20
15.428065909804724
30
0
0
SPLINE
5
476
100
AcDbEntity
8
0
100
AcDbSpline
70
0
71
3
72
9
73
5
74
0
42
0.000000001
43
0.0000000001
44
0.0000000001
40
0
40
0
40
0
40
0
40
0.16070314399003291
40
0.29157709373808727
40
0.29157709373808727
40
0.29157709373808727
40
0.29157709373808727
10
-126.26065024262978
20
15.428065909804724
30
0
10
-126.11014322279294
20
14.905377863846489
30
0
10
-125.83706580600058
20
13.957021424836229
30
0
10
-125.18578788136921
20
13.219871893110613
30
0
10
-124.89346274262978
20
12.889003409804724
30
0
0
LINE
5
477
100
AcDbEntity
8
0
100
AcDbLine
10
-108.15518149262978
20
25.740565909804722
30
0
11
-108.15518149262978
21
26.092128409804722
31
0
0
SPLINE
5
478
100
AcDbEntity
8
0
100
AcDbSpline
70
0
71
3
72
9
73
5
74
0
42
0.000000001
43
0.0000000001
44
0.0000000001
40
0
40
0
40
0
40
0
40
0.20291126450300148
40
0.38367031892184528
40
0.38367031892184528
40
0.38367031892184528
40
0.38367031892184528
10
-108.15518149262978
20
26.092128409804722
30
0
10
-107.48193176828644
20
26.023838134463439
30
0
10
-106.20893227717623
20
25.89471296349954
30
0
10
-104.92972903841704
20
25.869589742733456
30
0
10
-104.32705649262978
20
25.857753409804722
30
0
0
LINE
5
479
100
AcDbEntity
8
0
100
AcDbLine
10
-104.32705649262978
20
25.857753409804726
30
0
11
-104.32705649262978
21
7.4202534098047224
31
0
0
SPLINE
5
480
100
AcDbEntity
8
0
100
AcDbSpline
70
0
71
3
72
9
73
5
74
0
42
0.000000001
43
0.0000000001
44
0.0000000001
40
0
40
0
40
0
40
0
40
0.17739735603985657
40
0.30479479068341508
40
0.30479479068341508
40
0.30479479068341508
40
0.30479479068341508
10
-104.32705649262978
20
7.4202534098047224
30
0
10
-104.32889576495359
20
6.8270010393681506
30
0
10
-104.33205590575538
20
5.8077060729368082
30
0
10
-104.53514043299201
20
4.8099496318670951
30
0
10
-104.62002524262978
20
4.3929096598047224
30
0
0
SPLINE
5
481
100
AcDbEntity
8
0
100
AcDbSpline
70
0
71
3
72
9
73
5
74
0
42
0.000000001
43
0.0000000001
44
0.0000000001
40
0
40
0
40
0
40
0
40
0.10394313989180048
40
0.21522414006045082
40
0.21522414006045082
40
0.21522414006045082
40
0.21522414006045082
10
-104.62002524262978
20
4.3929096598047224
30
0
10
-104.75233114548033
20
4.0655247534167245
30
0
10
-105.02628307915843
20
3.3876432210763099
30
0
10
-105.60820615211115
20
2.9430814820207338
30
0
10
-105.90908774262978
20
2.7132221598047233
30
0
0
SPLINE
5
482
100
AcDbEntity
8
0
100
AcDbSpline
70
0
71
3
72
9
73
5
74
0
42
0.000000001
43
0.0000000001
44
0.0000000001
40
0
40
0
40
0
40
0
40
0.12389842062767872
40
0.26022773484616657
40
0.26022773484616657
40
0.26022773484616657
40
0.26022773484616657
10
-105.90908774262978
20
2.7132221598047233
30
0
10
-106.27702739645781
20
2.5139647142246693
30
0
10
-107.04982257972719
20
2.0954580581119995
30
0
10
-107.92897961973833
20
2.0522594809964811
30
0
10
-108.38955649262978
20
2.0296284098047233
30
0
0
SPLINE
5
483
100
AcDbEntity
8
0
100
AcDbSpline
70
0
71
3
72
9
73
5
74
0
42
0.000000001
43
0.0000000001
44
0.0000000001
40
0
40
0
40
0
40
0
40
0.09602147307251449
40
0.20215724001933891
40
0.20215724001933891
40
0.20215724001933891
40
0.20215724001933891
10
-108.38955649262978
20
2.0296284098047233
30
0
10
-108.71019143827054
20
2.0450688238336867
30
0
10
-109.38523498416089
20
2.0775760473220588
30
0
10
-110.03867669790236
20
2.2510511967144704
30
0
10
-110.38174399262978
20
2.3421284098047233
30
0
0
SPLINE
5
484
100
AcDbEntity
8
0
100
AcDbSpline
70
0
71
3
72
9
73
5
74
0
42
0.000000001
43
0.0000000001
44
0.0000000001
40
0
40
0
40
0
40
0
40
0.22806968540906064
40
0.42821139888941817
40
0.42821139888941817
40
0.42821139888941817
40
0.42821139888941817
10
-110.38174399262978
20
2.3421284098047233
30
0
10
-110.38695749720532
20
3.1026216731543133
30
0
10
-110.39674609354334
20
4.5304830022951172
30
0
10
-110.50631420578347
20
5.9540917213295197
30
0
10
-110.55752524262978
20
6.6194721598047233
30
0
0
LINE
5
485
100
AcDbEntity
8
0
100
AcDbLine
10
-110.55752524262978
20
6.6194721598047233
30
0
11
-109.95205649262978
21
6.6194721598047233
31
0
0
SPLINE
5
486
100
AcDbEntity
8
0
100
AcDbSpline
70
0
71
3
72
9
73
5
74
0
42
0.000000001
43
0.0000000001
44
0.0000000001
40
0
40
0
40
0
40
0
40
0.24922154344290634
40
0.42021900359414316
40
0.42021900359414316
40
0.42021900359414316
40
0.42021900359414316
10
-109.95205649262978
20
6.6194721598047233
30
0
10
-109.8226338255472
20
5.7134745421760815
30
0
10
-109.60441086033879
20
4.1858481143837611
30
0
10
-108.19952172583668
20
3.6805565072055857
30
0
10
-107.62783774262978
20
3.4749409098047233
30
0
0
SPLINE
5
487
100
AcDbEntity
8
0
100
AcDbSpline
70
0
71
3
72
9
73
5
74
0
42
0.000000001
43
0.0000000001
44
0.0000000001
40
0
40
0
40
0
40
0
40
0.097228065194042368
40
0.1883602372543188
40
0.1883602372543188
40
0.1883602372543188
40
0.1883602372543188
10
-107.62783774262978
20
3.4749409098047233
30
0
10
-107.28417606779445
20
3.5093961823948594
30
0
10
-106.61839922159257
20
3.5761464906190135
30
0
10
-106.28515919203168
20
4.1529189564311588
30
0
10
-106.12393149262978
20
4.4319721598047233
30
0
0
SPLINE
5
488
100
AcDbEntity
8
0
100
AcDbSpline
70
0
71
3
72
9
73
5
74
0
42
0.000000001
43
0.0000000001
44
0.0000000001
40
0
40
0
40
0
40
0
40
0.13934506629447041
40
0.34904523593691794
40
0.34904523593691794
40
0.34904523593691794
40
0.34904523593691794
10
-106.12393149262978
20
4.4319721598047233
30
0
10
-106.01109987698894
20
4.8841019752463621
30
0
10
-105.72846814161572
20
6.0166412340920425
30
0
10
-105.73149063335237
20
7.1862957687961568
30
0
10
-105.73330649262978
20
7.8890034098047224
30
0
0
LINE
5
489
100
AcDbEntity
8
0
100
AcDbLine
10
-105.73330649262977
20
7.8890034098047224
30
0
11
-105.73330649262978
21
11.931972159804722
31
0
0
LINE
5
490
100
AcDbEntity
8
0
100
AcDbLine
10
-105.73330649262978
20
11.931972159804722
30
0
11
-107.78408774262978
21
11.931972159804722
31
0
0
SPLINE
5
491
100
AcDbEntity
8
0
100
AcDbSpline
70
0
71
3
72
9
73
5
74
0
42
0.000000001
43
0.0000000001
44
0.0000000001
40
0
40
0
40
0
40
0
40
0.082102426802978704
40
0.130085842879617
40
0.130085842879617
40
0.130085842879617
40
0.130085842879617
10
-107.78408774262978
20
11.931972159804722
30
0
10
-108.05944536920684
20
11.935439197513851
30
0
10
-108.49573124212705
20
11.940932488519358
30
0
10
-108.91755608609721
20
11.834508809016231
30
0
10
-109.07315024262978
20
11.795253409804722
30
0
0
SPLINE
5
492
100
AcDbEntity
8
0
100
AcDbSpline
70
0
71
3
72
9
73
5
74
0
42
0.000000001
43
0.0000000001
44
0.0000000001
40
0
40
0
40
0
40
0
40
0.046180669008400871
40
0.11838193099221708
40
0.11838193099221708
40
0.11838193099221708
40
0.11838193099221708
10
-109.07315024262978
20
11.795253409804722
30
0
10
-109.2063022416083
20
11.716039603587824
30
0
10
-109.54763100736706
20
11.512978809048587
30
0
10
-109.79884240297991
20
11.20303714862353
30
0
10
-109.95205649262978
20
11.014003409804724
30
0
0
LINE
5
493
100
AcDbEntity
8
0
100
AcDbLine
10
-109.95205649262978
20
11.014003409804724
30
0
11
-110.45986899262978
21
11.248378409804724
31
0
0
SPLINE
5
494
100
AcDbEntity
8
0
100
AcDbSpline
70
0
71
3
72
9
73
5
74
0
42
0.000000001
43
0.0000000001
44
0.0000000001
40
0
40
0
40
0
40
0
40
0.093354982408431292
40
0.15687284757687536
40
0.15687284757687536
40
0.15687284757687536
40
0.15687284757687536
10
-110.45986899262978
20
11.248378409804724
30
0
10
-110.3477897684847
20
11.540375681326374
30
0
10
-110.15945287855931
20
12.031045191260777
30
0
10
-109.85890476716474
20
12.461005924222373
30
0
10
-109.73721274262978
20
12.635097159804724
30
0
0
SPLINE
5
495
100
AcDbEntity
8
0
100
AcDbSpline
70
0
71
3
72
9
73
5
74
0
42
0.000000001
43
0.0000000001
44
0.0000000001
40
0
40
0
40
0
40
0
40
0.050074426570966668
40
0.088735079338188472
40
0.088735079338188472
40
0.088735079338188472
40
0.088735079338188472
10
-109.73721274262978
20
12.635097159804724
30
0
10
-109.62442376042529
20
12.761254701068292
30
0
10
-109.42455448643157
20
12.984813914817215
30
0
10
-109.15258228675452
20
13.108536626970391
30
0
10
-109.03408774262978
20
13.162440909804722
30
0
0
SPLINE
5
496
100
AcDbEntity
8
0
100
AcDbSpline
70
0
71
3
72
9
73
5
74
0
42
0.000000001
43
0.0000000001
44
0.0000000001
40
0
40
0
40
0
40
0
40
0.05808084430953124
40
0.15283886300739102
40
0.15283886300739102
40
0.15283886300739102
40
0.15283886300739102
10
-109.03408774262978
20
13.162440909804722
30
0
10
-108.84231189921678
20
13.190546035834558
30
0
10
-108.33765666894294
20
13.264504249737019
30
0
10
-107.82715459384823
20
13.261783801039179
30
0
10
-107.51065024262978
20
13.260097159804722
30
0
0
LINE
5
497
100
AcDbEntity
8
0
100
AcDbLine
10
-107.51065024262978
20
13.260097159804722
30
0
11
-105.73330649262978
21
13.260097159804722
31
0
0
LINE
5
498
100
AcDbEntity
8
0
100
AcDbLine
10
-105.73330649262978
20
13.260097159804722
30
0
11
-105.73330649262978
21
21.131190909804722
31
0
0
SPLINE
5
499
100
AcDbEntity
8
0
100
AcDbSpline
70
0
71
3
72
9
73
5
74
0
42
0.000000001
43
0.0000000001
44
0.0000000001
40
0
40
0
40
0
40
0
40
0.14995323087818302
40
0.25267465539759792
40
0.25267465539759792
40
0.25267465539759792
40
0.25267465539759792
10
-105.73330649262978
20
21.131190909804722
30
0
10
-105.73327029636323
20
21.631783399294218
30
0
10
-105.73320930481856
20
22.475293299251867
30
0
10
-105.84436689499739
20
23.310983671396478
30
0
10
-105.88955649262978
20
23.650722159804722
30
0
0
SPLINE
5
500
100
AcDbEntity
8
0
100
AcDbSpline
70
0
71
3
72
9
73
5
74
0
42
0.000000001
43
0.0000000001
44
0.0000000001
40
0
40
0
40
0
40
0
40
0.072991106092478941
40
0.15545427795201128
40
0.15545427795201128
40
0.15545427795201128
40
0.15545427795201128
10
-105.88955649262978
20
23.650722159804722
30
0
10
-105.96322495969716
20
23.886442095566629
30
0
10
-106.12012186082481
20
24.388471375220714
30
0
10
-106.49269856023452
20
24.761458833756866
30
0
10
-106.69033774262978
20
24.959315909804722
30
0
0
SPLINE
5
501
100
AcDbEntity
8
0
100
AcDbSpline
70
0
71
3
72
9
73
5
74
0
42
0.000000001
43
0.0000000001
44
0.0000000001
40
0
40
0
40
0
40
0
40
0.084184275632649741
40
0.16774316557853913
40
0.16774316557853913
40
0.16774316557853913
40
0.16774316557853913
10
-106.69033774262978
20
24.959315909804722
30
0
10
-106.90709738730772
20
25.143124637988869
30
0
10
-107.33900641894941
20
25.509376621448538
30
0
10
-107.88380017417651
20
25.66369459149373
30
0
10
-108.15518149262978
20
25.740565909804722
30
0
0
SPLINE
5
502
100
AcDbEntity
8
0
100
AcDbSpline
70
0
71
3
72
9
73
5
74
0
42
0.000000001
43
0.0000000001
44
0.0000000001
40
0
40
0
40
0
40
0
40
0.086563603914018086
40
0.20151314098306283
40
0.20151314098306283
40
0.20151314098306283
40
0.20151314098306283
10
-78.702056492629779
20
14.861659659804721
30
0
10
-78.990153442708205
20
14.877745946177043
30
0
10
-79.660820081953148
20
14.91519353323522
30
0
10
-80.331307682729047
20
14.955726092410714
30
0
10
-80.713775242629779
20
14.978847159804721
30
0
0
SPLINE
5
503
100
AcDbEntity
8
0
100
AcDbSpline
70
0
71
3
72
9
73
5
74
0
42
0.000000001
43
0.0000000001
44
0.0000000001
40
0
40
0
40
0
40
0
40
0.091564126895342837
40
0.16643055713011917
40
0.16643055713011917
40
0.16643055713011917
40
0.16643055713011917
10
-80.713775242629779
20
14.978847159804721
30
0
10
-81.018081670895526
20
15.002425942446148
30
0
10
-81.571200999521182
20
15.045283664837232
30
0
10
-82.124870917460811
20
15.080288313919624
30
0
10
-82.373931492629779
20
15.096034659804721
30
0
0
LINE
5
504
100
AcDbEntity
8
0
100
AcDbLine
10
-82.373931492629779
20
15.096034659804721
30
0
11
-82.373931492629779
21
24.978847159804719
31
0
0
SPLINE
5
505
100
AcDbEntity
8
0
100
AcDbSpline
70
0
71
3
72
9
73
5
74
0
42
0.000000001
43
0.0000000001
44
0.0000000001
40
0
40
0
40
0
40
0
40
0.30434026249674379
40
0.55247218766109385
40
0.55247218766109385
40
0.55247218766109385
40
0.55247218766109385
10
-82.373931492629779
20
24.978847159804722
30
0
10
-81.422121414028766
20
25.347908004253256
30
0
10
-79.694290229128598
20
26.017868168050885
30
0
10
-77.850479852515548
20
26.176936171199895
30
0
10
-77.022368992629779
20
26.248378409804719
30
0
0
SPLINE
5
506
100
AcDbEntity
8
0
100
AcDbSpline
70
0
71
3
72
9
73
5
74
0
42
0.000000001
43
0.0000000001
44
0.0000000001
40
0
40
0
40
0
40
0
40
0.34794450446743214
40
0.67587798710348967
40
0.67587798710348967
40
0.67587798710348967
40
0.67587798710348967
10
-77.022368992629779
20
26.248378409804719
30
0
10
-75.832662476487513
20
26.157112771181211
30
0
10
-73.52167197354828
20
25.97983037317643
30
0
10
-71.762588495861309
20
24.477367702857347
30
0
10
-70.909087742629779
20
23.748378409804719
30
0
0
SPLINE
5
507
100
AcDbEntity
8
0
100
AcDbSpline
70
0
71
3
72
9
73
5
74
0
42
0.000000001
43
0.0000000001
44
0.0000000001
40
0
40
0
40
0
40
0
40
0.17542705879628792
40
0.36629460054019869
40
0.36629460054019869
40
0.36629460054019869
40
0.36629460054019869
10
-70.909087742629779
20
23.748378409804719
30
0
10
-70.545341734385559
20
23.284952118742055
30
0
10
-69.785834052377211
20
22.317310357377611
30
0
10
-69.387917249017931
20
21.152308569774632
30
0
10
-69.180572117629779
20
20.545253409804719
30
0
0
SPLINE
5
508
100
AcDbEntity
8
0
100
AcDbSpline
70
0
71
3
72
9
73
5
74
0
42
0.000000001
43
0.0000000001
44
0.0000000001
40
0
40
0
40
0
40
0
40
0.21340530197328472
40
0.45407112567931857
40
0.45407112567931857
40
0.45407112567931857
40
0.45407112567931857
10
-69.180572117629779
20
20.545253409804719
30
0
10
-69.01268524405333
20
19.851802079394275
30
0
10
-68.655465526610797
20
18.376317528205814
30
0
10
-68.622089914444345
20
16.857870181282646
30
0
10
-68.604400242629779
20
16.053065909804719
30
0
0
SPLINE
5
509
100
AcDbEntity
8
0
100
AcDbSpline
70
0
71
3
72
9
73
5
74
0
42
0.000000001
43
0.0000000001
44
0.0000000001
40
0
40
0
40
0
40
0
40
0.86992166122618897
40
1.6251260833885199
40
1.6251260833885199
40
1.6251260833885199
40
1.6251260833885199
10
-68.604400242629779
20
16.053065909804719
30
0
10
-68.87160521248957
20
12.799593747893564
30
0
10
-69.370778627160178
20
6.7216873023320218
30
0
10
-75.234819252172244
20
5.4651228517636685
30
0
10
-77.959868992629779
20
4.8811909098047206
30
0
0
SPLINE
5
510
100
AcDbEntity
8
0
100
AcDbSpline
70
0
71
3
72
9
73
5
74
0
42
0.000000001
43
0.0000000001
44
0.0000000001
40
0
40
0
40
0
40
0
40
0.33960303188987995
40
0.67844700060990815
40
0.67844700060990815
40
0.67844700060990815
40
0.67844700060990815
10
-77.959868992629779
20
4.8811909098047206
30
0
10
-79.096148203268427
20
4.9289899932849242
30
0
10
-81.366166871897875
20
5.0244813222008657
30
0
10
-83.536215086801988
20
5.6974345194593399
30
0
10
-84.620025242629779
20
6.0335346598047206
30
0
0
SPLINE
5
511
100
AcDbEntity
8
0
100
AcDbSpline
70
0
71
3
72
9
73
5
74
0
42
0.000000001
43
0.0000000001
44
0.0000000001
40
0
40
0
40
0
40
0
40
0.16065120973009864
40
0.27938490579939224
40
0.27938490579939224
40
0.27938490579939224
40
0.27938490579939224
10
-84.620025242629779
20
6.0335346598047206
30
0
10
-84.620613513666271
20
6.5691155198616418
30
0
10
-84.621636562595626
20
7.5005321483847087
30
0
10
-84.661624723843531
20
8.4310497233628325
30
0
10
-84.678618992629779
20
8.8265034098047206
30
0
0
SPLINE
5
512
100
AcDbEntity
8
0
100
AcDbSpline
70
0
71
3
72
9
73
5
74
0
42
0.000000001
43
0.0000000001
44
0.0000000001
40
0
40
0
40
0
40
0
40
0.093365197419120402
40
0.20519119830387417
40
0.20519119830387417
40
0.20519119830387417
40
0.20519119830387417
10
-84.678618992629779
20
8.8265034098047206
30
0
10
-84.695672575383867
20
9.1373034066145653
30
0
10
-84.733151691557907
20
9.8203568948642683
30
0
10
-84.735780230129137
20
10.504459445652772
30
0
10
-84.737212742629779
20
10.877284659804721
30
0
0
LINE
5
513
100
AcDbEntity
8
0
100
AcDbLine
10
-84.737212742629779
20
10.877284659804721
30
0
11
-84.346587742629779
21
10.877284659804721
31
0
0
SPLINE
5
514
100
AcDbEntity
8
0
100
AcDbSpline
70
0
71
3
72
9
73
5
74
0
42
0.000000001
43
0.0000000001
44
0.0000000001
40
0
40
0
40
0
40
0
40
0.20421425660493933
40
0.40619809754307495
40
0.40619809754307495
40
0.40619809754307495
40
0.40619809754307495
10
-84.346587742629779
20
10.877284659804721
30
0
10
-84.139045770525485
20
10.212717263474589
30
0
10
-83.726228587089622
20
8.8908408354215034
30
0
10
-82.666507563798859
20
7.999964464181522
30
0
10
-82.139556492629779
20
7.5569721598047206
30
0
0
SPLINE
5
515
100
AcDbEntity
8
0
100
AcDbSpline
70
0
71
3
72
9
73
5
74
0
42
0.000000001
43
0.0000000001
44
0.0000000001
40
0
40
0
40
0
40
0
40
0.21495303062330967
40
0.44594928621163127
40
0.44594928621163127
40
0.44594928621163127
40
0.44594928621163127
10
-82.139556492629779
20
7.5569721598047206
30
0
10
-81.504823588814503
20
7.2039081232192785
30
0
10
-80.187983884016404
20
6.4714287781004218
30
0
10
-78.681576021887835
20
6.3888232890378616
30
0
10
-77.901275242629779
20
6.3460346598047206
30
0
0
SPLINE
5
516
100
AcDbEntity
8
0
100
AcDbSpline
70
0
71
3
72
9
73
5
74
0
42
0.000000001
43
0.0000000001
44
0.0000000001
40
0
40
0
40
0
40
0
40
0.61375574113137921
40
1.3237176860885391
40
1.3237176860885391
40
1.3237176860885391
40
1.3237176860885391
10
-77.901275242629779
20
6.3460346598047206
30
0
10
-75.688409939995893
20
6.8253364650486237
30
0
10
-70.915812729534736
20
7.8590706267950772
30
0
10
-70.517337146417916
20
12.811139030496918
30
0
10
-70.303618992629779
20
15.467128409804719
30
0
0
SPLINE
5
517
100
AcDbEntity
8
0
100
AcDbSpline
70
0
71
3
72
9
73
5
74
0
42
0.000000001
43
0.0000000001
44
0.0000000001
40
0
40
0
40
0
40
0
40
0.7128981498425635
40
1.2501684116128753
40
1.2501684116128753
40
1.2501684116128753
40
1.2501684116128753
10
-70.303618992629779
20
15.467128409804719
30
0
10
-70.384510062323329
20
18.149609472168869
30
0
10
-70.526364070690136
20
22.853721959566982
30
0
10
-74.892205930349107
20
24.1624878812368
30
0
10
-76.768462742629779
20
24.724940909804719
30
0
0
SPLINE
5
518
100
AcDbEntity
8
0
100
AcDbSpline
70
0
71
3
72
9
73
5
74
0
42
0.000000001
43
0.0000000001
44
0.0000000001
40
0
40
0
40
0
40
0
40
0.22235300930792687
40
0.39424604147635611
40
0.39424604147635611
40
0.39424604147635611
40
0.39424604147635611
10
-76.768462742629779
20
24.724940909804719
30
0
10
-77.533178702053561
20
24.705698501509794
30
0
10
-78.889068783303159
20
24.671580486546301
30
0
10
-79.955735184889463
20
23.851869712620992
30
0
10
-80.420806492629779
20
23.494472159804719
30
0
0
SPLINE
5
519
100
AcDbEntity
8
0
100
AcDbSpline
70
0
71
3
72
9
73
5
74
0
42
0.000000001
43
0.0000000001
44
0.0000000001
40
0
40
0
40
0
40
0
40
0.095508611320790235
40
0.24225642131729253
40
0.24225642131729253
40
0.24225642131729253
40
0.24225642131729253
10
-80.420806492629779
20
23.494472159804719
30
0
10
-80.522263750004299
20
23.190808813885944
30
0
10
-80.779608839083906
20
22.420570461027559
30
0
10
-80.775100149584716
20
21.605432678446451
30
0
10
-80.772368992629779
20
21.111659659804719
30
0
0
LINE
5
520
100
AcDbEntity
8
0
100
AcDbLine
10
-80.772368992629765
20
21.111659659804719
30
0
11
-80.772368992629779
21
18.474940909804719
31
0
0
SPLINE
5
521
100
AcDbEntity
8
0
100
AcDbSpline
70
0
71
3
72
9
73
5
74
0
42
0.000000001
43
0.0000000001
44
0.0000000001
40
0
40
0
40
0
40
0
40
0.22906844606267224
40
0.41541348611806805
40
0.41541348611806805
40
0.41541348611806805
40
0.41541348611806805
10
-80.772368992629779
20
18.474940909804719
30
0
10
-80.727695123094222
20
17.642442263510066
30
0
10
-80.646679478202373
20
16.132713748779505
30
0
10
-79.304242971720399
20
15.49795879339703
30
0
10
-78.702056492629779
20
15.213222159804721
30
0
0
LINE
5
522
100
AcDbEntity
8
0
100
AcDbLine
10
-78.702056492629779
20
15.213222159804721
30
0
11
-78.702056492629779
21
14.861659659804721
31
0
0
SPLINE
5
523
100
AcDbEntity
8
0
100
AcDbSpline
70
0
71
3
72
9
73
5
74
0
42
0.000000001
43
0.0000000001
44
0.0000000001
40
0
40
0
40
0
40
0
40
0.029378142493147116
40
0.053158993395268056
40
0.053158993395268056
40
0.053158993395268056
40
0.053158993395268056
10
-84.659087742629779
20
24.236659659804722
30
0
10
-84.564159152688774
20
24.261007624838214
30
0
10
-84.392388310237692
20
24.305064641469045
30
0
10
-84.225799359018339
20
24.365758197482283
30
0
10
-84.151275242629779
20
24.392909659804722
30
0
0
SPLINE
5
524
100
AcDbEntity
8
0
100
AcDbSpline
70
0
71
3
72
9
73
5
74
0
42
0.000000001
43
0.0000000001
44
0.0000000001
40
0
40
0
40
0
40
0
40
0.019316445746926252
40
0.035221228437260554
40
0.035221228437260554
40
0.035221228437260554
40
0.035221228437260554
10
-84.151275242629779
20
24.392909659804722
30
0
10
-84.091343845907971
20
24.416524008066148
30
0
10
-83.982066112200727
20
24.459581947679343
30
0
10
-83.869896299974712
20
24.494382390479082
30
0
10
-83.819243992629779
20
24.510097159804722
30
0
0
LINE
5
525
100
AcDbEntity
8
0
100
AcDbLine
10
-83.819243992629779
20
24.510097159804722
30
0
11
-83.819243992629779
21
15.096034659804722
31
0
0
SPLINE
5
526
100
AcDbEntity
8
0
100
AcDbSpline
70
0
71
3
72
9
73
5
74
0
42
0.000000001
43
0.0000000001
44
0.0000000001
40
0
40
0
40
0
40
0
40
0.089976337289159838
40
0.17229192523012279
40
0.17229192523012279
40
0.17229192523012279
40
0.17229192523012279
10
-83.819243992629779
20
15.096034659804721
30
0
10
-84.118878273248825
20
15.082012323430893
30
0
10
-84.6926354257198
20
15.055161537959306
30
0
10
-85.26468631765411
20
15.003519891680948
30
0
10
-85.537993992629779
20
14.978847159804721
30
0
0
SPLINE
5
527
100
AcDbEntity
8
0
100
AcDbSpline
70
0
71
3
72
9
73
5
74
0
42
0.000000001
43
0.0000000001
44
0.0000000001
40
0
40
0
40
0
40
0
40
0.10534774054814196
40
0.16645316884473088
40
0.16645316884473088
40
0.16645316884473088
40
0.16645316884473088
10
-85.537993992629779
20
14.978847159804721
30
0
10
-85.887669273503121
20
14.945607138970923
30
0
10
-86.440168627216707
20
14.89308672636917
30
0
10
-86.994612376635672
20
14.870098648208806
30
0
10
-87.198150242629779
20
14.861659659804721
30
0
0
LINE
5
528
100
AcDbEntity
8
0
100
AcDbLine
10
-87.198150242629765
20
14.861659659804721
30
0
11
-87.198150242629779
21
15.213222159804721
31
0
0
SPLINE
5
529
100
AcDbEntity
8
0
100
AcDbSpline
70
0
71
3
72
9
73
5
74
0
42
0.000000001
43
0.0000000001
44
0.0000000001
40
0
40
0
40
0
40
0
40
0.18748283307642932
40
0.44236237163897546
40
0.44236237163897546
40
0.44236237163897546
40
0.44236237163897546
10
-87.198150242629779
20
15.213222159804721
30
0
10
-86.682741804093538
20
15.615395939473821
30
0
10
-85.466644866083797
20
16.564317737092004
30
0
10
-85.437562891382456
20
18.135859255205883
30
0
10
-85.420806492629779
20
19.041347159804722
30
0
0
LINE
5
530
100
AcDbEntity
8
0
100
AcDbLine
10
-85.420806492629794
20
19.041347159804719
30
0
11
-85.420806492629779
21
24.002284659804722
31
0
0
SPLINE
5
531
100
AcDbEntity
8
0
100
AcDbSpline
70
0
71
3
72
9
73
5
74
0
42
0.000000001
43
0.0000000001
44
0.0000000001
40
0
40
0
40
0
40
0
40
0.02676654311262841
40
0.079728742681093118
40
0.079728742681093118
40
0.079728742681093118
40
0.079728742681093118
10
-85.420806492629779
20
24.002284659804722
30
0
10
-85.334285322861803
20
24.02420142454271
30
0
10
-85.07656716882633
20
24.089484269953282
30
0
10
-84.825720282207087
20
24.177916144710693
30
0
10
-84.659087742629779
20
24.236659659804722
30
0
0
SPLINE
5
532
100
AcDbEntity
8
0
100
AcDbSpline
70
0
71
3
72
9
73
5
74
0
42
0.000000001
43
0.0000000001
44
0.0000000001
40
0
40
0
40
0
40
0
40
0.078919289186992203
40
0.15176531569926388
40
0.15176531569926388
40
0.15176531569926388
40
0.15176531569926388
10
-150.3450936413177
20
29.27553847801995
30
0
10
-150.46551838434411
20
29.037826297042901
30
0
10
-150.69710054038839
20
28.580695162649853
30
0
10
-151.09492298218683
20
28.258632306737617
30
0
10
-151.28587428096614
20
28.104044947746512
30
0
0
SPLINE
5
533
100
AcDbEntity
8
0
100
AcDbSpline
70
0
71
3
72
9
73
5
74
0
42
0.000000001
43
0.0000000001
44
0.0000000001
40
0
40
0
40
0
40
0
40
0.070993610540279681
40
0.14455391560889963
40
0.14455391560889963
40
0.14455391560889963
40
0.14455391560889963
10
-151.28587428096614
20
28.104044947746512
30
0
10
-151.49487344371772
20
27.986217789189411
30
0
10
-151.92042790002444
20
27.746303563037522
30
0
10
-152.40827732426442
20
27.715636270385481
30
0
10
-152.65653315547786
20
27.700030360344169
30
0
0
SPLINE
5
534
100
AcDbEntity
8
0
100
AcDbSpline
70
0
71
3
72
9
73
5
74
0
42
0.000000001
43
0.0000000001
44
0.0000000001
40
0
40
0
40
0
40
0
40
0.072667554085109304
40
0.14170281974040921
40
0.14170281974040921
40
0.14170281974040921
40
0.14170281974040921
10
-152.65653315547786
20
27.700030360344169
30
0
10
-152.90191318772213
20
27.714668287580185
30
0
10
-153.38040792880395
20
27.743212465110496
30
0
10
-153.7975118918811
20
27.978581473727814
30
0
10
-154.00071803096614
20
28.093249354484794
30
0
0
SPLINE
5
535
100
AcDbEntity
8
0
100
AcDbSpline
70
0
71
3
72
9
73
5
74
0
42
0.000000001
43
0.0000000001
44
0.0000000001
40
0
40
0
40
0
40
0
40
0.072320485467643941
40
0.15506596371742726
40
0.15506596371742726
40
0.15506596371742726
40
0.15506596371742726
10
-154.00071803096614
20
28.093249354484794
30
0
10
-154.1869717128564
20
28.250659886051896
30
0
10
-154.58632753149442
20
28.588171665997653
30
0
10
-154.81147604657934
20
29.061246019699141
30
0
10
-154.93161860469661
20
29.3136854506762
30
0
0
SPLINE
5
536
100
AcDbEntity
8
0
100
AcDbSpline
70
0
71
3
72
9
73
5
74
0
42
0.000000001
43
0.0000000001
44
0.0000000001
40
0
40
0
40
0
40
0
40
0.094825756143166726
40
0.20280577336379679
40
0.20280577336379679
40
0.20280577336379679
40
0.20280577336379679
10
-154.93161860469661
20
29.3136854506762
30
0
10
-155.03493101395912
20
29.614367649749077
30
0
10
-155.25588736496283
20
30.257442784606269
30
0
10
-155.27568956404795
20
30.937795695939833
30
0
10
-155.28623286250911
20
31.300036463859794
30
0
0
SPLINE
5
537
100
AcDbEntity
8
0
100
AcDbSpline
70
0
71
3
72
9
73
5
74
0
42
0.000000001
43
0.0000000001
44
0.0000000001
40
0
40
0
40
0
40
0
40
0.15555066081001973
40
0.2889756225811162
40
0.2889756225811162
40
0.2889756225811162
40
0.2889756225811162
10
-155.28623286250911
20
31.300036463859794
30
0
10
-155.26234537404287
20
31.830028349268037
30
0
10
-155.21796818004393
20
32.814625484704457
30
0
10
-154.66646592846593
20
33.626983372328418
30
0
10
-154.41182795528255
20
34.00206283104729
30
0
0
SPLINE
5
538
100
AcDbEntity
8
0
100
AcDbSpline
70
0
71
3
72
9
73
5
74
0
42
0.000000001
43
0.0000000001
44
0.0000000001
40
0
40
0
40
0
40
0
40
0.1009680605425199
40
0.20333541511018616
40
0.20333541511018616
40
0.20333541511018616
40
0.20333541511018616
10
-154.41182795528255
20
34.00206283104729
30
0
10
-154.15533499263319
20
34.234686302020108
30
0
10
-153.63879438808047
20
34.70315712121257
30
0
10
-152.94409409652044
20
34.767331653932828
30
0
10
-152.59435359004817
20
34.799639735344165
30
0
0
SPLINE
5
539
100
AcDbEntity
8
0
100
AcDbSpline
70
0
71
3
72
9
73
5
74
0
42
0.000000001
43
0.0000000001
44
0.0000000001
40
0
40
0
40
0
40
0
40
0.070950844486502213
40
0.13943558142890103
40
0.13943558142890103
40
0.13943558142890103
40
0.13943558142890103
10
-152.59435359004817
20
34.799639735344165
30
0
10
-152.35478853615228
20
34.784311885045909
30
0
10
-151.88398522405961
20
34.754188949457749
30
0
10
-151.47556340779039
20
34.518640563290163
30
0
10
-151.27496424678645
20
34.402949366691821
30
0
0
SPLINE
5
540
100
AcDbEntity
8
0
100
AcDbSpline
70
0
71
3
72
9
73
5
74
0
42
0.000000001
43
0.0000000001
44
0.0000000001
40
0
40
0
40
0
40
0
40
0.071479175122181229
40
0.15107468683096326
40
0.15107468683096326
40
0.15107468683096326
40
0.15107468683096326
10
-151.27496424678645
20
34.402949366691821
30
0
10
-151.09025327781069
20
34.2483280492769
30
0
10
-150.69985772911335
20
33.921528431543159
30
0
10
-150.4720313206619
20
33.465376345524248
30
0
10
-150.35199824336848
20
33.225047145012134
30
0
0
SPLINE
5
541
100
AcDbEntity
8
0
100
AcDbSpline
70
0
71
3
72
9
73
5
74
0
42
0.000000001
43
0.0000000001
44
0.0000000001
40
0
40
0
40
0
40
0
40
0.092289008164129285
40
0.20189446638346531
40
0.20189446638346531
40
0.20189446638346531
40
0.20189446638346531
10
-150.35199824336848
20
33.225047145012134
30
0
10
-150.25041279420157
20
32.932710653520218
30
0
10
-150.02818112804903
20
32.293185740117629
30
0
10
-150.0118795941776
20
31.615419173646483
30
0
10
-150.00302973750911
20
31.247469935539481
30
0
0
SPLINE
5
542
100
AcDbEntity
8
0
100
AcDbSpline
70
0
71
3
72
9
73
5
74
0
42
0.000000001
43
0.0000000001
44
0.0000000001
40
0
40
0
40
0
40
0
40
0.10985426720919483
40
0.20120298878782991
40
0.20120298878782991
40
0.20120298878782991
40
0.20120298878782991
10
-150.00302973750911
20
31.247469935539481
30
0
10
-150.01124219327261
20
30.878680307230365
30
0
10
-150.02628367219631
20
30.20322565867815
30
0
10
-150.24554582780712
20
29.565207056172721
30
0
10
-150.3450936413177
20
29.27553847801995
30
0
0
SPLINE
5
543
100
AcDbEntity
8
0
100
AcDbSpline
70
0
71
3
72
9
73
5
74
0
42
0.000000001
43
0.0000000001
44
0.0000000001
40
0
40
0
40
0
40
0
40
0.014694513558513511
40
0.04684226526726061
40
0.04684226526726061
40
0.04684226526726061
40
0.04684226526726061
10
-138.30838862422786
20
30.486743006828544
30
0
10
-138.25965001903396
20
30.481599980520883
30
0
10
-138.10428409527213
20
30.465205358023127
30
0
10
-137.94793352499352
20
30.467209564797336
30
0
10
-137.84063044551692
20
30.468585047844169
30
0
0
LINE
5
544
100
AcDbEntity
8
0
100
AcDbLine
10
-137.84063044551689
20
30.468585047844169
30
0
11
-137.84063044551692
21
29.872881922844169
31
0
0
LINE
5
545
100
AcDbEntity
8
0
100
AcDbLine
10
-137.84063044551692
20
29.872881922844169
30
0
11
-140.36237421993098
21
29.872881922844169
31
0
0
LINE
5
546
100
AcDbEntity
8
0
100
AcDbLine
10
-140.36237421993098
20
29.872881922844169
30
0
11
-140.36237421993098
21
30.468585047844169
31
0
0
LINE
5
547
100
AcDbEntity
8
0
100
AcDbLine
10
-140.36237421993098
20
30.468585047844169
30
0
11
-140.06833735469661
21
30.468585047844169
31
0
0
SPLINE
5
548
100
AcDbEntity
8
0
100
AcDbSpline
70
0
71
3
72
9
73
5
74
0
42
0.000000001
43
0.0000000001
44
0.0000000001
40
0
40
0
40
0
40
0
40
0.019716475379420218
40
0.027188794754960194
40
0.027188794754960194
40
0.027188794754960194
40
0.027188794754960194
10
-140.06833735469661
20
30.468585047844169
30
0
10
-140.00260063248405
20
30.468124975703518
30
0
10
-139.91195044203639
20
30.467490541466976
30
0
10
-139.82139065118582
20
30.471221715511977
30
0
10
-139.79650202754817
20
30.472247157219169
30
0
0
SPLINE
5
549
100
AcDbEntity
8
0
100
AcDbSpline
70
0
71
3
72
9
73
5
74
0
42
0.000000001
43
0.0000000001
44
0.0000000001
40
0
40
0
40
0
40
0
40
0.0048603532263519367
40
0.0091397201667319863
40
0.0091397201667319863
40
0.0091397201667319863
40
0.0091397201667319863
10
-139.79650202754817
20
30.472247157219169
30
0
10
-139.78099016518445
20
30.477848375760761
30
0
10
-139.75182066357283
20
30.488381266618433
30
0
10
-139.73106883706717
20
30.511324639762773
30
0
10
-139.72135249141536
20
30.522067103508231
30
0
0
SPLINE
5
550
100
AcDbEntity
8
0
100
AcDbSpline
70
0
71
3
72
9
73
5
74
0
42
0.000000001
43
0.0000000001
44
0.0000000001
40
0
40
0
40
0
40
0
40
0.0044579601552960446
40
0.0098655168896961201
40
0.0098655168896961201
40
0.0098655168896961201
40
0.0098655168896961201
10
-139.72135249141536
20
30.522067103508231
30
0
10
-139.71424891755208
20
30.535340812972013
30
0
10
-139.69852862722107
20
30.564715684065995
30
0
10
-139.69750145164204
20
30.598128335549543
30
0
10
-139.69693842891536
20
30.616442713859794
30
0
0
SPLINE
5
551
100
AcDbEntity
8
0
100
AcDbSpline
70
0
71
3
72
9
73
5
74
0
42
0.000000001
43
0.0000000001
44
0.0000000001
40
0
40
0
40
0
40
0
40
0.018833908335094011
40
0.053393696496112059
40
0.053393696496112059
40
0.053393696496112059
40
0.053393696496112059
10
-139.69693842891536
20
30.616442713859794
30
0
10
-139.70650259285304
20
30.678571948106175
30
0
10
-139.73361677741011
20
30.854706896724664
30
0
10
-139.78980912169365
20
31.024084033384206
30
0
10
-139.82618037227473
20
31.133715663078544
30
0
0
LINE
5
552
100
AcDbEntity
8
0
100
AcDbLine
10
-139.82618037227473
20
31.133715663078544
30
0
11
-140.83577815059505
21
33.556658778312915
31
0
0
LINE
5
553
100
AcDbEntity
8
0
100
AcDbLine
10
-140.83577815059505
20
33.556658778312915
30
0
11
-141.77617732051692
21
31.130587611320731
31
0
0
SPLINE
5
554
100
AcDbEntity
8
0
100
AcDbSpline
70
0
71
3
72
9
73
5
74
0
42
0.000000001
43
0.0000000001
44
0.0000000001
40
0
40
0
40
0
40
0
40
0.037437973471480236
40
0.057742312446904066
40
0.057742312446904066
40
0.057742312446904066
40
0.057742312446904066
10
-141.77617732051692
20
31.130587611320731
30
0
10
-141.82561294490614
20
31.015420404564047
30
0
10
-141.901859787478
20
30.837792712155764
30
0
10
-141.93892504948124
20
30.648514937353294
30
0
10
-141.95195857051692
20
30.581957850578544
30
0
0
SPLINE
5
555
100
AcDbEntity
8
0
100
AcDbSpline
70
0
71
3
72
9
73
5
74
0
42
0.000000001
43
0.0000000001
44
0.0000000001
40
0
40
0
40
0
40
0
40
0.0049790207200331353
40
0.010014399165263827
40
0.010014399165263827
40
0.010014399165263827
40
0.010014399165263827
10
-141.95195857051692
20
30.581957850578544
30
0
10
-141.94994039925209
20
30.564753446579719
30
0
10
-141.94588121296502
20
30.530149901277831
30
0
10
-141.91839864557244
20
30.50870357790793
30
0
10
-141.90458003047786
20
30.497920069816825
30
0
0
SPLINE
5
556
100
AcDbEntity
8
0
100
AcDbSpline
70
0
71
3
72
9
73
5
74
0
42
0.000000001
43
0.0000000001
44
0.0000000001
40
0
40
0
40
0
40
0
40
0.01023194027448842
40
0.030747143239228922
40
0.030747143239228922
40
0.030747143239228922
40
0.030747143239228922
10
-141.90458003047786
20
30.497920069816825
30
0
10
-141.87140048349107
20
30.489568928577512
30
0
10
-141.77169541715489
20
30.464473616348585
30
0
10
-141.66849249828221
20
30.466939651996078
30
0
10
-141.5996331310638
20
30.468585047844169
30
0
0
LINE
5
557
100
AcDbEntity
8
0
100
AcDbLine
10
-141.5996331310638
20
30.468585047844169
30
0
11
-141.27698603633723
21
30.468585047844169
31
0
0
LINE
5
558
100
AcDbEntity
8
0
100
AcDbLine
10
-141.27698603633723
20
30.468585047844169
30
0
11
-141.27698603633723
21
29.872881922844169
31
0
0
LINE
5
559
100
AcDbEntity
8
0
100
AcDbLine
10
-141.27698603633723
20
29.872881922844169
30
0
11
-143.42862788204036
21
29.872881922844169
31
0
0
LINE
5
560
100
AcDbEntity
8
0
100
AcDbLine
10
-143.42862788204036
20
29.872881922844169
30
0
11
-143.42862788204036
21
30.468585047844169
31
0
0
LINE
5
561
100
AcDbEntity
8
0
100
AcDbLine
10
-143.42862788204036
20
30.468585047844169
30
0
11
-143.21119013789973
21
30.468585047844169
31
0
0
SPLINE
5
562
100
AcDbEntity
8
0
100
AcDbSpline
70
0
71
3
72
9
73
5
74
0
42
0.000000001
43
0.0000000001
44
0.0000000001
40
0
40
0
40
0
40
0
40
0.02141764703484144
40
0.032957674867807284
40
0.032957674867807284
40
0.032957674867807284
40
0.032957674867807284
10
-143.21119013789973
20
30.468585047844169
30
0
10
-143.13946026911768
20
30.467453690129304
30
0
10
-143.02908167851973
20
30.465712746333516
30
0
10
-142.92137380808961
20
30.488606793130216
30
0
10
-142.88366023067317
20
30.496623072746512
30
0
0
SPLINE
5
563
100
AcDbEntity
8
0
100
AcDbSpline
70
0
71
3
72
9
73
5
74
0
42
0.000000001
43
0.0000000001
44
0.0000000001
40
0
40
0
40
0
40
0
40
0.00800626088893093
40
0.018850442938596196
40
0.018850442938596196
40
0.018850442938596196
40
0.018850442938596196
10
-142.88366023067317
20
30.496623072746512
30
0
10
-142.86094930079594
20
30.511071551253949
30
0
10
-142.8074772626407
20
30.545089955529345
30
0
10
-142.77067102403845
20
30.59697216835918
30
0
10
-142.74949732784114
20
30.626818690422294
30
0
0
SPLINE
5
564
100
AcDbEntity
8
0
100
AcDbSpline
70
0
71
3
72
9
73
5
74
0
42
0.000000001
43
0.0000000001
44
0.0000000001
40
0
40
0
40
0
40
0
40
0.020317461739475094
40
0.056648108597867466
40
0.056648108597867466
40
0.056648108597867466
40
0.056648108597867466
10
-142.74949732784114
20
30.626818690422294
30
0
10
-142.71643149686054
20
30.685970360145983
30
0
10
-142.6242390365874
20
30.850894023013907
30
0
10
-142.55136736345816
20
31.025343752468636
30
0
10
-142.50463191036067
20
31.137225184562919
30
0
0
LINE
5
565
100
AcDbEntity
8
0
100
AcDbLine
10
-142.50463191036067
20
31.137225184562919
30
0
11
-140.75513545039973
21
35.22856429589104
31
0
0
SPLINE
5
566
100
AcDbEntity
8
0
100
AcDbSpline
70
0
71
3
72
9
73
5
74
0
42
0.000000001
43
0.0000000001
44
0.0000000001
40
0
40
0
40
0
40
0
40
0.047914853202368872
40
0.094381291991198296
40
0.094381291991198296
40
0.094381291991198296
40
0.094381291991198296
10
-140.75513545039973
20
35.22856429589104
30
0
10
-140.68888466335915
20
35.374044537471057
30
0
10
-140.55838577922574
20
35.660607309593559
30
0
10
-140.39697850549965
20
35.93095826982163
30
0
10
-140.31751338008723
20
36.064059291008228
30
0
0
SPLINE
5
567
100
AcDbEntity
8
0
100
AcDbSpline
70
0
71
3
72
9
73
5
74
0
42
0.000000001
43
0.0000000001
44
0.0000000001
40
0
40
0
40
0
40
0
40
0.044289985050082567
40
0.087386782434884583
40
0.087386782434884583
40
0.087386782434884583
40
0.087386782434884583
10
-140.31751338008723
20
36.064059291008228
30
0
10
-140.23183748337883
20
36.186019981999799
30
0
10
-140.06279382854117
20
36.426655700373523
30
0
10
-139.81861812923742
20
36.59038389629228
30
0
10
-139.69819727901302
20
36.67113021385979
30
0
0
SPLINE
5
568
100
AcDbEntity
8
0
100
AcDbSpline
70
0
71
3
72
9
73
5
74
0
42
0.000000001
43
0.0000000001
44
0.0000000001
40
0
40
0
40
0
40
0
40
0.042892655043834209
40
0.086898432370460937
40
0.086898432370460937
40
0.086898432370460937
40
0.086898432370460937
10
-139.69819727901302
20
36.67113021385979
30
0
10
-139.56845356561024
20
36.734813636810564
30
0
10
-139.30559911435046
20
36.863833153479597
30
0
10
-139.01318528829285
20
36.880860670271993
30
0
10
-138.86510554317317
20
36.889483485344165
30
0
0
SPLINE
5
569
100
AcDbEntity
8
0
100
AcDbSpline
70
0
71
3
72
9
73
5
74
0
42
0.000000001
43
0.0000000001
44
0.0000000001
40
0
40
0
40
0
40
0
40
0.047994751261675399
40
0.089668108051430245
40
0.089668108051430245
40
0.089668108051430245
40
0.089668108051430245
10
-138.86510554317317
20
36.889483485344165
30
0
10
-138.70240420498109
20
36.882492781407549
30
0
10
-138.39843094145539
20
36.869432119992169
30
0
10
-138.13658091763571
20
36.716131661724702
30
0
10
-138.01488581661067
20
36.64488509667229
30
0
0
SPLINE
5
570
100
AcDbEntity
8
0
100
AcDbSpline
70
0
71
3
72
9
73
5
74
0
42
0.000000001
43
0.0000000001
44
0.0000000001
40
0
40
0
40
0
40
0
40
0.033214542640385467
40
0.064950101732682217
40
0.064950101732682217
40
0.064950101732682217
40
0.064950101732682217
10
-138.01488581661067
20
36.64488509667229
30
0
10
-137.92969429136477
20
36.567946572481382
30
0
10
-137.76310466550746
20
36.41749545751447
30
0
10
-137.7360000212251
20
36.195085929247469
30
0
10
-137.72275630000911
20
36.08641341698479
30
0
0
SPLINE
5
571
100
AcDbEntity
8
0
100
AcDbSpline
70
0
71
3
72
9
73
5
74
0
42
0.000000001
43
0.0000000001
44
0.0000000001
40
0
40
0
40
0
40
0
40
0.020149185141973901
40
0.039589297156059897
40
0.039589297156059897
40
0.039589297156059897
40
0.039589297156059897
10
-137.72275630000911
20
36.08641341698479
30
0
10
-137.7280910542076
20
36.017865160151473
30
0
10
-137.73857282643468
20
35.883180938919573
30
0
10
-137.82065618768871
20
35.776050700900342
30
0
10
-137.8609627819427
20
35.723444972160571
30
0
0
SPLINE
5
572
100
AcDbEntity
8
0
100
AcDbSpline
70
0
71
3
72
9
73
5
74
0
42
0.000000001
43
0.0000000001
44
0.0000000001
40
0
40
0
40
0
40
0
40
0.01873402045953405
40
0.036839139779317097
40
0.036839139779317097
40
0.036839139779317097
40
0.036839139779317097
10
-137.8609627819427
20
35.723444972160571
30
0
10
-137.90864231177719
20
35.680445850718364
30
0
10
-138.00240076944394
20
35.595891088508139
30
0
10
-138.1278114838114
20
35.582559112241633
30
0
10
-138.18944636348567
20
35.576006922844165
30
0
0
SPLINE
5
573
100
AcDbEntity
8
0
100
AcDbSpline
70
0
71
3
72
9
73
5
74
0
42
0.000000001
43
0.0000000001
44
0.0000000001
40
0
40
0
40
0
40
0
40
0.013348556752099481
40
0.026736253517858816
40
0.026736253517858816
40
0.026736253517858816
40
0.026736253517858816
10
-138.18944636348567
20
35.576006922844165
30
0
10
-138.23422275381137
20
35.578468988918999
30
0
10
-138.32390682569982
20
35.583400340223633
30
0
10
-138.40695548392674
20
35.617618922690312
30
0
10
-138.44854060176692
20
35.63475326073479
30
0
0
SPLINE
5
574
100
AcDbEntity
8
0
100
AcDbSpline
70
0
71
3
72
9
73
5
74
0
42
0.000000001
43
0.0000000001
44
0.0000000001
40
0
40
0
40
0
40
0
40
0.011054927188634571
40
0.0290292595355486
40
0.0290292595355486
40
0.0290292595355486
40
0.0290292595355486
10
-138.44854060176692
20
35.63475326073479
30
0
10
-138.47995082252052
20
35.654346792458142
30
0
10
-138.56243127985567
20
35.705797671139649
30
0
10
-138.62605176581482
20
35.779765209320765
30
0
10
-138.66544428829036
20
35.825564417961353
30
0
0
SPLINE
5
575
100
AcDbEntity
8
0
100
AcDbSpline
70
0
71
3
72
9
73
5
74
0
42
0.000000001
43
0.0000000001
44
0.0000000001
40
0
40
0
40
0
40
0
40
0.030387605579213512
40
0.046361796247820761
40
0.046361796247820761
40
0.046361796247820761
40
0.046361796247820761
10
-138.66544428829036
20
35.825564417961353
30
0
10
-138.74534192757045
20
35.887994015295611
30
0
10
-138.8672402477039
20
35.983241673552172
30
0
10
-138.99820398379183
20
36.065421992471094
30
0
10
-139.04332819942317
20
36.09373763573479
30
0
0
SPLINE
5
576
100
AcDbEntity
8
0
100
AcDbSpline
70
0
71
3
72
9
73
5
74
0
42
0.000000001
43
0.0000000001
44
0.0000000001
40
0
40
0
40
0
40
0
40
0.0083236635332235229
40
0.015842677879009195
40
0.015842677879009195
40
0.015842677879009195
40
0.015842677879009195
10
-139.04332819942317
20
36.09373763573479
30
0
10
-139.06891126225557
20
36.105077548137189
30
0
10
-139.11760427128871
20
36.126661142746748
30
0
10
-139.17065951259571
20
36.130720809602174
30
0
10
-139.19583979610286
20
36.132647547844165
30
0
0
SPLINE
5
577
100
AcDbEntity
8
0
100
AcDbSpline
70
0
71
3
72
9
73
5
74
0
42
0.000000001
43
0.0000000001
44
0.0000000001
40
0
40
0
40
0
40
0
40
0.016946032383085178
40
0.03594040973396477
40
0.03594040973396477
40
0.03594040973396477
40
0.03594040973396477
10
-139.19583979610286
20
36.132647547844165
30
0
10
-139.25279227092645
20
36.126712787445314
30
0
10
-139.37358132846217
20
36.114125904829613
30
0
10
-139.47649509910033
20
36.049200621898926
30
0
10
-139.5308846569427
20
36.014887843254321
30
0
0
SPLINE
5
578
100
AcDbEntity
8
0
100
AcDbSpline
70
0
71
3
72
9
73
5
74
0
42
0.000000001
43
0.0000000001
44
0.0000000001
40
0
40
0
40
0
40
0
40
0.021347391210616649
40
0.045215139032635465
40
0.045215139032635465
40
0.045215139032635465
40
0.045215139032635465
10
-139.5308846569427
20
36.014887843254321
30
0
10
-139.58626467836311
20
35.969343646723871
30
0
10
-139.70356310342353
20
35.872878127450974
30
0
10
-139.78166960022412
20
35.742440881389875
30
0
10
-139.8228997326263
20
35.673586878898853
30
0
0
SPLINE
5
579
100
AcDbEntity
8
0
100
AcDbSpline
70
0
71
3
72
9
73
5
74
0
42
0.000000001
43
0.0000000001
44
0.0000000001
40
0
40
0
40
0
40
0
40
0.034880677742717192
40
0.061325649915614136
40
0.061325649915614136
40
0.061325649915614136
40
0.061325649915614136
10
-139.8228997326263
20
35.673586878898853
30
0
10
-139.87907204101933
20
35.571772705498304
30
0
10
-139.97783168510855
20
35.392767572614567
30
0
10
-140.08312743076655
20
35.217534871641199
30
0
10
-140.12853327754817
20
35.141970667961353
30
0
0
LINE
5
580
100
AcDbEntity
8
0
100
AcDbLine
10
-140.12853327754817
20
35.14197066796136
30
0
11
-140.32682124141536
21
34.597689662101978
31
0
0
LINE
5
581
100
AcDbEntity
8
0
100
AcDbLine
10
-140.32682124141536
20
34.597689662101978
30
0
11
-138.75310603145442
21
31.093508753898856
31
0
0
SPLINE
5
582
100
AcDbEntity
8
0
100
AcDbSpline
70
0
71
3
72
9
73
5
74
0
42
0.000000001
43
0.0000000001
44
0.0000000001
40
0
40
0
40
0
40
0
40
0.0334076564485827
40
0.054252111466315721
40
0.054252111466315721
40
0.054252111466315721
40
0.054252111466315721
10
-138.75310603145442
20
31.093508753898856
30
0
10
-138.70804805034498
20
30.991274800548911
30
0
10
-138.63487648210412
20
30.825252743859014
30
0
10
-138.53165081519873
20
30.676358497083037
30
0
10
-138.49199000362239
20
30.619151148918387
30
0
0
SPLINE
5
583
100
AcDbEntity
8
0
100
AcDbSpline
70
0
71
3
72
9
73
5
74
0
42
0.000000001
43
0.0000000001
44
0.0000000001
40
0
40
0
40
0
40
0
40
0.013006895810574699
40
0.02287312090260131
40
0.02287312090260131
40
0.02287312090260131
40
0.02287312090260131
10
-138.49199000362239
20
30.619151148918387
30
0
10
-138.46229751557271
20
30.586659408192887
30
0
10
-138.41008214620635
20
30.529521446547484
30
0
10
-138.33903466029727
20
30.499634581248568
30
0
10
-138.30838862422786
20
30.486743006828544
30
0
0
SPLINE
5
584
100
AcDbEntity
8
0
100
AcDbSpline
70
0
71
3
72
9
73
5
74
0
42
0.000000001
43
0.0000000001
44
0.0000000001
40
0
40
0
40
0
40
0
40
0.034832238719358199
40
0.070755164650039559
40
0.070755164650039559
40
0.070755164650039559
40
0.070755164650039559
10
-126.26050654414973
20
34.111163172844165
30
0
10
-126.37736109881618
20
34.103800398293089
30
0
10
-126.61472922557222
20
34.088844301734397
30
0
10
-126.832529596605
20
33.993106066767751
30
0
10
-126.94310847286067
20
33.944499049309009
30
0
0
SPLINE
5
585
100
AcDbEntity
8
0
100
AcDbSpline
70
0
71
3
72
9
73
5
74
0
42
0.000000001
43
0.0000000001
44
0.0000000001
40
0
40
0
40
0
40
0
40
0.046364038078772131
40
0.11227629665654149
40
0.11227629665654149
40
0.11227629665654149
40
0.11227629665654149
10
-126.94310847286067
20
33.944499049309009
30
0
10
-127.07450703980712
20
33.862459237956728
30
0
10
-127.39270504615118
20
33.663789609970792
30
0
10
-127.6641257026982
20
33.404188225825088
30
0
10
-127.82346430782161
20
33.251788172844165
30
0
0
LINE
5
586
100
AcDbEntity
8
0
100
AcDbLine
10
-127.82346430782161
20
33.251788172844165
30
0
11
-128.24033442500911
21
33.58671859276604
31
0
0
SPLINE
5
587
100
AcDbEntity
8
0
100
AcDbSpline
70
0
71
3
72
9
73
5
74
0
42
0.000000001
43
0.0000000001
44
0.0000000001
40
0
40
0
40
0
40
0
40
0.057181640149305484
40
0.10416776892008223
40
0.10416776892008223
40
0.10416776892008223
40
0.10416776892008223
10
-128.24033442500911
20
33.58671859276604
30
0
10
-128.12272824321445
20
33.737511280425466
30
0
10
-127.90848511313337
20
34.012210253766057
30
0
10
-127.64286710495338
20
34.237243879977235
30
0
10
-127.52305689815364
20
34.338748011711353
30
0
0
SPLINE
5
588
100
AcDbEntity
8
0
100
AcDbSpline
70
0
71
3
72
9
73
5
74
0
42
0.000000001
43
0.0000000001
44
0.0000000001
40
0
40
0
40
0
40
0
40
0.039564645189931684
40
0.07418032065337643
40
0.07418032065337643
40
0.07418032065337643
40
0.07418032065337643
10
-127.52305689815364
20
34.338748011711353
30
0
10
-127.41517389320842
20
34.415551217010979
30
0
10
-127.21290250011319
20
34.559550648042979
30
0
10
-126.98280770693442
20
34.652451983090423
30
0
10
-126.87543574336848
20
34.695803675773853
30
0
0
SPLINE
5
589
100
AcDbEntity
8
0
100
AcDbSpline
70
0
71
3
72
9
73
5
74
0
42
0.000000001
43
0.0000000001
44
0.0000000001
40
0
40
0
40
0
40
0
40
0.034288056719766355
40
0.072890529889784228
40
0.072890529889784228
40
0.072890529889784228
40
0.072890529889784228
10
-126.87543574336848
20
34.695803675773853
30
0
10
-126.76477093637317
20
34.726060571486684
30
0
10
-126.52951653021169
20
34.790381544219343
30
0
10
-126.28556229531443
20
34.796434251011597
30
0
10
-126.15636530879817
20
34.799639735344165
30
0
0
SPLINE
5
590
100
AcDbEntity
8
0
100
AcDbSpline
70
0
71
3
72
9
73
5
74
0
42
0.000000001
43
0.0000000001
44
0.0000000001
40
0
40
0
40
0
40
0
40
0.068226701087669553
40
0.12936164599828998
40
0.12936164599828998
40
0.12936164599828998
40
0.12936164599828998
10
-126.15636530879817
20
34.799639735344165
30
0
10
-125.92649145262263
20
34.790148710672476
30
0
10
-125.49063774824035
20
34.772153196391891
30
0
10
-125.09599659379856
20
34.587725871659217
30
0
10
-124.90949336055598
20
34.500567469719165
30
0
0
SPLINE
5
591
100
AcDbEntity
8
0
100
AcDbSpline
70
0
71
3
72
9
73
5
74
0
42
0.000000001
43
0.0000000001
44
0.0000000001
40
0
40
0
40
0
40
0
40
0.065175455112566255
40
0.12818077787404908
40
0.12818077787404908
40
0.12818077787404908
40
0.12818077787404908
10
-124.90949336055598
20
34.500567469719165
30
0
10
-124.72635070662149
20
34.379223938218956
30
0
10
-124.36616345817501
20
34.140577223273617
30
0
10
-124.12662365203121
20
33.781211943976977
30
0
10
-124.00888148311458
20
33.604571375969165
30
0
0
SPLINE
5
592
100
AcDbEntity
8
0
100
AcDbSpline
70
0
71
3
72
9
73
5
74
0
42
0.000000001
43
0.0000000001
44
0.0000000001
40
0
40
0
40
0
40
0
40
0.064700532671304961
40
0.13518574754288443
40
0.13518574754288443
40
0.13518574754288443
40
0.13518574754288443
10
-124.00888148311458
20
33.604571375969165
30
0
10
-123.91721422483188
20
33.406968907857419
30
0
10
-123.72568401133107
20
32.994096922649582
30
0
10
-123.70514495511223
20
32.538940041490129
30
0
10
-123.69443598750911
20
32.30162337792229
30
0
0
SPLINE
5
593
100
AcDbEntity
8
0
100
AcDbSpline
70
0
71
3
72
9
73
5
74
0
42
0.000000001
43
0.0000000001
44
0.0000000001
40
0
40
0
40
0
40
0
40
0.072958919108582862
40
0.13841615418244058
40
0.13841615418244058
40
0.13841615418244058
40
0.13841615418244058
10
-123.69443598750911
20
32.30162337792229
30
0
10
-123.7041180227861
20
32.056086254281411
30
0
10
-123.72248658010678
20
31.590258295498085
30
0
10
-123.90978104649309
20
31.16398362610088
30
0
10
-123.99835291866145
20
30.962397608879321
30
0
0
SPLINE
5
594
100
AcDbEntity
8
0
100
AcDbSpline
70
0
71
3
72
9
73
5
74
0
42
0.000000001
43
0.0000000001
44
0.0000000001
40
0
40
0
40
0
40
0
40
0.061788624652910643
40
0.12357939607117993
40
0.12357939607117993
40
0.12357939607117993
40
0.12357939607117993
10
-123.99835291866145
20
30.962397608879321
30
0
10
-124.10980247335446
20
30.786343629137143
30
0
10
-124.33270545491027
20
30.434229552886357
30
0
10
-124.67730156523797
20
30.199871389652472
30
0
10
-124.84960261348567
20
30.08269027245354
30
0
0
SPLINE
5
595
100
AcDbEntity
8
0
100
AcDbSpline
70
0
71
3
72
9
73
5
74
0
42
0.000000001
43
0.0000000001
44
0.0000000001
40
0
40
0
40
0
40
0
40
0.063708590955173908
40
0.13157278235609698
40
0.13157278235609698
40
0.13157278235609698
40
0.13157278235609698
10
-124.84960261348567
20
30.08269027245354
30
0
10
-125.04262736963346
20
29.988766593832864
30
0
10
-125.44126755063888
20
29.794792758593942
30
0
10
-125.88439331835531
20
29.772220055504157
30
0
10
-126.11295405391536
20
29.760577235344165
30
0
0
SPLINE
5
596
100
AcDbEntity
8
0
100
AcDbSpline
70
0
71
3
72
9
73
5
74
0
42
0.000000001
43
0.0000000001
44
0.0000000001
40
0
40
0
40
0
40
0
40
0.049899104765959032
40
0.095127266162765053
40
0.095127266162765053
40
0.095127266162765053
40
0.095127266162765053
10
-126.11295405391536
20
29.760577235344165
30
0
10
-126.28029009871966
20
29.766159770411235
30
0
10
-126.59929823618796
20
29.776802271948664
30
0
10
-126.90075581295277
20
29.880987322708815
30
0
10
-127.04408350948177
20
29.930521998527759
30
0
0
SPLINE
5
597
100
AcDbEntity
8
0
100
AcDbSpline
70
0
71
3
72
9
73
5
74
0
42
0.000000001
43
0.0000000001
44
0.0000000001
40
0
40
0
40
0
40
0
40
0.04272825984388582
40
0.08547875092312969
40
0.08547875092312969
40
0.08547875092312969
40
0.08547875092312969
10
-127.04408350948177
20
29.930521998527759
30
0
10
-127.17297504607512
20
29.994205548860652
30
0
10
-127.43082518068903
20
30.121605783662986
30
0
10
-127.62570877631944
20
30.33312139303732
30
0
10
-127.72317591670833
20
30.438906703117603
30
0
0
SPLINE
5
598
100
AcDbEntity
8
0
100
AcDbSpline
70
0
71
3
72
9
73
5
74
0
42
0.000000001
43
0.0000000001
44
0.0000000001
40
0
40
0
40
0
40
0
40
0.043363449571773335
40
0.087389157958118774
40
0.087389157958118774
40
0.087389157958118774
40
0.087389157958118774
10
-127.72317591670833
20
30.438906703117603
30
0
10
-127.80925176050383
20
30.556181402141519
30
0
10
-127.98271802262333
20
30.792521852421629
30
0
10
-128.07716681988757
20
31.07009498553078
30
0
10
-128.12474909786067
20
31.209933314445728
30
0
0
SPLINE
5
599
100
AcDbEntity
8
0
100
AcDbSpline
70
0
71
3
72
9
73
5
74
0
42
0.000000001
43
0.0000000001
44
0.0000000001
40
0
40
0
40
0
40
0
40
0.031977731987836766
40
0.075838713483090597
40
0.075838713483090597
40
0.075838713483090597
40
0.075838713483090597
10
-128.12474909786067
20
31.209933314445728
30
0
10
-128.14572842036767
20
31.314621492302948
30
0
10
-128.19548319438613
20
31.562901036599595
30
0
10
-128.20224441546921
20
31.816219861155655
30
0
10
-128.20615473750911
20
31.962725672844165
30
0
0
LINE
5
600
100
AcDbEntity
8
0
100
AcDbLine
10
-128.20615473750911
20
31.962725672844158
30
0
11
-124.81488886836848
21
31.962725672844165
31
0
0
SPLINE
5
601
100
AcDbEntity
8
0
100
AcDbSpline
70
0
71
3
72
9
73
5
74
0
42
0.000000001
43
0.0000000001
44
0.0000000001
40
0
40
0
40
0
40
0
40
0.012176954648630228
40
0.025235894219879214
40
0.025235894219879214
40
0.025235894219879214
40
0.025235894219879214
10
-124.81488886836848
20
31.962725672844165
30
0
10
-124.81279784804748
20
32.003267269694845
30
0
10
-124.80846435341313
20
32.087286918215419
30
0
10
-124.80797201186057
20
32.171417828972622
30
0
10
-124.80771723750911
20
32.21495345604729
30
0
0
SPLINE
5
602
100
AcDbEntity
8
0
100
AcDbSpline
70
0
71
3
72
9
73
5
74
0
42
0.000000001
43
0.0000000001
44
0.0000000001
40
0
40
0
40
0
40
0
40
0.055406105545527232
40
0.10607076757627026
40
0.10607076757627026
40
0.10607076757627026
40
0.10607076757627026
10
-124.80771723750911
20
32.21495345604729
30
0
10
-124.81447668202199
20
32.400860372159222
30
0
10
-124.82741712352765
20
32.756764998473848
30
0
10
-124.94985145470844
20
33.090920211552969
30
0
10
-125.00833216670833
20
33.250529322746509
30
0
0
SPLINE
5
603
100
AcDbEntity
8
0
100
AcDbSpline
70
0
71
3
72
9
73
5
74
0
42
0.000000001
43
0.0000000001
44
0.0000000001
40
0
40
0
40
0
40
0
40
0.04518613662125473
40
0.084574246375268558
40
0.084574246375268558
40
0.084574246375268558
40
0.084574246375268558
10
-125.00833216670833
20
33.250529322746509
30
0
10
-125.07602878616399
20
33.387482195444413
30
0
10
-125.20273558167094
20
33.643814930735296
30
0
10
-125.42517590363443
20
33.822516448920041
30
0
10
-125.52877131465755
20
33.905741725090259
30
0
0
SPLINE
5
604
100
AcDbEntity
8
0
100
AcDbSpline
70
0
71
3
72
9
73
5
74
0
42
0.000000001
43
0.0000000001
44
0.0000000001
40
0
40
0
40
0
40
0
40
0.037587189497127346
40
0.076813745650636658
40
0.076813745650636658
40
0.076813745650636658
40
0.076813745650636658
10
-125.52877131465755
20
33.905741725090259
30
0
10
-125.64062370093782
20
33.965648679746735
30
0
10
-125.86920691945187
20
34.088075433096805
30
0
10
-126.12823063257062
20
34.103358535096959
30
0
10
-126.26050654414973
20
34.111163172844165
30
0
0
LINE
5
605
100
AcDbEntity
8
0
100
AcDbLine
10
-121.21396723750911
20
30.392901454094165
30
0
11
-121.21396723750911
21
28.471514735344165
31
0
0
LINE
5
606
100
AcDbEntity
8
0
100
AcDbLine
10
-121.21396723750911
20
28.471514735344165
30
0
11
-120.40830317500911
21
28.471514735344165
31
0
0
LINE
5
607
100
AcDbEntity
8
0
100
AcDbLine
10
-120.40830317500911
20
28.471514735344165
30
0
11
-120.40830317500911
21
27.88023665917229
31
0
0
SPLINE
5
608
100
AcDbEntity
8
0
100
AcDbSpline
70
0
71
3
72
9
73
5
74
0
42
0.000000001
43
0.0000000001
44
0.0000000001
40
0
40
0
40
0
40
0
40
0.036947706806167137
40
0.067567324043413937
40
0.067567324043413937
40
0.067567324043413937
40
0.067567324043413937
10
-120.40830317500911
20
27.88023665917229
30
0
10
-120.53108948033987
20
27.868086921186265
30
0
10
-120.75563229496981
20
27.845868349196099
30
0
10
-120.97401232052732
20
27.789427607576563
30
0
10
-121.07297602657161
20
27.763850245598071
30
0
0
SPLINE
5
609
100
AcDbEntity
8
0
100
AcDbSpline
70
0
71
3
72
9
73
5
74
0
42
0.000000001
43
0.0000000001
44
0.0000000001
40
0
40
0
40
0
40
0
40
0.032414311312206769
40
0.074654531830909809
40
0.074654531830909809
40
0.074654531830909809
40
0.074654531830909809
10
-121.07297602657161
20
27.763850245598071
30
0
10
-121.17485237188028
20
27.727587865084729
30
0
10
-121.40948733883695
20
27.644070710756733
30
0
10
-121.63261238965931
20
27.53324460338327
30
0
10
-121.75885859493098
20
27.470538172844165
30
0
0
LINE
5
610
100
AcDbEntity
8
0
100
AcDbLine
10
-121.75885859493098
20
27.470538172844169
30
0
11
-122.24424067500911
21
27.470538172844165
31
0
0
LINE
5
611
100
AcDbEntity
8
0
100
AcDbLine
10
-122.24424067500911
20
27.470538172844165
30
0
11
-122.24424067500911
21
33.373858485344165
31
0
0
SPLINE
5
612
100
AcDbEntity
8
0
100
AcDbSpline
70
0
71
3
72
9
73
5
74
0
42
0.000000001
43
0.0000000001
44
0.0000000001
40
0
40
0
40
0
40
0
40
0.031875110284928454
40
0.048051094298187685
40
0.048051094298187685
40
0.048051094298187685
40
0.048051094298187685
10
-122.24424067500911
20
33.373858485344165
30
0
10
-122.24327680065184
20
33.480222433276346
30
0
10
-122.24182377924363
20
33.640563967668875
30
0
10
-122.25738796703979
20
33.800055844684053
30
0
10
-122.26262751582942
20
33.85374740135979
30
0
0
SPLINE
5
613
100
AcDbEntity
8
0
100
AcDbSpline
70
0
71
3
72
9
73
5
74
0
42
0.000000001
43
0.0000000001
44
0.0000000001
40
0
40
0
40
0
40
0
40
0.012141221429758627
40
0.022420341774288161
40
0.022420341774288161
40
0.022420341774288161
40
0.022420341774288161
10
-122.26262751582942
20
33.85374740135979
30
0
10
-122.27489810102534
20
33.893365254929762
30
0
10
-122.29755732979032
20
33.966524765489837
30
0
10
-122.35576192444087
20
34.015791351669378
30
0
10
-122.3824471569427
20
34.03837874901604
30
0
0
SPLINE
5
614
100
AcDbEntity
8
0
100
AcDbSpline
70
0
71
3
72
9
73
5
74
0
42
0.000000001
43
0.0000000001
44
0.0000000001
40
0
40
0
40
0
40
0
40
0.014519080351197606
40
0.039379849359997318
40
0.039379849359997318
40
0.039379849359997318
40
0.039379849359997318
10
-122.3824471569427
20
34.03837874901604
30
0
10
-122.42864552340978
20
34.053668526977418
30
0
10
-122.55394855005784
20
34.095138726074254
30
0
10
-122.68656546188072
20
34.092989036571836
30
0
10
-122.7702874279388
20
34.091631922844165
30
0
0
LINE
5
615
100
AcDbEntity
8
0
100
AcDbLine
10
-122.7702874279388
20
34.091631922844165
30
0
11
-123.07920161250911
21
34.091631922844165
31
0
0
LINE
5
616
100
AcDbEntity
8
0
100
AcDbLine
10
-123.07920161250911
20
34.091631922844165
30
0
11
-123.07920161250911
21
34.682757411125415
31
0
0
LINE
5
617
100
AcDbEntity
8
0
100
AcDbLine
10
-123.07920161250911
20
34.682757411125415
30
0
11
-121.21396723750911
21
34.765460047844165
31
0
0
LINE
5
618
100
AcDbEntity
8
0
100
AcDbLine
10
-121.21396723750911
20
34.765460047844165
30
0
11
-121.21396723750911
21
33.999239955070728
31
0
0
SPLINE
5
619
100
AcDbEntity
8
0
100
AcDbSpline
70
0
71
3
72
9
73
5
74
0
42
0.000000001
43
0.0000000001
44
0.0000000001
40
0
40
0
40
0
40
0
40
0.050369760656163241
40
0.098110076985977346
40
0.098110076985977346
40
0.098110076985977346
40
0.098110076985977346
10
-121.21396723750911
20
33.999239955070728
30
0
10
-121.10429494219923
20
34.128712261229964
30
0
10
-120.89067555636316
20
34.380898052056843
30
0
10
-120.59832219161581
20
34.534580722248073
30
0
10
-120.45606318477473
20
34.60936263573479
30
0
0
SPLINE
5
620
100
AcDbEntity
8
0
100
AcDbSpline
70
0
71
3
72
9
73
5
74
0
42
0.000000001
43
0.0000000001
44
0.0000000001
40
0
40
0
40
0
40
0
40
0.046144529781053018
40
0.090583594253853442
40
0.090583594253853442
40
0.090583594253853442
40
0.090583594253853442
10
-120.45606318477473
20
34.60936263573479
30
0
10
-120.31148414012134
20
34.664854394545848
30
0
10
-120.0276695779049
20
34.773786980670891
30
0
10
-119.72425378537814
20
34.791130998791651
30
0
10
-119.57540217403255
20
34.799639735344165
30
0
0
SPLINE
5
621
100
AcDbEntity
8
0
100
AcDbSpline
70
0
71
3
72
9
73
5
74
0
42
0.000000001
43
0.0000000001
44
0.0000000001
40
0
40
0
40
0
40
0
40
0.08536249236901744
40
0.17216034056246476
40
0.17216034056246476
40
0.17216034056246476
40
0.17216034056246476
10
-119.57540217403255
20
34.799639735344165
30
0
10
-119.28336668012963
20
34.768383013304856
30
0
10
-118.69438516504793
20
34.705343992748951
30
0
10
-118.27629487206565
20
34.285214030151288
30
0
10
-118.06550684932552
20
34.073397669914478
30
0
0
SPLINE
5
622
100
AcDbEntity
8
0
100
AcDbSpline
70
0
71
3
72
9
73
5
74
0
42
0.000000001
43
0.0000000001
44
0.0000000001
40
0
40
0
40
0
40
0
40
0.091568532360533403
40
0.18715900086880333
40
0.18715900086880333
40
0.18715900086880333
40
0.18715900086880333
10
-118.06550684932552
20
34.073397669914478
30
0
10
-117.89150442756217
20
33.81570887826426
30
0
10
-117.53585692981963
20
33.289012910369387
30
0
10
-117.49150338707275
20
32.654423223281896
30
0
10
-117.46885005000911
20
32.33030990135979
30
0
0
SPLINE
5
623
100
AcDbEntity
8
0
100
AcDbSpline
70
0
71
3
72
9
73
5
74
0
42
0.000000001
43
0.0000000001
44
0.0000000001
40
0
40
0
40
0
40
0
40
0.069674929042053482
40
0.13725421923740566
40
0.13725421923740566
40
0.13725421923740566
40
0.13725421923740566
10
-117.46885005000911
20
32.33030990135979
30
0
10
-117.4811719040427
20
32.096201110109412
30
0
10
-117.50544500310696
20
31.635024905103329
30
0
10
-117.69229085190979
20
31.212864931291833
30
0
10
-117.78428736690364
20
31.005007777336353
30
0
0
SPLINE
5
624
100
AcDbEntity
8
0
100
AcDbSpline
70
0
71
3
72
9
73
5
74
0
42
0.000000001
43
0.0000000001
44
0.0000000001
40
0
40
0
40
0
40
0
40
0.06467800576271196
40
0.12580352350555685
40
0.12580352350555685
40
0.12580352350555685
40
0.12580352350555685
10
-117.78428736690364
20
31.005007777336353
30
0
10
-117.8954195871076
20
30.817274385172947
30
0
10
-118.11158000689463
20
30.452118998340929
30
0
10
-118.45426844692372
20
30.202414650214699
30
0
10
-118.62077418330989
20
30.081088099601978
30
0
0
SPLINE
5
625
100
AcDbEntity
8
0
100
AcDbSpline
70
0
71
3
72
9
73
5
74
0
42
0.000000001
43
0.0000000001
44
0.0000000001
40
0
40
0
40
0
40
0
40
0.059640558676458649
40
0.11971238148184007
40
0.11971238148184007
40
0.11971238148184007
40
0.11971238148184007
10
-118.62077418330989
20
30.081088099601978
30
0
10
-118.79895493283354
20
29.987606109582291
30
0
10
-119.15660486658767
20
29.799966156180325
30
0
10
-119.55967817823365
20
29.773738370841834
30
0
10
-119.76194087032161
20
29.760577235344165
30
0
0
SPLINE
5
626
100
AcDbEntity
8
0
100
AcDbSpline
70
0
71
3
72
9
73
5
74
0
42
0.000000001
43
0.0000000001
44
0.0000000001
40
0
40
0
40
0
40
0
40
0.045885046139777556
40
0.089945553986112342
40
0.089945553986112342
40
0.089945553986112342
40
0.089945553986112342
10
-119.76194087032161
20
29.760577235344165
30
0
10
-119.91568894341268
20
29.766895461817935
30
0
10
-120.21707156742372
20
29.779280681583479
30
0
10
-120.5020751833935
20
29.877798907093304
30
0
10
-120.64168635372005
20
29.926058802726978
30
0
0
SPLINE
5
627
100
AcDbEntity
8
0
100
AcDbSpline
70
0
71
3
72
9
73
5
74
0
42
0.000000001
43
0.0000000001
44
0.0000000001
40
0
40
0
40
0
40
0
40
0.039928195650515086
40
0.074963522656720072
40
0.074963522656720072
40
0.074963522656720072
40
0.074963522656720072
10
-120.64168635372005
20
29.926058802726978
30
0
10
-120.76478857948132
20
29.983196440548241
30
0
10
-120.9959078759985
20
30.090469973388451
30
0
10
-121.14451395630935
20
30.296575121082824
30
0
10
-121.21396723750911
20
30.392901454094165
30
0
0
SPLINE
5
628
100
AcDbEntity
8
0
100
AcDbSpline
70
0
71
3
72
9
73
5
74
0
42
0.000000001
43
0.0000000001
44
0.0000000001
40
0
40
0
40
0
40
0
40
0.027082872652644023
40
0.052755750001169652
40
0.052755750001169652
40
0.052755750001169652
40
0.052755750001169652
10
-109.57223597530208
20
34.024073634269946
30
0
10
-109.65744980242209
20
33.993298919662209
30
0
10
-109.82344103303654
20
33.933351691352044
30
0
10
-109.97195576693885
20
33.83808209407966
30
0
10
-110.04422846797786
20
33.791720423820728
30
0
0
SPLINE
5
629
100
AcDbEntity
8
0
100
AcDbSpline
70
0
71
3
72
9
73
5
74
0
42
0.000000001
43
0.0000000001
44
0.0000000001
40
0
40
0
40
0
40
0
40
0.036754487051811315
40
0.094450863403647001
40
0.094450863403647001
40
0.094450863403647001
40
0.094450863403647001
10
-110.04422846797786
20
33.791720423820728
30
0
10
-110.13952485311512
20
33.714592677470719
30
0
10
-110.38441538424324
20
33.516391510226399
30
0
10
-110.60527018711788
20
33.291505860907421
30
0
10
-110.74018183711848
20
33.154131922844165
30
0
0
LINE
5
630
100
AcDbEntity
8
0
100
AcDbLine
10
-110.74018183711848
20
33.154131922844165
30
0
11
-111.16025630000911
21
33.485476527336353
31
0
0
SPLINE
5
631
100
AcDbEntity
8
0
100
AcDbSpline
70
0
71
3
72
9
73
5
74
0
42
0.000000001
43
0.0000000001
44
0.0000000001
40
0
40
0
40
0
40
0
40
0.14332080004292902
40
0.26985288689522674
40
0.26985288689522674
40
0.26985288689522674
40
0.26985288689522674
10
-111.16025630000911
20
33.485476527336353
30
0
10
-110.84383487221459
20
33.868322122690117
30
0
10
-110.24805787585201
20
34.589166474036112
30
0
10
-109.32884703062605
20
34.732453482726825
30
0
10
-108.89783564571223
20
34.799639735344165
30
0
0
SPLINE
5
632
100
AcDbEntity
8
0
100
AcDbSpline
70
0
71
3
72
9
73
5
74
0
42
0.000000001
43
0.0000000001
44
0.0000000001
40
0
40
0
40
0
40
0
40
0.096099519835978822
40
0.1915264811843502
40
0.1915264811843502
40
0.1915264811843502
40
0.1915264811843502
10
-108.89783564571223
20
34.799639735344165
30
0
10
-108.57032943018254
20
34.769783432361749
30
0
10
-107.91760907181383
20
34.710279777596824
30
0
10
-107.41923446067304
20
34.284812216491119
30
0
10
-107.1709221935638
20
34.072825465324634
30
0
0
SPLINE
5
633
100
AcDbEntity
8
0
100
AcDbSpline
70
0
71
3
72
9
73
5
74
0
42
0.000000001
43
0.0000000001
44
0.0000000001
40
0
40
0
40
0
40
0
40
0.097034692515607951
40
0.19759405287399306
40
0.19759405287399306
40
0.19759405287399306
40
0.19759405287399306
10
-107.1709221935638
20
34.072825465324634
30
0
10
-106.96588463627108
20
33.812824916056961
30
0
10
-106.54836178040867
20
33.283379612038502
30
0
10
-106.49502008684723
20
32.610547404723484
30
0
10
-106.46787348750911
20
32.268130335930103
30
0
0
SPLINE
5
634
100
AcDbEntity
8
0
100
AcDbSpline
70
0
71
3
72
9
73
5
74
0
42
0.000000001
43
0.0000000001
44
0.0000000001
40
0
40
0
40
0
40
0
40
0.068805882048442693
40
0.13467736224371646
40
0.13467736224371646
40
0.13467736224371646
40
0.13467736224371646
10
-106.46787348750911
20
32.268130335930103
30
0
10
-106.48026106530003
20
32.036608733425894
30
0
10
-106.50450792111819
20
31.583439356049801
30
0
10
-106.69931905237948
20
31.17383718104071
30
0
10
-106.79460230830989
20
30.97349837792229
30
0
0
SPLINE
5
635
100
AcDbEntity
8
0
100
AcDbSpline
70
0
71
3
72
9
73
5
74
0
42
0.000000001
43
0.0000000001
44
0.0000000001
40
0
40
0
40
0
40
0
40
0.064324736433327243
40
0.12868415654386417
40
0.12868415654386417
40
0.12868415654386417
40
0.12868415654386417
10
-106.79460230830989
20
30.97349837792229
30
0
10
-106.91412536832919
20
30.792333635394634
30
0
10
-107.15323593479172
20
30.429906466931666
30
0
10
-107.51915039367316
20
30.196161185700902
30
0
10
-107.70215693477473
20
30.079257044914478
30
0
0
SPLINE
5
636
100
AcDbEntity
8
0
100
AcDbSpline
70
0
71
3
72
9
73
5
74
0
42
0.000000001
43
0.0000000001
44
0.0000000001
40
0
40
0
40
0
40
0
40
0.066687979694210947
40
0.13774417092033869
40
0.13774417092033869
40
0.13774417092033869
40
0.13774417092033869
10
-107.70215693477473
20
30.079257044914478
30
0
10
-107.90644736782158
20
29.986334653750689
30
0
10
-108.32840971330018
20
29.794403247379094
30
0
10
-108.79178233185371
20
29.772088458576071
30
0
10
-109.03081599239192
20
29.760577235344165
30
0
0
SPLINE
5
637
100
AcDbEntity
8
0
100
AcDbSpline
70
0
71
3
72
9
73
5
74
0
42
0.000000001
43
0.0000000001
44
0.0000000001
40
0
40
0
40
0
40
0
40
0.079543803694994308
40
0.1523902010906501
40
0.1523902010906501
40
0.1523902010906501
40
0.1523902010906501
10
-109.03081599239192
20
29.760577235344165
30
0
10
-109.30004850396745
20
29.775131951123157
30
0
10
-109.81584476556513
20
29.803015908909277
30
0
10
-110.25984262713685
20
30.065329785195821
30
0
10
-110.47208491329036
20
30.19072249901604
30
0
0
SPLINE
5
638
100
AcDbEntity
8
0
100
AcDbSpline
70
0
71
3
72
9
73
5
74
0
42
0.000000001
43
0.0000000001
44
0.0000000001
40
0
40
0
40
0
40
0
40
0.061960781882232259
40
0.10935884445753499
40
0.10935884445753499
40
0.10935884445753499
40
0.10935884445753499
10
-110.47208491329036
20
30.19072249901604
30
0
10
-110.64189598789898
20
30.322019880152581
30
0
10
-110.94160722993249
20
30.553755656319584
30
0
10
-111.02260944220421
20
30.919873272832131
30
0
10
-111.05771723750911
20
31.078555140617603
30
0
0
SPLINE
5
639
100
AcDbEntity
8
0
100
AcDbSpline
70
0
71
3
72
9
73
5
74
0
42
0.000000001
43
0.0000000001
44
0.0000000001
40
0
40
0
40
0
40
0
40
0.023598223504884493
40
0.044928689997941008
40
0.044928689997941008
40
0.044928689997941008
40
0.044928689997941008
10
-111.05771723750911
20
31.078555140617603
30
0
10
-111.05250053328464
20
31.159360961703531
30
0
10
-111.04256844297863
20
31.313207274958742
30
0
10
-110.94427869846382
20
31.431332799656037
30
0
10
-110.89761439327083
20
31.48741439354729
30
0
0
SPLINE
5
640
100
AcDbEntity
8
0
100
AcDbSpline
70
0
71
3
72
9
73
5
74
0
42
0.000000001
43
0.0000000001
44
0.0000000001
40
0
40
0
40
0
40
0
40
0.020393692882652657
40
0.04002670753202326
40
0.04002670753202326
40
0.04002670753202326
40
0.04002670753202326
10
-110.89761439327083
20
31.48741439354729
30
0
10
-110.84309889999217
20
31.530624010117517
30
0
10
-110.73610132392859
20
31.615431538355754
30
0
10
-110.6003784802931
20
31.628947624115121
30
0
10
-110.53380671504817
20
31.635577235344165
30
0
0
SPLINE
5
641
100
AcDbEntity
8
0
100
AcDbSpline
70
0
71
3
72
9
73
5
74
0
42
0.000000001
43
0.0000000001
44
0.0000000001
40
0
40
0
40
0
40
0
40
0.010946520611309858
40
0.021928055518647186
40
0.021928055518647186
40
0.021928055518647186
40
0.021928055518647186
10
-110.53380671504817
20
31.635577235344165
30
0
10
-110.49704005284931
20
31.633369808078392
30
0
10
-110.42338912406936
20
31.628947892717708
30
0
10
-110.35627424486846
20
31.598288558369468
30
0
10
-110.32266322139583
20
31.58293441307854
30
0
0
SPLINE
5
642
100
AcDbEntity
8
0
100
AcDbSpline
70
0
71
3
72
9
73
5
74
0
42
0.000000001
43
0.0000000001
44
0.0000000001
40
0
40
0
40
0
40
0
40
0.011935235441469181
40
0.025581668747940191
40
0.025581668747940191
40
0.025581668747940191
40
0.025581668747940191
10
-110.32266322139583
20
31.58293441307854
30
0
10
-110.28864700217078
20
31.561970629571071
30
0
10
-110.21573753536219
20
31.517037409106209
30
0
10
-110.15682947966533
20
31.454782393999459
30
0
10
-110.12540522579036
20
31.421572718742603
30
0
0
SPLINE
5
643
100
AcDbEntity
8
0
100
AcDbSpline
70
0
71
3
72
9
73
5
74
0
42
0.000000001
43
0.0000000001
44
0.0000000001
40
0
40
0
40
0
40
0
40
0.010933600662230708
40
0.028943245507951493
40
0.028943245507951493
40
0.028943245507951493
40
0.028943245507951493
10
-110.12540522579036
20
31.421572718742603
30
0
10
-110.10478185700296
20
31.391446403236095
30
0
10
-110.05018801875565
20
31.311696522762887
30
0
10
-110.01133592400237
20
31.223052935552133
30
0
10
-109.98716059688411
20
31.16789535057854
30
0
0
SPLINE
5
644
100
AcDbEntity
8
0
100
AcDbSpline
70
0
71
3
72
9
73
5
74
0
42
0.000000001
43
0.0000000001
44
0.0000000001
40
0
40
0
40
0
40
0
40
0.028567989575700118
40
0.046307848035676738
40
0.046307848035676738
40
0.046307848035676738
40
0.046307848035676738
10
-109.98716059688411
20
31.16789535057854
30
0
10
-109.94726671783806
20
31.081270050226518
30
0
10
-109.882599945137
20
30.940853055389809
30
0
10
-109.8003806335945
20
30.810057490542547
30
0
10
-109.76888361934505
20
30.759951624992603
30
0
0
SPLINE
5
645
100
AcDbEntity
8
0
100
AcDbSpline
70
0
71
3
72
9
73
5
74
0
42
0.000000001
43
0.0000000001
44
0.0000000001
40
0
40
0
40
0
40
0
40
0.020238546877117
40
0.04158122557496477
40
0.04158122557496477
40
0.04158122557496477
40
0.04158122557496477
10
-109.76888361934505
20
30.759951624992603
30
0
10
-109.72387453015756
20
30.70901891310751
30
0
10
-109.6314008411229
20
30.604374810203403
30
0
10
-109.50964599211055
20
30.535842630320843
30
0
10
-109.44715205196223
20
30.500666651848071
30
0
0
SPLINE
5
646
100
AcDbEntity
8
0
100
AcDbSpline
70
0
71
3
72
9
73
5
74
0
42
0.000000001
43
0.0000000001
44
0.0000000001
40
0
40
0
40
0
40
0
40
0.022265285006661015
40
0.045524015508467283
40
0.045524015508467283
40
0.045524015508467283
40
0.045524015508467283
10
-109.44715205196223
20
30.500666651848071
30
0
10
-109.3782755607434
20
30.471375267172913
30
0
10
-109.23744940677877
20
30.41148555770738
30
0
10
-109.08453011333535
20
30.404033177526742
30
0
10
-109.00640192989192
20
30.400225672844165
30
0
0
SPLINE
5
647
100
AcDbEntity
8
0
100
AcDbSpline
70
0
71
3
72
9
73
5
74
0
42
0.000000001
43
0.0000000001
44
0.0000000001
40
0
40
0
40
0
40
0
40
0.036614224390637592
40
0.073589011090962192
40
0.073589011090962192
40
0.073589011090962192
40
0.073589011090962192
10
-109.00640192989192
20
30.400225672844165
30
0
10
-108.88306240679412
20
30.409068090129217
30
0
10
-108.63516876206305
20
30.426840001305557
30
0
10
-108.41794984873607
20
30.547678445780303
30
0
10
-108.30880824092708
20
30.608393702629321
30
0
0
SPLINE
5
648
100
AcDbEntity
8
0
100
AcDbSpline
70
0
71
3
72
9
73
5
74
0
42
0.000000001
43
0.0000000001
44
0.0000000001
40
0
40
0
40
0
40
0
40
0.0389092337792303
40
0.081689513811231934
40
0.081689513811231934
40
0.081689513811231934
40
0.081689513811231934
10
-108.30880824092708
20
30.608393702629321
30
0
10
-108.2056061802151
20
30.689441527342474
30
0
10
-107.98893457440266
20
30.859600555244221
30
0
10
-107.86098373871262
20
31.10401967140977
30
0
10
-107.79397669795833
20
31.232020411613696
30
0
0
SPLINE
5
649
100
AcDbEntity
8
0
100
AcDbSpline
70
0
71
3
72
9
73
5
74
0
42
0.000000001
43
0.0000000001
44
0.0000000001
40
0
40
0
40
0
40
0
40
0.048065196994749856
40
0.10266843981124332
40
0.10266843981124332
40
0.10266843981124332
40
0.10266843981124332
10
-107.79397669795833
20
31.232020411613696
30
0
10
-107.73766165090873
20
31.383177477959702
30
0
10
-107.61737132901304
20
31.706052679529858
30
0
10
-107.60647898049038
20
32.050818875716956
30
0
10
-107.60068598750911
20
32.23417953026604
30
0
0
SPLINE
5
650
100
AcDbEntity
8
0
100
AcDbSpline
70
0
71
3
72
9
73
5
74
0
42
0.000000001
43
0.0000000001
44
0.0000000001
40
0
40
0
40
0
40
0
40
0.080721538599145132
40
0.1444220095292606
40
0.1444220095292606
40
0.1444220095292606
40
0.1444220095292606
10
-107.60068598750911
20
32.23417953026604
30
0
10
-107.60616029937147
20
32.506671852395314
30
0
10
-107.61595460128483
20
32.994198346886861
30
0
10
-107.81538218974312
20
33.437500814767532
30
0
10
-107.9033440685638
20
33.633029017570728
30
0
0
SPLINE
5
651
100
AcDbEntity
8
0
100
AcDbSpline
70
0
71
3
72
9
73
5
74
0
42
0.000000001
43
0.0000000001
44
0.0000000001
40
0
40
0
40
0
40
0
40
0.067683921526044105
40
0.12522877306604147
40
0.12522877306604147
40
0.12522877306604147
40
0.12522877306604147
10
-107.9033440685638
20
33.633029017570728
30
0
10
-108.08675858720946
20
33.772200612796496
30
0
10
-108.42611207936281
20
34.029695860158327
30
0
10
-108.84691157770928
20
34.085513824236159
30
0
10
-109.04027644161067
20
34.111163172844165
30
0
0
SPLINE
5
652
100
AcDbEntity
8
0
100
AcDbSpline
70
0
71
3
72
9
73
5
74
0
42
0.000000001
43
0.0000000001
44
0.0000000001
40
0
40
0
40
0
40
0
40
0.026682186861437314
40
0.054075057293333617
40
0.054075057293333617
40
0.054075057293333617
40
0.054075057293333617
10
-109.04027644161067
20
34.111163172844165
30
0
10
-109.12948022122907
20
34.107347391002527
30
0
10
-109.31026373491548
20
34.099614193466024
30
0
10
-109.48415012559363
20
34.04947347943834
30
0
10
-109.57223597530208
20
34.024073634269946
30
0
0
LINE
5
653
100
AcDbEntity
8
0
100
AcDbLine
10
-95.15439692500911
20
34.687335047844158
30
0
11
-95.15439692500911
21
28.461749110344158
31
0
0
LINE
5
654
100
AcDbEntity
8
0
100
AcDbLine
10
-95.15439692500911
20
28.461749110344158
30
0
11
-94.32431880000911
21
28.461749110344158
31
0
0
LINE
5
655
100
AcDbEntity
8
0
100
AcDbLine
10
-94.32431880000911
20
28.461749110344158
30
0
11
-94.32431880000911
21
27.879168543937908
31
0
0
SPLINE
5
656
100
AcDbEntity
8
0
100
AcDbSpline
70
0
71
3
72
9
73
5
74
0
42
0.000000001
43
0.0000000001
44
0.0000000001
40
0
40
0
40
0
40
0
40
0.036899618965398936
40
0.069162745514657023
40
0.069162745514657023
40
0.069162745514657023
40
0.069162745514657023
10
-94.32431880000911
20
27.879168543937908
30
0
10
-94.447064397431419
20
27.868029946855593
30
0
10
-94.67713242402877
20
27.847152334105264
30
0
10
-94.900585818266109
20
27.788813533164113
30
0
10
-95.004822645223953
20
27.761599574211345
30
0
0
SPLINE
5
657
100
AcDbEntity
8
0
100
AcDbSpline
70
0
71
3
72
9
73
5
74
0
42
0.000000001
43
0.0000000001
44
0.0000000001
40
0
40
0
40
0
40
0
40
0.033214516147879326
40
0.07290424577175722
40
0.07290424577175722
40
0.07290424577175722
40
0.07290424577175722
10
-95.004822645223953
20
27.761599574211345
30
0
10
-95.109404769873805
20
27.724840741295651
30
0
10
-95.338957441508697
20
27.644156892786846
30
0
10
-95.554832298522399
20
27.531739316404071
30
0
10
-95.672356519735672
20
27.470538172844158
30
0
0
LINE
5
658
100
AcDbEntity
8
0
100
AcDbLine
10
-95.672356519735686
20
27.470538172844158
30
0
11
-96.15049067500911
21
27.470538172844158
31
0
0
LINE
5
659
100
AcDbEntity
8
0
100
AcDbLine
10
-96.15049067500911
20
27.470538172844158
30
0
11
-96.15049067500911
21
30.393511805656658
31
0
0
SPLINE
5
660
100
AcDbEntity
8
0
100
AcDbSpline
70
0
71
3
72
9
73
5
74
0
42
0.000000001
43
0.0000000001
44
0.0000000001
40
0
40
0
40
0
40
0
40
0.041690069900826625
40
0.087546482144639504
40
0.087546482144639504
40
0.087546482144639504
40
0.087546482144639504
10
-96.15049067500911
20
30.393511805656658
30
0
10
-96.251836888184926
20
30.296517610820821
30
0
10
-96.464657458247061
20
30.092836001110662
30
0
10
-96.738088537033804
20
29.982335987711789
30
0
10
-96.881310377157547
20
29.924456629875408
30
0
0
SPLINE
5
661
100
AcDbEntity
8
0
100
AcDbSpline
70
0
71
3
72
9
73
5
74
0
42
0.000000001
43
0.0000000001
44
0.0000000001
40
0
40
0
40
0
40
0
40
0.048155248255395855
40
0.095879723670933614
40
0.095879723670933614
40
0.095879723670933614
40
0.095879723670933614
10
-96.881310377157547
20
29.924456629875408
30
0
10
-97.035325038419202
20
29.876658750049145
30
0
10
-97.341976622577263
20
29.781490566396691
30
0
10
-97.662736711151879
20
29.767527434293932
30
0
10
-97.822396192587235
20
29.760577235344158
30
0
0
SPLINE
5
662
100
AcDbEntity
8
0
100
AcDbSpline
70
0
71
3
72
9
73
5
74
0
42
0.000000001
43
0.0000000001
44
0.0000000001
40
0
40
0
40
0
40
0
40
0.05494776537119346
40
0.10991533063444398
40
0.10991533063444398
40
0.10991533063444398
40
0.10991533063444398
10
-97.822396192587235
20
29.760577235344158
30
0
10
-98.007456762202949
20
29.773185938738568
30
0
10
-98.377644586208177
20
29.798407888950837
30
0
10
-98.704099402838807
20
29.974770898169663
30
0
10
-98.867356214559891
20
30.062968287590252
30
0
0
SPLINE
5
663
100
AcDbEntity
8
0
100
AcDbSpline
70
0
71
3
72
9
73
5
74
0
42
0.000000001
43
0.0000000001
44
0.0000000001
40
0
40
0
40
0
40
0
40
0.056095856344316075
40
0.11447481295645526
40
0.11447481295645526
40
0.11447481295645526
40
0.11447481295645526
10
-98.867356214559891
20
30.062968287590252
30
0
10
-99.019250775534559
20
30.175703388770415
30
0
10
-99.329222003176568
20
30.405761907567481
30
0
10
-99.52080584561989
20
30.741129793157359
30
0
10
-99.61850825313411
20
30.912158045891033
30
0
0
SPLINE
5
664
100
AcDbEntity
8
0
100
AcDbSpline
70
0
71
3
72
9
73
5
74
0
42
0.000000001
43
0.0000000001
44
0.0000000001
40
0
40
0
40
0
40
0
40
0.062742686005486964
40
0.13170380008216243
40
0.13170380008216243
40
0.13170380008216243
40
0.13170380008216243
10
-99.61850825313411
20
30.912158045891033
30
0
10
-99.69785652831915
20
31.10745032515517
30
0
10
-99.864417286826054
20
31.517390302916787
30
0
10
-99.881684044183174
20
31.959954049887553
30
0
10
-99.89072505000911
20
32.19168380272697
30
0
0
SPLINE
5
665
100
AcDbEntity
8
0
100
AcDbSpline
70
0
71
3
72
9
73
5
74
0
42
0.000000001
43
0.0000000001
44
0.0000000001
40
0
40
0
40
0
40
0
40
0.10687241824531381
40
0.20635826772779148
40
0.20635826772779148
40
0.20635826772779148
40
0.20635826772779148
10
-99.89072505000911
20
32.19168380272697
30
0
10
-99.866582345285323
20
32.555322427176982
30
0
10
-99.819965577302852
20
33.257466514982447
30
0
10
-99.407144985901255
20
33.825748756628229
30
0
10
-99.208123121298172
20
34.099719081047283
30
0
0
SPLINE
5
666
100
AcDbEntity
8
0
100
AcDbSpline
70
0
71
3
72
9
73
5
74
0
42
0.000000001
43
0.0000000001
44
0.0000000001
40
0
40
0
40
0
40
0
40
0.089232951034619326
40
0.18034547348494459
40
0.18034547348494459
40
0.18034547348494459
40
0.18034547348494459
10
-99.208123121298172
20
34.099719081047283
30
0
10
-98.980304134762335
20
34.303856335154059
30
0
10
-98.519867462890687
20
34.716430718506238
30
0
10
-97.903676445940391
20
34.771711350370296
30
0
10
-97.592369947470047
20
34.799639735344158
30
0
0
SPLINE
5
667
100
AcDbEntity
8
0
100
AcDbSpline
70
0
71
3
72
9
73
5
74
0
42
0.000000001
43
0.0000000001
44
0.0000000001
40
0
40
0
40
0
40
0
40
0.055847456708536879
40
0.10830845424414924
40
0.10830845424414924
40
0.10830845424414924
40
0.10830845424414924
10
-97.592369947470047
20
34.799639735344158
30
0
10
-97.40457880945084
20
34.790756860020636
30
0
10
-97.04038374886359
20
34.773529746160172
30
0
10
-96.707322319185096
20
34.625822744930915
30
0
10
-96.54599848750911
20
34.554278407219158
30
0
0
SPLINE
5
668
100
AcDbEntity
8
0
100
AcDbSpline
70
0
71
3
72
9
73
5
74
0
42
0.000000001
43
0.0000000001
44
0.0000000001
40
0
40
0
40
0
40
0
40
0.03798500964154055
40
0.076604537903880193
40
0.076604537903880193
40
0.076604537903880193
40
0.076604537903880193
10
-96.54599848750911
20
34.554278407219158
30
0
10
-96.437255319550786
20
34.486735171241548
30
0
10
-96.217952489032612
20
34.350520426808814
30
0
10
-96.068917591351692
20
34.13965125410585
30
0
10
-95.993782911337235
20
34.033343348625408
30
0
0
LINE
5
669
100
AcDbEntity
8
0
100
AcDbLine
10
-95.993782911337235
20
34.033343348625408
30
0
11
-95.767876539266922
21
34.687335047844158
31
0
0
LINE
5
670
100
AcDbEntity
8
0
100
AcDbLine
10
-95.767876539266922
20
34.687335047844158
30
0
11
-95.15439692500911
21
34.687335047844158
31
0
0
LINE
5
671
100
AcDbEntity
8
0
100
AcDbLine
10
-82.689415845907547
20
28.408038172844158
30
0
11
-82.36631098750911
21
28.408038172844158
31
0
0
LINE
5
672
100
AcDbEntity
8
0
100
AcDbLine
10
-82.36631098750911
20
28.408038172844158
30
0
11
-82.36631098750911
21
27.812335047844158
31
0
0
LINE
5
673
100
AcDbEntity
8
0
100
AcDbLine
10
-82.36631098750911
20
27.812335047844158
30
0
11
-87.644478712118485
21
27.812335047844158
31
0
0
LINE
5
674
100
AcDbEntity
8
0
100
AcDbLine
10
-87.644478712118485
20
27.812335047844158
30
0
11
-88.28916255000911
21
29.717776332023845
31
0
0
LINE
5
675
100
AcDbEntity
8
0
100
AcDbLine
10
-88.28916255000911
20
29.717776332023845
30
0
11
-87.718331251180985
21
29.916827235344158
31
0
0
SPLINE
5
676
100
AcDbEntity
8
0
100
AcDbSpline
70
0
71
3
72
9
73
5
74
0
42
0.000000001
43
0.0000000001
44
0.0000000001
40
0
40
0
40
0
40
0
40
0.061938949733938993
40
0.10545362067469535
40
0.10545362067469535
40
0.10545362067469535
40
0.10545362067469535
10
-87.718331251180985
20
29.916827235344158
30
0
10
-87.633144907500565
20
29.727741243771803
30
0
10
-87.488111638261628
20
29.405814531810712
30
0
10
-87.273728925294108
20
29.125942377526158
30
0
10
-87.185265455282547
20
29.010455165031658
30
0
0
SPLINE
5
677
100
AcDbEntity
8
0
100
AcDbSpline
70
0
71
3
72
9
73
5
74
0
42
0.000000001
43
0.0000000001
44
0.0000000001
40
0
40
0
40
0
40
0
40
0.033866118022649945
40
0.066923967257199179
40
0.066923967257199179
40
0.066923967257199179
40
0.066923967257199179
10
-87.185265455282547
20
29.010455165031658
30
0
10
-87.102562019258599
20
28.932068832294277
30
0
10
-86.939128996293803
20
28.777166981364083
30
0
10
-86.73123842916678
20
28.690798101903571
30
0
10
-86.628548536337235
20
28.648135218742595
30
0
0
SPLINE
5
678
100
AcDbEntity
8
0
100
AcDbSpline
70
0
71
3
72
9
73
5
74
0
42
0.000000001
43
0.0000000001
44
0.0000000001
40
0
40
0
40
0
40
0
40
0.041976254832877834
40
0.10237018319893171
40
0.10237018319893171
40
0.10237018319893171
40
0.10237018319893171
10
-86.628548536337235
20
28.648135218742595
30
0
10
-86.491783269365499
20
28.616806555746667
30
0
10
-86.158245046603895
20
28.540403337235642
30
0
10
-85.815554013420595
20
28.540070480973199
30
0
10
-85.61338130000911
20
28.539874110344158
30
0
0
LINE
5
679
100
AcDbEntity
8
0
100
AcDbLine
10
-85.61338130000911
20
28.539874110344165
30
0
11
-84.27549067500911
21
28.539874110344158
31
0
0
LINE
5
680
100
AcDbEntity
8
0
100
AcDbLine
10
-84.27549067500911
20
28.539874110344158
30
0
11
-84.27549067500911
21
30.912920985344158
31
0
0
LINE
5
681
100
AcDbEntity
8
0
100
AcDbLine
10
-84.27549067500911
20
30.912920985344158
30
0
11
-84.82816401485286
21
30.912920985344158
31
0
0
SPLINE
5
682
100
AcDbEntity
8
0
100
AcDbSpline
70
0
71
3
72
9
73
5
74
0
42
0.000000001
43
0.0000000001
44
0.0000000001
40
0
40
0
40
0
40
0
40
0.042234392178617991
40
0.070416788044042972
40
0.070416788044042972
40
0.070416788044042972
40
0.070416788044042972
10
-84.82816401485286
20
30.912920985344158
30
0
10
-84.969899866325392
20
30.913281017990094
30
0
10
-85.206213990823088
20
30.91388129518624
30
0
10
-85.432924808515338
20
30.849391181666896
30
0
10
-85.52365962032161
20
30.82358077538322
30
0
0
SPLINE
5
683
100
AcDbEntity
8
0
100
AcDbSpline
70
0
71
3
72
9
73
5
74
0
42
0.000000001
43
0.0000000001
44
0.0000000001
40
0
40
0
40
0
40
0
40
0.021069438504895448
40
0.042225587641781873
40
0.042225587641781873
40
0.042225587641781873
40
0.042225587641781873
10
-85.52365962032161
20
30.82358077538322
30
0
10
-85.586374415016294
20
30.789405117658859
30
0
10
-85.712062105231738
20
30.720913153332408
30
0
10
-85.790315168668741
20
30.6010451024557
30
0
10
-85.829522047079422
20
30.54098800194572
30
0
0
SPLINE
5
684
100
AcDbEntity
8
0
100
AcDbSpline
70
0
71
3
72
9
73
5
74
0
42
0.000000001
43
0.0000000001
44
0.0000000001
40
0
40
0
40
0
40
0
40
0.025182391442366295
40
0.058312629642909383
40
0.058312629642909383
40
0.058312629642909383
40
0.058312629642909383
10
-85.829522047079422
20
30.54098800194572
30
0
10
-85.860330553304124
20
30.462220785465377
30
0
10
-85.931671077791037
20
30.279826530609416
30
0
10
-85.934206454379847
20
30.083422080782157
30
0
10
-85.93564692500911
20
29.97183516991447
30
0
0
LINE
5
685
100
AcDbEntity
8
0
100
AcDbLine
10
-85.935646925009124
20
29.971835169914467
30
0
11
-85.93564692500911
21
29.697100672844158
31
0
0
LINE
5
686
100
AcDbEntity
8
0
100
AcDbLine
10
-85.93564692500911
20
29.697100672844158
30
0
11
-86.60459223750911
21
29.697100672844158
31
0
0
LINE
5
687
100
AcDbEntity
8
0
100
AcDbLine
10
-86.60459223750911
20
29.697100672844158
30
0
11
-86.60459223750911
21
32.822100672844158
31
0
0
LINE
5
688
100
AcDbEntity
8
0
100
AcDbLine
10
-86.60459223750911
20
32.822100672844158
30
0
11
-85.93564692500911
21
32.822100672844158
31
0
0
LINE
5
689
100
AcDbEntity
8
0
100
AcDbLine
10
-85.93564692500911
20
32.822100672844158
30
0
11
-85.93564692500911
21
32.465807948234783
31
0
0
SPLINE
5
690
100
AcDbEntity
8
0
100
AcDbSpline
70
0
71
3
72
9
73
5
74
0
42
0.000000001
43
0.0000000001
44
0.0000000001
40
0
40
0
40
0
40
0
40
0.031078236430945851
40
0.05513337151597561
40
0.05513337151597561
40
0.05513337151597561
40
0.05513337151597561
10
-85.93564692500911
20
32.465807948234783
30
0
10
-85.934036554212696
20
32.361145657996438
30
0
10
-85.931179726361677
20
32.175472801550896
30
0
10
-85.863271031794127
20
32.003183249975628
30
0
10
-85.833641920126297
20
31.92801192772697
30
0
0
SPLINE
5
691
100
AcDbEntity
8
0
100
AcDbSpline
70
0
71
3
72
9
73
5
74
0
42
0.000000001
43
0.0000000001
44
0.0000000001
40
0
40
0
40
0
40
0
40
0.020072243605837672
40
0.039060888363443493
40
0.039060888363443493
40
0.039060888363443493
40
0.039060888363443493
10
-85.833641920126297
20
31.92801192772697
30
0
10
-85.797485141574697
20
31.870399204006784
30
0
10
-85.727123505958858
20
31.75828397594659
30
0
10
-85.613060030561584
20
31.691399529128109
30
0
10
-85.557610425985672
20
31.658885035637127
30
0
0
SPLINE
5
692
100
AcDbEntity
8
0
100
AcDbSpline
70
0
71
3
72
9
73
5
74
0
42
0.000000001
43
0.0000000001
44
0.0000000001
40
0
40
0
40
0
40
0
40
0.02588400062779353
40
0.066563995729653422
40
0.066563995729653422
40
0.066563995729653422
40
0.066563995729653422
10
-85.557610425985672
20
31.658885035637127
30
0
10
-85.474253125506792
20
31.63527298170554
30
0
10
-85.25988923821987
20
31.574551585516776
30
0
10
-85.036439591486257
20
31.576061012464333
30
0
10
-84.89988032344661
20
31.576983485344158
30
0
0
LINE
5
693
100
AcDbEntity
8
0
100
AcDbLine
10
-84.89988032344661
20
31.576983485344158
30
0
11
-84.27549067500911
21
31.576983485344158
31
0
0
LINE
5
694
100
AcDbEntity
8
0
100
AcDbLine
10
-84.27549067500911
20
31.576983485344158
30
0
11
-84.27549067500911
21
33.554522547844158
31
0
0
SPLINE
5
695
100
AcDbEntity
8
0
100
AcDbSpline
70
0
71
3
72
9
73
5
74
0
42
0.000000001
43
0.0000000001
44
0.0000000001
40
0
40
0
40
0
40
0
40
0.022273757824118546
40
0.03607173090607281
40
0.03607173090607281
40
0.03607173090607281
40
0.03607173090607281
10
-84.27549067500911
20
33.554522547844158
30
0
10
-84.274758102890644
20
33.629397846097653
30
0
10
-84.27357172273264
20
33.750656307801293
30
0
10
-84.309064007057799
20
33.86614371316449
30
0
10
-84.322640333212235
20
33.910319361809002
30
0
0
SPLINE
5
696
100
AcDbEntity
8
0
100
AcDbSpline
70
0
71
3
72
9
73
5
74
0
42
0.000000001
43
0.0000000001
44
0.0000000001
40
0
40
0
40
0
40
0
40
0.0097327839648246456
40
0.019513729961969123
40
0.019513729961969123
40
0.019513729961969123
40
0.019513729961969123
10
-84.322640333212235
20
33.910319361809002
30
0
10
-84.340194753710193
20
33.938177607823711
30
0
10
-84.375390461585198
20
33.994031954525525
30
0
10
-84.431857144958187
20
34.028247696759692
30
0
10
-84.460160169638016
20
34.045397791984783
30
0
0
SPLINE
5
697
100
AcDbEntity
8
0
100
AcDbSpline
70
0
71
3
72
9
73
5
74
0
42
0.000000001
43
0.0000000001
44
0.0000000001
40
0
40
0
40
0
40
0
40
0.014203689391169597
40
0.037480124399610196
40
0.037480124399610196
40
0.037480124399610196
40
0.037480124399610196
10
-84.460160169638016
20
34.045397791984783
30
0
10
-84.505812850177477
20
34.058700981326929
30
0
10
-84.626279307776784
20
34.093804902408522
30
0
10
-84.752184884070033
20
34.092464412670729
30
0
10
-84.830376539266922
20
34.091631922844158
30
0
0
LINE
5
698
100
AcDbEntity
8
0
100
AcDbLine
10
-84.830376539266922
20
34.091631922844158
30
0
11
-85.11045161250911
21
34.091631922844158
31
0
0
LINE
5
699
100
AcDbEntity
8
0
100
AcDbLine
10
-85.11045161250911
20
34.091631922844158
30
0
11
-85.11045161250911
21
34.687335047844158
31
0
0
LINE
5
700
100
AcDbEntity
8
0
100
AcDbLine
10
-85.11045161250911
20
34.687335047844158
30
0
11
-82.36631098750911
21
34.687335047844158
31
0
0
LINE
5
701
100
AcDbEntity
8
0
100
AcDbLine
10
-82.36631098750911
20
34.687335047844158
30
0
11
-82.36631098750911
21
34.091631922844158
31
0
0
LINE
5
702
100
AcDbEntity
8
0
100
AcDbLine
10
-82.36631098750911
20
34.091631922844158
30
0
11
-82.627083692587235
21
34.091631922844158
31
0
0
SPLINE
5
703
100
AcDbEntity
8
0
100
AcDbSpline
70
0
71
3
72
9
73
5
74
0
42
0.000000001
43
0.0000000001
44
0.0000000001
40
0
40
0
40
0
40
0
40
0.023630795703411377
40
0.037956476663230238
40
0.037956476663230238
40
0.037956476663230238
40
0.037956476663230238
10
-82.627083692587235
20
34.091631922844158
30
0
10
-82.706417559999892
20
34.092484969313922
30
0
10
-82.833845943066081
20
34.093855157555936
30
0
10
-82.956223585548003
20
34.059810924597485
30
0
10
-83.002411831057884
20
34.046961817863689
30
0
0
SPLINE
5
704
100
AcDbEntity
8
0
100
AcDbSpline
70
0
71
3
72
9
73
5
74
0
42
0.000000001
43
0.0000000001
44
0.0000000001
40
0
40
0
40
0
40
0
40
0.0098249436887410165
40
0.019993633209327018
40
0.019993633209327018
40
0.019993633209327018
40
0.019993633209327018
10
-83.002411831057884
20
34.046961817863689
30
0
10
-83.03088902869365
20
34.029560149124464
30
0
10
-83.088839757206401
20
33.99414797852841
30
0
10
-83.121113847919645
20
33.934332570523637
30
0
10
-83.137528333700516
20
33.903910670402752
30
0
0
SPLINE
5
705
100
AcDbEntity
8
0
100
AcDbSpline
70
0
71
3
72
9
73
5
74
0
42
0.000000001
43
0.0000000001
44
0.0000000001
40
0
40
0
40
0
40
0
40
0.015239582431197265
40
0.040211222755389145
40
0.040211222755389145
40
0.040211222755389145
40
0.040211222755389145
10
-83.137528333700516
20
33.903910670402752
30
0
10
-83.15024984092318
20
33.85455033813647
30
0
10
-83.183816860428138
20
33.724307969292006
30
0
10
-83.182536064365777
20
33.589445559170073
30
0
10
-83.18174067500911
20
33.505694422844158
30
0
0
LINE
5
706
100
AcDbEntity
8
0
100
AcDbLine
10
-83.18174067500911
20
33.505694422844158
30
0
11
-83.18174067500911
21
28.969561610344158
31
0
0
SPLINE
5
707
100
AcDbEntity
8
0
100
AcDbSpline
70
0
71
3
72
9
73
5
74
0
42
0.000000001
43
0.0000000001
44
0.0000000001
40
0
40
0
40
0
40
0
40
0.023514531023904845
40
0.038194619444935421
40
0.038194619444935421
40
0.038194619444935421
40
0.038194619444935421
10
-83.18174067500911
20
28.969561610344158
30
0
10
-83.182342736940797
20
28.890716691897708
30
0
10
-83.183320665283873
20
28.762649002511612
30
0
10
-83.151730094779666
20
28.638870466029015
30
0
10
-83.139588270223953
20
28.591296229484783
30
0
0
SPLINE
5
708
100
AcDbEntity
8
0
100
AcDbSpline
70
0
71
3
72
9
73
5
74
0
42
0.000000001
43
0.0000000001
44
0.0000000001
40
0
40
0
40
0
40
0
40
0.0098805877555101142
40
0.019056231763158842
40
0.019056231763158842
40
0.019056231763158842
40
0.019056231763158842
10
-83.139588270223953
20
28.591296229484783
30
0
10
-83.124405555916795
20
28.561341345778601
30
0
10
-83.09512335836034
20
28.503568749606359
30
0
10
-83.041118318852739
20
28.468002500005948
30
0
10
-83.01511469844661
20
28.450877223137127
30
0
0
SPLINE
5
709
100
AcDbEntity
8
0
100
AcDbSpline
70
0
71
3
72
9
73
5
74
0
42
0.000000001
43
0.0000000001
44
0.0000000001
40
0
40
0
40
0
40
0
40
0.012672586981138758
40
0.033012158168371289
40
0.033012158168371289
40
0.033012158168371289
40
0.033012158168371289
10
-83.01511469844661
20
28.450877223137127
30
0
10
-82.97450659684236
20
28.438538765244292
30
0
10
-82.868722270794933
20
28.406397015172399
30
0
10
-82.757773813631829
20
28.407412505341018
30
0
10
-82.689415845907547
20
28.408038172844158
30
0
0
CIRCLE
5
710
100
AcDbEntity
8
0
100
AcDbCircle
10
-182.89999999999998
20
32.749999999999979
30
0
40
0.99999999999999645
210
0
220
-0
230
1
0
CIRCLE
5
711
100
AcDbEntity
8
0
100
AcDbCircle
10
-191.90000000000001
20
32.749999999999979
30
0
40
0.99999999999999645
210
0
220
-0
230
1
0
CIRCLE
5
712
100
AcDbEntity
8
0
100
AcDbCircle
10
-179.90000000000003
20
32.749999999999979
30
0
40
0.99999999999999645
210
0
220
-0
230
1
0
CIRCLE
5
713
100
AcDbEntity
8
0
100
AcDbCircle
10
-185.90000000000001
20
32.749999999999979
30
0
40
0.99999999999999645
210
0
220
-0
230
1
0
CIRCLE
5
714
100
AcDbEntity
8
0
100
AcDbCircle
10
-188.90000000000001
20
32.749999999999979
30
0
40
0.99999999999999645
210
0
220
-0
230
1
0
CIRCLE
5
715
100
AcDbEntity
8
0
100
AcDbCircle
10
-176.90000000000001
20
32.749999999999979
30
0
40
0.99999999999999645
210
0
220
-0
230
1
0
CIRCLE
5
716
100
AcDbEntity
8
0
100
AcDbCircle
10
-182.89999999999998
20
2.7500000000000178
30
0
40
0.99999999999999645
210
0
220
-0
230
1
0
CIRCLE
5
717
100
AcDbEntity
8
0
100
AcDbCircle
10
-191.90000000000001
20
2.7500000000000178
30
0
40
0.99999999999999645
210
0
220
-0
230
1
0
CIRCLE
5
718
100
AcDbEntity
8
0
100
AcDbCircle
10
-179.90000000000003
20
2.7500000000000178
30
0
40
0.99999999999999645
210
0
220
-0
230
1
0
CIRCLE
5
719
100
AcDbEntity
8
0
100
AcDbCircle
10
-185.90000000000001
20
2.7500000000000178
30
0
40
0.99999999999999645
210
0
220
-0
230
1
0
CIRCLE
5
720
100
AcDbEntity
8
0
100
AcDbCircle
10
-188.90000000000001
20
2.7500000000000178
30
0
40
0.99999999999999645
210
0
220
-0
230
1
0
CIRCLE
5
721
100
AcDbEntity
8
0
100
AcDbCircle
10
-176.90000000000001
20
2.7500000000000178
30
0
40
0.99999999999999645
210
0
220
-0
230
1
0
LWPOLYLINE
5
722
100
AcDbEntity
8
0
100
AcDbPolyline
90
4
70
1
43
0.0
10
-230.00000000000006
20
-2.2499999999999121
42
-0.99999999999999989
10
-230
20
37.75
10
-20
20
37.75
42
-0.99999999999999989
10
-20
20
-2.2500000000000009
0
LWPOLYLINE
5
723
100
AcDbEntity
8
0
100
AcDbPolyline
90
4
70
1
43
0.0
10
-216.40000000000001
20
15.499999999999998
10
-211.90000000000001
20
15.499999999999998
10
-211.90000000000001
20
20
10
-216.40000000000001
20
20
0
LWPOLYLINE
5
724
100
AcDbEntity
8
0
100
AcDbPolyline
90
4
70
1
43
0.0
10
-229.09999999999999
20
15.499999999999998
10
-224.60000000000002
20
15.499999999999998
10
-224.60000000000002
20
20
10
-229.09999999999999
20
20
0
LWPOLYLINE
5
725
100
AcDbEntity
8
0
100
AcDbPolyline
90
4
70
1
43
0.0
10
-237.30000000000001
20
20
10
-241.80000000000001
20
20
10
-241.80000000000001
20
15.499999999999998
10
-237.30000000000001
20
15.499999999999998
0
ENDSEC
0
SECTION
2
OBJECTS
0
DICTIONARY
5
C
100
AcDbDictionary
3
ACAD_GROUP
350
D
3
ACAD_MLINESTYLE
350
17
0
DICTIONARY
5
D
100
AcDbDictionary
0
DICTIONARY
5
1A
330
C
100
AcDbDictionary
0
DICTIONARY
5
17
100
AcDbDictionary
0
ENDSEC
0
EOF
