  0
SECTION
  2
HEADER
  9
$ACADVER
  1
AC1009
  9
$INSBASE
 10
0.0
 20
0.0
 30
0.0
  9
$EXTMIN
 10
15.5861627790377
 20
0.0043218536956244
 30
0.0
  9
$EXTMAX
 10
34.0463726216601117
 20
21.1402988623682617
 30
0.0
  9
$LIMMIN
 10
0.0
 20
0.0
  9
$LIMMAX
 10
12.0
 20
9.0
  9
$ORTHOMODE
 70
     0
  9
$REGENMODE
 70
     1
  9
$FILLMODE
 70
     1
  9
$QTEXTMODE
 70
     0
  9
$MIRRTEXT
 70
     0
  9
$DRAGMODE
 70
     2
  9
$LTSCALE
 40
1.0
  9
$OSMODE
 70
    39
  9
$ATTMODE
 70
     1
  9
$TEXTSIZE
 40
0.2
  9
$TRACEWID
 40
0.05
  9
$TEXTSTYLE
  7
STANDARD
  9
$CLAYER
  8
0
  9
$CELTYPE
  6
BYLAYER
  9
$CECOLOR
 62
   256
  9
$DIMSCALE
 40
1.0
  9
$DIMASZ
 40
0.18
  9
$DIMEXO
 40
0.0625
  9
$DIMDLI
 40
0.38
  9
$DIMRND
 40
0.0
  9
$DIMDLE
 40
0.0
  9
$DIMEXE
 40
0.18
  9
$DIMTP
 40
0.0
  9
$DIMTM
 40
0.0
  9
$DIMTXT
 40
0.18
  9
$DIMCEN
 40
0.09
  9
$DIMTSZ
 40
0.0
  9
$DIMTOL
 70
     0
  9
$DIMLIM
 70
     0
  9
$DIMTIH
 70
     1
  9
$DIMTOH
 70
     1
  9
$DIMSE1
 70
     0
  9
$DIMSE2
 70
     0
  9
$DIMTAD
 70
     0
  9
$DIMZIN
 70
     0
  9
$DIMBLK
  1

  9
$DIMASO
 70
     1
  9
$DIMSHO
 70
     1
  9
$DIMPOST
  1

  9
$DIMAPOST
  1

  9
$DIMALT
 70
     0
  9
$DIMALTD
 70
     2
  9
$DIMALTF
 40
25.3999999999999986
  9
$DIMLFAC
 40
1.0
  9
$DIMTOFL
 70
     0
  9
$DIMTVP
 40
0.0
  9
$DIMTIX
 70
     0
  9
$DIMSOXD
 70
     0
  9
$DIMSAH
 70
     0
  9
$DIMBLK1
  1

  9
$DIMBLK2
  1

  9
$DIMSTYLE
  2
STANDARD
  9
$DIMCLRD
 70
     0
  9
$DIMCLRE
 70
     0
  9
$DIMCLRT
 70
     0
  9
$DIMTFAC
 40
1.0
  9
$DIMGAP
 40
0.09
  9
$LUNITS
 70
     2
  9
$LUPREC
 70
     4
  9
$SKETCHINC
 40
0.1
  9
$FILLETRAD
 40
0.0
  9
$AUNITS
 70
     0
  9
$AUPREC
 70
     0
  9
$MENU
  1
.
  9
$ELEVATION
 40
0.0
  9
$PELEVATION
 40
0.0
  9
$THICKNESS
 40
0.0
  9
$LIMCHECK
 70
     0
  9
$BLIPMODE
 70
     0
  9
$CHAMFERA
 40
0.0
  9
$CHAMFERB
 40
0.0
  9
$SKPOLY
 70
     0
  9
$TDCREATE
 40
2458640.6889351857826114
  9
$TDUPDATE
 40
2458641.8048726851120591
  9
$TDINDWG
 40
0.0120949074
  9
$TDUSRTIMER
 40
0.0120949074
  9
$USRTIMER
 70
     1
  9
$ANGBASE
 50
0.0
  9
$ANGDIR
 70
     0
  9
$PDMODE
 70
     0
  9
$PDSIZE
 40
0.0
  9
$PLINEWID
 40
0.0
  9
$COORDS
 70
     1
  9
$SPLFRAME
 70
     0
  9
$SPLINETYPE
 70
     6
  9
$SPLINESEGS
 70
     8
  9
$ATTDIA
 70
     1
  9
$ATTREQ
 70
     1
  9
$HANDLING
 70
     1
  9
$HANDSEED
  5
461
  9
$SURFTAB1
 70
     6
  9
$SURFTAB2
 70
     6
  9
$SURFTYPE
 70
     6
  9
$SURFU
 70
     6
  9
$SURFV
 70
     6
  9
$UCSNAME
  2

  9
$UCSORG
 10
0.0
 20
0.0
 30
0.0
  9
$UCSXDIR
 10
1.0
 20
0.0
 30
0.0
  9
$UCSYDIR
 10
0.0
 20
1.0
 30
0.0
  9
$PUCSNAME
  2

  9
$PUCSORG
 10
0.0
 20
0.0
 30
0.0
  9
$PUCSXDIR
 10
1.0
 20
0.0
 30
0.0
  9
$PUCSYDIR
 10
0.0
 20
1.0
 30
0.0
  9
$USERI1
 70
     0
  9
$USERI2
 70
     0
  9
$USERI3
 70
     0
  9
$USERI4
 70
     0
  9
$USERI5
 70
     0
  9
$USERR1
 40
0.0
  9
$USERR2
 40
0.0
  9
$USERR3
 40
0.0
  9
$USERR4
 40
0.0
  9
$USERR5
 40
0.0
  9
$WORLDVIEW
 70
     1
  9
$SHADEDGE
 70
     3
  9
$SHADEDIF
 70
    70
  9
$TILEMODE
 70
     1
  9
$MAXACTVP
 70
    64
  9
$PLIMCHECK
 70
     0
  9
$PEXTMIN
 10
0.0
 20
0.0
 30
0.0
  9
$PEXTMAX
 10
0.0
 20
0.0
 30
0.0
  9
$PLIMMIN
 10
0.0
 20
0.0
  9
$PLIMMAX
 10
12.0
 20
9.0
  9
$UNITMODE
 70
     0
  9
$VISRETAIN
 70
     1
  9
$PLINEGEN
 70
     0
  9
$PSLTSCALE
 70
     1
  0
ENDSEC
  0
SECTION
  2
TABLES
  0
TABLE
  2
VPORT
 70
     1
  0
VPORT
  2
*ACTIVE
 70
     0
 10
0.0
 20
0.0
 11
1.0
 21
1.0
 12
34.1617206855242799
 22
43.9432912801089728
 13
0.0
 23
0.0
 14
0.5
 24
0.5
 15
0.5
 25
0.5
 16
0.0
 26
0.0
 36
1.0
 17
0.0
 27
0.0
 37
0.0
 40
139.3709950345104005
 41
1.089517078916372
 42
50.0
 43
0.0
 44
0.0
 50
0.0
 51
0.0
 71
     0
 72
  1000
 73
     1
 74
     3
 75
     0
 76
     0
 77
     0
 78
     0
  0
ENDTAB
  0
TABLE
  2
LTYPE
 70
     1
  0
LTYPE
  2
CONTINUOUS
 70
     0
  3
Solid line
 72
    65
 73
     0
 40
0.0
  0
ENDTAB
  0
TABLE
  2
LAYER
 70
     1
  0
LAYER
  2
0
 70
     0
 62
     7
  6
CONTINUOUS
  0
ENDTAB
  0
TABLE
  2
STYLE
 70
     2
  0
STYLE
  2
STANDARD
 70
     0
 40
0.0
 41
1.0
 50
0.0
 71
     0
 42
0.2
  3
txt
  4

  0
STYLE
  2
ANNOTATIVE
 70
     0
 40
0.0
 41
1.0
 50
0.0
 71
     0
 42
0.2
  3
txt
  4

  0
ENDTAB
  0
TABLE
  2
VIEW
 70
     0
  0
ENDTAB
  0
TABLE
  2
UCS
 70
     0
  0
ENDTAB
  0
TABLE
  2
APPID
 70
     8
  0
APPID
  2
ACAD
 70
     0
  0
APPID
  2
ACADANNOPO
 70
     0
  0
APPID
  2
ACADANNOTATIVE
 70
     0
  0
APPID
  2
ACAD_DSTYLE_DIMJAG
 70
     0
  0
APPID
  2
ACAD_DSTYLE_DIMTALN
 70
     0
  0
APPID
  2
ACAD_MLEADERVER
 70
     0
  0
APPID
  2
ACAD_NAV_VCDISPLAY
 70
     0
  0
APPID
  2
ACAD_EXEMPT_FROM_CAD_STANDARDS
 70
     0
  0
ENDTAB
  0
TABLE
  2
DIMSTYLE
 70
     2
  0
DIMSTYLE
  2
STANDARD
 70
     0
  3

  4

  5

  6

  7

 40
1.0
 41
0.18
 42
0.0625
 43
0.38
 44
0.18
 45
0.0
 46
0.0
 47
0.0
 48
0.0
140
0.18
141
0.09
142
0.0
143
25.3999999999999986
144
1.0
145
0.0
146
1.0
147
0.09
 71
     0
 72
     0
 73
     1
 74
     1
 75
     0
 76
     0
 77
     0
 78
     0
170
     0
171
     2
172
     0
173
     0
174
     0
175
     0
176
     0
177
     0
178
     0
  0
DIMSTYLE
  2
ANNOTATIVE
 70
     0
  3

  4

  5

  6

  7

 40
0.0
 41
0.18
 42
0.0625
 43
0.38
 44
0.18
 45
0.0
 46
0.0
 47
0.0
 48
0.0
140
0.18
141
0.09
142
0.0
143
25.3999999999999986
144
1.0
145
0.0
146
1.0
147
0.09
 71
     0
 72
     0
 73
     1
 74
     1
 75
     0
 76
     0
 77
     0
 78
     0
170
     0
171
     2
172
     0
173
     0
174
     0
175
     0
176
     0
177
     0
178
     0
  0
ENDTAB
  0
ENDSEC
  0
SECTION
  2
BLOCKS
  0
BLOCK
  8
0
  2
$MODEL_SPACE
 70
     0
 10
0.0
 20
0.0
 30
0.0
  3
$MODEL_SPACE
  1

  0
ENDBLK
  5
21
  8
0
  0
BLOCK
 67
     1
  8
0
  2
$PAPER_SPACE
 70
     0
 10
0.0
 20
0.0
 30
0.0
  3
$PAPER_SPACE
  1

  0
ENDBLK
  5
5B
 67
     1
  8
0
  0
ENDSEC
  0
SECTION
  2
ENTITIES
  0
POLYLINE
  5
2A9
  8
0
 66
     1
 10
0.0
 20
0.0
 30
0.0
 70
     1
  0
VERTEX
  5
317
  8
0
 10
21.1973321092888511
 20
8.8912536408318346
 30
0.0
 42
0.1678825976591866
  0
VERTEX
  5
318
  8
0
 10
19.6888160229646907
 20
9.5161014628452811
 30
0.0
  0
VERTEX
  5
319
  8
0
 10
19.6888160229646907
 20
8.5130866758116586
 30
0.0
 42
0.0501256289337994
  0
VERTEX
  5
31A
  8
0
 10
19.3888160229647006
 20
8.5130866758116568
 30
0.0
  0
VERTEX
  5
31B
  8
0
 10
19.38881602296469
 20
9.5161014628452811
 30
0.0
 42
0.1678825976591855
  0
VERTEX
  5
31C
  8
0
 10
17.8802999366405508
 20
8.8912536408318346
 30
0.0
  0
VERTEX
  5
31D
  8
0
 10
18.5895384941823991
 20
8.1820150832899792
 30
0.0
 42
0.0501256289337988
  0
VERTEX
  5
31E
  8
0
 10
18.3774064598264388
 20
7.9698830489340153
 30
0.0
  0
VERTEX
  5
31F
  8
0
 10
17.6681679022845799
 20
8.679121606475876
 30
0.0
 42
0.1678825976591858
  0
VERTEX
  5
320
  8
0
 10
17.0433200802711404
 20
7.170605520151728
 30
0.0
  0
VERTEX
  5
321
  8
0
 10
18.0463348673047612
 20
7.1706055201517289
 30
0.0
 42
0.0501256289338002
  0
VERTEX
  5
322
  8
0
 10
18.0463348673047612
 20
6.8706055201517291
 30
0.0
  0
VERTEX
  5
323
  8
0
 10
17.0433200802711404
 20
6.8706055201517291
 30
0.0
 42
0.1678825976591855
  0
VERTEX
  5
324
  8
0
 10
17.6681679022845799
 20
5.3620894338275766
 30
0.0
  0
VERTEX
  5
325
  8
0
 10
18.3774064598264388
 20
6.0713279913694382
 30
0.0
 42
0.0501256289338004
  0
VERTEX
  5
326
  8
0
 10
18.5895384941823991
 20
5.8591959570134762
 30
0.0
  0
VERTEX
  5
327
  8
0
 10
17.8802999366405508
 20
5.1499573994716172
 30
0.0
 42
0.1678825976591851
  0
VERTEX
  5
328
  8
0
 10
19.3888160229647006
 20
4.5251095774581724
 30
0.0
  0
VERTEX
  5
329
  8
0
 10
19.38881602296469
 20
5.5281243644917977
 30
0.0
 42
0.0501256289337996
  0
VERTEX
  5
32A
  8
0
 10
19.6888160229646907
 20
5.5281243644917959
 30
0.0
  0
VERTEX
  5
32B
  8
0
 10
19.6888160229646907
 20
4.5251095774581724
 30
0.0
 42
0.1678825976591857
  0
VERTEX
  5
32C
  8
0
 10
21.1973321092888511
 20
5.1499573994716172
 30
0.0
  0
VERTEX
  5
32D
  8
0
 10
20.4880935517469815
 20
5.8591959570134717
 30
0.0
 42
0.0501256289337993
  0
VERTEX
  5
32E
  8
0
 10
20.7002255861029489
 20
6.0713279913694356
 30
0.0
  0
VERTEX
  5
32F
  8
0
 10
21.4094641436448008
 20
5.3620894338275766
 30
0.0
 42
0.1678825976591862
  0
VERTEX
  5
330
  8
0
 10
22.0343119656582509
 20
6.8706055201517273
 30
0.0
  0
VERTEX
  5
331
  8
0
 10
21.0312971786246301
 20
6.8706055201517273
 30
0.0
 42
0.0501256289338009
  0
VERTEX
  5
332
  8
0
 10
21.0312971786246301
 20
7.1706055201517289
 30
0.0
  0
VERTEX
  5
333
  8
0
 10
22.0343119656582509
 20
7.170605520151728
 30
0.0
 42
0.1678825976591854
  0
VERTEX
  5
334
  8
0
 10
21.4094641436448114
 20
8.6791216064758725
 30
0.0
  0
VERTEX
  5
335
  8
0
 10
20.7002255861029489
 20
7.9698830489340153
 30
0.0
 42
0.0501256289338004
  0
VERTEX
  5
336
  8
0
 10
20.4880935517469815
 20
8.1820150832899881
 30
0.0
  0
SEQEND
  5
337
  8
0
  0
POLYLINE
  5
2AA
  8
0
 66
     1
 10
0.0
 20
0.0
 30
0.0
 70
     1
  0
VERTEX
  5
338
  8
0
 10
20.595011448949279
 20
14.9457485008691595
 30
0.0
 42
0.1730357107767622
  0
VERTEX
  5
339
  8
0
 10
18.7324104323534186
 20
15.7172631032330798
 30
0.0
  0
VERTEX
  5
33A
  8
0
 10
18.7324104323534186
 20
14.7153825174352608
 30
0.0
 42
0.0375528832139126
  0
VERTEX
  5
33B
  8
0
 10
18.4324104323534286
 20
14.7153825174352608
 30
0.0
  0
VERTEX
  5
33C
  8
0
 10
18.4324104323534286
 20
15.7172631032330798
 30
0.0
 42
0.1730357107767621
  0
VERTEX
  5
33D
  8
0
 10
16.5698094157575788
 20
14.9457485008691595
 30
0.0
  0
VERTEX
  5
33E
  8
0
 10
17.2782459719143588
 20
14.2373119447123795
 30
0.0
 42
0.0375528832139122
  0
VERTEX
  5
33F
  8
0
 10
17.0661139375583986
 20
14.0251799103564103
 30
0.0
  0
VERTEX
  5
340
  8
0
 10
16.3576773814016114
 20
14.7336164665131903
 30
0.0
 42
0.1730357107767613
  0
VERTEX
  5
341
  8
0
 10
15.5861627790377
 20
12.8710154499173495
 30
0.0
  0
VERTEX
  5
342
  8
0
 10
16.5880433648355101
 20
12.8710154499173495
 30
0.0
 42
0.0375528832139128
  0
VERTEX
  5
343
  8
0
 10
16.5880433648355101
 20
12.5710154499173505
 30
0.0
  0
VERTEX
  5
344
  8
0
 10
15.5861627790377
 20
12.5710154499173505
 30
0.0
 42
0.1730357107767616
  0
VERTEX
  5
345
  8
0
 10
16.3576773814016114
 20
10.7084144333215008
 30
0.0
  0
VERTEX
  5
346
  8
0
 10
17.0661139375583986
 20
11.4168509894782808
 30
0.0
 42
0.0375528832139128
  0
VERTEX
  5
347
  8
0
 10
17.2782459719143588
 20
11.2047189551223205
 30
0.0
  0
VERTEX
  5
348
  8
0
 10
16.5698094157575788
 20
10.4962823989655298
 30
0.0
 42
0.1730357107767614
  0
VERTEX
  5
349
  8
0
 10
18.4324104323534286
 20
9.7247677966016255
 30
0.0
  0
VERTEX
  5
34A
  8
0
 10
18.4324104323534286
 20
10.7266483823994392
 30
0.0
 42
0.0375528832139124
  0
VERTEX
  5
34B
  8
0
 10
18.7324104323534186
 20
10.7266483823994392
 30
0.0
  0
VERTEX
  5
34C
  8
0
 10
18.7324104323534186
 20
9.7247677966016255
 30
0.0
 42
0.173035710776762
  0
VERTEX
  5
34D
  8
0
 10
20.595011448949279
 20
10.4962823989655405
 30
0.0
  0
VERTEX
  5
34E
  8
0
 10
19.8865748927924884
 20
11.2047189551223205
 30
0.0
 42
0.0375528832139122
  0
VERTEX
  5
34F
  8
0
 10
20.0987069271484593
 20
11.4168509894782808
 30
0.0
  0
VERTEX
  5
350
  8
0
 10
20.8071434833052393
 20
10.7084144333215008
 30
0.0
 42
0.1730357107767617
  0
VERTEX
  5
351
  8
0
 10
21.5786580856691508
 20
12.5710154499173505
 30
0.0
  0
VERTEX
  5
352
  8
0
 10
20.5767774998713406
 20
12.5710154499173505
 30
0.0
 42
0.0375528832139133
  0
VERTEX
  5
353
  8
0
 10
20.5767774998713406
 20
12.8710154499173495
 30
0.0
  0
VERTEX
  5
354
  8
0
 10
21.5786580856691508
 20
12.8710154499173495
 30
0.0
 42
0.1730357107767612
  0
VERTEX
  5
355
  8
0
 10
20.8071434833052393
 20
14.7336164665131903
 30
0.0
  0
VERTEX
  5
356
  8
0
 10
20.0987069271484593
 20
14.0251799103564103
 30
0.0
 42
0.0375528832139131
  0
VERTEX
  5
357
  8
0
 10
19.8865748927924884
 20
14.2373119447123795
 30
0.0
  0
SEQEND
  5
358
  8
0
  0
POLYLINE
  5
2AB
  8
0
 66
     1
 10
0.0
 20
0.0
 30
0.0
 70
     1
  0
VERTEX
  5
359
  8
0
 10
26.8507884241281012
 20
14.9457485008691595
 30
0.0
 42
0.1730357107767622
  0
VERTEX
  5
35A
  8
0
 10
24.9881874075322408
 20
15.7172631032330798
 30
0.0
  0
VERTEX
  5
35B
  8
0
 10
24.9881874075322408
 20
14.7153825174352608
 30
0.0
 42
0.0375528832139126
  0
VERTEX
  5
35C
  8
0
 10
24.6881874075322507
 20
14.7153825174352608
 30
0.0
  0
VERTEX
  5
35D
  8
0
 10
24.6881874075322507
 20
15.7172631032330798
 30
0.0
 42
0.1730357107767621
  0
VERTEX
  5
35E
  8
0
 10
22.825586390936401
 20
14.9457485008691595
 30
0.0
  0
VERTEX
  5
35F
  8
0
 10
23.534022947093181
 20
14.2373119447123795
 30
0.0
 42
0.0375528832139122
  0
VERTEX
  5
360
  8
0
 10
23.3218909127372207
 20
14.0251799103564103
 30
0.0
  0
VERTEX
  5
361
  8
0
 10
22.61345435658043
 20
14.7336164665131903
 30
0.0
 42
0.1730357107767613
  0
VERTEX
  5
362
  8
0
 10
21.8419397542165115
 20
12.8710154499173495
 30
0.0
  0
VERTEX
  5
363
  8
0
 10
22.8438203400143287
 20
12.8710154499173495
 30
0.0
 42
0.0375528832139128
  0
VERTEX
  5
364
  8
0
 10
22.8438203400143287
 20
12.5710154499173505
 30
0.0
  0
VERTEX
  5
365
  8
0
 10
21.8419397542165115
 20
12.5710154499173505
 30
0.0
 42
0.1730357107767616
  0
VERTEX
  5
366
  8
0
 10
22.61345435658043
 20
10.7084144333215008
 30
0.0
  0
VERTEX
  5
367
  8
0
 10
23.32189091273721
 20
11.4168509894782808
 30
0.0
 42
0.0375528832139128
  0
VERTEX
  5
368
  8
0
 10
23.534022947093181
 20
11.2047189551223205
 30
0.0
  0
VERTEX
  5
369
  8
0
 10
22.825586390936401
 20
10.4962823989655298
 30
0.0
 42
0.1730357107767614
  0
VERTEX
  5
36A
  8
0
 10
24.6881874075322507
 20
9.7247677966016255
 30
0.0
  0
VERTEX
  5
36B
  8
0
 10
24.6881874075322507
 20
10.7266483823994392
 30
0.0
 42
0.0375528832139124
  0
VERTEX
  5
36C
  8
0
 10
24.9881874075322408
 20
10.7266483823994392
 30
0.0
  0
VERTEX
  5
36D
  8
0
 10
24.9881874075322408
 20
9.7247677966016255
 30
0.0
 42
0.173035710776762
  0
VERTEX
  5
36E
  8
0
 10
26.8507884241281012
 20
10.4962823989655405
 30
0.0
  0
VERTEX
  5
36F
  8
0
 10
26.1423518679713105
 20
11.2047189551223205
 30
0.0
 42
0.0375528832139122
  0
VERTEX
  5
370
  8
0
 10
26.3544839023272708
 20
11.4168509894782808
 30
0.0
  0
VERTEX
  5
371
  8
0
 10
27.0629204584840508
 20
10.7084144333215008
 30
0.0
 42
0.1730357107767617
  0
VERTEX
  5
372
  8
0
 10
27.8344350608479694
 20
12.5710154499173505
 30
0.0
  0
VERTEX
  5
373
  8
0
 10
26.8325544750501592
 20
12.5710154499173505
 30
0.0
 42
0.0375528832139133
  0
VERTEX
  5
374
  8
0
 10
26.8325544750501592
 20
12.8710154499173495
 30
0.0
  0
VERTEX
  5
375
  8
0
 10
27.8344350608479694
 20
12.8710154499173495
 30
0.0
 42
0.1730357107767612
  0
VERTEX
  5
376
  8
0
 10
27.0629204584840615
 20
14.7336164665131903
 30
0.0
  0
VERTEX
  5
377
  8
0
 10
26.3544839023272708
 20
14.0251799103564103
 30
0.0
 42
0.0375528832139131
  0
VERTEX
  5
378
  8
0
 10
26.1423518679713105
 20
14.2373119447123795
 30
0.0
  0
SEQEND
  5
379
  8
0
  0
POLYLINE
  5
2AC
  8
0
 66
     1
 10
0.0
 20
0.0
 30
0.0
 70
     1
  0
VERTEX
  5
37A
  8
0
 10
33.0627259849402435
 20
14.9457485008691595
 30
0.0
 42
0.1730357107767622
  0
VERTEX
  5
37B
  8
0
 10
31.2001249683443902
 20
15.7172631032330798
 30
0.0
  0
VERTEX
  5
37C
  8
0
 10
31.2001249683443902
 20
14.7153825174352608
 30
0.0
 42
0.0375528832139126
  0
VERTEX
  5
37D
  8
0
 10
30.9001249683443895
 20
14.7153825174352608
 30
0.0
  0
VERTEX
  5
37E
  8
0
 10
30.9001249683443895
 20
15.7172631032330798
 30
0.0
 42
0.1730357107767621
  0
VERTEX
  5
37F
  8
0
 10
29.0375239517485397
 20
14.9457485008691595
 30
0.0
  0
VERTEX
  5
380
  8
0
 10
29.7459605079053304
 20
14.2373119447123795
 30
0.0
 42
0.0375528832139122
  0
VERTEX
  5
381
  8
0
 10
29.5338284735493595
 20
14.0251799103564103
 30
0.0
  0
VERTEX
  5
382
  8
0
 10
28.8253919173925688
 20
14.7336164665131903
 30
0.0
 42
0.1730357107767613
  0
VERTEX
  5
383
  8
0
 10
28.0538773150286609
 20
12.8710154499173495
 30
0.0
  0
VERTEX
  5
384
  8
0
 10
29.055757900826471
 20
12.8710154499173495
 30
0.0
 42
0.0375528832139128
  0
VERTEX
  5
385
  8
0
 10
29.055757900826471
 20
12.5710154499173505
 30
0.0
  0
VERTEX
  5
386
  8
0
 10
28.0538773150286609
 20
12.5710154499173505
 30
0.0
 42
0.1730357107767616
  0
VERTEX
  5
387
  8
0
 10
28.8253919173925794
 20
10.7084144333215008
 30
0.0
  0
VERTEX
  5
388
  8
0
 10
29.5338284735493595
 20
11.4168509894782808
 30
0.0
 42
0.0375528832139128
  0
VERTEX
  5
389
  8
0
 10
29.7459605079053304
 20
11.2047189551223205
 30
0.0
  0
VERTEX
  5
38A
  8
0
 10
29.0375239517485504
 20
10.4962823989655298
 30
0.0
 42
0.1730357107767614
  0
VERTEX
  5
38B
  8
0
 10
30.9001249683443895
 20
9.7247677966016255
 30
0.0
  0
VERTEX
  5
38C
  8
0
 10
30.9001249683443895
 20
10.7266483823994392
 30
0.0
 42
0.0375528832139124
  0
VERTEX
  5
38D
  8
0
 10
31.2001249683443902
 20
10.7266483823994392
 30
0.0
  0
VERTEX
  5
38E
  8
0
 10
31.2001249683443902
 20
9.7247677966016255
 30
0.0
 42
0.173035710776762
  0
VERTEX
  5
38F
  8
0
 10
33.0627259849402435
 20
10.4962823989655405
 30
0.0
  0
VERTEX
  5
390
  8
0
 10
32.3542894287834528
 20
11.2047189551223205
 30
0.0
 42
0.0375528832139122
  0
VERTEX
  5
391
  8
0
 10
32.5664214631394202
 20
11.4168509894782808
 30
0.0
  0
VERTEX
  5
392
  8
0
 10
33.2748580192962109
 20
10.7084144333215008
 30
0.0
 42
0.1730357107767617
  0
VERTEX
  5
393
  8
0
 10
34.0463726216601117
 20
12.5710154499173505
 30
0.0
  0
VERTEX
  5
394
  8
0
 10
33.044492035862298
 20
12.5710154499173505
 30
0.0
 42
0.0375528832139133
  0
VERTEX
  5
395
  8
0
 10
33.044492035862298
 20
12.8710154499173495
 30
0.0
  0
VERTEX
  5
396
  8
0
 10
34.0463726216601117
 20
12.8710154499173495
 30
0.0
 42
0.1730357107767612
  0
VERTEX
  5
397
  8
0
 10
33.2748580192962109
 20
14.7336164665131903
 30
0.0
  0
VERTEX
  5
398
  8
0
 10
32.5664214631394202
 20
14.0251799103564103
 30
0.0
 42
0.0375528832139131
  0
VERTEX
  5
399
  8
0
 10
32.3542894287834528
 20
14.2373119447123795
 30
0.0
  0
SEQEND
  5
39A
  8
0
  0
POLYLINE
  5
2AD
  8
0
 66
     1
 10
0.0
 20
0.0
 30
0.0
 70
     1
  0
VERTEX
  5
39B
  8
0
 10
23.7197972687664311
 20
20.3687842600043503
 30
0.0
 42
0.1730357107767622
  0
VERTEX
  5
39C
  8
0
 10
21.8571962521705814
 20
21.1402988623682617
 30
0.0
  0
VERTEX
  5
39D
  8
0
 10
21.8571962521705814
 20
20.1384182765704516
 30
0.0
 42
0.0375528832139126
  0
VERTEX
  5
39E
  8
0
 10
21.5571962521705807
 20
20.1384182765704516
 30
0.0
  0
VERTEX
  5
39F
  8
0
 10
21.5571962521705807
 20
21.1402988623682617
 30
0.0
 42
0.1730357107767621
  0
VERTEX
  5
3A0
  8
0
 10
19.6945952355747309
 20
20.3687842600043503
 30
0.0
  0
VERTEX
  5
3A1
  8
0
 10
20.4030317917315216
 20
19.6603477038475596
 30
0.0
 42
0.0375528832139122
  0
VERTEX
  5
3A2
  8
0
 10
20.1908997573755506
 20
19.4482156694915993
 30
0.0
  0
VERTEX
  5
3A3
  8
0
 10
19.48246320121876
 20
20.1566522256483793
 30
0.0
 42
0.1730357107767613
  0
VERTEX
  5
3A4
  8
0
 10
18.7109485988548485
 20
18.2940512090525402
 30
0.0
  0
VERTEX
  5
3A5
  8
0
 10
19.7128291846526587
 20
18.2940512090525402
 30
0.0
 42
0.0375528832139128
  0
VERTEX
  5
3A6
  8
0
 10
19.7128291846526587
 20
17.9940512090525289
 30
0.0
  0
VERTEX
  5
3A7
  8
0
 10
18.7109485988548485
 20
17.9940512090525289
 30
0.0
 42
0.1730357107767616
  0
VERTEX
  5
3A8
  8
0
 10
19.48246320121876
 20
16.1314501924566791
 30
0.0
  0
VERTEX
  5
3A9
  8
0
 10
20.1908997573755506
 20
16.8398867486134698
 30
0.0
 42
0.0375528832139128
  0
VERTEX
  5
3AA
  8
0
 10
20.4030317917315216
 20
16.6277547142575095
 30
0.0
  0
VERTEX
  5
3AB
  8
0
 10
19.6945952355747309
 20
15.9193181581007206
 30
0.0
 42
0.1730357107767614
  0
VERTEX
  5
3AC
  8
0
 10
21.5571962521705807
 20
15.1478035557368091
 30
0.0
  0
VERTEX
  5
3AD
  8
0
 10
21.5571962521705807
 20
16.1496841415346211
 30
0.0
 42
0.0375528832139124
  0
VERTEX
  5
3AE
  8
0
 10
21.8571962521705814
 20
16.1496841415346211
 30
0.0
  0
VERTEX
  5
3AF
  8
0
 10
21.8571962521705814
 20
15.1478035557368091
 30
0.0
 42
0.173035710776762
  0
VERTEX
  5
3B0
  8
0
 10
23.7197972687664311
 20
15.9193181581007206
 30
0.0
  0
VERTEX
  5
3B1
  8
0
 10
23.0113607126096404
 20
16.6277547142575095
 30
0.0
 42
0.0375528832139122
  0
VERTEX
  5
3B2
  8
0
 10
23.2234927469656114
 20
16.8398867486134698
 30
0.0
  0
VERTEX
  5
3B3
  8
0
 10
23.9319293031223914
 20
16.1314501924566791
 30
0.0
 42
0.1730357107767617
  0
VERTEX
  5
3B4
  8
0
 10
24.70344390548631
 20
17.9940512090525289
 30
0.0
  0
VERTEX
  5
3B5
  8
0
 10
23.7015633196884892
 20
17.9940512090525289
 30
0.0
 42
0.0375528832139133
  0
VERTEX
  5
3B6
  8
0
 10
23.7015633196884892
 20
18.2940512090525402
 30
0.0
  0
VERTEX
  5
3B7
  8
0
 10
24.70344390548631
 20
18.2940512090525402
 30
0.0
 42
0.1730357107767612
  0
VERTEX
  5
3B8
  8
0
 10
23.9319293031223985
 20
20.1566522256483793
 30
0.0
  0
VERTEX
  5
3B9
  8
0
 10
23.2234927469656114
 20
19.4482156694915993
 30
0.0
 42
0.0375528832139131
  0
VERTEX
  5
3BA
  8
0
 10
23.0113607126096404
 20
19.6603477038475596
 30
0.0
  0
SEQEND
  5
3BB
  8
0
  0
POLYLINE
  5
2AE
  8
0
 66
     1
 10
0.0
 20
0.0
 30
0.0
 70
     1
  0
VERTEX
  5
3BC
  8
0
 10
29.9317348295785806
 20
20.3687842600043503
 30
0.0
 42
0.1730357107767622
  0
VERTEX
  5
3BD
  8
0
 10
28.0691338129827308
 20
21.1402988623682617
 30
0.0
  0
VERTEX
  5
3BE
  8
0
 10
28.0691338129827308
 20
20.1384182765704516
 30
0.0
 42
0.0375528832139126
  0
VERTEX
  5
3BF
  8
0
 10
27.7691338129827301
 20
20.1384182765704516
 30
0.0
  0
VERTEX
  5
3C0
  8
0
 10
27.7691338129827301
 20
21.1402988623682617
 30
0.0
 42
0.1730357107767621
  0
VERTEX
  5
3C1
  8
0
 10
25.9065327963868803
 20
20.3687842600043503
 30
0.0
  0
VERTEX
  5
3C2
  8
0
 10
26.6149693525436604
 20
19.6603477038475596
 30
0.0
 42
0.0375528832139122
  0
VERTEX
  5
3C3
  8
0
 10
26.4028373181877001
 20
19.4482156694915993
 30
0.0
  0
VERTEX
  5
3C4
  8
0
 10
25.6944007620309094
 20
20.1566522256483793
 30
0.0
 42
0.1730357107767613
  0
VERTEX
  5
3C5
  8
0
 10
24.9228861596670015
 20
18.2940512090525402
 30
0.0
  0
VERTEX
  5
3C6
  8
0
 10
25.9247667454648116
 20
18.2940512090525402
 30
0.0
 42
0.0375528832139128
  0
VERTEX
  5
3C7
  8
0
 10
25.9247667454648116
 20
17.9940512090525289
 30
0.0
  0
VERTEX
  5
3C8
  8
0
 10
24.9228861596670015
 20
17.9940512090525289
 30
0.0
 42
0.1730357107767616
  0
VERTEX
  5
3C9
  8
0
 10
25.69440076203092
 20
16.1314501924566791
 30
0.0
  0
VERTEX
  5
3CA
  8
0
 10
26.4028373181877001
 20
16.8398867486134698
 30
0.0
 42
0.0375528832139128
  0
VERTEX
  5
3CB
  8
0
 10
26.6149693525436604
 20
16.6277547142575095
 30
0.0
  0
VERTEX
  5
3CC
  8
0
 10
25.9065327963868803
 20
15.9193181581007206
 30
0.0
 42
0.1730357107767614
  0
VERTEX
  5
3CD
  8
0
 10
27.7691338129827301
 20
15.1478035557368091
 30
0.0
  0
VERTEX
  5
3CE
  8
0
 10
27.7691338129827301
 20
16.1496841415346211
 30
0.0
 42
0.0375528832139124
  0
VERTEX
  5
3CF
  8
0
 10
28.0691338129827308
 20
16.1496841415346211
 30
0.0
  0
VERTEX
  5
3D0
  8
0
 10
28.0691338129827308
 20
15.1478035557368091
 30
0.0
 42
0.173035710776762
  0
VERTEX
  5
3D1
  8
0
 10
29.9317348295785806
 20
15.9193181581007206
 30
0.0
  0
VERTEX
  5
3D2
  8
0
 10
29.2232982734217899
 20
16.6277547142575095
 30
0.0
 42
0.0375528832139122
  0
VERTEX
  5
3D3
  8
0
 10
29.4354303077777608
 20
16.8398867486134698
 30
0.0
  0
VERTEX
  5
3D4
  8
0
 10
30.1438668639345408
 20
16.1314501924566791
 30
0.0
 42
0.1730357107767617
  0
VERTEX
  5
3D5
  8
0
 10
30.9153814662984487
 20
17.9940512090525289
 30
0.0
  0
VERTEX
  5
3D6
  8
0
 10
29.9135008805006386
 20
17.9940512090525289
 30
0.0
 42
0.0375528832139133
  0
VERTEX
  5
3D7
  8
0
 10
29.9135008805006386
 20
18.2940512090525402
 30
0.0
  0
VERTEX
  5
3D8
  8
0
 10
30.9153814662984487
 20
18.2940512090525402
 30
0.0
 42
0.1730357107767612
  0
VERTEX
  5
3D9
  8
0
 10
30.1438668639345408
 20
20.1566522256483793
 30
0.0
  0
VERTEX
  5
3DA
  8
0
 10
29.4354303077777608
 20
19.4482156694915993
 30
0.0
 42
0.0375528832139131
  0
VERTEX
  5
3DB
  8
0
 10
29.2232982734217899
 20
19.6603477038475596
 30
0.0
  0
SEQEND
  5
3DC
  8
0
  0
POLYLINE
  5
2AF
  8
0
 66
     1
 10
0.0
 20
0.0
 30
0.0
 70
     1
  0
VERTEX
  5
3DD
  8
0
 10
26.4051696211139983
 20
8.8912536408318346
 30
0.0
 42
0.1678825976591866
  0
VERTEX
  5
3DE
  8
0
 10
24.8966535347898414
 20
9.5161014628452811
 30
0.0
  0
VERTEX
  5
3DF
  8
0
 10
24.8966535347898414
 20
8.5130866758116586
 30
0.0
 42
0.0501256289337994
  0
VERTEX
  5
3E0
  8
0
 10
24.5966535347898407
 20
8.5130866758116568
 30
0.0
  0
VERTEX
  5
3E1
  8
0
 10
24.5966535347898407
 20
9.5161014628452811
 30
0.0
 42
0.1678825976591855
  0
VERTEX
  5
3E2
  8
0
 10
23.0881374484656909
 20
8.8912536408318346
 30
0.0
  0
VERTEX
  5
3E3
  8
0
 10
23.7973760060075499
 20
8.1820150832899792
 30
0.0
 42
0.0501256289337988
  0
VERTEX
  5
3E4
  8
0
 10
23.5852439716515896
 20
7.9698830489340153
 30
0.0
  0
VERTEX
  5
3E5
  8
0
 10
22.8760054141097307
 20
8.679121606475876
 30
0.0
 42
0.1678825976591858
  0
VERTEX
  5
3E6
  8
0
 10
22.2511575920962912
 20
7.170605520151728
 30
0.0
  0
VERTEX
  5
3E7
  8
0
 10
23.2541723791299084
 20
7.1706055201517289
 30
0.0
 42
0.0501256289338002
  0
VERTEX
  5
3E8
  8
0
 10
23.2541723791299084
 20
6.8706055201517291
 30
0.0
  0
VERTEX
  5
3E9
  8
0
 10
22.2511575920962912
 20
6.8706055201517291
 30
0.0
 42
0.1678825976591855
  0
VERTEX
  5
3EA
  8
0
 10
22.8760054141097307
 20
5.3620894338275766
 30
0.0
  0
VERTEX
  5
3EB
  8
0
 10
23.5852439716515896
 20
6.0713279913694382
 30
0.0
 42
0.0501256289338004
  0
VERTEX
  5
3EC
  8
0
 10
23.7973760060075499
 20
5.8591959570134762
 30
0.0
  0
VERTEX
  5
3ED
  8
0
 10
23.0881374484656909
 20
5.1499573994716172
 30
0.0
 42
0.1678825976591851
  0
VERTEX
  5
3EE
  8
0
 10
24.5966535347898407
 20
4.5251095774581724
 30
0.0
  0
VERTEX
  5
3EF
  8
0
 10
24.5966535347898407
 20
5.5281243644917977
 30
0.0
 42
0.0501256289337996
  0
VERTEX
  5
3F0
  8
0
 10
24.8966535347898414
 20
5.5281243644917959
 30
0.0
  0
VERTEX
  5
3F1
  8
0
 10
24.8966535347898414
 20
4.5251095774581724
 30
0.0
 42
0.1678825976591857
  0
VERTEX
  5
3F2
  8
0
 10
26.4051696211139912
 20
5.1499573994716172
 30
0.0
  0
VERTEX
  5
3F3
  8
0
 10
25.6959310635721287
 20
5.8591959570134717
 30
0.0
 42
0.0501256289337993
  0
VERTEX
  5
3F4
  8
0
 10
25.9080630979280997
 20
6.0713279913694356
 30
0.0
  0
VERTEX
  5
3F5
  8
0
 10
26.6173016554699515
 20
5.3620894338275766
 30
0.0
 42
0.1678825976591862
  0
VERTEX
  5
3F6
  8
0
 10
27.2421494774834017
 20
6.8706055201517273
 30
0.0
  0
VERTEX
  5
3F7
  8
0
 10
26.2391346904497702
 20
6.8706055201517273
 30
0.0
 42
0.0501256289338009
  0
VERTEX
  5
3F8
  8
0
 10
26.2391346904497702
 20
7.1706055201517289
 30
0.0
  0
VERTEX
  5
3F9
  8
0
 10
27.2421494774834017
 20
7.170605520151728
 30
0.0
 42
0.1678825976591854
  0
VERTEX
  5
3FA
  8
0
 10
26.6173016554699586
 20
8.6791216064758725
 30
0.0
  0
VERTEX
  5
3FB
  8
0
 10
25.9080630979280997
 20
7.9698830489340153
 30
0.0
 42
0.0501256289338004
  0
VERTEX
  5
3FC
  8
0
 10
25.6959310635721287
 20
8.1820150832899881
 30
0.0
  0
SEQEND
  5
3FD
  8
0
  0
POLYLINE
  5
2B0
  8
0
 66
     1
 10
0.0
 20
0.0
 30
0.0
 70
     1
  0
VERTEX
  5
3FE
  8
0
 10
31.533278080413421
 20
8.8912536408318346
 30
0.0
 42
0.1678825976591866
  0
VERTEX
  5
3FF
  8
0
 10
30.0247619940892712
 20
9.5161014628452811
 30
0.0
  0
VERTEX
  5
400
  8
0
 10
30.0247619940892712
 20
8.5130866758116586
 30
0.0
 42
0.0501256289337994
  0
VERTEX
  5
401
  8
0
 10
29.7247619940892704
 20
8.5130866758116568
 30
0.0
  0
VERTEX
  5
402
  8
0
 10
29.7247619940892704
 20
9.5161014628452811
 30
0.0
 42
0.1678825976591855
  0
VERTEX
  5
403
  8
0
 10
28.2162459077651206
 20
8.8912536408318346
 30
0.0
  0
VERTEX
  5
404
  8
0
 10
28.9254844653069796
 20
8.1820150832899792
 30
0.0
 42
0.0501256289337988
  0
VERTEX
  5
405
  8
0
 10
28.7133524309510193
 20
7.9698830489340153
 30
0.0
  0
VERTEX
  5
406
  8
0
 10
28.0041138734091604
 20
8.679121606475876
 30
0.0
 42
0.1678825976591858
  0
VERTEX
  5
407
  8
0
 10
27.3792660513957102
 20
7.170605520151728
 30
0.0
  0
VERTEX
  5
408
  8
0
 10
28.3822808384293417
 20
7.1706055201517289
 30
0.0
 42
0.0501256289338002
  0
VERTEX
  5
409
  8
0
 10
28.3822808384293417
 20
6.8706055201517291
 30
0.0
  0
VERTEX
  5
40A
  8
0
 10
27.3792660513957209
 20
6.8706055201517291
 30
0.0
 42
0.1678825976591855
  0
VERTEX
  5
40B
  8
0
 10
28.0041138734091497
 20
5.3620894338275766
 30
0.0
  0
VERTEX
  5
40C
  8
0
 10
28.7133524309510086
 20
6.0713279913694382
 30
0.0
 42
0.0501256289338004
  0
VERTEX
  5
40D
  8
0
 10
28.9254844653069796
 20
5.8591959570134762
 30
0.0
  0
VERTEX
  5
40E
  8
0
 10
28.2162459077651206
 20
5.1499573994716172
 30
0.0
 42
0.1678825976591851
  0
VERTEX
  5
40F
  8
0
 10
29.7247619940892704
 20
4.5251095774581724
 30
0.0
  0
VERTEX
  5
410
  8
0
 10
29.7247619940892704
 20
5.5281243644917977
 30
0.0
 42
0.0501256289337996
  0
VERTEX
  5
411
  8
0
 10
30.0247619940892712
 20
5.5281243644917959
 30
0.0
  0
VERTEX
  5
412
  8
0
 10
30.0247619940892605
 20
4.5251095774581724
 30
0.0
 42
0.1678825976591857
  0
VERTEX
  5
413
  8
0
 10
31.533278080413421
 20
5.1499573994716172
 30
0.0
  0
VERTEX
  5
414
  8
0
 10
30.8240395228715585
 20
5.8591959570134717
 30
0.0
 42
0.0501256289337993
  0
VERTEX
  5
415
  8
0
 10
31.0361715572275294
 20
6.0713279913694356
 30
0.0
  0
VERTEX
  5
416
  8
0
 10
31.7454101147693812
 20
5.3620894338275766
 30
0.0
 42
0.1678825976591862
  0
VERTEX
  5
417
  8
0
 10
32.3702579367828278
 20
6.8706055201517273
 30
0.0
  0
VERTEX
  5
418
  8
0
 10
31.3672431497491999
 20
6.8706055201517273
 30
0.0
 42
0.0501256289338009
  0
VERTEX
  5
419
  8
0
 10
31.3672431497491999
 20
7.1706055201517289
 30
0.0
  0
VERTEX
  5
41A
  8
0
 10
32.3702579367828278
 20
7.170605520151728
 30
0.0
 42
0.1678825976591854
  0
VERTEX
  5
41B
  8
0
 10
31.7454101147693812
 20
8.6791216064758725
 30
0.0
  0
VERTEX
  5
41C
  8
0
 10
31.0361715572275294
 20
7.9698830489340153
 30
0.0
 42
0.0501256289338004
  0
VERTEX
  5
41D
  8
0
 10
30.8240395228715585
 20
8.1820150832899881
 30
0.0
  0
SEQEND
  5
41E
  8
0
  0
POLYLINE
  5
2B1
  8
0
 66
     1
 10
0.0
 20
0.0
 30
0.0
 70
     1
  0
VERTEX
  5
41F
  8
0
 10
23.7950916118505305
 20
4.3704659170692874
 30
0.0
 42
0.1678825976591866
  0
VERTEX
  5
420
  8
0
 10
22.2865755255263807
 20
4.9953137390827349
 30
0.0
  0
VERTEX
  5
421
  8
0
 10
22.2865755255263807
 20
3.992298952049111
 30
0.0
 42
0.0501256289337994
  0
VERTEX
  5
422
  8
0
 10
21.9865755255263799
 20
3.9922989520491088
 30
0.0
  0
VERTEX
  5
423
  8
0
 10
21.9865755255263693
 20
4.9953137390827349
 30
0.0
 42
0.1678825976591855
  0
VERTEX
  5
424
  8
0
 10
20.4780594392022302
 20
4.3704659170692874
 30
0.0
  0
VERTEX
  5
425
  8
0
 10
21.1872979967440891
 20
3.6612273595274312
 30
0.0
 42
0.0501256289337988
  0
VERTEX
  5
426
  8
0
 10
20.9751659623881288
 20
3.4490953251714669
 30
0.0
  0
VERTEX
  5
427
  8
0
 10
20.2659274048462699
 20
4.158333882713328
 30
0.0
 42
0.1678825976591858
  0
VERTEX
  5
428
  8
0
 10
19.6410795828328197
 20
2.64981779638918
 30
0.0
  0
VERTEX
  5
429
  8
0
 10
20.6440943698664512
 20
2.6498177963891818
 30
0.0
 42
0.0501256289338002
  0
VERTEX
  5
42A
  8
0
 10
20.6440943698664512
 20
2.3498177963891811
 30
0.0
  0
VERTEX
  5
42B
  8
0
 10
19.6410795828328197
 20
2.3498177963891811
 30
0.0
 42
0.1678825976591855
  0
VERTEX
  5
42C
  8
0
 10
20.2659274048462592
 20
0.84130171006503
 30
0.0
  0
VERTEX
  5
42D
  8
0
 10
20.9751659623881288
 20
1.55054026760689
 30
0.0
 42
0.0501256289338004
  0
VERTEX
  5
42E
  8
0
 10
21.1872979967440891
 20
1.3384082332509279
 30
0.0
  0
VERTEX
  5
42F
  8
0
 10
20.4780594392022302
 20
0.6291696757090697
 30
0.0
 42
0.1678825976591851
  0
VERTEX
  5
430
  8
0
 10
21.9865755255263799
 20
0.0043218536956249
 30
0.0
  0
VERTEX
  5
431
  8
0
 10
21.9865755255263799
 20
1.0073366407292501
 30
0.0
 42
0.0501256289337996
  0
VERTEX
  5
432
  8
0
 10
22.2865755255263807
 20
1.007336640729249
 30
0.0
  0
VERTEX
  5
433
  8
0
 10
22.28657552552637
 20
0.0043218536956249
 30
0.0
 42
0.1678825976591857
  0
VERTEX
  5
434
  8
0
 10
23.7950916118505305
 20
0.6291696757090697
 30
0.0
  0
VERTEX
  5
435
  8
0
 10
23.0858530543086715
 20
1.3384082332509251
 30
0.0
 42
0.0501256289337993
  0
VERTEX
  5
436
  8
0
 10
23.2979850886646283
 20
1.550540267606888
 30
0.0
  0
VERTEX
  5
437
  8
0
 10
24.0072236462064907
 20
0.84130171006503
 30
0.0
 42
0.1678825976591862
  0
VERTEX
  5
438
  8
0
 10
24.6320714682199302
 20
2.3498177963891789
 30
0.0
  0
VERTEX
  5
439
  8
0
 10
23.6290566811863094
 20
2.3498177963891789
 30
0.0
 42
0.0501256289338009
  0
VERTEX
  5
43A
  8
0
 10
23.6290566811863094
 20
2.6498177963891818
 30
0.0
  0
VERTEX
  5
43B
  8
0
 10
24.6320714682199409
 20
2.64981779638918
 30
0.0
 42
0.1678825976591854
  0
VERTEX
  5
43C
  8
0
 10
24.0072236462064907
 20
4.1583338827133254
 30
0.0
  0
VERTEX
  5
43D
  8
0
 10
23.2979850886646283
 20
3.4490953251714669
 30
0.0
 42
0.0501256289338004
  0
VERTEX
  5
43E
  8
0
 10
23.0858530543086715
 20
3.6612273595274401
 30
0.0
  0
SEQEND
  5
43F
  8
0
  0
POLYLINE
  5
2B2
  8
0
 66
     1
 10
0.0
 20
0.0
 30
0.0
 70
     1
  0
VERTEX
  5
440
  8
0
 10
28.9232000711499602
 20
4.3704659170692874
 30
0.0
 42
0.1678825976591866
  0
VERTEX
  5
441
  8
0
 10
27.4146839848257997
 20
4.9953137390827349
 30
0.0
  0
VERTEX
  5
442
  8
0
 10
27.4146839848257997
 20
3.992298952049111
 30
0.0
 42
0.0501256289337994
  0
VERTEX
  5
443
  8
0
 10
27.1146839848258097
 20
3.9922989520491088
 30
0.0
  0
VERTEX
  5
444
  8
0
 10
27.114683984825799
 20
4.9953137390827349
 30
0.0
 42
0.1678825976591855
  0
VERTEX
  5
445
  8
0
 10
25.6061678985016599
 20
4.3704659170692874
 30
0.0
  0
VERTEX
  5
446
  8
0
 10
26.3154064560435117
 20
3.6612273595274312
 30
0.0
 42
0.0501256289337988
  0
VERTEX
  5
447
  8
0
 10
26.1032744216875585
 20
3.4490953251714669
 30
0.0
  0
VERTEX
  5
448
  8
0
 10
25.3940358641456889
 20
4.158333882713328
 30
0.0
 42
0.1678825976591858
  0
VERTEX
  5
449
  8
0
 10
24.7691880421322494
 20
2.64981779638918
 30
0.0
  0
VERTEX
  5
44A
  8
0
 10
25.7722028291658809
 20
2.6498177963891818
 30
0.0
 42
0.0501256289338002
  0
VERTEX
  5
44B
  8
0
 10
25.7722028291658809
 20
2.3498177963891811
 30
0.0
  0
VERTEX
  5
44C
  8
0
 10
24.7691880421322494
 20
2.3498177963891811
 30
0.0
 42
0.1678825976591855
  0
VERTEX
  5
44D
  8
0
 10
25.3940358641456889
 20
0.84130171006503
 30
0.0
  0
VERTEX
  5
44E
  8
0
 10
26.1032744216875514
 20
1.55054026760689
 30
0.0
 42
0.0501256289338004
  0
VERTEX
  5
44F
  8
0
 10
26.3154064560435117
 20
1.3384082332509279
 30
0.0
  0
VERTEX
  5
450
  8
0
 10
25.6061678985016599
 20
0.6291696757090697
 30
0.0
 42
0.1678825976591851
  0
VERTEX
  5
451
  8
0
 10
27.1146839848258097
 20
0.0043218536956249
 30
0.0
  0
VERTEX
  5
452
  8
0
 10
27.114683984825799
 20
1.0073366407292501
 30
0.0
 42
0.0501256289337996
  0
VERTEX
  5
453
  8
0
 10
27.4146839848257997
 20
1.007336640729249
 30
0.0
  0
VERTEX
  5
454
  8
0
 10
27.4146839848257997
 20
0.0043218536956249
 30
0.0
 42
0.1678825976591857
  0
VERTEX
  5
455
  8
0
 10
28.9232000711499602
 20
0.6291696757090697
 30
0.0
  0
VERTEX
  5
456
  8
0
 10
28.2139615136081012
 20
1.3384082332509251
 30
0.0
 42
0.0501256289337993
  0
VERTEX
  5
457
  8
0
 10
28.4260935479640615
 20
1.550540267606888
 30
0.0
  0
VERTEX
  5
458
  8
0
 10
29.1353321055059098
 20
0.84130171006503
 30
0.0
 42
0.1678825976591862
  0
VERTEX
  5
459
  8
0
 10
29.7601799275193599
 20
2.3498177963891789
 30
0.0
  0
VERTEX
  5
45A
  8
0
 10
28.7571651404857391
 20
2.3498177963891789
 30
0.0
 42
0.0501256289338009
  0
VERTEX
  5
45B
  8
0
 10
28.7571651404857391
 20
2.6498177963891818
 30
0.0
  0
VERTEX
  5
45C
  8
0
 10
29.7601799275193599
 20
2.64981779638918
 30
0.0
 42
0.1678825976591854
  0
VERTEX
  5
45D
  8
0
 10
29.1353321055059098
 20
4.1583338827133254
 30
0.0
  0
VERTEX
  5
45E
  8
0
 10
28.4260935479640615
 20
3.4490953251714669
 30
0.0
 42
0.0501256289338004
  0
VERTEX
  5
45F
  8
0
 10
28.2139615136081012
 20
3.6612273595274401
 30
0.0
  0
SEQEND
  5
460
  8
0
  0
ENDSEC
  0
EOF
