0
SECTION
2
HEADER
9
$INSUNITS
70
4
9
$ACADVER
1
AC1014
9
$HANDSEED
5
FFFF
0
ENDSEC
0
SECTION
2
TABLES
0
TABLE
2
VPORT
5
8
100
AcDbSymbolTable
0
ENDTAB
0
TABLE
2
LTYPE
5
5
100
AcDbSymbolTable
0
LTYPE
5
14
100
AcDbSymbolTableRecord
100
AcDbLinetypeTableRecord
2
BYBLOCK
70
0
0
LTYPE
5
15
100
AcDbSymbolTableRecord
100
AcDbLinetypeTableRecord
2
BYLAYER
70
0
0
ENDTAB
0
TABLE
2
LAYER
5
2
100
AcDbSymbolTable
70
2
0
LAYER
5
50
100
AcDbSymbolTableRecord
100
AcDbLayerTableRecord
2
0
70
0
6
CONTINUOUS
0
ENDTAB
0
TABLE
2
STYLE
5
3
100
AcDbSymbolTable
70
1
0
STYLE
5
11
100
AcDbSymbolTableRecord
100
AcDbTextStyleTableRecord
2
STANDARD
70
0
0
ENDTAB
0
TABLE
2
VIEW
5
6
100
AcDbSymbolTable
70
0
0
ENDTAB
0
TABLE
2
UCS
5
7
100
AcDbSymbolTable
70
0
0
ENDTAB
0
TABLE
2
APPID
5
9
100
AcDbSymbolTable
70
2
0
APPID
5
12
100
AcDbSymbolTableRecord
100
AcDbRegAppTableRecord
2
ACAD
70
0
0
ENDTAB
0
TABLE
2
DIMSTYLE
5
A
100
AcDbSymbolTable
70
1
0
ENDTAB
0
TABLE
2
BLOCK_RECORD
5
1
100
AcDbSymbolTable
70
1
0
BLOCK_RECORD
5
1F
100
AcDbSymbolTableRecord
100
AcDbBlockTableRecord
2
*MODEL_SPACE
0
BLOCK_RECORD
5
1B
100
AcDbSymbolTableRecord
100
AcDbBlockTableRecord
2
*PAPER_SPACE
0
ENDTAB
0
ENDSEC
0
SECTION
2
BLOCKS
0
BLOCK
5
20
100
AcDbEntity
100
AcDbBlockBegin
2
*MODEL_SPACE
0
ENDBLK
5
21
100
AcDbEntity
100
AcDbBlockEnd
0
BLOCK
5
1C
100
AcDbEntity
100
AcDbBlockBegin
2
*PAPER_SPACE
0
ENDBLK
5
1D
100
AcDbEntity
100
AcDbBlockEnd
0
ENDSEC
0
SECTION
2
ENTITIES
0
LINE
5
100
100
AcDbEntity
8
0
100
AcDbLine
10
34.010056495160029
20
29.467203077252229
30
0
11
38.136630173118242
21
43.984060067698145
31
0
0
LINE
5
101
100
AcDbEntity
8
0
100
AcDbLine
10
38.136630173118242
20
43.984060067698145
30
0
11
30.046460108815843
21
49.861912678209706
31
0
0
LINE
5
102
100
AcDbEntity
8
0
100
AcDbLine
10
30.046460108815843
20
49.861912678209706
30
0
11
17.515290066956815
21
41.451352376856946
31
0
0
ARC
5
103
100
AcDbEntity
8
0
100
AcDbCircle
10
5.773159728050814e-14
20
5.773159728050814e-14
30
0
40
44.999999999999922
100
AcDbArc
50
40.906513394917482
51
67.093486605082546
0
LINE
5
104
100
AcDbEntity
8
0
100
AcDbLine
10
-5.0000000745058015
20
58.000000864267349
30
0
11
-10.194326289120287
21
43.830077703683713
31
0
0
LINE
5
105
100
AcDbEntity
8
0
100
AcDbLine
10
5.0000000745058149
20
58.000000864267349
30
0
11
-5.0000000745058015
21
58.000000864267349
31
0
0
LINE
5
106
100
AcDbEntity
8
0
100
AcDbLine
10
10.194326289120285
20
43.830077703683699
30
0
11
5.0000000745058149
21
58.000000864267349
31
0
0
LINE
5
107
100
AcDbEntity
8
0
100
AcDbLine
10
-38.136630173118249
20
43.984060067698145
30
0
11
-34.010056495160043
21
29.467203077252226
31
0
0
LINE
5
108
100
AcDbEntity
8
0
100
AcDbLine
10
-30.046460108815847
20
49.861912678209706
30
0
11
-38.136630173118249
21
43.984060067698145
31
0
0
LINE
5
109
100
AcDbEntity
8
0
100
AcDbLine
10
-17.515290066956826
20
41.451352376856946
30
0
11
-30.046460108815847
21
49.861912678209706
31
0
0
LINE
5
110
100
AcDbEntity
8
0
100
AcDbLine
10
-56.706363761984306
20
13.167703288485249
30
0
11
-44.835101079352775
21
3.8488584287058902
31
0
0
LINE
5
111
100
AcDbEntity
8
0
100
AcDbLine
10
-53.616193772187714
20
22.678268593155252
30
0
11
-56.706363761984306
21
13.167703288485249
31
0
0
LINE
5
112
100
AcDbEntity
8
0
100
AcDbLine
10
-38.534660940269845
20
23.239619321719573
30
0
11
-53.616193772187714
21
22.678268593155252
31
0
0
LINE
5
113
100
AcDbEntity
8
0
100
AcDbLine
10
-53.6161937721877
20
-22.678268593155238
30
0
11
-38.534660940269838
21
-23.239619321719577
31
0
0
LINE
5
114
100
AcDbEntity
8
0
100
AcDbLine
10
-56.706363761984292
20
-13.167703288485239
30
0
11
-53.6161937721877
21
-22.678268593155238
31
0
0
LINE
5
115
100
AcDbEntity
8
0
100
AcDbLine
10
-44.835101079352754
20
-3.8488584287058947
30
0
11
-56.706363761984292
21
-13.167703288485239
31
0
0
LINE
5
116
100
AcDbEntity
8
0
100
AcDbLine
10
-30.046460108815847
20
-49.861912678209706
30
0
11
-17.515290066956823
21
-41.451352376856946
31
0
0
LINE
5
117
100
AcDbEntity
8
0
100
AcDbLine
10
-38.136630173118249
20
-43.984060067698138
30
0
11
-30.046460108815847
21
-49.861912678209706
31
0
0
LINE
5
118
100
AcDbEntity
8
0
100
AcDbLine
10
-34.010056495160029
20
-29.467203077252226
30
0
11
-38.136630173118249
21
-43.984060067698138
31
0
0
LINE
5
119
100
AcDbEntity
8
0
100
AcDbLine
10
5.0000000745057926
20
-58.000000864267363
30
0
11
10.194326289120283
21
-43.830077703683713
31
0
0
LINE
5
120
100
AcDbEntity
8
0
100
AcDbLine
10
-5.0000000745058193
20
-58.000000864267356
30
0
11
5.0000000745057926
21
-58.000000864267363
31
0
0
LINE
5
121
100
AcDbEntity
8
0
100
AcDbLine
10
-10.194326289120294
20
-43.830077703683713
30
0
11
-5.0000000745058193
21
-58.000000864267356
31
0
0
LINE
5
122
100
AcDbEntity
8
0
100
AcDbLine
10
38.136630173118242
20
-43.984060067698145
30
0
11
34.010056495160029
21
-29.467203077252222
31
0
0
LINE
5
123
100
AcDbEntity
8
0
100
AcDbLine
10
30.046460108815836
20
-49.861912678209706
30
0
11
38.136630173118242
21
-43.984060067698145
31
0
0
LINE
5
124
100
AcDbEntity
8
0
100
AcDbLine
10
17.515290066956823
20
-41.451352376856939
30
0
11
30.046460108815836
21
-49.861912678209706
31
0
0
LINE
5
125
100
AcDbEntity
8
0
100
AcDbLine
10
56.706363761984299
20
-13.167703288485267
30
0
11
44.835101079352775
21
-3.8488584287059036
31
0
0
LINE
5
126
100
AcDbEntity
8
0
100
AcDbLine
10
53.616193772187692
20
-22.678268593155266
30
0
11
56.706363761984299
21
-13.167703288485267
31
0
0
LINE
5
127
100
AcDbEntity
8
0
100
AcDbLine
10
38.534660940269838
20
-23.239619321719584
30
0
11
53.616193772187692
21
-22.678268593155266
31
0
0
LINE
5
128
100
AcDbEntity
8
0
100
AcDbLine
10
53.616193772187714
20
22.678268593155249
30
0
11
38.534660940269845
21
23.23961932171958
31
0
0
LINE
5
129
100
AcDbEntity
8
0
100
AcDbLine
10
56.706363761984306
20
13.167703288485239
30
0
11
53.616193772187714
21
22.678268593155249
31
0
0
LINE
5
130
100
AcDbEntity
8
0
100
AcDbLine
10
44.835101079352768
20
3.8488584287058947
30
0
11
56.706363761984306
21
13.167703288485239
31
0
0
ARC
5
131
100
AcDbEntity
8
0
100
AcDbCircle
10
5.773159728050814e-14
20
5.773159728050814e-14
30
0
40
44.999999999999972
100
AcDbArc
50
103.0934866050826
51
112.90651339491761
0
ARC
5
132
100
AcDbEntity
8
0
100
AcDbCircle
10
5.773159728050814e-14
20
5.773159728050814e-14
30
0
40
44.999999999999929
100
AcDbArc
50
67.093486605082546
51
76.906513394917567
0
ARC
5
133
100
AcDbEntity
8
0
100
AcDbCircle
10
5.773159728050814e-14
20
5.773159728050814e-14
30
0
40
44.999999999999929
100
AcDbArc
50
31.093486605082489
51
40.906513394917482
0
ARC
5
134
100
AcDbEntity
8
0
100
AcDbCircle
10
5.773159728050814e-14
20
5.773159728050814e-14
30
0
40
44.999999999999964
100
AcDbArc
50
-4.9065133949175959
51
4.9065133949173516
0
ARC
5
135
100
AcDbEntity
8
0
100
AcDbCircle
10
5.773159728050814e-14
20
5.773159728050814e-14
30
0
40
45.000000000000043
100
AcDbArc
50
283.09348660508243
51
292.9065133949174
0
ARC
5
136
100
AcDbEntity
8
0
100
AcDbCircle
10
5.773159728050814e-14
20
5.773159728050814e-14
30
0
40
45.000000000000078
100
AcDbArc
50
211.09348660508252
51
220.90651339491751
0
ARC
5
137
100
AcDbEntity
8
0
100
AcDbCircle
10
5.773159728050814e-14
20
5.773159728050814e-14
30
0
40
45.000000000000014
100
AcDbArc
50
139.0934866050826
51
148.9065133949176
0
ARC
5
138
100
AcDbEntity
8
0
100
AcDbCircle
10
5.773159728050814e-14
20
5.773159728050814e-14
30
0
40
45.000000000000057
100
AcDbArc
50
175.09348660508257
51
184.9065133949176
0
ENDSEC
0
SECTION
2
OBJECTS
0
DICTIONARY
5
C
100
AcDbDictionary
3
ACAD_GROUP
350
D
3
ACAD_MLINESTYLE
350
17
0
DICTIONARY
5
D
100
AcDbDictionary
0
DICTIONARY
5
1A
330
C
100
AcDbDictionary
0
DICTIONARY
5
17
100
AcDbDictionary
0
ENDSEC
0
EOF
