  0
SECTION
  2
BLOCKS
  0
ENDSEC
  0
SECTION
  2
ENTITIES
  0
LINE
  8
0
 10
89.5651
 20
-313.982
 11
90.128
 21
-313.929
  0
LINE
  8
0
 10
90.128
 20
-313.929
 11
90.6864
 21
-313.841
  0
LINE
  8
0
 10
90.6864
 20
-313.841
 11
91.2382
 21
-313.717
  0
LINE
  8
0
 10
91.2382
 20
-313.717
 11
91.7811
 21
-313.56
  0
LINE
  8
0
 10
91.7811
 20
-313.56
 11
92.3131
 21
-313.368
  0
LINE
  8
0
 10
92.3131
 20
-313.368
 11
92.832
 21
-313.143
  0
LINE
  8
0
 10
92.832
 20
-313.143
 11
93.3358
 21
-312.887
  0
LINE
  8
0
 10
93.3358
 20
-312.887
 11
93.8224
 21
-312.599
  0
LINE
  8
0
 10
93.8224
 20
-312.599
 11
94.2901
 21
-312.281
  0
LINE
  8
0
 10
94.2901
 20
-312.281
 11
94.7368
 21
-311.935
  0
LINE
  8
0
 10
94.7368
 20
-311.935
 11
95.1609
 21
-311.561
  0
LINE
  8
0
 10
95.1609
 20
-311.561
 11
95.5607
 21
-311.161
  0
LINE
  8
0
 10
95.5607
 20
-311.161
 11
95.9346
 21
-310.737
  0
LINE
  8
0
 10
95.9346
 20
-310.737
 11
96.2811
 21
-310.29
  0
LINE
  8
0
 10
96.2811
 20
-310.29
 11
96.599
 21
-309.822
  0
LINE
  8
0
 10
96.599
 20
-309.822
 11
96.8867
 21
-309.336
  0
LINE
  8
0
 10
96.8867
 20
-309.336
 11
97.1434
 21
-308.832
  0
LINE
  8
0
 10
97.1434
 20
-308.832
 11
97.368
 21
-308.313
  0
LINE
  8
0
 10
97.368
 20
-308.313
 11
97.5595
 21
-307.781
  0
LINE
  8
0
 10
97.5595
 20
-307.781
 11
97.7172
 21
-307.238
  0
LINE
  8
0
 10
97.7172
 20
-307.238
 11
97.8406
 21
-306.686
  0
LINE
  8
0
 10
97.8406
 20
-306.686
 11
97.929
 21
-306.128
  0
LINE
  8
0
 10
97.929
 20
-306.128
 11
97.9822
 21
-305.565
  0
LINE
  8
0
 10
97.9822
 20
-305.565
 11
98
 21
-305
  0
LINE
  8
0
 10
98
 20
-305
 11
98
 21
-125
  0
LINE
  8
0
 10
98
 20
-125
 11
125
 21
-125
  0
LINE
  8
0
 10
125
 20
-125
 11
125
 21
-71.5
  0
LINE
  8
0
 10
125
 20
-71.5
 11
161
 21
-71.5
  0
LINE
  8
0
 10
161
 20
-71.5
 11
161.565
 21
-71.4822
  0
LINE
  8
0
 10
161.565
 20
-71.4822
 11
162.128
 21
-71.429
  0
LINE
  8
0
 10
162.128
 20
-71.429
 11
162.686
 21
-71.3406
  0
LINE
  8
0
 10
162.686
 20
-71.3406
 11
163.238
 21
-71.2172
  0
LINE
  8
0
 10
163.238
 20
-71.2172
 11
163.781
 21
-71.0595
  0
LINE
  8
0
 10
163.781
 20
-71.0595
 11
164.313
 21
-70.868
  0
LINE
  8
0
 10
164.313
 20
-70.868
 11
164.832
 21
-70.6434
  0
LINE
  8
0
 10
164.832
 20
-70.6434
 11
165.336
 21
-70.3867
  0
LINE
  8
0
 10
165.336
 20
-70.3867
 11
165.822
 21
-70.099
  0
LINE
  8
0
 10
165.822
 20
-70.099
 11
166.29
 21
-69.7811
  0
LINE
  8
0
 10
166.29
 20
-69.7811
 11
166.737
 21
-69.4346
  0
LINE
  8
0
 10
166.737
 20
-69.4346
 11
167.161
 21
-69.0607
  0
LINE
  8
0
 10
167.161
 20
-69.0607
 11
167.561
 21
-68.6609
  0
LINE
  8
0
 10
167.561
 20
-68.6609
 11
167.935
 21
-68.2368
  0
LINE
  8
0
 10
167.935
 20
-68.2368
 11
168.281
 21
-67.7901
  0
LINE
  8
0
 10
168.281
 20
-67.7901
 11
168.599
 21
-67.3224
  0
LINE
  8
0
 10
168.599
 20
-67.3224
 11
168.887
 21
-66.8358
  0
LINE
  8
0
 10
168.887
 20
-66.8358
 11
169.143
 21
-66.332
  0
LINE
  8
0
 10
169.143
 20
-66.332
 11
169.368
 21
-65.8131
  0
LINE
  8
0
 10
169.368
 20
-65.8131
 11
169.56
 21
-65.2811
  0
LINE
  8
0
 10
169.56
 20
-65.2811
 11
169.717
 21
-64.7382
  0
LINE
  8
0
 10
169.717
 20
-64.7382
 11
169.841
 21
-64.1864
  0
LINE
  8
0
 10
169.841
 20
-64.1864
 11
169.929
 21
-63.628
  0
LINE
  8
0
 10
169.929
 20
-63.628
 11
169.982
 21
-63.0651
  0
LINE
  8
0
 10
169.982
 20
-63.0651
 11
170
 21
-62.5
  0
LINE
  8
0
 10
170
 20
-62.5
 11
170
 21
62.5
  0
LINE
  8
0
 10
170
 20
62.5
 11
169.982
 21
63.0651
  0
LINE
  8
0
 10
169.982
 20
63.0651
 11
169.929
 21
63.628
  0
LINE
  8
0
 10
169.929
 20
63.628
 11
169.841
 21
64.1864
  0
LINE
  8
0
 10
169.841
 20
64.1864
 11
169.717
 21
64.7382
  0
LINE
  8
0
 10
169.717
 20
64.7382
 11
169.56
 21
65.2811
  0
LINE
  8
0
 10
169.56
 20
65.2811
 11
169.368
 21
65.8131
  0
LINE
  8
0
 10
169.368
 20
65.8131
 11
169.143
 21
66.332
  0
LINE
  8
0
 10
169.143
 20
66.332
 11
168.887
 21
66.8358
  0
LINE
  8
0
 10
168.887
 20
66.8358
 11
168.599
 21
67.3224
  0
LINE
  8
0
 10
168.599
 20
67.3224
 11
168.281
 21
67.7901
  0
LINE
  8
0
 10
168.281
 20
67.7901
 11
167.935
 21
68.2368
  0
LINE
  8
0
 10
167.935
 20
68.2368
 11
167.561
 21
68.6609
  0
LINE
  8
0
 10
167.561
 20
68.6609
 11
167.161
 21
69.0607
  0
LINE
  8
0
 10
167.161
 20
69.0607
 11
166.737
 21
69.4346
  0
LINE
  8
0
 10
166.737
 20
69.4346
 11
166.29
 21
69.7811
  0
LINE
  8
0
 10
166.29
 20
69.7811
 11
165.822
 21
70.099
  0
LINE
  8
0
 10
165.822
 20
70.099
 11
165.336
 21
70.3867
  0
LINE
  8
0
 10
165.336
 20
70.3867
 11
164.832
 21
70.6434
  0
LINE
  8
0
 10
164.832
 20
70.6434
 11
164.313
 21
70.868
  0
LINE
  8
0
 10
164.313
 20
70.868
 11
163.781
 21
71.0595
  0
LINE
  8
0
 10
163.781
 20
71.0595
 11
163.238
 21
71.2172
  0
LINE
  8
0
 10
163.238
 20
71.2172
 11
162.686
 21
71.3406
  0
LINE
  8
0
 10
162.686
 20
71.3406
 11
162.128
 21
71.429
  0
LINE
  8
0
 10
162.128
 20
71.429
 11
161.565
 21
71.4822
  0
LINE
  8
0
 10
161.565
 20
71.4822
 11
161
 21
71.5
  0
LINE
  8
0
 10
161
 20
71.5
 11
125
 21
71.5
  0
LINE
  8
0
 10
125
 20
71.5
 11
125
 21
125
  0
LINE
  8
0
 10
125
 20
125
 11
98
 21
125
  0
LINE
  8
0
 10
98
 20
125
 11
98
 21
161
  0
LINE
  8
0
 10
98
 20
161
 11
97.9822
 21
161.565
  0
LINE
  8
0
 10
97.9822
 20
161.565
 11
97.929
 21
162.128
  0
LINE
  8
0
 10
97.929
 20
162.128
 11
97.8406
 21
162.686
  0
LINE
  8
0
 10
97.8406
 20
162.686
 11
97.7172
 21
163.238
  0
LINE
  8
0
 10
97.7172
 20
163.238
 11
97.5595
 21
163.781
  0
LINE
  8
0
 10
97.5595
 20
163.781
 11
97.368
 21
164.313
  0
LINE
  8
0
 10
97.368
 20
164.313
 11
97.1434
 21
164.832
  0
LINE
  8
0
 10
97.1434
 20
164.832
 11
96.8867
 21
165.336
  0
LINE
  8
0
 10
96.8867
 20
165.336
 11
96.599
 21
165.822
  0
LINE
  8
0
 10
96.599
 20
165.822
 11
96.2811
 21
166.29
  0
LINE
  8
0
 10
96.2811
 20
166.29
 11
95.9346
 21
166.737
  0
LINE
  8
0
 10
95.9346
 20
166.737
 11
95.5607
 21
167.161
  0
LINE
  8
0
 10
95.5607
 20
167.161
 11
95.1609
 21
167.561
  0
LINE
  8
0
 10
95.1609
 20
167.561
 11
94.7368
 21
167.935
  0
LINE
  8
0
 10
94.7368
 20
167.935
 11
94.2901
 21
168.281
  0
LINE
  8
0
 10
94.2901
 20
168.281
 11
93.8224
 21
168.599
  0
LINE
  8
0
 10
93.8224
 20
168.599
 11
93.3358
 21
168.887
  0
LINE
  8
0
 10
93.3358
 20
168.887
 11
92.832
 21
169.143
  0
LINE
  8
0
 10
92.832
 20
169.143
 11
92.3131
 21
169.368
  0
LINE
  8
0
 10
92.3131
 20
169.368
 11
91.7811
 21
169.56
  0
LINE
  8
0
 10
91.7811
 20
169.56
 11
91.2382
 21
169.717
  0
LINE
  8
0
 10
91.2382
 20
169.717
 11
90.6864
 21
169.841
  0
LINE
  8
0
 10
90.6864
 20
169.841
 11
90.128
 21
169.929
  0
LINE
  8
0
 10
90.128
 20
169.929
 11
89.5651
 21
169.982
  0
LINE
  8
0
 10
89.5651
 20
169.982
 11
89
 21
170
  0
LINE
  8
0
 10
89
 20
170
 11
-89
 21
170
  0
LINE
  8
0
 10
-89
 20
170
 11
-89.5651
 21
169.982
  0
LINE
  8
0
 10
-89.5651
 20
169.982
 11
-90.128
 21
169.929
  0
LINE
  8
0
 10
-90.128
 20
169.929
 11
-90.6864
 21
169.841
  0
LINE
  8
0
 10
-90.6864
 20
169.841
 11
-91.2382
 21
169.717
  0
LINE
  8
0
 10
-91.2382
 20
169.717
 11
-91.7811
 21
169.56
  0
LINE
  8
0
 10
-91.7811
 20
169.56
 11
-92.3131
 21
169.368
  0
LINE
  8
0
 10
-92.3131
 20
169.368
 11
-92.832
 21
169.143
  0
LINE
  8
0
 10
-92.832
 20
169.143
 11
-93.3358
 21
168.887
  0
LINE
  8
0
 10
-93.3358
 20
168.887
 11
-93.8224
 21
168.599
  0
LINE
  8
0
 10
-93.8224
 20
168.599
 11
-94.2901
 21
168.281
  0
LINE
  8
0
 10
-94.2901
 20
168.281
 11
-94.7368
 21
167.935
  0
LINE
  8
0
 10
-94.7368
 20
167.935
 11
-95.1609
 21
167.561
  0
LINE
  8
0
 10
-95.1609
 20
167.561
 11
-95.5607
 21
167.161
  0
LINE
  8
0
 10
-95.5607
 20
167.161
 11
-95.9346
 21
166.737
  0
LINE
  8
0
 10
-95.9346
 20
166.737
 11
-96.2811
 21
166.29
  0
LINE
  8
0
 10
-96.2811
 20
166.29
 11
-96.599
 21
165.822
  0
LINE
  8
0
 10
-96.599
 20
165.822
 11
-96.8867
 21
165.336
  0
LINE
  8
0
 10
-96.8867
 20
165.336
 11
-97.1434
 21
164.832
  0
LINE
  8
0
 10
-97.1434
 20
164.832
 11
-97.368
 21
164.313
  0
LINE
  8
0
 10
-97.368
 20
164.313
 11
-97.5595
 21
163.781
  0
LINE
  8
0
 10
-97.5595
 20
163.781
 11
-97.7172
 21
163.238
  0
LINE
  8
0
 10
-97.7172
 20
163.238
 11
-97.8406
 21
162.686
  0
LINE
  8
0
 10
-97.8406
 20
162.686
 11
-97.929
 21
162.128
  0
LINE
  8
0
 10
-97.929
 20
162.128
 11
-97.9822
 21
161.565
  0
LINE
  8
0
 10
-97.9822
 20
161.565
 11
-98
 21
161
  0
LINE
  8
0
 10
-98
 20
161
 11
-98
 21
125
  0
LINE
  8
0
 10
-98
 20
125
 11
-125
 21
125
  0
LINE
  8
0
 10
-125
 20
125
 11
-125
 21
71.5
  0
LINE
  8
0
 10
-125
 20
71.5
 11
-161
 21
71.5
  0
LINE
  8
0
 10
-161
 20
71.5
 11
-161.565
 21
71.4822
  0
LINE
  8
0
 10
-161.565
 20
71.4822
 11
-162.128
 21
71.429
  0
LINE
  8
0
 10
-162.128
 20
71.429
 11
-162.686
 21
71.3406
  0
LINE
  8
0
 10
-162.686
 20
71.3406
 11
-163.238
 21
71.2172
  0
LINE
  8
0
 10
-163.238
 20
71.2172
 11
-163.781
 21
71.0595
  0
LINE
  8
0
 10
-163.781
 20
71.0595
 11
-164.313
 21
70.868
  0
LINE
  8
0
 10
-164.313
 20
70.868
 11
-164.832
 21
70.6434
  0
LINE
  8
0
 10
-164.832
 20
70.6434
 11
-165.336
 21
70.3867
  0
LINE
  8
0
 10
-165.336
 20
70.3867
 11
-165.822
 21
70.099
  0
LINE
  8
0
 10
-165.822
 20
70.099
 11
-166.29
 21
69.7811
  0
LINE
  8
0
 10
-166.29
 20
69.7811
 11
-166.737
 21
69.4346
  0
LINE
  8
0
 10
-166.737
 20
69.4346
 11
-167.161
 21
69.0607
  0
LINE
  8
0
 10
-167.161
 20
69.0607
 11
-167.561
 21
68.6609
  0
LINE
  8
0
 10
-167.561
 20
68.6609
 11
-167.935
 21
68.2368
  0
LINE
  8
0
 10
-167.935
 20
68.2368
 11
-168.281
 21
67.7901
  0
LINE
  8
0
 10
-168.281
 20
67.7901
 11
-168.599
 21
67.3224
  0
LINE
  8
0
 10
-168.599
 20
67.3224
 11
-168.887
 21
66.8358
  0
LINE
  8
0
 10
-168.887
 20
66.8358
 11
-169.143
 21
66.332
  0
LINE
  8
0
 10
-169.143
 20
66.332
 11
-169.368
 21
65.8131
  0
LINE
  8
0
 10
-169.368
 20
65.8131
 11
-169.56
 21
65.2811
  0
LINE
  8
0
 10
-169.56
 20
65.2811
 11
-169.717
 21
64.7382
  0
LINE
  8
0
 10
-169.717
 20
64.7382
 11
-169.841
 21
64.1864
  0
LINE
  8
0
 10
-169.841
 20
64.1864
 11
-169.929
 21
63.628
  0
LINE
  8
0
 10
-169.929
 20
63.628
 11
-169.982
 21
63.0651
  0
LINE
  8
0
 10
-169.982
 20
63.0651
 11
-170
 21
62.5
  0
LINE
  8
0
 10
-170
 20
62.5
 11
-170
 21
-62.5
  0
LINE
  8
0
 10
-170
 20
-62.5
 11
-169.982
 21
-63.0651
  0
LINE
  8
0
 10
-169.982
 20
-63.0651
 11
-169.929
 21
-63.628
  0
LINE
  8
0
 10
-169.929
 20
-63.628
 11
-169.841
 21
-64.1864
  0
LINE
  8
0
 10
-169.841
 20
-64.1864
 11
-169.717
 21
-64.7382
  0
LINE
  8
0
 10
-169.717
 20
-64.7382
 11
-169.56
 21
-65.2811
  0
LINE
  8
0
 10
-169.56
 20
-65.2811
 11
-169.368
 21
-65.8131
  0
LINE
  8
0
 10
-169.368
 20
-65.8131
 11
-169.143
 21
-66.332
  0
LINE
  8
0
 10
-169.143
 20
-66.332
 11
-168.887
 21
-66.8358
  0
LINE
  8
0
 10
-168.887
 20
-66.8358
 11
-168.599
 21
-67.3224
  0
LINE
  8
0
 10
-168.599
 20
-67.3224
 11
-168.281
 21
-67.7901
  0
LINE
  8
0
 10
-168.281
 20
-67.7901
 11
-167.935
 21
-68.2368
  0
LINE
  8
0
 10
-167.935
 20
-68.2368
 11
-167.561
 21
-68.6609
  0
LINE
  8
0
 10
-167.561
 20
-68.6609
 11
-167.161
 21
-69.0607
  0
LINE
  8
0
 10
-167.161
 20
-69.0607
 11
-166.737
 21
-69.4346
  0
LINE
  8
0
 10
-166.737
 20
-69.4346
 11
-166.29
 21
-69.7811
  0
LINE
  8
0
 10
-166.29
 20
-69.7811
 11
-165.822
 21
-70.099
  0
LINE
  8
0
 10
-165.822
 20
-70.099
 11
-165.336
 21
-70.3867
  0
LINE
  8
0
 10
-165.336
 20
-70.3867
 11
-164.832
 21
-70.6434
  0
LINE
  8
0
 10
-164.832
 20
-70.6434
 11
-164.313
 21
-70.868
  0
LINE
  8
0
 10
-164.313
 20
-70.868
 11
-163.781
 21
-71.0595
  0
LINE
  8
0
 10
-163.781
 20
-71.0595
 11
-163.238
 21
-71.2172
  0
LINE
  8
0
 10
-163.238
 20
-71.2172
 11
-162.686
 21
-71.3406
  0
LINE
  8
0
 10
-162.686
 20
-71.3406
 11
-162.128
 21
-71.429
  0
LINE
  8
0
 10
-162.128
 20
-71.429
 11
-161.565
 21
-71.4822
  0
LINE
  8
0
 10
-161.565
 20
-71.4822
 11
-161
 21
-71.5
  0
LINE
  8
0
 10
-161
 20
-71.5
 11
-125
 21
-71.5
  0
LINE
  8
0
 10
-125
 20
-71.5
 11
-125
 21
-125
  0
LINE
  8
0
 10
-125
 20
-125
 11
-98
 21
-125
  0
LINE
  8
0
 10
-98
 20
-125
 11
-98
 21
-305
  0
LINE
  8
0
 10
-98
 20
-305
 11
-97.9822
 21
-305.565
  0
LINE
  8
0
 10
-97.9822
 20
-305.565
 11
-97.929
 21
-306.128
  0
LINE
  8
0
 10
-97.929
 20
-306.128
 11
-97.8406
 21
-306.686
  0
LINE
  8
0
 10
-97.8406
 20
-306.686
 11
-97.7172
 21
-307.238
  0
LINE
  8
0
 10
-97.7172
 20
-307.238
 11
-97.5595
 21
-307.781
  0
LINE
  8
0
 10
-97.5595
 20
-307.781
 11
-97.368
 21
-308.313
  0
LINE
  8
0
 10
-97.368
 20
-308.313
 11
-97.1434
 21
-308.832
  0
LINE
  8
0
 10
-97.1434
 20
-308.832
 11
-96.8867
 21
-309.336
  0
LINE
  8
0
 10
-96.8867
 20
-309.336
 11
-96.599
 21
-309.822
  0
LINE
  8
0
 10
-96.599
 20
-309.822
 11
-96.2811
 21
-310.29
  0
LINE
  8
0
 10
-96.2811
 20
-310.29
 11
-95.9346
 21
-310.737
  0
LINE
  8
0
 10
-95.9346
 20
-310.737
 11
-95.5607
 21
-311.161
  0
LINE
  8
0
 10
-95.5607
 20
-311.161
 11
-95.1609
 21
-311.561
  0
LINE
  8
0
 10
-95.1609
 20
-311.561
 11
-94.7368
 21
-311.935
  0
LINE
  8
0
 10
-94.7368
 20
-311.935
 11
-94.2901
 21
-312.281
  0
LINE
  8
0
 10
-94.2901
 20
-312.281
 11
-93.8224
 21
-312.599
  0
LINE
  8
0
 10
-93.8224
 20
-312.599
 11
-93.3358
 21
-312.887
  0
LINE
  8
0
 10
-93.3358
 20
-312.887
 11
-92.832
 21
-313.143
  0
LINE
  8
0
 10
-92.832
 20
-313.143
 11
-92.3131
 21
-313.368
  0
LINE
  8
0
 10
-92.3131
 20
-313.368
 11
-91.7811
 21
-313.56
  0
LINE
  8
0
 10
-91.7811
 20
-313.56
 11
-91.2382
 21
-313.717
  0
LINE
  8
0
 10
-91.2382
 20
-313.717
 11
-90.6864
 21
-313.841
  0
LINE
  8
0
 10
-90.6864
 20
-313.841
 11
-90.128
 21
-313.929
  0
LINE
  8
0
 10
-90.128
 20
-313.929
 11
-89.5651
 21
-313.982
  0
LINE
  8
0
 10
-89.5651
 20
-313.982
 11
-89
 21
-314
  0
LINE
  8
0
 10
-89
 20
-314
 11
89
 21
-314
  0
LINE
  8
0
 10
89
 20
-314
 11
89.5651
 21
-313.982
  0
LINE
  8
0
 10
54.3195
 20
143.196
 11
53.2044
 21
143.764
  0
LINE
  8
0
 10
53.2044
 20
143.764
 11
52.3195
 21
144.649
  0
LINE
  8
0
 10
52.3195
 20
144.649
 11
51.7513
 21
145.764
  0
LINE
  8
0
 10
51.7513
 20
145.764
 11
51.5556
 21
147
  0
LINE
  8
0
 10
51.5556
 20
147
 11
51.7513
 21
148.236
  0
LINE
  8
0
 10
51.7513
 20
148.236
 11
52.3195
 21
149.351
  0
LINE
  8
0
 10
52.3195
 20
149.351
 11
53.2044
 21
150.236
  0
LINE
  8
0
 10
53.2044
 20
150.236
 11
54.3195
 21
150.804
  0
LINE
  8
0
 10
54.3195
 20
150.804
 11
55.5556
 21
151
  0
LINE
  8
0
 10
55.5556
 20
151
 11
56.7916
 21
150.804
  0
LINE
  8
0
 10
56.7916
 20
150.804
 11
57.9067
 21
150.236
  0
LINE
  8
0
 10
57.9067
 20
150.236
 11
58.7916
 21
149.351
  0
LINE
  8
0
 10
58.7916
 20
149.351
 11
59.3598
 21
148.236
  0
LINE
  8
0
 10
59.3598
 20
148.236
 11
59.5556
 21
147
  0
LINE
  8
0
 10
59.5556
 20
147
 11
59.3598
 21
145.764
  0
LINE
  8
0
 10
59.3598
 20
145.764
 11
58.7916
 21
144.649
  0
LINE
  8
0
 10
58.7916
 20
144.649
 11
57.9067
 21
143.764
  0
LINE
  8
0
 10
57.9067
 20
143.764
 11
56.7916
 21
143.196
  0
LINE
  8
0
 10
56.7916
 20
143.196
 11
55.5556
 21
143
  0
LINE
  8
0
 10
55.5556
 20
143
 11
54.3195
 21
143.196
  0
LINE
  8
0
 10
-56.7916
 20
143.196
 11
-57.9067
 21
143.764
  0
LINE
  8
0
 10
-57.9067
 20
143.764
 11
-58.7916
 21
144.649
  0
LINE
  8
0
 10
-58.7916
 20
144.649
 11
-59.3598
 21
145.764
  0
LINE
  8
0
 10
-59.3598
 20
145.764
 11
-59.5556
 21
147
  0
LINE
  8
0
 10
-59.5556
 20
147
 11
-59.3598
 21
148.236
  0
LINE
  8
0
 10
-59.3598
 20
148.236
 11
-58.7916
 21
149.351
  0
LINE
  8
0
 10
-58.7916
 20
149.351
 11
-57.9067
 21
150.236
  0
LINE
  8
0
 10
-57.9067
 20
150.236
 11
-56.7916
 21
150.804
  0
LINE
  8
0
 10
-56.7916
 20
150.804
 11
-55.5556
 21
151
  0
LINE
  8
0
 10
-55.5556
 20
151
 11
-54.3195
 21
150.804
  0
LINE
  8
0
 10
-54.3195
 20
150.804
 11
-53.2044
 21
150.236
  0
LINE
  8
0
 10
-53.2044
 20
150.236
 11
-52.3195
 21
149.351
  0
LINE
  8
0
 10
-52.3195
 20
149.351
 11
-51.7513
 21
148.236
  0
LINE
  8
0
 10
-51.7513
 20
148.236
 11
-51.5556
 21
147
  0
LINE
  8
0
 10
-51.5556
 20
147
 11
-51.7513
 21
145.764
  0
LINE
  8
0
 10
-51.7513
 20
145.764
 11
-52.3195
 21
144.649
  0
LINE
  8
0
 10
-52.3195
 20
144.649
 11
-53.2044
 21
143.764
  0
LINE
  8
0
 10
-53.2044
 20
143.764
 11
-54.3195
 21
143.196
  0
LINE
  8
0
 10
-54.3195
 20
143.196
 11
-55.5556
 21
143
  0
LINE
  8
0
 10
-55.5556
 20
143
 11
-56.7916
 21
143.196
  0
LINE
  8
0
 10
-1.23605
 20
143.196
 11
-2.35114
 21
143.764
  0
LINE
  8
0
 10
-2.35114
 20
143.764
 11
-3.23605
 21
144.649
  0
LINE
  8
0
 10
-3.23605
 20
144.649
 11
-3.80421
 21
145.764
  0
LINE
  8
0
 10
-3.80421
 20
145.764
 11
-4
 21
147
  0
LINE
  8
0
 10
-4
 20
147
 11
-3.80421
 21
148.236
  0
LINE
  8
0
 10
-3.80421
 20
148.236
 11
-3.23605
 21
149.351
  0
LINE
  8
0
 10
-3.23605
 20
149.351
 11
-2.35114
 21
150.236
  0
LINE
  8
0
 10
-2.35114
 20
150.236
 11
-1.23605
 21
150.804
  0
LINE
  8
0
 10
-1.23605
 20
150.804
 11
0
 21
151
  0
LINE
  8
0
 10
0
 20
151
 11
1.23605
 21
150.804
  0
LINE
  8
0
 10
1.23605
 20
150.804
 11
2.35114
 21
150.236
  0
LINE
  8
0
 10
2.35114
 20
150.236
 11
3.23605
 21
149.351
  0
LINE
  8
0
 10
3.23605
 20
149.351
 11
3.80421
 21
148.236
  0
LINE
  8
0
 10
3.80421
 20
148.236
 11
4
 21
147
  0
LINE
  8
0
 10
4
 20
147
 11
3.80421
 21
145.764
  0
LINE
  8
0
 10
3.80421
 20
145.764
 11
3.23605
 21
144.649
  0
LINE
  8
0
 10
3.23605
 20
144.649
 11
2.35114
 21
143.764
  0
LINE
  8
0
 10
2.35114
 20
143.764
 11
1.23605
 21
143.196
  0
LINE
  8
0
 10
1.23605
 20
143.196
 11
0
 21
143
  0
LINE
  8
0
 10
0
 20
143
 11
-1.23605
 21
143.196
  0
LINE
  8
0
 10
-148.236
 20
51.7513
 11
-149.351
 21
52.3195
  0
LINE
  8
0
 10
-149.351
 20
52.3195
 11
-150.236
 21
53.2044
  0
LINE
  8
0
 10
-150.236
 20
53.2044
 11
-150.804
 21
54.3195
  0
LINE
  8
0
 10
-150.804
 20
54.3195
 11
-151
 21
55.5556
  0
LINE
  8
0
 10
-151
 20
55.5556
 11
-150.804
 21
56.7916
  0
LINE
  8
0
 10
-150.804
 20
56.7916
 11
-150.236
 21
57.9067
  0
LINE
  8
0
 10
-150.236
 20
57.9067
 11
-149.351
 21
58.7916
  0
LINE
  8
0
 10
-149.351
 20
58.7916
 11
-148.236
 21
59.3598
  0
LINE
  8
0
 10
-148.236
 20
59.3598
 11
-147
 21
59.5556
  0
LINE
  8
0
 10
-147
 20
59.5556
 11
-145.764
 21
59.3598
  0
LINE
  8
0
 10
-145.764
 20
59.3598
 11
-144.649
 21
58.7916
  0
LINE
  8
0
 10
-144.649
 20
58.7916
 11
-143.764
 21
57.9067
  0
LINE
  8
0
 10
-143.764
 20
57.9067
 11
-143.196
 21
56.7916
  0
LINE
  8
0
 10
-143.196
 20
56.7916
 11
-143
 21
55.5556
  0
LINE
  8
0
 10
-143
 20
55.5556
 11
-143.196
 21
54.3195
  0
LINE
  8
0
 10
-143.196
 20
54.3195
 11
-143.764
 21
53.2044
  0
LINE
  8
0
 10
-143.764
 20
53.2044
 11
-144.649
 21
52.3195
  0
LINE
  8
0
 10
-144.649
 20
52.3195
 11
-145.764
 21
51.7513
  0
LINE
  8
0
 10
-145.764
 20
51.7513
 11
-147
 21
51.5556
  0
LINE
  8
0
 10
-147
 20
51.5556
 11
-148.236
 21
51.7513
  0
LINE
  8
0
 10
145.764
 20
51.7513
 11
144.649
 21
52.3195
  0
LINE
  8
0
 10
144.649
 20
52.3195
 11
143.764
 21
53.2044
  0
LINE
  8
0
 10
143.764
 20
53.2044
 11
143.196
 21
54.3195
  0
LINE
  8
0
 10
143.196
 20
54.3195
 11
143
 21
55.5555
  0
LINE
  8
0
 10
143
 20
55.5555
 11
143.196
 21
56.7916
  0
LINE
  8
0
 10
143.196
 20
56.7916
 11
143.764
 21
57.9067
  0
LINE
  8
0
 10
143.764
 20
57.9067
 11
144.649
 21
58.7916
  0
LINE
  8
0
 10
144.649
 20
58.7916
 11
145.764
 21
59.3598
  0
LINE
  8
0
 10
145.764
 20
59.3598
 11
147
 21
59.5555
  0
LINE
  8
0
 10
147
 20
59.5555
 11
148.236
 21
59.3598
  0
LINE
  8
0
 10
148.236
 20
59.3598
 11
149.351
 21
58.7916
  0
LINE
  8
0
 10
149.351
 20
58.7916
 11
150.236
 21
57.9067
  0
LINE
  8
0
 10
150.236
 20
57.9067
 11
150.804
 21
56.7916
  0
LINE
  8
0
 10
150.804
 20
56.7916
 11
151
 21
55.5555
  0
LINE
  8
0
 10
151
 20
55.5555
 11
150.804
 21
54.3195
  0
LINE
  8
0
 10
150.804
 20
54.3195
 11
150.236
 21
53.2044
  0
LINE
  8
0
 10
150.236
 20
53.2044
 11
149.351
 21
52.3195
  0
LINE
  8
0
 10
149.351
 20
52.3195
 11
148.236
 21
51.7513
  0
LINE
  8
0
 10
148.236
 20
51.7513
 11
147
 21
51.5555
  0
LINE
  8
0
 10
147
 20
51.5555
 11
145.764
 21
51.7513
  0
LINE
  8
0
 10
-148.236
 20
-3.80421
 11
-149.351
 21
-3.23605
  0
LINE
  8
0
 10
-149.351
 20
-3.23605
 11
-150.236
 21
-2.35114
  0
LINE
  8
0
 10
-150.236
 20
-2.35114
 11
-150.804
 21
-1.23605
  0
LINE
  8
0
 10
-150.804
 20
-1.23605
 11
-151
 21
0
  0
LINE
  8
0
 10
-151
 20
0
 11
-150.804
 21
1.23605
  0
LINE
  8
0
 10
-150.804
 20
1.23605
 11
-150.236
 21
2.35114
  0
LINE
  8
0
 10
-150.236
 20
2.35114
 11
-149.351
 21
3.23605
  0
LINE
  8
0
 10
-149.351
 20
3.23605
 11
-148.236
 21
3.80421
  0
LINE
  8
0
 10
-148.236
 20
3.80421
 11
-147
 21
4
  0
LINE
  8
0
 10
-147
 20
4
 11
-145.764
 21
3.80421
  0
LINE
  8
0
 10
-145.764
 20
3.80421
 11
-144.649
 21
3.23605
  0
LINE
  8
0
 10
-144.649
 20
3.23605
 11
-143.764
 21
2.35114
  0
LINE
  8
0
 10
-143.764
 20
2.35114
 11
-143.196
 21
1.23605
  0
LINE
  8
0
 10
-143.196
 20
1.23605
 11
-143
 21
0
  0
LINE
  8
0
 10
-143
 20
0
 11
-143.196
 21
-1.23605
  0
LINE
  8
0
 10
-143.196
 20
-1.23605
 11
-143.764
 21
-2.35114
  0
LINE
  8
0
 10
-143.764
 20
-2.35114
 11
-144.649
 21
-3.23605
  0
LINE
  8
0
 10
-144.649
 20
-3.23605
 11
-145.764
 21
-3.80421
  0
LINE
  8
0
 10
-145.764
 20
-3.80421
 11
-147
 21
-4
  0
LINE
  8
0
 10
-147
 20
-4
 11
-148.236
 21
-3.80421
  0
LINE
  8
0
 10
145.764
 20
-3.80421
 11
144.649
 21
-3.23605
  0
LINE
  8
0
 10
144.649
 20
-3.23605
 11
143.764
 21
-2.35114
  0
LINE
  8
0
 10
143.764
 20
-2.35114
 11
143.196
 21
-1.23605
  0
LINE
  8
0
 10
143.196
 20
-1.23605
 11
143
 21
0
  0
LINE
  8
0
 10
143
 20
0
 11
143.196
 21
1.23605
  0
LINE
  8
0
 10
143.196
 20
1.23605
 11
143.764
 21
2.35114
  0
LINE
  8
0
 10
143.764
 20
2.35114
 11
144.649
 21
3.23605
  0
LINE
  8
0
 10
144.649
 20
3.23605
 11
145.764
 21
3.80421
  0
LINE
  8
0
 10
145.764
 20
3.80421
 11
147
 21
4
  0
LINE
  8
0
 10
147
 20
4
 11
148.236
 21
3.80421
  0
LINE
  8
0
 10
148.236
 20
3.80421
 11
149.351
 21
3.23605
  0
LINE
  8
0
 10
149.351
 20
3.23605
 11
150.236
 21
2.35114
  0
LINE
  8
0
 10
150.236
 20
2.35114
 11
150.804
 21
1.23605
  0
LINE
  8
0
 10
150.804
 20
1.23605
 11
151
 21
0
  0
LINE
  8
0
 10
151
 20
0
 11
150.804
 21
-1.23605
  0
LINE
  8
0
 10
150.804
 20
-1.23605
 11
150.236
 21
-2.35114
  0
LINE
  8
0
 10
150.236
 20
-2.35114
 11
149.351
 21
-3.23605
  0
LINE
  8
0
 10
149.351
 20
-3.23605
 11
148.236
 21
-3.80421
  0
LINE
  8
0
 10
148.236
 20
-3.80421
 11
147
 21
-4
  0
LINE
  8
0
 10
147
 20
-4
 11
145.764
 21
-3.80421
  0
LINE
  8
0
 10
-148.236
 20
-59.3598
 11
-149.351
 21
-58.7916
  0
LINE
  8
0
 10
-149.351
 20
-58.7916
 11
-150.236
 21
-57.9067
  0
LINE
  8
0
 10
-150.236
 20
-57.9067
 11
-150.804
 21
-56.7916
  0
LINE
  8
0
 10
-150.804
 20
-56.7916
 11
-151
 21
-55.5555
  0
LINE
  8
0
 10
-151
 20
-55.5555
 11
-150.804
 21
-54.3195
  0
LINE
  8
0
 10
-150.804
 20
-54.3195
 11
-150.236
 21
-53.2044
  0
LINE
  8
0
 10
-150.236
 20
-53.2044
 11
-149.351
 21
-52.3195
  0
LINE
  8
0
 10
-149.351
 20
-52.3195
 11
-148.236
 21
-51.7513
  0
LINE
  8
0
 10
-148.236
 20
-51.7513
 11
-147
 21
-51.5555
  0
LINE
  8
0
 10
-147
 20
-51.5555
 11
-145.764
 21
-51.7513
  0
LINE
  8
0
 10
-145.764
 20
-51.7513
 11
-144.649
 21
-52.3195
  0
LINE
  8
0
 10
-144.649
 20
-52.3195
 11
-143.764
 21
-53.2044
  0
LINE
  8
0
 10
-143.764
 20
-53.2044
 11
-143.196
 21
-54.3195
  0
LINE
  8
0
 10
-143.196
 20
-54.3195
 11
-143
 21
-55.5555
  0
LINE
  8
0
 10
-143
 20
-55.5555
 11
-143.196
 21
-56.7916
  0
LINE
  8
0
 10
-143.196
 20
-56.7916
 11
-143.764
 21
-57.9067
  0
LINE
  8
0
 10
-143.764
 20
-57.9067
 11
-144.649
 21
-58.7916
  0
LINE
  8
0
 10
-144.649
 20
-58.7916
 11
-145.764
 21
-59.3598
  0
LINE
  8
0
 10
-145.764
 20
-59.3598
 11
-147
 21
-59.5555
  0
LINE
  8
0
 10
-147
 20
-59.5555
 11
-148.236
 21
-59.3598
  0
LINE
  8
0
 10
145.764
 20
-59.3598
 11
144.649
 21
-58.7916
  0
LINE
  8
0
 10
144.649
 20
-58.7916
 11
143.764
 21
-57.9067
  0
LINE
  8
0
 10
143.764
 20
-57.9067
 11
143.196
 21
-56.7916
  0
LINE
  8
0
 10
143.196
 20
-56.7916
 11
143
 21
-55.5556
  0
LINE
  8
0
 10
143
 20
-55.5556
 11
143.196
 21
-54.3195
  0
LINE
  8
0
 10
143.196
 20
-54.3195
 11
143.764
 21
-53.2044
  0
LINE
  8
0
 10
143.764
 20
-53.2044
 11
144.649
 21
-52.3195
  0
LINE
  8
0
 10
144.649
 20
-52.3195
 11
145.764
 21
-51.7513
  0
LINE
  8
0
 10
145.764
 20
-51.7513
 11
147
 21
-51.5556
  0
LINE
  8
0
 10
147
 20
-51.5556
 11
148.236
 21
-51.7513
  0
LINE
  8
0
 10
148.236
 20
-51.7513
 11
149.351
 21
-52.3195
  0
LINE
  8
0
 10
149.351
 20
-52.3195
 11
150.236
 21
-53.2044
  0
LINE
  8
0
 10
150.236
 20
-53.2044
 11
150.804
 21
-54.3195
  0
LINE
  8
0
 10
150.804
 20
-54.3195
 11
151
 21
-55.5556
  0
LINE
  8
0
 10
151
 20
-55.5556
 11
150.804
 21
-56.7916
  0
LINE
  8
0
 10
150.804
 20
-56.7916
 11
150.236
 21
-57.9067
  0
LINE
  8
0
 10
150.236
 20
-57.9067
 11
149.351
 21
-58.7916
  0
LINE
  8
0
 10
149.351
 20
-58.7916
 11
148.236
 21
-59.3598
  0
LINE
  8
0
 10
148.236
 20
-59.3598
 11
147
 21
-59.5556
  0
LINE
  8
0
 10
147
 20
-59.5556
 11
145.764
 21
-59.3598
  0
LINE
  8
0
 10
-56.7916
 20
-150.804
 11
-57.9067
 21
-150.236
  0
LINE
  8
0
 10
-57.9067
 20
-150.236
 11
-58.7916
 21
-149.351
  0
LINE
  8
0
 10
-58.7916
 20
-149.351
 11
-59.3598
 21
-148.236
  0
LINE
  8
0
 10
-59.3598
 20
-148.236
 11
-59.5556
 21
-147
  0
LINE
  8
0
 10
-59.5556
 20
-147
 11
-59.3598
 21
-145.764
  0
LINE
  8
0
 10
-59.3598
 20
-145.764
 11
-58.7916
 21
-144.649
  0
LINE
  8
0
 10
-58.7916
 20
-144.649
 11
-57.9067
 21
-143.764
  0
LINE
  8
0
 10
-57.9067
 20
-143.764
 11
-56.7916
 21
-143.196
  0
LINE
  8
0
 10
-56.7916
 20
-143.196
 11
-55.5556
 21
-143
  0
LINE
  8
0
 10
-55.5556
 20
-143
 11
-54.3195
 21
-143.196
  0
LINE
  8
0
 10
-54.3195
 20
-143.196
 11
-53.2044
 21
-143.764
  0
LINE
  8
0
 10
-53.2044
 20
-143.764
 11
-52.3195
 21
-144.649
  0
LINE
  8
0
 10
-52.3195
 20
-144.649
 11
-51.7513
 21
-145.764
  0
LINE
  8
0
 10
-51.7513
 20
-145.764
 11
-51.5556
 21
-147
  0
LINE
  8
0
 10
-51.5556
 20
-147
 11
-51.7513
 21
-148.236
  0
LINE
  8
0
 10
-51.7513
 20
-148.236
 11
-52.3195
 21
-149.351
  0
LINE
  8
0
 10
-52.3195
 20
-149.351
 11
-53.2044
 21
-150.236
  0
LINE
  8
0
 10
-53.2044
 20
-150.236
 11
-54.3195
 21
-150.804
  0
LINE
  8
0
 10
-54.3195
 20
-150.804
 11
-55.5556
 21
-151
  0
LINE
  8
0
 10
-55.5556
 20
-151
 11
-56.7916
 21
-150.804
  0
LINE
  8
0
 10
54.3195
 20
-150.804
 11
53.2044
 21
-150.236
  0
LINE
  8
0
 10
53.2044
 20
-150.236
 11
52.3195
 21
-149.351
  0
LINE
  8
0
 10
52.3195
 20
-149.351
 11
51.7513
 21
-148.236
  0
LINE
  8
0
 10
51.7513
 20
-148.236
 11
51.5555
 21
-147
  0
LINE
  8
0
 10
51.5555
 20
-147
 11
51.7513
 21
-145.764
  0
LINE
  8
0
 10
51.7513
 20
-145.764
 11
52.3195
 21
-144.649
  0
LINE
  8
0
 10
52.3195
 20
-144.649
 11
53.2044
 21
-143.764
  0
LINE
  8
0
 10
53.2044
 20
-143.764
 11
54.3195
 21
-143.196
  0
LINE
  8
0
 10
54.3195
 20
-143.196
 11
55.5555
 21
-143
  0
LINE
  8
0
 10
55.5555
 20
-143
 11
56.7916
 21
-143.196
  0
LINE
  8
0
 10
56.7916
 20
-143.196
 11
57.9067
 21
-143.764
  0
LINE
  8
0
 10
57.9067
 20
-143.764
 11
58.7916
 21
-144.649
  0
LINE
  8
0
 10
58.7916
 20
-144.649
 11
59.3598
 21
-145.764
  0
LINE
  8
0
 10
59.3598
 20
-145.764
 11
59.5555
 21
-147
  0
LINE
  8
0
 10
59.5555
 20
-147
 11
59.3598
 21
-148.236
  0
LINE
  8
0
 10
59.3598
 20
-148.236
 11
58.7916
 21
-149.351
  0
LINE
  8
0
 10
58.7916
 20
-149.351
 11
57.9067
 21
-150.236
  0
LINE
  8
0
 10
57.9067
 20
-150.236
 11
56.7916
 21
-150.804
  0
LINE
  8
0
 10
56.7916
 20
-150.804
 11
55.5555
 21
-151
  0
LINE
  8
0
 10
55.5555
 20
-151
 11
54.3195
 21
-150.804
  0
LINE
  8
0
 10
-1.23605
 20
-150.804
 11
-2.35114
 21
-150.236
  0
LINE
  8
0
 10
-2.35114
 20
-150.236
 11
-3.23605
 21
-149.351
  0
LINE
  8
0
 10
-3.23605
 20
-149.351
 11
-3.80421
 21
-148.236
  0
LINE
  8
0
 10
-3.80421
 20
-148.236
 11
-4
 21
-147
  0
LINE
  8
0
 10
-4
 20
-147
 11
-3.80421
 21
-145.764
  0
LINE
  8
0
 10
-3.80421
 20
-145.764
 11
-3.23605
 21
-144.649
  0
LINE
  8
0
 10
-3.23605
 20
-144.649
 11
-2.35114
 21
-143.764
  0
LINE
  8
0
 10
-2.35114
 20
-143.764
 11
-1.23605
 21
-143.196
  0
LINE
  8
0
 10
-1.23605
 20
-143.196
 11
0
 21
-143
  0
LINE
  8
0
 10
0
 20
-143
 11
1.23605
 21
-143.196
  0
LINE
  8
0
 10
1.23605
 20
-143.196
 11
2.35114
 21
-143.764
  0
LINE
  8
0
 10
2.35114
 20
-143.764
 11
3.23605
 21
-144.649
  0
LINE
  8
0
 10
3.23605
 20
-144.649
 11
3.80421
 21
-145.764
  0
LINE
  8
0
 10
3.80421
 20
-145.764
 11
4
 21
-147
  0
LINE
  8
0
 10
4
 20
-147
 11
3.80421
 21
-148.236
  0
LINE
  8
0
 10
3.80421
 20
-148.236
 11
3.23605
 21
-149.351
  0
LINE
  8
0
 10
3.23605
 20
-149.351
 11
2.35114
 21
-150.236
  0
LINE
  8
0
 10
2.35114
 20
-150.236
 11
1.23605
 21
-150.804
  0
LINE
  8
0
 10
1.23605
 20
-150.804
 11
0
 21
-151
  0
LINE
  8
0
 10
0
 20
-151
 11
-1.23605
 21
-150.804
  0
ENDSEC
  0
SECTION
  2
OBJECTS
  0
DICTIONARY
  0
ENDSEC
  0
EOF
