  0
SECTION
  2
BLOCKS
  0
ENDSEC
  0
SECTION
  2
ENTITIES
  0
LINE
  8
0
 10
143
 20
179
 11
-143
 21
179
  0
LINE
  8
0
 10
-143
 20
179
 11
-143
 21
-179
  0
LINE
  8
0
 10
-143
 20
-179
 11
143
 21
-179
  0
LINE
  8
0
 10
143
 20
-179
 11
143
 21
179
  0
LINE
  8
0
 10
-100.853
 20
126.073
 11
-100.963
 21
126.531
  0
LINE
  8
0
 10
-100.963
 20
126.531
 11
-101
 21
127
  0
LINE
  8
0
 10
-101
 20
127
 11
-101
 21
141
  0
LINE
  8
0
 10
-101
 20
141
 11
-100.963
 21
141.469
  0
LINE
  8
0
 10
-100.963
 20
141.469
 11
-100.853
 21
141.927
  0
LINE
  8
0
 10
-100.853
 20
141.927
 11
-100.673
 21
142.362
  0
LINE
  8
0
 10
-100.673
 20
142.362
 11
-100.427
 21
142.763
  0
LINE
  8
0
 10
-100.427
 20
142.763
 11
-100.121
 21
143.121
  0
LINE
  8
0
 10
-100.121
 20
143.121
 11
-99.7634
 21
143.427
  0
LINE
  8
0
 10
-99.7634
 20
143.427
 11
-99.362
 21
143.673
  0
LINE
  8
0
 10
-99.362
 20
143.673
 11
-98.927
 21
143.853
  0
LINE
  8
0
 10
-98.927
 20
143.853
 11
-98.4693
 21
143.963
  0
LINE
  8
0
 10
-98.4693
 20
143.963
 11
-98
 21
144
  0
LINE
  8
0
 10
-98
 20
144
 11
98
 21
144
  0
LINE
  8
0
 10
98
 20
144
 11
98.4693
 21
143.963
  0
LINE
  8
0
 10
98.4693
 20
143.963
 11
98.927
 21
143.853
  0
LINE
  8
0
 10
98.927
 20
143.853
 11
99.362
 21
143.673
  0
LINE
  8
0
 10
99.362
 20
143.673
 11
99.7634
 21
143.427
  0
LINE
  8
0
 10
99.7634
 20
143.427
 11
100.121
 21
143.121
  0
LINE
  8
0
 10
100.121
 20
143.121
 11
100.427
 21
142.763
  0
LINE
  8
0
 10
100.427
 20
142.763
 11
100.673
 21
142.362
  0
LINE
  8
0
 10
100.673
 20
142.362
 11
100.853
 21
141.927
  0
LINE
  8
0
 10
100.853
 20
141.927
 11
100.963
 21
141.469
  0
LINE
  8
0
 10
100.963
 20
141.469
 11
101
 21
141
  0
LINE
  8
0
 10
101
 20
141
 11
101
 21
127
  0
LINE
  8
0
 10
101
 20
127
 11
100.963
 21
126.531
  0
LINE
  8
0
 10
100.963
 20
126.531
 11
100.853
 21
126.073
  0
LINE
  8
0
 10
100.853
 20
126.073
 11
100.673
 21
125.638
  0
LINE
  8
0
 10
100.673
 20
125.638
 11
100.427
 21
125.237
  0
LINE
  8
0
 10
100.427
 20
125.237
 11
100.121
 21
124.879
  0
LINE
  8
0
 10
100.121
 20
124.879
 11
99.7634
 21
124.573
  0
LINE
  8
0
 10
99.7634
 20
124.573
 11
99.362
 21
124.327
  0
LINE
  8
0
 10
99.362
 20
124.327
 11
98.927
 21
124.147
  0
LINE
  8
0
 10
98.927
 20
124.147
 11
98.4693
 21
124.037
  0
LINE
  8
0
 10
98.4693
 20
124.037
 11
98
 21
124
  0
LINE
  8
0
 10
98
 20
124
 11
-98
 21
124
  0
LINE
  8
0
 10
-98
 20
124
 11
-98.4693
 21
124.037
  0
LINE
  8
0
 10
-98.4693
 20
124.037
 11
-98.927
 21
124.147
  0
LINE
  8
0
 10
-98.927
 20
124.147
 11
-99.362
 21
124.327
  0
LINE
  8
0
 10
-99.362
 20
124.327
 11
-99.7634
 21
124.573
  0
LINE
  8
0
 10
-99.7634
 20
124.573
 11
-100.121
 21
124.879
  0
LINE
  8
0
 10
-100.121
 20
124.879
 11
-100.427
 21
125.237
  0
LINE
  8
0
 10
-100.427
 20
125.237
 11
-100.673
 21
125.638
  0
LINE
  8
0
 10
-100.673
 20
125.638
 11
-100.853
 21
126.073
  0
LINE
  8
0
 10
0
 20
-9.99998
 11
-2.19766
 21
-9.93092
  0
LINE
  8
0
 10
-2.19766
 20
-9.93092
 11
-4.38666
 21
-9.72401
  0
LINE
  8
0
 10
-4.38666
 20
-9.72401
 11
-6.55833
 21
-9.38005
  0
LINE
  8
0
 10
-6.55833
 20
-9.38005
 11
-8.70413
 21
-8.90041
  0
LINE
  8
0
 10
-8.70413
 20
-8.90041
 11
-10.8156
 21
-8.28697
  0
LINE
  8
0
 10
-10.8156
 20
-8.28697
 11
-12.8844
 21
-7.54218
  0
LINE
  8
0
 10
-12.8844
 20
-7.54218
 11
-14.9023
 21
-6.66895
  0
LINE
  8
0
 10
-14.9023
 20
-6.66895
 11
-16.8614
 21
-5.67073
  0
LINE
  8
0
 10
-16.8614
 20
-5.67073
 11
-18.7539
 21
-4.55147
  0
LINE
  8
0
 10
-18.7539
 20
-4.55147
 11
-20.5725
 21
-3.31558
  0
LINE
  8
0
 10
-20.5725
 20
-3.31558
 11
-22.3098
 21
-1.96796
  0
LINE
  8
0
 10
-22.3098
 20
-1.96796
 11
-23.9591
 21
-0.513901
  0
LINE
  8
0
 10
-23.9591
 20
-0.513901
 11
-25.5139
 21
1.04085
  0
LINE
  8
0
 10
-25.5139
 20
1.04085
 11
-26.968
 21
2.69016
  0
LINE
  8
0
 10
-26.968
 20
2.69016
 11
-28.3156
 21
4.42751
  0
LINE
  8
0
 10
-28.3156
 20
4.42751
 11
-29.5515
 21
6.24605
  0
LINE
  8
0
 10
-29.5515
 20
6.24605
 11
-30.6707
 21
8.13861
  0
LINE
  8
0
 10
-30.6707
 20
8.13861
 11
-31.6689
 21
10.0977
  0
LINE
  8
0
 10
-31.6689
 20
10.0977
 11
-32.5422
 21
12.1156
  0
LINE
  8
0
 10
-32.5422
 20
12.1156
 11
-33.287
 21
14.1844
  0
LINE
  8
0
 10
-33.287
 20
14.1844
 11
-33.9004
 21
16.2959
  0
LINE
  8
0
 10
-33.9004
 20
16.2959
 11
-34.3801
 21
18.4417
  0
LINE
  8
0
 10
-34.3801
 20
18.4417
 11
-34.724
 21
20.6133
  0
LINE
  8
0
 10
-34.724
 20
20.6133
 11
-34.9309
 21
22.8023
  0
LINE
  8
0
 10
-34.9309
 20
22.8023
 11
-35
 21
25
  0
LINE
  8
0
 10
-35
 20
25
 11
-35
 21
60
  0
LINE
  8
0
 10
-35
 20
60
 11
35
 21
60
  0
LINE
  8
0
 10
35
 20
60
 11
35
 21
25
  0
LINE
  8
0
 10
35
 20
25
 11
34.9309
 21
22.8023
  0
LINE
  8
0
 10
34.9309
 20
22.8023
 11
34.724
 21
20.6133
  0
LINE
  8
0
 10
34.724
 20
20.6133
 11
34.3801
 21
18.4417
  0
LINE
  8
0
 10
34.3801
 20
18.4417
 11
33.9004
 21
16.2959
  0
LINE
  8
0
 10
33.9004
 20
16.2959
 11
33.287
 21
14.1844
  0
LINE
  8
0
 10
33.287
 20
14.1844
 11
32.5422
 21
12.1156
  0
LINE
  8
0
 10
32.5422
 20
12.1156
 11
31.6689
 21
10.0977
  0
LINE
  8
0
 10
31.6689
 20
10.0977
 11
30.6707
 21
8.13861
  0
LINE
  8
0
 10
30.6707
 20
8.13861
 11
29.5515
 21
6.24605
  0
LINE
  8
0
 10
29.5515
 20
6.24605
 11
28.3156
 21
4.42751
  0
LINE
  8
0
 10
28.3156
 20
4.42751
 11
26.968
 21
2.69016
  0
LINE
  8
0
 10
26.968
 20
2.69016
 11
25.5139
 21
1.04085
  0
LINE
  8
0
 10
25.5139
 20
1.04085
 11
23.9591
 21
-0.513901
  0
LINE
  8
0
 10
23.9591
 20
-0.513901
 11
22.3098
 21
-1.96796
  0
LINE
  8
0
 10
22.3098
 20
-1.96796
 11
20.5725
 21
-3.31558
  0
LINE
  8
0
 10
20.5725
 20
-3.31558
 11
18.7539
 21
-4.55147
  0
LINE
  8
0
 10
18.7539
 20
-4.55147
 11
16.8614
 21
-5.67073
  0
LINE
  8
0
 10
16.8614
 20
-5.67073
 11
14.9023
 21
-6.66895
  0
LINE
  8
0
 10
14.9023
 20
-6.66895
 11
12.8844
 21
-7.54218
  0
LINE
  8
0
 10
12.8844
 20
-7.54218
 11
10.8156
 21
-8.28697
  0
LINE
  8
0
 10
10.8156
 20
-8.28697
 11
8.70413
 21
-8.90041
  0
LINE
  8
0
 10
8.70413
 20
-8.90041
 11
6.55833
 21
-9.38005
  0
LINE
  8
0
 10
6.55833
 20
-9.38005
 11
4.38666
 21
-9.72401
  0
LINE
  8
0
 10
4.38666
 20
-9.72401
 11
2.19766
 21
-9.93092
  0
LINE
  8
0
 10
2.19766
 20
-9.93092
 11
0
 21
-9.99998
  0
LINE
  8
0
 10
-71.5
 20
-144
 11
-71.9693
 21
-143.963
  0
LINE
  8
0
 10
-71.9693
 20
-143.963
 11
-72.427
 21
-143.853
  0
LINE
  8
0
 10
-72.427
 20
-143.853
 11
-72.862
 21
-143.673
  0
LINE
  8
0
 10
-72.862
 20
-143.673
 11
-73.2634
 21
-143.427
  0
LINE
  8
0
 10
-73.2634
 20
-143.427
 11
-73.6213
 21
-143.121
  0
LINE
  8
0
 10
-73.6213
 20
-143.121
 11
-73.927
 21
-142.763
  0
LINE
  8
0
 10
-73.927
 20
-142.763
 11
-74.173
 21
-142.362
  0
LINE
  8
0
 10
-74.173
 20
-142.362
 11
-74.3532
 21
-141.927
  0
LINE
  8
0
 10
-74.3532
 20
-141.927
 11
-74.4631
 21
-141.469
  0
LINE
  8
0
 10
-74.4631
 20
-141.469
 11
-74.5
 21
-141
  0
LINE
  8
0
 10
-74.5
 20
-141
 11
-74.5
 21
-127
  0
LINE
  8
0
 10
-74.5
 20
-127
 11
-74.4631
 21
-126.531
  0
LINE
  8
0
 10
-74.4631
 20
-126.531
 11
-74.3532
 21
-126.073
  0
LINE
  8
0
 10
-74.3532
 20
-126.073
 11
-74.173
 21
-125.638
  0
LINE
  8
0
 10
-74.173
 20
-125.638
 11
-73.927
 21
-125.237
  0
LINE
  8
0
 10
-73.927
 20
-125.237
 11
-73.6213
 21
-124.879
  0
LINE
  8
0
 10
-73.6213
 20
-124.879
 11
-73.2634
 21
-124.573
  0
LINE
  8
0
 10
-73.2634
 20
-124.573
 11
-72.862
 21
-124.327
  0
LINE
  8
0
 10
-72.862
 20
-124.327
 11
-72.427
 21
-124.147
  0
LINE
  8
0
 10
-72.427
 20
-124.147
 11
-71.9693
 21
-124.037
  0
LINE
  8
0
 10
-71.9693
 20
-124.037
 11
-71.5
 21
-124
  0
LINE
  8
0
 10
-71.5
 20
-124
 11
71.5
 21
-124
  0
LINE
  8
0
 10
71.5
 20
-124
 11
71.9693
 21
-124.037
  0
LINE
  8
0
 10
71.9693
 20
-124.037
 11
72.427
 21
-124.147
  0
LINE
  8
0
 10
72.427
 20
-124.147
 11
72.862
 21
-124.327
  0
LINE
  8
0
 10
72.862
 20
-124.327
 11
73.2634
 21
-124.573
  0
LINE
  8
0
 10
73.2634
 20
-124.573
 11
73.6213
 21
-124.879
  0
LINE
  8
0
 10
73.6213
 20
-124.879
 11
73.927
 21
-125.237
  0
LINE
  8
0
 10
73.927
 20
-125.237
 11
74.173
 21
-125.638
  0
LINE
  8
0
 10
74.173
 20
-125.638
 11
74.3532
 21
-126.073
  0
LINE
  8
0
 10
74.3532
 20
-126.073
 11
74.4631
 21
-126.531
  0
LINE
  8
0
 10
74.4631
 20
-126.531
 11
74.5
 21
-127
  0
LINE
  8
0
 10
74.5
 20
-127
 11
74.5
 21
-141
  0
LINE
  8
0
 10
74.5
 20
-141
 11
74.4631
 21
-141.469
  0
LINE
  8
0
 10
74.4631
 20
-141.469
 11
74.3532
 21
-141.927
  0
LINE
  8
0
 10
74.3532
 20
-141.927
 11
74.173
 21
-142.362
  0
LINE
  8
0
 10
74.173
 20
-142.362
 11
73.927
 21
-142.763
  0
LINE
  8
0
 10
73.927
 20
-142.763
 11
73.6213
 21
-143.121
  0
LINE
  8
0
 10
73.6213
 20
-143.121
 11
73.2634
 21
-143.427
  0
LINE
  8
0
 10
73.2634
 20
-143.427
 11
72.862
 21
-143.673
  0
LINE
  8
0
 10
72.862
 20
-143.673
 11
72.427
 21
-143.853
  0
LINE
  8
0
 10
72.427
 20
-143.853
 11
71.9693
 21
-143.963
  0
LINE
  8
0
 10
71.9693
 20
-143.963
 11
71.5
 21
-144
  0
LINE
  8
0
 10
71.5
 20
-144
 11
-71.5
 21
-144
  0
ENDSEC
  0
SECTION
  2
OBJECTS
  0
DICTIONARY
  0
ENDSEC
  0
EOF
