  0
SECTION
  2
BLOCKS
  0
ENDSEC
  0
SECTION
  2
ENTITIES
  0
LINE
  8
0
 10
143
 20
179
 11
-143
 21
179
  0
LINE
  8
0
 10
-143
 20
179
 11
-143
 21
-179
  0
LINE
  8
0
 10
-143
 20
-179
 11
143
 21
-179
  0
LINE
  8
0
 10
143
 20
-179
 11
143
 21
179
  0
LINE
  8
0
 10
-100.853
 20
126.073
 11
-100.963
 21
126.531
  0
LINE
  8
0
 10
-100.963
 20
126.531
 11
-101
 21
127
  0
LINE
  8
0
 10
-101
 20
127
 11
-101
 21
141
  0
LINE
  8
0
 10
-101
 20
141
 11
-100.963
 21
141.469
  0
LINE
  8
0
 10
-100.963
 20
141.469
 11
-100.853
 21
141.927
  0
LINE
  8
0
 10
-100.853
 20
141.927
 11
-100.673
 21
142.362
  0
LINE
  8
0
 10
-100.673
 20
142.362
 11
-100.427
 21
142.763
  0
LINE
  8
0
 10
-100.427
 20
142.763
 11
-100.121
 21
143.121
  0
LINE
  8
0
 10
-100.121
 20
143.121
 11
-99.7634
 21
143.427
  0
LINE
  8
0
 10
-99.7634
 20
143.427
 11
-99.362
 21
143.673
  0
LINE
  8
0
 10
-99.362
 20
143.673
 11
-98.927
 21
143.853
  0
LINE
  8
0
 10
-98.927
 20
143.853
 11
-98.4693
 21
143.963
  0
LINE
  8
0
 10
-98.4693
 20
143.963
 11
-98
 21
144
  0
LINE
  8
0
 10
-98
 20
144
 11
98
 21
144
  0
LINE
  8
0
 10
98
 20
144
 11
98.4693
 21
143.963
  0
LINE
  8
0
 10
98.4693
 20
143.963
 11
98.927
 21
143.853
  0
LINE
  8
0
 10
98.927
 20
143.853
 11
99.362
 21
143.673
  0
LINE
  8
0
 10
99.362
 20
143.673
 11
99.7634
 21
143.427
  0
LINE
  8
0
 10
99.7634
 20
143.427
 11
100.121
 21
143.121
  0
LINE
  8
0
 10
100.121
 20
143.121
 11
100.427
 21
142.763
  0
LINE
  8
0
 10
100.427
 20
142.763
 11
100.673
 21
142.362
  0
LINE
  8
0
 10
100.673
 20
142.362
 11
100.853
 21
141.927
  0
LINE
  8
0
 10
100.853
 20
141.927
 11
100.963
 21
141.469
  0
LINE
  8
0
 10
100.963
 20
141.469
 11
101
 21
141
  0
LINE
  8
0
 10
101
 20
141
 11
101
 21
127
  0
LINE
  8
0
 10
101
 20
127
 11
100.963
 21
126.531
  0
LINE
  8
0
 10
100.963
 20
126.531
 11
100.853
 21
126.073
  0
LINE
  8
0
 10
100.853
 20
126.073
 11
100.673
 21
125.638
  0
LINE
  8
0
 10
100.673
 20
125.638
 11
100.427
 21
125.237
  0
LINE
  8
0
 10
100.427
 20
125.237
 11
100.121
 21
124.879
  0
LINE
  8
0
 10
100.121
 20
124.879
 11
99.7634
 21
124.573
  0
LINE
  8
0
 10
99.7634
 20
124.573
 11
99.362
 21
124.327
  0
LINE
  8
0
 10
99.362
 20
124.327
 11
98.927
 21
124.147
  0
LINE
  8
0
 10
98.927
 20
124.147
 11
98.4693
 21
124.037
  0
LINE
  8
0
 10
98.4693
 20
124.037
 11
98
 21
124
  0
LINE
  8
0
 10
98
 20
124
 11
-98
 21
124
  0
LINE
  8
0
 10
-98
 20
124
 11
-98.4693
 21
124.037
  0
LINE
  8
0
 10
-98.4693
 20
124.037
 11
-98.927
 21
124.147
  0
LINE
  8
0
 10
-98.927
 20
124.147
 11
-99.362
 21
124.327
  0
LINE
  8
0
 10
-99.362
 20
124.327
 11
-99.7634
 21
124.573
  0
LINE
  8
0
 10
-99.7634
 20
124.573
 11
-100.121
 21
124.879
  0
LINE
  8
0
 10
-100.121
 20
124.879
 11
-100.427
 21
125.237
  0
LINE
  8
0
 10
-100.427
 20
125.237
 11
-100.673
 21
125.638
  0
LINE
  8
0
 10
-100.673
 20
125.638
 11
-100.853
 21
126.073
  0
LINE
  8
0
 10
-71.5
 20
-144
 11
-71.9693
 21
-143.963
  0
LINE
  8
0
 10
-71.9693
 20
-143.963
 11
-72.427
 21
-143.853
  0
LINE
  8
0
 10
-72.427
 20
-143.853
 11
-72.862
 21
-143.673
  0
LINE
  8
0
 10
-72.862
 20
-143.673
 11
-73.2634
 21
-143.427
  0
LINE
  8
0
 10
-73.2634
 20
-143.427
 11
-73.6213
 21
-143.121
  0
LINE
  8
0
 10
-73.6213
 20
-143.121
 11
-73.927
 21
-142.763
  0
LINE
  8
0
 10
-73.927
 20
-142.763
 11
-74.173
 21
-142.362
  0
LINE
  8
0
 10
-74.173
 20
-142.362
 11
-74.3532
 21
-141.927
  0
LINE
  8
0
 10
-74.3532
 20
-141.927
 11
-74.4631
 21
-141.469
  0
LINE
  8
0
 10
-74.4631
 20
-141.469
 11
-74.5
 21
-141
  0
LINE
  8
0
 10
-74.5
 20
-141
 11
-74.5
 21
-127
  0
LINE
  8
0
 10
-74.5
 20
-127
 11
-74.4631
 21
-126.531
  0
LINE
  8
0
 10
-74.4631
 20
-126.531
 11
-74.3532
 21
-126.073
  0
LINE
  8
0
 10
-74.3532
 20
-126.073
 11
-74.173
 21
-125.638
  0
LINE
  8
0
 10
-74.173
 20
-125.638
 11
-73.927
 21
-125.237
  0
LINE
  8
0
 10
-73.927
 20
-125.237
 11
-73.6213
 21
-124.879
  0
LINE
  8
0
 10
-73.6213
 20
-124.879
 11
-73.2634
 21
-124.573
  0
LINE
  8
0
 10
-73.2634
 20
-124.573
 11
-72.862
 21
-124.327
  0
LINE
  8
0
 10
-72.862
 20
-124.327
 11
-72.427
 21
-124.147
  0
LINE
  8
0
 10
-72.427
 20
-124.147
 11
-71.9693
 21
-124.037
  0
LINE
  8
0
 10
-71.9693
 20
-124.037
 11
-71.5
 21
-124
  0
LINE
  8
0
 10
-71.5
 20
-124
 11
71.5
 21
-124
  0
LINE
  8
0
 10
71.5
 20
-124
 11
71.9693
 21
-124.037
  0
LINE
  8
0
 10
71.9693
 20
-124.037
 11
72.427
 21
-124.147
  0
LINE
  8
0
 10
72.427
 20
-124.147
 11
72.862
 21
-124.327
  0
LINE
  8
0
 10
72.862
 20
-124.327
 11
73.2634
 21
-124.573
  0
LINE
  8
0
 10
73.2634
 20
-124.573
 11
73.6213
 21
-124.879
  0
LINE
  8
0
 10
73.6213
 20
-124.879
 11
73.927
 21
-125.237
  0
LINE
  8
0
 10
73.927
 20
-125.237
 11
74.173
 21
-125.638
  0
LINE
  8
0
 10
74.173
 20
-125.638
 11
74.3532
 21
-126.073
  0
LINE
  8
0
 10
74.3532
 20
-126.073
 11
74.4631
 21
-126.531
  0
LINE
  8
0
 10
74.4631
 20
-126.531
 11
74.5
 21
-127
  0
LINE
  8
0
 10
74.5
 20
-127
 11
74.5
 21
-141
  0
LINE
  8
0
 10
74.5
 20
-141
 11
74.4631
 21
-141.469
  0
LINE
  8
0
 10
74.4631
 20
-141.469
 11
74.3532
 21
-141.927
  0
LINE
  8
0
 10
74.3532
 20
-141.927
 11
74.173
 21
-142.362
  0
LINE
  8
0
 10
74.173
 20
-142.362
 11
73.927
 21
-142.763
  0
LINE
  8
0
 10
73.927
 20
-142.763
 11
73.6213
 21
-143.121
  0
LINE
  8
0
 10
73.6213
 20
-143.121
 11
73.2634
 21
-143.427
  0
LINE
  8
0
 10
73.2634
 20
-143.427
 11
72.862
 21
-143.673
  0
LINE
  8
0
 10
72.862
 20
-143.673
 11
72.427
 21
-143.853
  0
LINE
  8
0
 10
72.427
 20
-143.853
 11
71.9693
 21
-143.963
  0
LINE
  8
0
 10
71.9693
 20
-143.963
 11
71.5
 21
-144
  0
LINE
  8
0
 10
71.5
 20
-144
 11
-71.5
 21
-144
  0
ENDSEC
  0
SECTION
  2
OBJECTS
  0
DICTIONARY
  0
ENDSEC
  0
EOF
