  0
SECTION
  2
BLOCKS
  0
ENDSEC
  0
SECTION
  2
ENTITIES
  0
LINE
  8
0
 10
53.9053
 20
-149.867
 11
54.8176
 21
-149.633
  0
LINE
  8
0
 10
54.8176
 20
-149.633
 11
55.6933
 21
-149.286
  0
LINE
  8
0
 10
55.6933
 20
-149.286
 11
56.5187
 21
-148.832
  0
LINE
  8
0
 10
56.5187
 20
-148.832
 11
57.2807
 21
-148.279
  0
LINE
  8
0
 10
57.2807
 20
-148.279
 11
57.9673
 21
-147.634
  0
LINE
  8
0
 10
57.9673
 20
-147.634
 11
58.5676
 21
-146.908
  0
LINE
  8
0
 10
58.5676
 20
-146.908
 11
59.0723
 21
-146.113
  0
LINE
  8
0
 10
59.0723
 20
-146.113
 11
59.4733
 21
-145.261
  0
LINE
  8
0
 10
59.4733
 20
-145.261
 11
59.7644
 21
-144.365
  0
LINE
  8
0
 10
59.7644
 20
-144.365
 11
59.9409
 21
-143.44
  0
LINE
  8
0
 10
59.9409
 20
-143.44
 11
60
 21
-142.5
  0
LINE
  8
0
 10
60
 20
-142.5
 11
60
 21
142.5
  0
LINE
  8
0
 10
60
 20
142.5
 11
59.9409
 21
143.44
  0
LINE
  8
0
 10
59.9409
 20
143.44
 11
59.7644
 21
144.365
  0
LINE
  8
0
 10
59.7644
 20
144.365
 11
59.4733
 21
145.261
  0
LINE
  8
0
 10
59.4733
 20
145.261
 11
59.0723
 21
146.113
  0
LINE
  8
0
 10
59.0723
 20
146.113
 11
58.5676
 21
146.908
  0
LINE
  8
0
 10
58.5676
 20
146.908
 11
57.9673
 21
147.634
  0
LINE
  8
0
 10
57.9673
 20
147.634
 11
57.2807
 21
148.279
  0
LINE
  8
0
 10
57.2807
 20
148.279
 11
56.5187
 21
148.832
  0
LINE
  8
0
 10
56.5187
 20
148.832
 11
55.6933
 21
149.286
  0
LINE
  8
0
 10
55.6933
 20
149.286
 11
54.8176
 21
149.633
  0
LINE
  8
0
 10
54.8176
 20
149.633
 11
53.9053
 21
149.867
  0
LINE
  8
0
 10
53.9053
 20
149.867
 11
52.9709
 21
149.985
  0
LINE
  8
0
 10
52.9709
 20
149.985
 11
-52.9709
 21
149.985
  0
LINE
  8
0
 10
-52.9709
 20
149.985
 11
-53.9053
 21
149.867
  0
LINE
  8
0
 10
-53.9053
 20
149.867
 11
-54.8176
 21
149.633
  0
LINE
  8
0
 10
-54.8176
 20
149.633
 11
-55.6933
 21
149.286
  0
LINE
  8
0
 10
-55.6933
 20
149.286
 11
-56.5187
 21
148.832
  0
LINE
  8
0
 10
-56.5187
 20
148.832
 11
-57.2807
 21
148.279
  0
LINE
  8
0
 10
-57.2807
 20
148.279
 11
-57.9673
 21
147.634
  0
LINE
  8
0
 10
-57.9673
 20
147.634
 11
-58.5676
 21
146.908
  0
LINE
  8
0
 10
-58.5676
 20
146.908
 11
-59.0723
 21
146.113
  0
LINE
  8
0
 10
-59.0723
 20
146.113
 11
-59.4733
 21
145.261
  0
LINE
  8
0
 10
-59.4733
 20
145.261
 11
-59.7644
 21
144.365
  0
LINE
  8
0
 10
-59.7644
 20
144.365
 11
-59.9409
 21
143.44
  0
LINE
  8
0
 10
-59.9409
 20
143.44
 11
-60
 21
142.5
  0
LINE
  8
0
 10
-60
 20
142.5
 11
-60
 21
-142.5
  0
LINE
  8
0
 10
-60
 20
-142.5
 11
-59.9409
 21
-143.44
  0
LINE
  8
0
 10
-59.9409
 20
-143.44
 11
-59.7644
 21
-144.365
  0
LINE
  8
0
 10
-59.7644
 20
-144.365
 11
-59.4733
 21
-145.261
  0
LINE
  8
0
 10
-59.4733
 20
-145.261
 11
-59.0723
 21
-146.113
  0
LINE
  8
0
 10
-59.0723
 20
-146.113
 11
-58.5676
 21
-146.908
  0
LINE
  8
0
 10
-58.5676
 20
-146.908
 11
-57.9673
 21
-147.634
  0
LINE
  8
0
 10
-57.9673
 20
-147.634
 11
-57.2807
 21
-148.279
  0
LINE
  8
0
 10
-57.2807
 20
-148.279
 11
-56.5187
 21
-148.832
  0
LINE
  8
0
 10
-56.5187
 20
-148.832
 11
-55.6933
 21
-149.286
  0
LINE
  8
0
 10
-55.6933
 20
-149.286
 11
-54.8176
 21
-149.633
  0
LINE
  8
0
 10
-54.8176
 20
-149.633
 11
-53.9053
 21
-149.867
  0
LINE
  8
0
 10
-53.9053
 20
-149.867
 11
-52.9709
 21
-149.985
  0
LINE
  8
0
 10
-52.9709
 20
-149.985
 11
52.9709
 21
-149.985
  0
LINE
  8
0
 10
52.9709
 20
-149.985
 11
53.9053
 21
-149.867
  0
LINE
  8
0
 10
-0.12558
 20
140.504
 11
-0.374756
 21
140.535
  0
LINE
  8
0
 10
-0.374756
 20
140.535
 11
-0.618027
 21
140.598
  0
LINE
  8
0
 10
-0.618027
 20
140.598
 11
-0.851547
 21
140.69
  0
LINE
  8
0
 10
-0.851547
 20
140.69
 11
-1.07164
 21
140.811
  0
LINE
  8
0
 10
-1.07164
 20
140.811
 11
-1.27484
 21
140.959
  0
LINE
  8
0
 10
-1.27484
 20
140.959
 11
-1.45793
 21
141.131
  0
LINE
  8
0
 10
-1.45793
 20
141.131
 11
-1.61803
 21
141.324
  0
LINE
  8
0
 10
-1.61803
 20
141.324
 11
-1.75261
 21
141.536
  0
LINE
  8
0
 10
-1.75261
 20
141.536
 11
-1.85954
 21
141.764
  0
LINE
  8
0
 10
-1.85954
 20
141.764
 11
-1.93716
 21
142.003
  0
LINE
  8
0
 10
-1.93716
 20
142.003
 11
-1.98422
 21
142.249
  0
LINE
  8
0
 10
-1.98422
 20
142.249
 11
-2
 21
142.5
  0
LINE
  8
0
 10
-2
 20
142.5
 11
-1.98422
 21
142.751
  0
LINE
  8
0
 10
-1.98422
 20
142.751
 11
-1.93716
 21
142.997
  0
LINE
  8
0
 10
-1.93716
 20
142.997
 11
-1.85954
 21
143.236
  0
LINE
  8
0
 10
-1.85954
 20
143.236
 11
-1.75261
 21
143.464
  0
LINE
  8
0
 10
-1.75261
 20
143.464
 11
-1.61803
 21
143.676
  0
LINE
  8
0
 10
-1.61803
 20
143.676
 11
-1.45793
 21
143.869
  0
LINE
  8
0
 10
-1.45793
 20
143.869
 11
-1.27484
 21
144.041
  0
LINE
  8
0
 10
-1.27484
 20
144.041
 11
-1.07164
 21
144.189
  0
LINE
  8
0
 10
-1.07164
 20
144.189
 11
-0.851547
 21
144.31
  0
LINE
  8
0
 10
-0.851547
 20
144.31
 11
-0.618027
 21
144.402
  0
LINE
  8
0
 10
-0.618027
 20
144.402
 11
-0.374756
 21
144.465
  0
LINE
  8
0
 10
-0.374756
 20
144.465
 11
-0.12558
 21
144.496
  0
LINE
  8
0
 10
-0.12558
 20
144.496
 11
0.12558
 21
144.496
  0
LINE
  8
0
 10
0.12558
 20
144.496
 11
0.374756
 21
144.465
  0
LINE
  8
0
 10
0.374756
 20
144.465
 11
0.618027
 21
144.402
  0
LINE
  8
0
 10
0.618027
 20
144.402
 11
0.851547
 21
144.31
  0
LINE
  8
0
 10
0.851547
 20
144.31
 11
1.07164
 21
144.189
  0
LINE
  8
0
 10
1.07164
 20
144.189
 11
1.27484
 21
144.041
  0
LINE
  8
0
 10
1.27484
 20
144.041
 11
1.45793
 21
143.869
  0
LINE
  8
0
 10
1.45793
 20
143.869
 11
1.61803
 21
143.676
  0
LINE
  8
0
 10
1.61803
 20
143.676
 11
1.75261
 21
143.464
  0
LINE
  8
0
 10
1.75261
 20
143.464
 11
1.85954
 21
143.236
  0
LINE
  8
0
 10
1.85954
 20
143.236
 11
1.93716
 21
142.997
  0
LINE
  8
0
 10
1.93716
 20
142.997
 11
1.98422
 21
142.751
  0
LINE
  8
0
 10
1.98422
 20
142.751
 11
2
 21
142.5
  0
LINE
  8
0
 10
2
 20
142.5
 11
1.98422
 21
142.249
  0
LINE
  8
0
 10
1.98422
 20
142.249
 11
1.93716
 21
142.003
  0
LINE
  8
0
 10
1.93716
 20
142.003
 11
1.85954
 21
141.764
  0
LINE
  8
0
 10
1.85954
 20
141.764
 11
1.75261
 21
141.536
  0
LINE
  8
0
 10
1.75261
 20
141.536
 11
1.61803
 21
141.324
  0
LINE
  8
0
 10
1.61803
 20
141.324
 11
1.45793
 21
141.131
  0
LINE
  8
0
 10
1.45793
 20
141.131
 11
1.27484
 21
140.959
  0
LINE
  8
0
 10
1.27484
 20
140.959
 11
1.07164
 21
140.811
  0
LINE
  8
0
 10
1.07164
 20
140.811
 11
0.851547
 21
140.69
  0
LINE
  8
0
 10
0.851547
 20
140.69
 11
0.618027
 21
140.598
  0
LINE
  8
0
 10
0.618027
 20
140.598
 11
0.374756
 21
140.535
  0
LINE
  8
0
 10
0.374756
 20
140.535
 11
0.12558
 21
140.504
  0
LINE
  8
0
 10
0.12558
 20
140.504
 11
-0.12558
 21
140.504
  0
LINE
  8
0
 10
-46.2209
 20
89.0148
 11
-47.1553
 21
89.1328
  0
LINE
  8
0
 10
-47.1553
 20
89.1328
 11
-48.0676
 21
89.3671
  0
LINE
  8
0
 10
-48.0676
 20
89.3671
 11
-48.9433
 21
89.7138
  0
LINE
  8
0
 10
-48.9433
 20
89.7138
 11
-49.7687
 21
90.1675
  0
LINE
  8
0
 10
-49.7687
 20
90.1675
 11
-50.5307
 21
90.7211
  0
LINE
  8
0
 10
-50.5307
 20
90.7211
 11
-51.2173
 21
91.3659
  0
LINE
  8
0
 10
-51.2173
 20
91.3659
 11
-51.8176
 21
92.0916
  0
LINE
  8
0
 10
-51.8176
 20
92.0916
 11
-52.3223
 21
92.8868
  0
LINE
  8
0
 10
-52.3223
 20
92.8868
 11
-52.7233
 21
93.7391
  0
LINE
  8
0
 10
-52.7233
 20
93.7391
 11
-53.0144
 21
94.6348
  0
LINE
  8
0
 10
-53.0144
 20
94.6348
 11
-53.1909
 21
95.56
  0
LINE
  8
0
 10
-53.1909
 20
95.56
 11
-53.25
 21
96.5
  0
LINE
  8
0
 10
-53.25
 20
96.5
 11
-53.25
 21
131.5
  0
LINE
  8
0
 10
-53.25
 20
131.5
 11
-53.1909
 21
132.44
  0
LINE
  8
0
 10
-53.1909
 20
132.44
 11
-53.0144
 21
133.365
  0
LINE
  8
0
 10
-53.0144
 20
133.365
 11
-52.7233
 21
134.261
  0
LINE
  8
0
 10
-52.7233
 20
134.261
 11
-52.3223
 21
135.113
  0
LINE
  8
0
 10
-52.3223
 20
135.113
 11
-51.8176
 21
135.908
  0
LINE
  8
0
 10
-51.8176
 20
135.908
 11
-51.2173
 21
136.634
  0
LINE
  8
0
 10
-51.2173
 20
136.634
 11
-50.5307
 21
137.279
  0
LINE
  8
0
 10
-50.5307
 20
137.279
 11
-49.7687
 21
137.832
  0
LINE
  8
0
 10
-49.7687
 20
137.832
 11
-48.9433
 21
138.286
  0
LINE
  8
0
 10
-48.9433
 20
138.286
 11
-48.0676
 21
138.633
  0
LINE
  8
0
 10
-48.0676
 20
138.633
 11
-47.1553
 21
138.867
  0
LINE
  8
0
 10
-47.1553
 20
138.867
 11
-46.2209
 21
138.985
  0
LINE
  8
0
 10
-46.2209
 20
138.985
 11
-10.2791
 21
138.985
  0
LINE
  8
0
 10
-10.2791
 20
138.985
 11
-9.34464
 21
138.867
  0
LINE
  8
0
 10
-9.34464
 20
138.867
 11
-8.43237
 21
138.633
  0
LINE
  8
0
 10
-8.43237
 20
138.633
 11
-7.55666
 21
138.286
  0
LINE
  8
0
 10
-7.55666
 20
138.286
 11
-6.73129
 21
137.832
  0
LINE
  8
0
 10
-6.73129
 20
137.832
 11
-5.96931
 21
137.279
  0
LINE
  8
0
 10
-5.96931
 20
137.279
 11
-5.28273
 21
136.634
  0
LINE
  8
0
 10
-5.28273
 20
136.634
 11
-4.68237
 21
135.908
  0
LINE
  8
0
 10
-4.68237
 20
135.908
 11
-4.17769
 21
135.113
  0
LINE
  8
0
 10
-4.17769
 20
135.113
 11
-3.77667
 21
134.261
  0
LINE
  8
0
 10
-3.77667
 20
134.261
 11
-3.48563
 21
133.365
  0
LINE
  8
0
 10
-3.48563
 20
133.365
 11
-3.30913
 21
132.44
  0
LINE
  8
0
 10
-3.30913
 20
132.44
 11
-3.25
 21
131.5
  0
LINE
  8
0
 10
-3.25
 20
131.5
 11
-3.25
 21
96.5
  0
LINE
  8
0
 10
-3.25
 20
96.5
 11
-3.30913
 21
95.56
  0
LINE
  8
0
 10
-3.30913
 20
95.56
 11
-3.48563
 21
94.6348
  0
LINE
  8
0
 10
-3.48563
 20
94.6348
 11
-3.77667
 21
93.7391
  0
LINE
  8
0
 10
-3.77667
 20
93.7391
 11
-4.17769
 21
92.8868
  0
LINE
  8
0
 10
-4.17769
 20
92.8868
 11
-4.68237
 21
92.0916
  0
LINE
  8
0
 10
-4.68237
 20
92.0916
 11
-5.28273
 21
91.3659
  0
LINE
  8
0
 10
-5.28273
 20
91.3659
 11
-5.96931
 21
90.7211
  0
LINE
  8
0
 10
-5.96931
 20
90.7211
 11
-6.73129
 21
90.1675
  0
LINE
  8
0
 10
-6.73129
 20
90.1675
 11
-7.55666
 21
89.7138
  0
LINE
  8
0
 10
-7.55666
 20
89.7138
 11
-8.43237
 21
89.3671
  0
LINE
  8
0
 10
-8.43237
 20
89.3671
 11
-9.34464
 21
89.1328
  0
LINE
  8
0
 10
-9.34464
 20
89.1328
 11
-10.2791
 21
89.0148
  0
LINE
  8
0
 10
-10.2791
 20
89.0148
 11
-46.2209
 21
89.0148
  0
LINE
  8
0
 10
-25.9777
 20
110.708
 11
-24.7082
 21
112.141
  0
LINE
  8
0
 10
-24.7082
 20
112.141
 11
-24.25
 21
114
  0
LINE
  8
0
 10
-24.25
 20
114
 11
-24.7082
 21
115.859
  0
LINE
  8
0
 10
-24.7082
 20
115.859
 11
-25.9777
 21
117.292
  0
LINE
  8
0
 10
-25.9777
 20
117.292
 11
-27.7679
 21
117.971
  0
LINE
  8
0
 10
-27.7679
 20
117.971
 11
-29.6684
 21
117.74
  0
LINE
  8
0
 10
-29.6684
 20
117.74
 11
-31.244
 21
116.652
  0
LINE
  8
0
 10
-31.244
 20
116.652
 11
-32.1338
 21
114.957
  0
LINE
  8
0
 10
-32.1338
 20
114.957
 11
-32.1338
 21
113.043
  0
LINE
  8
0
 10
-32.1338
 20
113.043
 11
-31.244
 21
111.348
  0
LINE
  8
0
 10
-31.244
 20
111.348
 11
-29.6684
 21
110.26
  0
LINE
  8
0
 10
-29.6684
 20
110.26
 11
-27.7679
 21
110.029
  0
LINE
  8
0
 10
-27.7679
 20
110.029
 11
-25.9777
 21
110.708
  0
LINE
  8
0
 10
-47.8752
 20
112.035
 11
-47.632
 21
112.098
  0
LINE
  8
0
 10
-47.632
 20
112.098
 11
-47.3984
 21
112.19
  0
LINE
  8
0
 10
-47.3984
 20
112.19
 11
-47.1783
 21
112.311
  0
LINE
  8
0
 10
-47.1783
 20
112.311
 11
-46.9751
 21
112.459
  0
LINE
  8
0
 10
-46.9751
 20
112.459
 11
-46.7921
 21
112.631
  0
LINE
  8
0
 10
-46.7921
 20
112.631
 11
-46.632
 21
112.824
  0
LINE
  8
0
 10
-46.632
 20
112.824
 11
-46.4974
 21
113.036
  0
LINE
  8
0
 10
-46.4974
 20
113.036
 11
-46.3904
 21
113.264
  0
LINE
  8
0
 10
-46.3904
 20
113.264
 11
-46.3128
 21
113.503
  0
LINE
  8
0
 10
-46.3128
 20
113.503
 11
-46.2658
 21
113.749
  0
LINE
  8
0
 10
-46.2658
 20
113.749
 11
-46.25
 21
114
  0
LINE
  8
0
 10
-46.25
 20
114
 11
-46.2658
 21
114.251
  0
LINE
  8
0
 10
-46.2658
 20
114.251
 11
-46.3128
 21
114.497
  0
LINE
  8
0
 10
-46.3128
 20
114.497
 11
-46.3904
 21
114.736
  0
LINE
  8
0
 10
-46.3904
 20
114.736
 11
-46.4974
 21
114.964
  0
LINE
  8
0
 10
-46.4974
 20
114.964
 11
-46.632
 21
115.176
  0
LINE
  8
0
 10
-46.632
 20
115.176
 11
-46.7921
 21
115.369
  0
LINE
  8
0
 10
-46.7921
 20
115.369
 11
-46.9751
 21
115.541
  0
LINE
  8
0
 10
-46.9751
 20
115.541
 11
-47.1783
 21
115.689
  0
LINE
  8
0
 10
-47.1783
 20
115.689
 11
-47.3984
 21
115.81
  0
LINE
  8
0
 10
-47.3984
 20
115.81
 11
-47.632
 21
115.902
  0
LINE
  8
0
 10
-47.632
 20
115.902
 11
-47.8752
 21
115.965
  0
LINE
  8
0
 10
-47.8752
 20
115.965
 11
-48.1244
 21
115.996
  0
LINE
  8
0
 10
-48.1244
 20
115.996
 11
-48.3756
 21
115.996
  0
LINE
  8
0
 10
-48.3756
 20
115.996
 11
-48.6248
 21
115.965
  0
LINE
  8
0
 10
-48.6248
 20
115.965
 11
-48.868
 21
115.902
  0
LINE
  8
0
 10
-48.868
 20
115.902
 11
-49.1015
 21
115.81
  0
LINE
  8
0
 10
-49.1015
 20
115.81
 11
-49.3217
 21
115.689
  0
LINE
  8
0
 10
-49.3217
 20
115.689
 11
-49.5248
 21
115.541
  0
LINE
  8
0
 10
-49.5248
 20
115.541
 11
-49.7079
 21
115.369
  0
LINE
  8
0
 10
-49.7079
 20
115.369
 11
-49.868
 21
115.176
  0
LINE
  8
0
 10
-49.868
 20
115.176
 11
-50.0026
 21
114.964
  0
LINE
  8
0
 10
-50.0026
 20
114.964
 11
-50.1095
 21
114.736
  0
LINE
  8
0
 10
-50.1095
 20
114.736
 11
-50.1872
 21
114.497
  0
LINE
  8
0
 10
-50.1872
 20
114.497
 11
-50.2342
 21
114.251
  0
LINE
  8
0
 10
-50.2342
 20
114.251
 11
-50.25
 21
114
  0
LINE
  8
0
 10
-50.25
 20
114
 11
-50.2342
 21
113.749
  0
LINE
  8
0
 10
-50.2342
 20
113.749
 11
-50.1872
 21
113.503
  0
LINE
  8
0
 10
-50.1872
 20
113.503
 11
-50.1095
 21
113.264
  0
LINE
  8
0
 10
-50.1095
 20
113.264
 11
-50.0026
 21
113.036
  0
LINE
  8
0
 10
-50.0026
 20
113.036
 11
-49.868
 21
112.824
  0
LINE
  8
0
 10
-49.868
 20
112.824
 11
-49.7079
 21
112.631
  0
LINE
  8
0
 10
-49.7079
 20
112.631
 11
-49.5248
 21
112.459
  0
LINE
  8
0
 10
-49.5248
 20
112.459
 11
-49.3217
 21
112.311
  0
LINE
  8
0
 10
-49.3217
 20
112.311
 11
-49.1015
 21
112.19
  0
LINE
  8
0
 10
-49.1015
 20
112.19
 11
-48.868
 21
112.098
  0
LINE
  8
0
 10
-48.868
 20
112.098
 11
-48.6248
 21
112.035
  0
LINE
  8
0
 10
-48.6248
 20
112.035
 11
-48.3756
 21
112.004
  0
LINE
  8
0
 10
-48.3756
 20
112.004
 11
-48.1244
 21
112.004
  0
LINE
  8
0
 10
-48.1244
 20
112.004
 11
-47.8752
 21
112.035
  0
LINE
  8
0
 10
-7.87523
 20
112.035
 11
-7.63196
 21
112.098
  0
LINE
  8
0
 10
-7.63196
 20
112.098
 11
-7.39844
 21
112.19
  0
LINE
  8
0
 10
-7.39844
 20
112.19
 11
-7.17834
 21
112.311
  0
LINE
  8
0
 10
-7.17834
 20
112.311
 11
-6.97514
 21
112.459
  0
LINE
  8
0
 10
-6.97514
 20
112.459
 11
-6.79205
 21
112.631
  0
LINE
  8
0
 10
-6.79205
 20
112.631
 11
-6.63196
 21
112.824
  0
LINE
  8
0
 10
-6.63196
 20
112.824
 11
-6.49738
 21
113.036
  0
LINE
  8
0
 10
-6.49738
 20
113.036
 11
-6.39044
 21
113.264
  0
LINE
  8
0
 10
-6.39044
 20
113.264
 11
-6.31282
 21
113.503
  0
LINE
  8
0
 10
-6.31282
 20
113.503
 11
-6.26576
 21
113.749
  0
LINE
  8
0
 10
-6.26576
 20
113.749
 11
-6.25
 21
114
  0
LINE
  8
0
 10
-6.25
 20
114
 11
-6.26576
 21
114.251
  0
LINE
  8
0
 10
-6.26576
 20
114.251
 11
-6.31282
 21
114.497
  0
LINE
  8
0
 10
-6.31282
 20
114.497
 11
-6.39044
 21
114.736
  0
LINE
  8
0
 10
-6.39044
 20
114.736
 11
-6.49738
 21
114.964
  0
LINE
  8
0
 10
-6.49738
 20
114.964
 11
-6.63196
 21
115.176
  0
LINE
  8
0
 10
-6.63196
 20
115.176
 11
-6.79205
 21
115.369
  0
LINE
  8
0
 10
-6.79205
 20
115.369
 11
-6.97514
 21
115.541
  0
LINE
  8
0
 10
-6.97514
 20
115.541
 11
-7.17834
 21
115.689
  0
LINE
  8
0
 10
-7.17834
 20
115.689
 11
-7.39844
 21
115.81
  0
LINE
  8
0
 10
-7.39844
 20
115.81
 11
-7.63196
 21
115.902
  0
LINE
  8
0
 10
-7.63196
 20
115.902
 11
-7.87523
 21
115.965
  0
LINE
  8
0
 10
-7.87523
 20
115.965
 11
-8.1244
 21
115.996
  0
LINE
  8
0
 10
-8.1244
 20
115.996
 11
-8.37558
 21
115.996
  0
LINE
  8
0
 10
-8.37558
 20
115.996
 11
-8.62476
 21
115.965
  0
LINE
  8
0
 10
-8.62476
 20
115.965
 11
-8.86803
 21
115.902
  0
LINE
  8
0
 10
-8.86803
 20
115.902
 11
-9.10155
 21
115.81
  0
LINE
  8
0
 10
-9.10155
 20
115.81
 11
-9.32164
 21
115.689
  0
LINE
  8
0
 10
-9.32164
 20
115.689
 11
-9.52484
 21
115.541
  0
LINE
  8
0
 10
-9.52484
 20
115.541
 11
-9.70793
 21
115.369
  0
LINE
  8
0
 10
-9.70793
 20
115.369
 11
-9.86803
 21
115.176
  0
LINE
  8
0
 10
-9.86803
 20
115.176
 11
-10.0026
 21
114.964
  0
LINE
  8
0
 10
-10.0026
 20
114.964
 11
-10.1095
 21
114.736
  0
LINE
  8
0
 10
-10.1095
 20
114.736
 11
-10.1872
 21
114.497
  0
LINE
  8
0
 10
-10.1872
 20
114.497
 11
-10.2342
 21
114.251
  0
LINE
  8
0
 10
-10.2342
 20
114.251
 11
-10.25
 21
114
  0
LINE
  8
0
 10
-10.25
 20
114
 11
-10.2342
 21
113.749
  0
LINE
  8
0
 10
-10.2342
 20
113.749
 11
-10.1872
 21
113.503
  0
LINE
  8
0
 10
-10.1872
 20
113.503
 11
-10.1095
 21
113.264
  0
LINE
  8
0
 10
-10.1095
 20
113.264
 11
-10.0026
 21
113.036
  0
LINE
  8
0
 10
-10.0026
 20
113.036
 11
-9.86803
 21
112.824
  0
LINE
  8
0
 10
-9.86803
 20
112.824
 11
-9.70793
 21
112.631
  0
LINE
  8
0
 10
-9.70793
 20
112.631
 11
-9.52484
 21
112.459
  0
LINE
  8
0
 10
-9.52484
 20
112.459
 11
-9.32164
 21
112.311
  0
LINE
  8
0
 10
-9.32164
 20
112.311
 11
-9.10155
 21
112.19
  0
LINE
  8
0
 10
-9.10155
 20
112.19
 11
-8.86803
 21
112.098
  0
LINE
  8
0
 10
-8.86803
 20
112.098
 11
-8.62476
 21
112.035
  0
LINE
  8
0
 10
-8.62476
 20
112.035
 11
-8.37558
 21
112.004
  0
LINE
  8
0
 10
-8.37558
 20
112.004
 11
-8.1244
 21
112.004
  0
LINE
  8
0
 10
-8.1244
 20
112.004
 11
-7.87523
 21
112.035
  0
LINE
  8
0
 10
10.2791
 20
89.0148
 11
9.34464
 21
89.1328
  0
LINE
  8
0
 10
9.34464
 20
89.1328
 11
8.43237
 21
89.3671
  0
LINE
  8
0
 10
8.43237
 20
89.3671
 11
7.55666
 21
89.7138
  0
LINE
  8
0
 10
7.55666
 20
89.7138
 11
6.73129
 21
90.1675
  0
LINE
  8
0
 10
6.73129
 20
90.1675
 11
5.96931
 21
90.7211
  0
LINE
  8
0
 10
5.96931
 20
90.7211
 11
5.28273
 21
91.3659
  0
LINE
  8
0
 10
5.28273
 20
91.3659
 11
4.68237
 21
92.0916
  0
LINE
  8
0
 10
4.68237
 20
92.0916
 11
4.17769
 21
92.8868
  0
LINE
  8
0
 10
4.17769
 20
92.8868
 11
3.77667
 21
93.7391
  0
LINE
  8
0
 10
3.77667
 20
93.7391
 11
3.48563
 21
94.6348
  0
LINE
  8
0
 10
3.48563
 20
94.6348
 11
3.30913
 21
95.56
  0
LINE
  8
0
 10
3.30913
 20
95.56
 11
3.25
 21
96.5
  0
LINE
  8
0
 10
3.25
 20
96.5
 11
3.25
 21
131.5
  0
LINE
  8
0
 10
3.25
 20
131.5
 11
3.30913
 21
132.44
  0
LINE
  8
0
 10
3.30913
 20
132.44
 11
3.48563
 21
133.365
  0
LINE
  8
0
 10
3.48563
 20
133.365
 11
3.77667
 21
134.261
  0
LINE
  8
0
 10
3.77667
 20
134.261
 11
4.17769
 21
135.113
  0
LINE
  8
0
 10
4.17769
 20
135.113
 11
4.68237
 21
135.908
  0
LINE
  8
0
 10
4.68237
 20
135.908
 11
5.28273
 21
136.634
  0
LINE
  8
0
 10
5.28273
 20
136.634
 11
5.96931
 21
137.279
  0
LINE
  8
0
 10
5.96931
 20
137.279
 11
6.73129
 21
137.832
  0
LINE
  8
0
 10
6.73129
 20
137.832
 11
7.55666
 21
138.286
  0
LINE
  8
0
 10
7.55666
 20
138.286
 11
8.43237
 21
138.633
  0
LINE
  8
0
 10
8.43237
 20
138.633
 11
9.34464
 21
138.867
  0
LINE
  8
0
 10
9.34464
 20
138.867
 11
10.2791
 21
138.985
  0
LINE
  8
0
 10
10.2791
 20
138.985
 11
46.2209
 21
138.985
  0
LINE
  8
0
 10
46.2209
 20
138.985
 11
47.1553
 21
138.867
  0
LINE
  8
0
 10
47.1553
 20
138.867
 11
48.0676
 21
138.633
  0
LINE
  8
0
 10
48.0676
 20
138.633
 11
48.9433
 21
138.286
  0
LINE
  8
0
 10
48.9433
 20
138.286
 11
49.7687
 21
137.832
  0
LINE
  8
0
 10
49.7687
 20
137.832
 11
50.5307
 21
137.279
  0
LINE
  8
0
 10
50.5307
 20
137.279
 11
51.2173
 21
136.634
  0
LINE
  8
0
 10
51.2173
 20
136.634
 11
51.8176
 21
135.908
  0
LINE
  8
0
 10
51.8176
 20
135.908
 11
52.3223
 21
135.113
  0
LINE
  8
0
 10
52.3223
 20
135.113
 11
52.7233
 21
134.261
  0
LINE
  8
0
 10
52.7233
 20
134.261
 11
53.0144
 21
133.365
  0
LINE
  8
0
 10
53.0144
 20
133.365
 11
53.1909
 21
132.44
  0
LINE
  8
0
 10
53.1909
 20
132.44
 11
53.25
 21
131.5
  0
LINE
  8
0
 10
53.25
 20
131.5
 11
53.25
 21
96.5
  0
LINE
  8
0
 10
53.25
 20
96.5
 11
53.1909
 21
95.56
  0
LINE
  8
0
 10
53.1909
 20
95.56
 11
53.0144
 21
94.6348
  0
LINE
  8
0
 10
53.0144
 20
94.6348
 11
52.7233
 21
93.7391
  0
LINE
  8
0
 10
52.7233
 20
93.7391
 11
52.3223
 21
92.8868
  0
LINE
  8
0
 10
52.3223
 20
92.8868
 11
51.8176
 21
92.0916
  0
LINE
  8
0
 10
51.8176
 20
92.0916
 11
51.2173
 21
91.3659
  0
LINE
  8
0
 10
51.2173
 20
91.3659
 11
50.5307
 21
90.7211
  0
LINE
  8
0
 10
50.5307
 20
90.7211
 11
49.7687
 21
90.1675
  0
LINE
  8
0
 10
49.7687
 20
90.1675
 11
48.9433
 21
89.7138
  0
LINE
  8
0
 10
48.9433
 20
89.7138
 11
48.0676
 21
89.3671
  0
LINE
  8
0
 10
48.0676
 20
89.3671
 11
47.1553
 21
89.1328
  0
LINE
  8
0
 10
47.1553
 20
89.1328
 11
46.2209
 21
89.0148
  0
LINE
  8
0
 10
46.2209
 20
89.0148
 11
10.2791
 21
89.0148
  0
LINE
  8
0
 10
39.6553
 20
96.6328
 11
40.5676
 21
96.8671
  0
LINE
  8
0
 10
40.5676
 20
96.8671
 11
41.4433
 21
97.2138
  0
LINE
  8
0
 10
41.4433
 20
97.2138
 11
42.2687
 21
97.6675
  0
LINE
  8
0
 10
42.2687
 20
97.6675
 11
43.0307
 21
98.2211
  0
LINE
  8
0
 10
43.0307
 20
98.2211
 11
43.7173
 21
98.8659
  0
LINE
  8
0
 10
43.7173
 20
98.8659
 11
44.3176
 21
99.5916
  0
LINE
  8
0
 10
44.3176
 20
99.5916
 11
44.8223
 21
100.387
  0
LINE
  8
0
 10
44.8223
 20
100.387
 11
45.2233
 21
101.239
  0
LINE
  8
0
 10
45.2233
 20
101.239
 11
45.5144
 21
102.135
  0
LINE
  8
0
 10
45.5144
 20
102.135
 11
45.6909
 21
103.06
  0
LINE
  8
0
 10
45.6909
 20
103.06
 11
45.75
 21
104
  0
LINE
  8
0
 10
45.75
 20
104
 11
45.75
 21
124
  0
LINE
  8
0
 10
45.75
 20
124
 11
45.6909
 21
124.94
  0
LINE
  8
0
 10
45.6909
 20
124.94
 11
45.5144
 21
125.865
  0
LINE
  8
0
 10
45.5144
 20
125.865
 11
45.2233
 21
126.761
  0
LINE
  8
0
 10
45.2233
 20
126.761
 11
44.8223
 21
127.613
  0
LINE
  8
0
 10
44.8223
 20
127.613
 11
44.3176
 21
128.408
  0
LINE
  8
0
 10
44.3176
 20
128.408
 11
43.7173
 21
129.134
  0
LINE
  8
0
 10
43.7173
 20
129.134
 11
43.0307
 21
129.779
  0
LINE
  8
0
 10
43.0307
 20
129.779
 11
42.2687
 21
130.332
  0
LINE
  8
0
 10
42.2687
 20
130.332
 11
41.4433
 21
130.786
  0
LINE
  8
0
 10
41.4433
 20
130.786
 11
40.5676
 21
131.133
  0
LINE
  8
0
 10
40.5676
 20
131.133
 11
39.6553
 21
131.367
  0
LINE
  8
0
 10
39.6553
 20
131.367
 11
38.7209
 21
131.485
  0
LINE
  8
0
 10
38.7209
 20
131.485
 11
17.7791
 21
131.485
  0
LINE
  8
0
 10
17.7791
 20
131.485
 11
16.8446
 21
131.367
  0
LINE
  8
0
 10
16.8446
 20
131.367
 11
15.9324
 21
131.133
  0
LINE
  8
0
 10
15.9324
 20
131.133
 11
15.0567
 21
130.786
  0
LINE
  8
0
 10
15.0567
 20
130.786
 11
14.2313
 21
130.332
  0
LINE
  8
0
 10
14.2313
 20
130.332
 11
13.4693
 21
129.779
  0
LINE
  8
0
 10
13.4693
 20
129.779
 11
12.7827
 21
129.134
  0
LINE
  8
0
 10
12.7827
 20
129.134
 11
12.1824
 21
128.408
  0
LINE
  8
0
 10
12.1824
 20
128.408
 11
11.6777
 21
127.613
  0
LINE
  8
0
 10
11.6777
 20
127.613
 11
11.2767
 21
126.761
  0
LINE
  8
0
 10
11.2767
 20
126.761
 11
10.9856
 21
125.865
  0
LINE
  8
0
 10
10.9856
 20
125.865
 11
10.8091
 21
124.94
  0
LINE
  8
0
 10
10.8091
 20
124.94
 11
10.75
 21
124
  0
LINE
  8
0
 10
10.75
 20
124
 11
10.75
 21
104
  0
LINE
  8
0
 10
10.75
 20
104
 11
10.8091
 21
103.06
  0
LINE
  8
0
 10
10.8091
 20
103.06
 11
10.9856
 21
102.135
  0
LINE
  8
0
 10
10.9856
 20
102.135
 11
11.2767
 21
101.239
  0
LINE
  8
0
 10
11.2767
 20
101.239
 11
11.6777
 21
100.387
  0
LINE
  8
0
 10
11.6777
 20
100.387
 11
12.1824
 21
99.5916
  0
LINE
  8
0
 10
12.1824
 20
99.5916
 11
12.7827
 21
98.8659
  0
LINE
  8
0
 10
12.7827
 20
98.8659
 11
13.4693
 21
98.2211
  0
LINE
  8
0
 10
13.4693
 20
98.2211
 11
14.2313
 21
97.6675
  0
LINE
  8
0
 10
14.2313
 20
97.6675
 11
15.0567
 21
97.2138
  0
LINE
  8
0
 10
15.0567
 20
97.2138
 11
15.9324
 21
96.8671
  0
LINE
  8
0
 10
15.9324
 20
96.8671
 11
16.8446
 21
96.6328
  0
LINE
  8
0
 10
16.8446
 20
96.6328
 11
17.7791
 21
96.5148
  0
LINE
  8
0
 10
17.7791
 20
96.5148
 11
38.7209
 21
96.5148
  0
LINE
  8
0
 10
38.7209
 20
96.5148
 11
39.6553
 21
96.6328
  0
LINE
  8
0
 10
8.62476
 20
112.035
 11
8.86803
 21
112.098
  0
LINE
  8
0
 10
8.86803
 20
112.098
 11
9.10155
 21
112.19
  0
LINE
  8
0
 10
9.10155
 20
112.19
 11
9.32164
 21
112.311
  0
LINE
  8
0
 10
9.32164
 20
112.311
 11
9.52484
 21
112.459
  0
LINE
  8
0
 10
9.52484
 20
112.459
 11
9.70793
 21
112.631
  0
LINE
  8
0
 10
9.70793
 20
112.631
 11
9.86803
 21
112.824
  0
LINE
  8
0
 10
9.86803
 20
112.824
 11
10.0026
 21
113.036
  0
LINE
  8
0
 10
10.0026
 20
113.036
 11
10.1095
 21
113.264
  0
LINE
  8
0
 10
10.1095
 20
113.264
 11
10.1872
 21
113.503
  0
LINE
  8
0
 10
10.1872
 20
113.503
 11
10.2342
 21
113.749
  0
LINE
  8
0
 10
10.2342
 20
113.749
 11
10.25
 21
114
  0
LINE
  8
0
 10
10.25
 20
114
 11
10.2342
 21
114.251
  0
LINE
  8
0
 10
10.2342
 20
114.251
 11
10.1872
 21
114.497
  0
LINE
  8
0
 10
10.1872
 20
114.497
 11
10.1095
 21
114.736
  0
LINE
  8
0
 10
10.1095
 20
114.736
 11
10.0026
 21
114.964
  0
LINE
  8
0
 10
10.0026
 20
114.964
 11
9.86803
 21
115.176
  0
LINE
  8
0
 10
9.86803
 20
115.176
 11
9.70793
 21
115.369
  0
LINE
  8
0
 10
9.70793
 20
115.369
 11
9.52484
 21
115.541
  0
LINE
  8
0
 10
9.52484
 20
115.541
 11
9.32164
 21
115.689
  0
LINE
  8
0
 10
9.32164
 20
115.689
 11
9.10155
 21
115.81
  0
LINE
  8
0
 10
9.10155
 20
115.81
 11
8.86803
 21
115.902
  0
LINE
  8
0
 10
8.86803
 20
115.902
 11
8.62476
 21
115.965
  0
LINE
  8
0
 10
8.62476
 20
115.965
 11
8.37558
 21
115.996
  0
LINE
  8
0
 10
8.37558
 20
115.996
 11
8.1244
 21
115.996
  0
LINE
  8
0
 10
8.1244
 20
115.996
 11
7.87523
 21
115.965
  0
LINE
  8
0
 10
7.87523
 20
115.965
 11
7.63196
 21
115.902
  0
LINE
  8
0
 10
7.63196
 20
115.902
 11
7.39844
 21
115.81
  0
LINE
  8
0
 10
7.39844
 20
115.81
 11
7.17834
 21
115.689
  0
LINE
  8
0
 10
7.17834
 20
115.689
 11
6.97514
 21
115.541
  0
LINE
  8
0
 10
6.97514
 20
115.541
 11
6.79205
 21
115.369
  0
LINE
  8
0
 10
6.79205
 20
115.369
 11
6.63196
 21
115.176
  0
LINE
  8
0
 10
6.63196
 20
115.176
 11
6.49738
 21
114.964
  0
LINE
  8
0
 10
6.49738
 20
114.964
 11
6.39044
 21
114.736
  0
LINE
  8
0
 10
6.39044
 20
114.736
 11
6.31282
 21
114.497
  0
LINE
  8
0
 10
6.31282
 20
114.497
 11
6.26576
 21
114.251
  0
LINE
  8
0
 10
6.26576
 20
114.251
 11
6.25
 21
114
  0
LINE
  8
0
 10
6.25
 20
114
 11
6.26576
 21
113.749
  0
LINE
  8
0
 10
6.26576
 20
113.749
 11
6.31282
 21
113.503
  0
LINE
  8
0
 10
6.31282
 20
113.503
 11
6.39044
 21
113.264
  0
LINE
  8
0
 10
6.39044
 20
113.264
 11
6.49738
 21
113.036
  0
LINE
  8
0
 10
6.49738
 20
113.036
 11
6.63196
 21
112.824
  0
LINE
  8
0
 10
6.63196
 20
112.824
 11
6.79205
 21
112.631
  0
LINE
  8
0
 10
6.79205
 20
112.631
 11
6.97514
 21
112.459
  0
LINE
  8
0
 10
6.97514
 20
112.459
 11
7.17834
 21
112.311
  0
LINE
  8
0
 10
7.17834
 20
112.311
 11
7.39844
 21
112.19
  0
LINE
  8
0
 10
7.39844
 20
112.19
 11
7.63196
 21
112.098
  0
LINE
  8
0
 10
7.63196
 20
112.098
 11
7.87523
 21
112.035
  0
LINE
  8
0
 10
7.87523
 20
112.035
 11
8.1244
 21
112.004
  0
LINE
  8
0
 10
8.1244
 20
112.004
 11
8.37558
 21
112.004
  0
LINE
  8
0
 10
8.37558
 20
112.004
 11
8.62476
 21
112.035
  0
LINE
  8
0
 10
48.6248
 20
112.035
 11
48.868
 21
112.098
  0
LINE
  8
0
 10
48.868
 20
112.098
 11
49.1015
 21
112.19
  0
LINE
  8
0
 10
49.1015
 20
112.19
 11
49.3217
 21
112.311
  0
LINE
  8
0
 10
49.3217
 20
112.311
 11
49.5248
 21
112.459
  0
LINE
  8
0
 10
49.5248
 20
112.459
 11
49.7079
 21
112.631
  0
LINE
  8
0
 10
49.7079
 20
112.631
 11
49.868
 21
112.824
  0
LINE
  8
0
 10
49.868
 20
112.824
 11
50.0026
 21
113.036
  0
LINE
  8
0
 10
50.0026
 20
113.036
 11
50.1095
 21
113.264
  0
LINE
  8
0
 10
50.1095
 20
113.264
 11
50.1872
 21
113.503
  0
LINE
  8
0
 10
50.1872
 20
113.503
 11
50.2342
 21
113.749
  0
LINE
  8
0
 10
50.2342
 20
113.749
 11
50.25
 21
114
  0
LINE
  8
0
 10
50.25
 20
114
 11
50.2342
 21
114.251
  0
LINE
  8
0
 10
50.2342
 20
114.251
 11
50.1872
 21
114.497
  0
LINE
  8
0
 10
50.1872
 20
114.497
 11
50.1095
 21
114.736
  0
LINE
  8
0
 10
50.1095
 20
114.736
 11
50.0026
 21
114.964
  0
LINE
  8
0
 10
50.0026
 20
114.964
 11
49.868
 21
115.176
  0
LINE
  8
0
 10
49.868
 20
115.176
 11
49.7079
 21
115.369
  0
LINE
  8
0
 10
49.7079
 20
115.369
 11
49.5248
 21
115.541
  0
LINE
  8
0
 10
49.5248
 20
115.541
 11
49.3217
 21
115.689
  0
LINE
  8
0
 10
49.3217
 20
115.689
 11
49.1015
 21
115.81
  0
LINE
  8
0
 10
49.1015
 20
115.81
 11
48.868
 21
115.902
  0
LINE
  8
0
 10
48.868
 20
115.902
 11
48.6248
 21
115.965
  0
LINE
  8
0
 10
48.6248
 20
115.965
 11
48.3756
 21
115.996
  0
LINE
  8
0
 10
48.3756
 20
115.996
 11
48.1244
 21
115.996
  0
LINE
  8
0
 10
48.1244
 20
115.996
 11
47.8752
 21
115.965
  0
LINE
  8
0
 10
47.8752
 20
115.965
 11
47.632
 21
115.902
  0
LINE
  8
0
 10
47.632
 20
115.902
 11
47.3984
 21
115.81
  0
LINE
  8
0
 10
47.3984
 20
115.81
 11
47.1783
 21
115.689
  0
LINE
  8
0
 10
47.1783
 20
115.689
 11
46.9751
 21
115.541
  0
LINE
  8
0
 10
46.9751
 20
115.541
 11
46.7921
 21
115.369
  0
LINE
  8
0
 10
46.7921
 20
115.369
 11
46.632
 21
115.176
  0
LINE
  8
0
 10
46.632
 20
115.176
 11
46.4974
 21
114.964
  0
LINE
  8
0
 10
46.4974
 20
114.964
 11
46.3904
 21
114.736
  0
LINE
  8
0
 10
46.3904
 20
114.736
 11
46.3128
 21
114.497
  0
LINE
  8
0
 10
46.3128
 20
114.497
 11
46.2658
 21
114.251
  0
LINE
  8
0
 10
46.2658
 20
114.251
 11
46.25
 21
114
  0
LINE
  8
0
 10
46.25
 20
114
 11
46.2658
 21
113.749
  0
LINE
  8
0
 10
46.2658
 20
113.749
 11
46.3128
 21
113.503
  0
LINE
  8
0
 10
46.3128
 20
113.503
 11
46.3904
 21
113.264
  0
LINE
  8
0
 10
46.3904
 20
113.264
 11
46.4974
 21
113.036
  0
LINE
  8
0
 10
46.4974
 20
113.036
 11
46.632
 21
112.824
  0
LINE
  8
0
 10
46.632
 20
112.824
 11
46.7921
 21
112.631
  0
LINE
  8
0
 10
46.7921
 20
112.631
 11
46.9751
 21
112.459
  0
LINE
  8
0
 10
46.9751
 20
112.459
 11
47.1783
 21
112.311
  0
LINE
  8
0
 10
47.1783
 20
112.311
 11
47.3984
 21
112.19
  0
LINE
  8
0
 10
47.3984
 20
112.19
 11
47.632
 21
112.098
  0
LINE
  8
0
 10
47.632
 20
112.098
 11
47.8752
 21
112.035
  0
LINE
  8
0
 10
47.8752
 20
112.035
 11
48.1244
 21
112.004
  0
LINE
  8
0
 10
48.1244
 20
112.004
 11
48.3756
 21
112.004
  0
LINE
  8
0
 10
48.3756
 20
112.004
 11
48.6248
 21
112.035
  0
LINE
  8
0
 10
10.2791
 20
32.0148
 11
9.34464
 21
32.1328
  0
LINE
  8
0
 10
9.34464
 20
32.1328
 11
8.43237
 21
32.3671
  0
LINE
  8
0
 10
8.43237
 20
32.3671
 11
7.55666
 21
32.7138
  0
LINE
  8
0
 10
7.55666
 20
32.7138
 11
6.73129
 21
33.1675
  0
LINE
  8
0
 10
6.73129
 20
33.1675
 11
5.96931
 21
33.7211
  0
LINE
  8
0
 10
5.96931
 20
33.7211
 11
5.28273
 21
34.3659
  0
LINE
  8
0
 10
5.28273
 20
34.3659
 11
4.68237
 21
35.0916
  0
LINE
  8
0
 10
4.68237
 20
35.0916
 11
4.17769
 21
35.8868
  0
LINE
  8
0
 10
4.17769
 20
35.8868
 11
3.77667
 21
36.7391
  0
LINE
  8
0
 10
3.77667
 20
36.7391
 11
3.48563
 21
37.6348
  0
LINE
  8
0
 10
3.48563
 20
37.6348
 11
3.30913
 21
38.56
  0
LINE
  8
0
 10
3.30913
 20
38.56
 11
3.25
 21
39.5
  0
LINE
  8
0
 10
3.25
 20
39.5
 11
3.25
 21
74.5
  0
LINE
  8
0
 10
3.25
 20
74.5
 11
3.30913
 21
75.44
  0
LINE
  8
0
 10
3.30913
 20
75.44
 11
3.48563
 21
76.3652
  0
LINE
  8
0
 10
3.48563
 20
76.3652
 11
3.77667
 21
77.2609
  0
LINE
  8
0
 10
3.77667
 20
77.2609
 11
4.17769
 21
78.1131
  0
LINE
  8
0
 10
4.17769
 20
78.1131
 11
4.68237
 21
78.9084
  0
LINE
  8
0
 10
4.68237
 20
78.9084
 11
5.28273
 21
79.6341
  0
LINE
  8
0
 10
5.28273
 20
79.6341
 11
5.96931
 21
80.2788
  0
LINE
  8
0
 10
5.96931
 20
80.2788
 11
6.73129
 21
80.8325
  0
LINE
  8
0
 10
6.73129
 20
80.8325
 11
7.55666
 21
81.2862
  0
LINE
  8
0
 10
7.55666
 20
81.2862
 11
8.43237
 21
81.6329
  0
LINE
  8
0
 10
8.43237
 20
81.6329
 11
9.34464
 21
81.8672
  0
LINE
  8
0
 10
9.34464
 20
81.8672
 11
10.2791
 21
81.9852
  0
LINE
  8
0
 10
10.2791
 20
81.9852
 11
46.2209
 21
81.9852
  0
LINE
  8
0
 10
46.2209
 20
81.9852
 11
47.1553
 21
81.8672
  0
LINE
  8
0
 10
47.1553
 20
81.8672
 11
48.0676
 21
81.6329
  0
LINE
  8
0
 10
48.0676
 20
81.6329
 11
48.9433
 21
81.2862
  0
LINE
  8
0
 10
48.9433
 20
81.2862
 11
49.7687
 21
80.8325
  0
LINE
  8
0
 10
49.7687
 20
80.8325
 11
50.5307
 21
80.2788
  0
LINE
  8
0
 10
50.5307
 20
80.2788
 11
51.2173
 21
79.6341
  0
LINE
  8
0
 10
51.2173
 20
79.6341
 11
51.8176
 21
78.9084
  0
LINE
  8
0
 10
51.8176
 20
78.9084
 11
52.3223
 21
78.1131
  0
LINE
  8
0
 10
52.3223
 20
78.1131
 11
52.7233
 21
77.2609
  0
LINE
  8
0
 10
52.7233
 20
77.2609
 11
53.0144
 21
76.3652
  0
LINE
  8
0
 10
53.0144
 20
76.3652
 11
53.1909
 21
75.44
  0
LINE
  8
0
 10
53.1909
 20
75.44
 11
53.25
 21
74.5
  0
LINE
  8
0
 10
53.25
 20
74.5
 11
53.25
 21
39.5
  0
LINE
  8
0
 10
53.25
 20
39.5
 11
53.1909
 21
38.56
  0
LINE
  8
0
 10
53.1909
 20
38.56
 11
53.0144
 21
37.6348
  0
LINE
  8
0
 10
53.0144
 20
37.6348
 11
52.7233
 21
36.7391
  0
LINE
  8
0
 10
52.7233
 20
36.7391
 11
52.3223
 21
35.8868
  0
LINE
  8
0
 10
52.3223
 20
35.8868
 11
51.8176
 21
35.0916
  0
LINE
  8
0
 10
51.8176
 20
35.0916
 11
51.2173
 21
34.3659
  0
LINE
  8
0
 10
51.2173
 20
34.3659
 11
50.5307
 21
33.7211
  0
LINE
  8
0
 10
50.5307
 20
33.7211
 11
49.7687
 21
33.1675
  0
LINE
  8
0
 10
49.7687
 20
33.1675
 11
48.9433
 21
32.7138
  0
LINE
  8
0
 10
48.9433
 20
32.7138
 11
48.0676
 21
32.3671
  0
LINE
  8
0
 10
48.0676
 20
32.3671
 11
47.1553
 21
32.1328
  0
LINE
  8
0
 10
47.1553
 20
32.1328
 11
46.2209
 21
32.0148
  0
LINE
  8
0
 10
46.2209
 20
32.0148
 11
10.2791
 21
32.0148
  0
LINE
  8
0
 10
42.25
 20
71
 11
14.25
 21
71
  0
LINE
  8
0
 10
14.25
 20
71
 11
14.25
 21
43
  0
LINE
  8
0
 10
14.25
 20
43
 11
42.25
 21
43
  0
LINE
  8
0
 10
42.25
 20
43
 11
42.25
 21
71
  0
LINE
  8
0
 10
8.62476
 20
55.0354
 11
8.86803
 21
55.0979
  0
LINE
  8
0
 10
8.86803
 20
55.0979
 11
9.10155
 21
55.1903
  0
LINE
  8
0
 10
9.10155
 20
55.1903
 11
9.32164
 21
55.3113
  0
LINE
  8
0
 10
9.32164
 20
55.3113
 11
9.52484
 21
55.459
  0
LINE
  8
0
 10
9.52484
 20
55.459
 11
9.70793
 21
55.6309
  0
LINE
  8
0
 10
9.70793
 20
55.6309
 11
9.86803
 21
55.8244
  0
LINE
  8
0
 10
9.86803
 20
55.8244
 11
10.0026
 21
56.0365
  0
LINE
  8
0
 10
10.0026
 20
56.0365
 11
10.1095
 21
56.2637
  0
LINE
  8
0
 10
10.1095
 20
56.2637
 11
10.1872
 21
56.5026
  0
LINE
  8
0
 10
10.1872
 20
56.5026
 11
10.2342
 21
56.7493
  0
LINE
  8
0
 10
10.2342
 20
56.7493
 11
10.25
 21
57
  0
LINE
  8
0
 10
10.25
 20
57
 11
10.2342
 21
57.2507
  0
LINE
  8
0
 10
10.2342
 20
57.2507
 11
10.1872
 21
57.4974
  0
LINE
  8
0
 10
10.1872
 20
57.4974
 11
10.1095
 21
57.7362
  0
LINE
  8
0
 10
10.1095
 20
57.7362
 11
10.0026
 21
57.9635
  0
LINE
  8
0
 10
10.0026
 20
57.9635
 11
9.86803
 21
58.1756
  0
LINE
  8
0
 10
9.86803
 20
58.1756
 11
9.70793
 21
58.3691
  0
LINE
  8
0
 10
9.70793
 20
58.3691
 11
9.52484
 21
58.541
  0
LINE
  8
0
 10
9.52484
 20
58.541
 11
9.32164
 21
58.6886
  0
LINE
  8
0
 10
9.32164
 20
58.6886
 11
9.10155
 21
58.8096
  0
LINE
  8
0
 10
9.10155
 20
58.8096
 11
8.86803
 21
58.9021
  0
LINE
  8
0
 10
8.86803
 20
58.9021
 11
8.62476
 21
58.9646
  0
LINE
  8
0
 10
8.62476
 20
58.9646
 11
8.37558
 21
58.996
  0
LINE
  8
0
 10
8.37558
 20
58.996
 11
8.1244
 21
58.996
  0
LINE
  8
0
 10
8.1244
 20
58.996
 11
7.87523
 21
58.9646
  0
LINE
  8
0
 10
7.87523
 20
58.9646
 11
7.63196
 21
58.9021
  0
LINE
  8
0
 10
7.63196
 20
58.9021
 11
7.39844
 21
58.8096
  0
LINE
  8
0
 10
7.39844
 20
58.8096
 11
7.17834
 21
58.6886
  0
LINE
  8
0
 10
7.17834
 20
58.6886
 11
6.97514
 21
58.541
  0
LINE
  8
0
 10
6.97514
 20
58.541
 11
6.79205
 21
58.3691
  0
LINE
  8
0
 10
6.79205
 20
58.3691
 11
6.63196
 21
58.1756
  0
LINE
  8
0
 10
6.63196
 20
58.1756
 11
6.49738
 21
57.9635
  0
LINE
  8
0
 10
6.49738
 20
57.9635
 11
6.39044
 21
57.7362
  0
LINE
  8
0
 10
6.39044
 20
57.7362
 11
6.31282
 21
57.4974
  0
LINE
  8
0
 10
6.31282
 20
57.4974
 11
6.26576
 21
57.2507
  0
LINE
  8
0
 10
6.26576
 20
57.2507
 11
6.25
 21
57
  0
LINE
  8
0
 10
6.25
 20
57
 11
6.26576
 21
56.7493
  0
LINE
  8
0
 10
6.26576
 20
56.7493
 11
6.31282
 21
56.5026
  0
LINE
  8
0
 10
6.31282
 20
56.5026
 11
6.39044
 21
56.2637
  0
LINE
  8
0
 10
6.39044
 20
56.2637
 11
6.49738
 21
56.0365
  0
LINE
  8
0
 10
6.49738
 20
56.0365
 11
6.63196
 21
55.8244
  0
LINE
  8
0
 10
6.63196
 20
55.8244
 11
6.79205
 21
55.6309
  0
LINE
  8
0
 10
6.79205
 20
55.6309
 11
6.97514
 21
55.459
  0
LINE
  8
0
 10
6.97514
 20
55.459
 11
7.17834
 21
55.3113
  0
LINE
  8
0
 10
7.17834
 20
55.3113
 11
7.39844
 21
55.1903
  0
LINE
  8
0
 10
7.39844
 20
55.1903
 11
7.63196
 21
55.0979
  0
LINE
  8
0
 10
7.63196
 20
55.0979
 11
7.87523
 21
55.0354
  0
LINE
  8
0
 10
7.87523
 20
55.0354
 11
8.1244
 21
55.0039
  0
LINE
  8
0
 10
8.1244
 20
55.0039
 11
8.37558
 21
55.0039
  0
LINE
  8
0
 10
8.37558
 20
55.0039
 11
8.62476
 21
55.0354
  0
LINE
  8
0
 10
48.6248
 20
55.0354
 11
48.868
 21
55.0979
  0
LINE
  8
0
 10
48.868
 20
55.0979
 11
49.1015
 21
55.1903
  0
LINE
  8
0
 10
49.1015
 20
55.1903
 11
49.3217
 21
55.3113
  0
LINE
  8
0
 10
49.3217
 20
55.3113
 11
49.5248
 21
55.459
  0
LINE
  8
0
 10
49.5248
 20
55.459
 11
49.7079
 21
55.6309
  0
LINE
  8
0
 10
49.7079
 20
55.6309
 11
49.868
 21
55.8244
  0
LINE
  8
0
 10
49.868
 20
55.8244
 11
50.0026
 21
56.0365
  0
LINE
  8
0
 10
50.0026
 20
56.0365
 11
50.1095
 21
56.2637
  0
LINE
  8
0
 10
50.1095
 20
56.2637
 11
50.1872
 21
56.5026
  0
LINE
  8
0
 10
50.1872
 20
56.5026
 11
50.2342
 21
56.7493
  0
LINE
  8
0
 10
50.2342
 20
56.7493
 11
50.25
 21
57
  0
LINE
  8
0
 10
50.25
 20
57
 11
50.2342
 21
57.2507
  0
LINE
  8
0
 10
50.2342
 20
57.2507
 11
50.1872
 21
57.4974
  0
LINE
  8
0
 10
50.1872
 20
57.4974
 11
50.1095
 21
57.7362
  0
LINE
  8
0
 10
50.1095
 20
57.7362
 11
50.0026
 21
57.9635
  0
LINE
  8
0
 10
50.0026
 20
57.9635
 11
49.868
 21
58.1756
  0
LINE
  8
0
 10
49.868
 20
58.1756
 11
49.7079
 21
58.3691
  0
LINE
  8
0
 10
49.7079
 20
58.3691
 11
49.5248
 21
58.541
  0
LINE
  8
0
 10
49.5248
 20
58.541
 11
49.3217
 21
58.6886
  0
LINE
  8
0
 10
49.3217
 20
58.6886
 11
49.1015
 21
58.8096
  0
LINE
  8
0
 10
49.1015
 20
58.8096
 11
48.868
 21
58.9021
  0
LINE
  8
0
 10
48.868
 20
58.9021
 11
48.6248
 21
58.9646
  0
LINE
  8
0
 10
48.6248
 20
58.9646
 11
48.3756
 21
58.996
  0
LINE
  8
0
 10
48.3756
 20
58.996
 11
48.1244
 21
58.996
  0
LINE
  8
0
 10
48.1244
 20
58.996
 11
47.8752
 21
58.9646
  0
LINE
  8
0
 10
47.8752
 20
58.9646
 11
47.632
 21
58.9021
  0
LINE
  8
0
 10
47.632
 20
58.9021
 11
47.3984
 21
58.8096
  0
LINE
  8
0
 10
47.3984
 20
58.8096
 11
47.1783
 21
58.6886
  0
LINE
  8
0
 10
47.1783
 20
58.6886
 11
46.9751
 21
58.541
  0
LINE
  8
0
 10
46.9751
 20
58.541
 11
46.7921
 21
58.3691
  0
LINE
  8
0
 10
46.7921
 20
58.3691
 11
46.632
 21
58.1756
  0
LINE
  8
0
 10
46.632
 20
58.1756
 11
46.4974
 21
57.9635
  0
LINE
  8
0
 10
46.4974
 20
57.9635
 11
46.3904
 21
57.7362
  0
LINE
  8
0
 10
46.3904
 20
57.7362
 11
46.3128
 21
57.4974
  0
LINE
  8
0
 10
46.3128
 20
57.4974
 11
46.2658
 21
57.2507
  0
LINE
  8
0
 10
46.2658
 20
57.2507
 11
46.25
 21
57
  0
LINE
  8
0
 10
46.25
 20
57
 11
46.2658
 21
56.7493
  0
LINE
  8
0
 10
46.2658
 20
56.7493
 11
46.3128
 21
56.5026
  0
LINE
  8
0
 10
46.3128
 20
56.5026
 11
46.3904
 21
56.2637
  0
LINE
  8
0
 10
46.3904
 20
56.2637
 11
46.4974
 21
56.0365
  0
LINE
  8
0
 10
46.4974
 20
56.0365
 11
46.632
 21
55.8244
  0
LINE
  8
0
 10
46.632
 20
55.8244
 11
46.7921
 21
55.6309
  0
LINE
  8
0
 10
46.7921
 20
55.6309
 11
46.9751
 21
55.459
  0
LINE
  8
0
 10
46.9751
 20
55.459
 11
47.1783
 21
55.3113
  0
LINE
  8
0
 10
47.1783
 20
55.3113
 11
47.3984
 21
55.1903
  0
LINE
  8
0
 10
47.3984
 20
55.1903
 11
47.632
 21
55.0979
  0
LINE
  8
0
 10
47.632
 20
55.0979
 11
47.8752
 21
55.0354
  0
LINE
  8
0
 10
47.8752
 20
55.0354
 11
48.1244
 21
55.0039
  0
LINE
  8
0
 10
48.1244
 20
55.0039
 11
48.3756
 21
55.0039
  0
LINE
  8
0
 10
48.3756
 20
55.0039
 11
48.6248
 21
55.0354
  0
LINE
  8
0
 10
-46.2209
 20
32.0148
 11
-47.1553
 21
32.1328
  0
LINE
  8
0
 10
-47.1553
 20
32.1328
 11
-48.0676
 21
32.3671
  0
LINE
  8
0
 10
-48.0676
 20
32.3671
 11
-48.9433
 21
32.7138
  0
LINE
  8
0
 10
-48.9433
 20
32.7138
 11
-49.7687
 21
33.1675
  0
LINE
  8
0
 10
-49.7687
 20
33.1675
 11
-50.5307
 21
33.7211
  0
LINE
  8
0
 10
-50.5307
 20
33.7211
 11
-51.2173
 21
34.3659
  0
LINE
  8
0
 10
-51.2173
 20
34.3659
 11
-51.8176
 21
35.0916
  0
LINE
  8
0
 10
-51.8176
 20
35.0916
 11
-52.3223
 21
35.8868
  0
LINE
  8
0
 10
-52.3223
 20
35.8868
 11
-52.7233
 21
36.7391
  0
LINE
  8
0
 10
-52.7233
 20
36.7391
 11
-53.0144
 21
37.6348
  0
LINE
  8
0
 10
-53.0144
 20
37.6348
 11
-53.1909
 21
38.56
  0
LINE
  8
0
 10
-53.1909
 20
38.56
 11
-53.25
 21
39.5
  0
LINE
  8
0
 10
-53.25
 20
39.5
 11
-53.25
 21
74.5
  0
LINE
  8
0
 10
-53.25
 20
74.5
 11
-53.1909
 21
75.44
  0
LINE
  8
0
 10
-53.1909
 20
75.44
 11
-53.0144
 21
76.3652
  0
LINE
  8
0
 10
-53.0144
 20
76.3652
 11
-52.7233
 21
77.2609
  0
LINE
  8
0
 10
-52.7233
 20
77.2609
 11
-52.3223
 21
78.1131
  0
LINE
  8
0
 10
-52.3223
 20
78.1131
 11
-51.8176
 21
78.9084
  0
LINE
  8
0
 10
-51.8176
 20
78.9084
 11
-51.2173
 21
79.6341
  0
LINE
  8
0
 10
-51.2173
 20
79.6341
 11
-50.5307
 21
80.2788
  0
LINE
  8
0
 10
-50.5307
 20
80.2788
 11
-49.7687
 21
80.8325
  0
LINE
  8
0
 10
-49.7687
 20
80.8325
 11
-48.9433
 21
81.2862
  0
LINE
  8
0
 10
-48.9433
 20
81.2862
 11
-48.0676
 21
81.6329
  0
LINE
  8
0
 10
-48.0676
 20
81.6329
 11
-47.1553
 21
81.8672
  0
LINE
  8
0
 10
-47.1553
 20
81.8672
 11
-46.2209
 21
81.9852
  0
LINE
  8
0
 10
-46.2209
 20
81.9852
 11
-10.2791
 21
81.9852
  0
LINE
  8
0
 10
-10.2791
 20
81.9852
 11
-9.34464
 21
81.8672
  0
LINE
  8
0
 10
-9.34464
 20
81.8672
 11
-8.43237
 21
81.6329
  0
LINE
  8
0
 10
-8.43237
 20
81.6329
 11
-7.55666
 21
81.2862
  0
LINE
  8
0
 10
-7.55666
 20
81.2862
 11
-6.73129
 21
80.8325
  0
LINE
  8
0
 10
-6.73129
 20
80.8325
 11
-5.96931
 21
80.2788
  0
LINE
  8
0
 10
-5.96931
 20
80.2788
 11
-5.28273
 21
79.6341
  0
LINE
  8
0
 10
-5.28273
 20
79.6341
 11
-4.68237
 21
78.9084
  0
LINE
  8
0
 10
-4.68237
 20
78.9084
 11
-4.17769
 21
78.1131
  0
LINE
  8
0
 10
-4.17769
 20
78.1131
 11
-3.77667
 21
77.2609
  0
LINE
  8
0
 10
-3.77667
 20
77.2609
 11
-3.48563
 21
76.3652
  0
LINE
  8
0
 10
-3.48563
 20
76.3652
 11
-3.30913
 21
75.44
  0
LINE
  8
0
 10
-3.30913
 20
75.44
 11
-3.25
 21
74.5
  0
LINE
  8
0
 10
-3.25
 20
74.5
 11
-3.25
 21
39.5
  0
LINE
  8
0
 10
-3.25
 20
39.5
 11
-3.30913
 21
38.56
  0
LINE
  8
0
 10
-3.30913
 20
38.56
 11
-3.48563
 21
37.6348
  0
LINE
  8
0
 10
-3.48563
 20
37.6348
 11
-3.77667
 21
36.7391
  0
LINE
  8
0
 10
-3.77667
 20
36.7391
 11
-4.17769
 21
35.8868
  0
LINE
  8
0
 10
-4.17769
 20
35.8868
 11
-4.68237
 21
35.0916
  0
LINE
  8
0
 10
-4.68237
 20
35.0916
 11
-5.28273
 21
34.3659
  0
LINE
  8
0
 10
-5.28273
 20
34.3659
 11
-5.96931
 21
33.7211
  0
LINE
  8
0
 10
-5.96931
 20
33.7211
 11
-6.73129
 21
33.1675
  0
LINE
  8
0
 10
-6.73129
 20
33.1675
 11
-7.55666
 21
32.7138
  0
LINE
  8
0
 10
-7.55666
 20
32.7138
 11
-8.43237
 21
32.3671
  0
LINE
  8
0
 10
-8.43237
 20
32.3671
 11
-9.34464
 21
32.1328
  0
LINE
  8
0
 10
-9.34464
 20
32.1328
 11
-10.2791
 21
32.0148
  0
LINE
  8
0
 10
-10.2791
 20
32.0148
 11
-46.2209
 21
32.0148
  0
LINE
  8
0
 10
-14.25
 20
71
 11
-42.25
 21
71
  0
LINE
  8
0
 10
-42.25
 20
71
 11
-42.25
 21
43
  0
LINE
  8
0
 10
-42.25
 20
43
 11
-14.25
 21
43
  0
LINE
  8
0
 10
-14.25
 20
43
 11
-14.25
 21
71
  0
LINE
  8
0
 10
-7.87523
 20
55.0354
 11
-7.63196
 21
55.0979
  0
LINE
  8
0
 10
-7.63196
 20
55.0979
 11
-7.39844
 21
55.1903
  0
LINE
  8
0
 10
-7.39844
 20
55.1903
 11
-7.17834
 21
55.3113
  0
LINE
  8
0
 10
-7.17834
 20
55.3113
 11
-6.97514
 21
55.459
  0
LINE
  8
0
 10
-6.97514
 20
55.459
 11
-6.79205
 21
55.6309
  0
LINE
  8
0
 10
-6.79205
 20
55.6309
 11
-6.63196
 21
55.8244
  0
LINE
  8
0
 10
-6.63196
 20
55.8244
 11
-6.49738
 21
56.0365
  0
LINE
  8
0
 10
-6.49738
 20
56.0365
 11
-6.39044
 21
56.2637
  0
LINE
  8
0
 10
-6.39044
 20
56.2637
 11
-6.31282
 21
56.5026
  0
LINE
  8
0
 10
-6.31282
 20
56.5026
 11
-6.26576
 21
56.7493
  0
LINE
  8
0
 10
-6.26576
 20
56.7493
 11
-6.25
 21
57
  0
LINE
  8
0
 10
-6.25
 20
57
 11
-6.26576
 21
57.2507
  0
LINE
  8
0
 10
-6.26576
 20
57.2507
 11
-6.31282
 21
57.4974
  0
LINE
  8
0
 10
-6.31282
 20
57.4974
 11
-6.39044
 21
57.7362
  0
LINE
  8
0
 10
-6.39044
 20
57.7362
 11
-6.49738
 21
57.9635
  0
LINE
  8
0
 10
-6.49738
 20
57.9635
 11
-6.63196
 21
58.1756
  0
LINE
  8
0
 10
-6.63196
 20
58.1756
 11
-6.79205
 21
58.3691
  0
LINE
  8
0
 10
-6.79205
 20
58.3691
 11
-6.97514
 21
58.541
  0
LINE
  8
0
 10
-6.97514
 20
58.541
 11
-7.17834
 21
58.6886
  0
LINE
  8
0
 10
-7.17834
 20
58.6886
 11
-7.39844
 21
58.8096
  0
LINE
  8
0
 10
-7.39844
 20
58.8096
 11
-7.63196
 21
58.9021
  0
LINE
  8
0
 10
-7.63196
 20
58.9021
 11
-7.87523
 21
58.9646
  0
LINE
  8
0
 10
-7.87523
 20
58.9646
 11
-8.1244
 21
58.996
  0
LINE
  8
0
 10
-8.1244
 20
58.996
 11
-8.37558
 21
58.996
  0
LINE
  8
0
 10
-8.37558
 20
58.996
 11
-8.62476
 21
58.9646
  0
LINE
  8
0
 10
-8.62476
 20
58.9646
 11
-8.86803
 21
58.9021
  0
LINE
  8
0
 10
-8.86803
 20
58.9021
 11
-9.10155
 21
58.8096
  0
LINE
  8
0
 10
-9.10155
 20
58.8096
 11
-9.32164
 21
58.6886
  0
LINE
  8
0
 10
-9.32164
 20
58.6886
 11
-9.52484
 21
58.541
  0
LINE
  8
0
 10
-9.52484
 20
58.541
 11
-9.70793
 21
58.3691
  0
LINE
  8
0
 10
-9.70793
 20
58.3691
 11
-9.86803
 21
58.1756
  0
LINE
  8
0
 10
-9.86803
 20
58.1756
 11
-10.0026
 21
57.9635
  0
LINE
  8
0
 10
-10.0026
 20
57.9635
 11
-10.1095
 21
57.7362
  0
LINE
  8
0
 10
-10.1095
 20
57.7362
 11
-10.1872
 21
57.4974
  0
LINE
  8
0
 10
-10.1872
 20
57.4974
 11
-10.2342
 21
57.2507
  0
LINE
  8
0
 10
-10.2342
 20
57.2507
 11
-10.25
 21
57
  0
LINE
  8
0
 10
-10.25
 20
57
 11
-10.2342
 21
56.7493
  0
LINE
  8
0
 10
-10.2342
 20
56.7493
 11
-10.1872
 21
56.5026
  0
LINE
  8
0
 10
-10.1872
 20
56.5026
 11
-10.1095
 21
56.2637
  0
LINE
  8
0
 10
-10.1095
 20
56.2637
 11
-10.0026
 21
56.0365
  0
LINE
  8
0
 10
-10.0026
 20
56.0365
 11
-9.86803
 21
55.8244
  0
LINE
  8
0
 10
-9.86803
 20
55.8244
 11
-9.70793
 21
55.6309
  0
LINE
  8
0
 10
-9.70793
 20
55.6309
 11
-9.52484
 21
55.459
  0
LINE
  8
0
 10
-9.52484
 20
55.459
 11
-9.32164
 21
55.3113
  0
LINE
  8
0
 10
-9.32164
 20
55.3113
 11
-9.10155
 21
55.1903
  0
LINE
  8
0
 10
-9.10155
 20
55.1903
 11
-8.86803
 21
55.0979
  0
LINE
  8
0
 10
-8.86803
 20
55.0979
 11
-8.62476
 21
55.0354
  0
LINE
  8
0
 10
-8.62476
 20
55.0354
 11
-8.37558
 21
55.0039
  0
LINE
  8
0
 10
-8.37558
 20
55.0039
 11
-8.1244
 21
55.0039
  0
LINE
  8
0
 10
-8.1244
 20
55.0039
 11
-7.87523
 21
55.0354
  0
LINE
  8
0
 10
-47.8752
 20
55.0354
 11
-47.632
 21
55.0979
  0
LINE
  8
0
 10
-47.632
 20
55.0979
 11
-47.3984
 21
55.1903
  0
LINE
  8
0
 10
-47.3984
 20
55.1903
 11
-47.1783
 21
55.3113
  0
LINE
  8
0
 10
-47.1783
 20
55.3113
 11
-46.9751
 21
55.459
  0
LINE
  8
0
 10
-46.9751
 20
55.459
 11
-46.7921
 21
55.6309
  0
LINE
  8
0
 10
-46.7921
 20
55.6309
 11
-46.632
 21
55.8244
  0
LINE
  8
0
 10
-46.632
 20
55.8244
 11
-46.4974
 21
56.0365
  0
LINE
  8
0
 10
-46.4974
 20
56.0365
 11
-46.3904
 21
56.2637
  0
LINE
  8
0
 10
-46.3904
 20
56.2637
 11
-46.3128
 21
56.5026
  0
LINE
  8
0
 10
-46.3128
 20
56.5026
 11
-46.2658
 21
56.7493
  0
LINE
  8
0
 10
-46.2658
 20
56.7493
 11
-46.25
 21
57
  0
LINE
  8
0
 10
-46.25
 20
57
 11
-46.2658
 21
57.2507
  0
LINE
  8
0
 10
-46.2658
 20
57.2507
 11
-46.3128
 21
57.4974
  0
LINE
  8
0
 10
-46.3128
 20
57.4974
 11
-46.3904
 21
57.7362
  0
LINE
  8
0
 10
-46.3904
 20
57.7362
 11
-46.4974
 21
57.9635
  0
LINE
  8
0
 10
-46.4974
 20
57.9635
 11
-46.632
 21
58.1756
  0
LINE
  8
0
 10
-46.632
 20
58.1756
 11
-46.7921
 21
58.3691
  0
LINE
  8
0
 10
-46.7921
 20
58.3691
 11
-46.9751
 21
58.541
  0
LINE
  8
0
 10
-46.9751
 20
58.541
 11
-47.1783
 21
58.6886
  0
LINE
  8
0
 10
-47.1783
 20
58.6886
 11
-47.3984
 21
58.8096
  0
LINE
  8
0
 10
-47.3984
 20
58.8096
 11
-47.632
 21
58.9021
  0
LINE
  8
0
 10
-47.632
 20
58.9021
 11
-47.8752
 21
58.9646
  0
LINE
  8
0
 10
-47.8752
 20
58.9646
 11
-48.1244
 21
58.996
  0
LINE
  8
0
 10
-48.1244
 20
58.996
 11
-48.3756
 21
58.996
  0
LINE
  8
0
 10
-48.3756
 20
58.996
 11
-48.6248
 21
58.9646
  0
LINE
  8
0
 10
-48.6248
 20
58.9646
 11
-48.868
 21
58.9021
  0
LINE
  8
0
 10
-48.868
 20
58.9021
 11
-49.1015
 21
58.8096
  0
LINE
  8
0
 10
-49.1015
 20
58.8096
 11
-49.3217
 21
58.6886
  0
LINE
  8
0
 10
-49.3217
 20
58.6886
 11
-49.5248
 21
58.541
  0
LINE
  8
0
 10
-49.5248
 20
58.541
 11
-49.7079
 21
58.3691
  0
LINE
  8
0
 10
-49.7079
 20
58.3691
 11
-49.868
 21
58.1756
  0
LINE
  8
0
 10
-49.868
 20
58.1756
 11
-50.0026
 21
57.9635
  0
LINE
  8
0
 10
-50.0026
 20
57.9635
 11
-50.1095
 21
57.7362
  0
LINE
  8
0
 10
-50.1095
 20
57.7362
 11
-50.1872
 21
57.4974
  0
LINE
  8
0
 10
-50.1872
 20
57.4974
 11
-50.2342
 21
57.2507
  0
LINE
  8
0
 10
-50.2342
 20
57.2507
 11
-50.25
 21
57
  0
LINE
  8
0
 10
-50.25
 20
57
 11
-50.2342
 21
56.7493
  0
LINE
  8
0
 10
-50.2342
 20
56.7493
 11
-50.1872
 21
56.5026
  0
LINE
  8
0
 10
-50.1872
 20
56.5026
 11
-50.1095
 21
56.2637
  0
LINE
  8
0
 10
-50.1095
 20
56.2637
 11
-50.0026
 21
56.0365
  0
LINE
  8
0
 10
-50.0026
 20
56.0365
 11
-49.868
 21
55.8244
  0
LINE
  8
0
 10
-49.868
 20
55.8244
 11
-49.7079
 21
55.6309
  0
LINE
  8
0
 10
-49.7079
 20
55.6309
 11
-49.5248
 21
55.459
  0
LINE
  8
0
 10
-49.5248
 20
55.459
 11
-49.3217
 21
55.3113
  0
LINE
  8
0
 10
-49.3217
 20
55.3113
 11
-49.1015
 21
55.1903
  0
LINE
  8
0
 10
-49.1015
 20
55.1903
 11
-48.868
 21
55.0979
  0
LINE
  8
0
 10
-48.868
 20
55.0979
 11
-48.6248
 21
55.0354
  0
LINE
  8
0
 10
-48.6248
 20
55.0354
 11
-48.3756
 21
55.0039
  0
LINE
  8
0
 10
-48.3756
 20
55.0039
 11
-48.1244
 21
55.0039
  0
LINE
  8
0
 10
-48.1244
 20
55.0039
 11
-47.8752
 21
55.0354
  0
LINE
  8
0
 10
3.48563
 20
19.3652
 11
3.77667
 21
20.2609
  0
LINE
  8
0
 10
3.77667
 20
20.2609
 11
4.17769
 21
21.1131
  0
LINE
  8
0
 10
4.17769
 20
21.1131
 11
4.68237
 21
21.9084
  0
LINE
  8
0
 10
4.68237
 20
21.9084
 11
5.28273
 21
22.6341
  0
LINE
  8
0
 10
5.28273
 20
22.6341
 11
5.96931
 21
23.2788
  0
LINE
  8
0
 10
5.96931
 20
23.2788
 11
6.73129
 21
23.8325
  0
LINE
  8
0
 10
6.73129
 20
23.8325
 11
7.55666
 21
24.2862
  0
LINE
  8
0
 10
7.55666
 20
24.2862
 11
8.43237
 21
24.6329
  0
LINE
  8
0
 10
8.43237
 20
24.6329
 11
9.34464
 21
24.8671
  0
LINE
  8
0
 10
9.34464
 20
24.8671
 11
10.2791
 21
24.9852
  0
LINE
  8
0
 10
10.2791
 20
24.9852
 11
46.2209
 21
24.9852
  0
LINE
  8
0
 10
46.2209
 20
24.9852
 11
47.1553
 21
24.8671
  0
LINE
  8
0
 10
47.1553
 20
24.8671
 11
48.0676
 21
24.6329
  0
LINE
  8
0
 10
48.0676
 20
24.6329
 11
48.9433
 21
24.2862
  0
LINE
  8
0
 10
48.9433
 20
24.2862
 11
49.7687
 21
23.8325
  0
LINE
  8
0
 10
49.7687
 20
23.8325
 11
50.5307
 21
23.2788
  0
LINE
  8
0
 10
50.5307
 20
23.2788
 11
51.2173
 21
22.6341
  0
LINE
  8
0
 10
51.2173
 20
22.6341
 11
51.8176
 21
21.9084
  0
LINE
  8
0
 10
51.8176
 20
21.9084
 11
52.3223
 21
21.1131
  0
LINE
  8
0
 10
52.3223
 20
21.1131
 11
52.7233
 21
20.2609
  0
LINE
  8
0
 10
52.7233
 20
20.2609
 11
53.0144
 21
19.3652
  0
LINE
  8
0
 10
53.0144
 20
19.3652
 11
53.1909
 21
18.44
  0
LINE
  8
0
 10
53.1909
 20
18.44
 11
53.25
 21
17.5
  0
LINE
  8
0
 10
53.25
 20
17.5
 11
53.25
 21
-17.5
  0
LINE
  8
0
 10
53.25
 20
-17.5
 11
53.1909
 21
-18.44
  0
LINE
  8
0
 10
53.1909
 20
-18.44
 11
53.0144
 21
-19.3652
  0
LINE
  8
0
 10
53.0144
 20
-19.3652
 11
52.7233
 21
-20.2609
  0
LINE
  8
0
 10
52.7233
 20
-20.2609
 11
52.3223
 21
-21.1131
  0
LINE
  8
0
 10
52.3223
 20
-21.1131
 11
51.8176
 21
-21.9084
  0
LINE
  8
0
 10
51.8176
 20
-21.9084
 11
51.2173
 21
-22.6341
  0
LINE
  8
0
 10
51.2173
 20
-22.6341
 11
50.5307
 21
-23.2788
  0
LINE
  8
0
 10
50.5307
 20
-23.2788
 11
49.7687
 21
-23.8325
  0
LINE
  8
0
 10
49.7687
 20
-23.8325
 11
48.9433
 21
-24.2862
  0
LINE
  8
0
 10
48.9433
 20
-24.2862
 11
48.0676
 21
-24.6329
  0
LINE
  8
0
 10
48.0676
 20
-24.6329
 11
47.1553
 21
-24.8671
  0
LINE
  8
0
 10
47.1553
 20
-24.8671
 11
46.2209
 21
-24.9852
  0
LINE
  8
0
 10
46.2209
 20
-24.9852
 11
10.2791
 21
-24.9852
  0
LINE
  8
0
 10
10.2791
 20
-24.9852
 11
9.34464
 21
-24.8671
  0
LINE
  8
0
 10
9.34464
 20
-24.8671
 11
8.43237
 21
-24.6329
  0
LINE
  8
0
 10
8.43237
 20
-24.6329
 11
7.55666
 21
-24.2862
  0
LINE
  8
0
 10
7.55666
 20
-24.2862
 11
6.73129
 21
-23.8325
  0
LINE
  8
0
 10
6.73129
 20
-23.8325
 11
5.96931
 21
-23.2788
  0
LINE
  8
0
 10
5.96931
 20
-23.2788
 11
5.28273
 21
-22.6341
  0
LINE
  8
0
 10
5.28273
 20
-22.6341
 11
4.68237
 21
-21.9084
  0
LINE
  8
0
 10
4.68237
 20
-21.9084
 11
4.17769
 21
-21.1131
  0
LINE
  8
0
 10
4.17769
 20
-21.1131
 11
3.77667
 21
-20.2609
  0
LINE
  8
0
 10
3.77667
 20
-20.2609
 11
3.48563
 21
-19.3652
  0
LINE
  8
0
 10
3.48563
 20
-19.3652
 11
3.30913
 21
-18.44
  0
LINE
  8
0
 10
3.30913
 20
-18.44
 11
3.25
 21
-17.5
  0
LINE
  8
0
 10
3.25
 20
-17.5
 11
3.25
 21
17.5
  0
LINE
  8
0
 10
3.25
 20
17.5
 11
3.30913
 21
18.44
  0
LINE
  8
0
 10
3.30913
 20
18.44
 11
3.48563
 21
19.3652
  0
LINE
  8
0
 10
43.25
 20
15
 11
13.25
 21
15
  0
LINE
  8
0
 10
13.25
 20
15
 11
13.25
 21
-15
  0
LINE
  8
0
 10
13.25
 20
-15
 11
43.25
 21
-15
  0
LINE
  8
0
 10
43.25
 20
-15
 11
43.25
 21
15
  0
LINE
  8
0
 10
8.62476
 20
-1.96457
 11
8.86803
 21
-1.9021
  0
LINE
  8
0
 10
8.86803
 20
-1.9021
 11
9.10155
 21
-1.80965
  0
LINE
  8
0
 10
9.10155
 20
-1.80965
 11
9.32164
 21
-1.68864
  0
LINE
  8
0
 10
9.32164
 20
-1.68864
 11
9.52484
 21
-1.54102
  0
LINE
  8
0
 10
9.52484
 20
-1.54102
 11
9.70793
 21
-1.36908
  0
LINE
  8
0
 10
9.70793
 20
-1.36908
 11
9.86803
 21
-1.17557
  0
LINE
  8
0
 10
9.86803
 20
-1.17557
 11
10.0026
 21
-0.963501
  0
LINE
  8
0
 10
10.0026
 20
-0.963501
 11
10.1095
 21
-0.736237
  0
LINE
  8
0
 10
10.1095
 20
-0.736237
 11
10.1872
 21
-0.497375
  0
LINE
  8
0
 10
10.1872
 20
-0.497375
 11
10.2342
 21
-0.250656
  0
LINE
  8
0
 10
10.2342
 20
-0.250656
 11
10.25
 21
0
  0
LINE
  8
0
 10
10.25
 20
0
 11
10.2342
 21
0.250656
  0
LINE
  8
0
 10
10.2342
 20
0.250656
 11
10.1872
 21
0.497375
  0
LINE
  8
0
 10
10.1872
 20
0.497375
 11
10.1095
 21
0.736237
  0
LINE
  8
0
 10
10.1095
 20
0.736237
 11
10.0026
 21
0.963501
  0
LINE
  8
0
 10
10.0026
 20
0.963501
 11
9.86803
 21
1.17557
  0
LINE
  8
0
 10
9.86803
 20
1.17557
 11
9.70793
 21
1.36908
  0
LINE
  8
0
 10
9.70793
 20
1.36908
 11
9.52484
 21
1.54102
  0
LINE
  8
0
 10
9.52484
 20
1.54102
 11
9.32164
 21
1.68864
  0
LINE
  8
0
 10
9.32164
 20
1.68864
 11
9.10155
 21
1.80965
  0
LINE
  8
0
 10
9.10155
 20
1.80965
 11
8.86803
 21
1.9021
  0
LINE
  8
0
 10
8.86803
 20
1.9021
 11
8.62476
 21
1.96457
  0
LINE
  8
0
 10
8.62476
 20
1.96457
 11
8.37558
 21
1.99605
  0
LINE
  8
0
 10
8.37558
 20
1.99605
 11
8.1244
 21
1.99605
  0
LINE
  8
0
 10
8.1244
 20
1.99605
 11
7.87523
 21
1.96457
  0
LINE
  8
0
 10
7.87523
 20
1.96457
 11
7.63196
 21
1.9021
  0
LINE
  8
0
 10
7.63196
 20
1.9021
 11
7.39844
 21
1.80965
  0
LINE
  8
0
 10
7.39844
 20
1.80965
 11
7.17834
 21
1.68864
  0
LINE
  8
0
 10
7.17834
 20
1.68864
 11
6.97514
 21
1.54102
  0
LINE
  8
0
 10
6.97514
 20
1.54102
 11
6.79205
 21
1.36908
  0
LINE
  8
0
 10
6.79205
 20
1.36908
 11
6.63196
 21
1.17557
  0
LINE
  8
0
 10
6.63196
 20
1.17557
 11
6.49738
 21
0.963501
  0
LINE
  8
0
 10
6.49738
 20
0.963501
 11
6.39044
 21
0.736237
  0
LINE
  8
0
 10
6.39044
 20
0.736237
 11
6.31282
 21
0.497375
  0
LINE
  8
0
 10
6.31282
 20
0.497375
 11
6.26576
 21
0.250656
  0
LINE
  8
0
 10
6.26576
 20
0.250656
 11
6.25
 21
0
  0
LINE
  8
0
 10
6.25
 20
0
 11
6.26576
 21
-0.250656
  0
LINE
  8
0
 10
6.26576
 20
-0.250656
 11
6.31282
 21
-0.497375
  0
LINE
  8
0
 10
6.31282
 20
-0.497375
 11
6.39044
 21
-0.736237
  0
LINE
  8
0
 10
6.39044
 20
-0.736237
 11
6.49738
 21
-0.963501
  0
LINE
  8
0
 10
6.49738
 20
-0.963501
 11
6.63196
 21
-1.17557
  0
LINE
  8
0
 10
6.63196
 20
-1.17557
 11
6.79205
 21
-1.36908
  0
LINE
  8
0
 10
6.79205
 20
-1.36908
 11
6.97514
 21
-1.54102
  0
LINE
  8
0
 10
6.97514
 20
-1.54102
 11
7.17834
 21
-1.68864
  0
LINE
  8
0
 10
7.17834
 20
-1.68864
 11
7.39844
 21
-1.80965
  0
LINE
  8
0
 10
7.39844
 20
-1.80965
 11
7.63196
 21
-1.9021
  0
LINE
  8
0
 10
7.63196
 20
-1.9021
 11
7.87523
 21
-1.96457
  0
LINE
  8
0
 10
7.87523
 20
-1.96457
 11
8.1244
 21
-1.99605
  0
LINE
  8
0
 10
8.1244
 20
-1.99605
 11
8.37558
 21
-1.99605
  0
LINE
  8
0
 10
8.37558
 20
-1.99605
 11
8.62476
 21
-1.96457
  0
LINE
  8
0
 10
48.6248
 20
-1.96457
 11
48.868
 21
-1.9021
  0
LINE
  8
0
 10
48.868
 20
-1.9021
 11
49.1015
 21
-1.80965
  0
LINE
  8
0
 10
49.1015
 20
-1.80965
 11
49.3217
 21
-1.68864
  0
LINE
  8
0
 10
49.3217
 20
-1.68864
 11
49.5248
 21
-1.54102
  0
LINE
  8
0
 10
49.5248
 20
-1.54102
 11
49.7079
 21
-1.36908
  0
LINE
  8
0
 10
49.7079
 20
-1.36908
 11
49.868
 21
-1.17557
  0
LINE
  8
0
 10
49.868
 20
-1.17557
 11
50.0026
 21
-0.963501
  0
LINE
  8
0
 10
50.0026
 20
-0.963501
 11
50.1095
 21
-0.736237
  0
LINE
  8
0
 10
50.1095
 20
-0.736237
 11
50.1872
 21
-0.497375
  0
LINE
  8
0
 10
50.1872
 20
-0.497375
 11
50.2342
 21
-0.250656
  0
LINE
  8
0
 10
50.2342
 20
-0.250656
 11
50.25
 21
0
  0
LINE
  8
0
 10
50.25
 20
0
 11
50.2342
 21
0.250656
  0
LINE
  8
0
 10
50.2342
 20
0.250656
 11
50.1872
 21
0.497375
  0
LINE
  8
0
 10
50.1872
 20
0.497375
 11
50.1095
 21
0.736237
  0
LINE
  8
0
 10
50.1095
 20
0.736237
 11
50.0026
 21
0.963501
  0
LINE
  8
0
 10
50.0026
 20
0.963501
 11
49.868
 21
1.17557
  0
LINE
  8
0
 10
49.868
 20
1.17557
 11
49.7079
 21
1.36908
  0
LINE
  8
0
 10
49.7079
 20
1.36908
 11
49.5248
 21
1.54102
  0
LINE
  8
0
 10
49.5248
 20
1.54102
 11
49.3217
 21
1.68864
  0
LINE
  8
0
 10
49.3217
 20
1.68864
 11
49.1015
 21
1.80965
  0
LINE
  8
0
 10
49.1015
 20
1.80965
 11
48.868
 21
1.9021
  0
LINE
  8
0
 10
48.868
 20
1.9021
 11
48.6248
 21
1.96457
  0
LINE
  8
0
 10
48.6248
 20
1.96457
 11
48.3756
 21
1.99605
  0
LINE
  8
0
 10
48.3756
 20
1.99605
 11
48.1244
 21
1.99605
  0
LINE
  8
0
 10
48.1244
 20
1.99605
 11
47.8752
 21
1.96457
  0
LINE
  8
0
 10
47.8752
 20
1.96457
 11
47.632
 21
1.9021
  0
LINE
  8
0
 10
47.632
 20
1.9021
 11
47.3984
 21
1.80965
  0
LINE
  8
0
 10
47.3984
 20
1.80965
 11
47.1783
 21
1.68864
  0
LINE
  8
0
 10
47.1783
 20
1.68864
 11
46.9751
 21
1.54102
  0
LINE
  8
0
 10
46.9751
 20
1.54102
 11
46.7921
 21
1.36908
  0
LINE
  8
0
 10
46.7921
 20
1.36908
 11
46.632
 21
1.17557
  0
LINE
  8
0
 10
46.632
 20
1.17557
 11
46.4974
 21
0.963501
  0
LINE
  8
0
 10
46.4974
 20
0.963501
 11
46.3904
 21
0.736237
  0
LINE
  8
0
 10
46.3904
 20
0.736237
 11
46.3128
 21
0.497375
  0
LINE
  8
0
 10
46.3128
 20
0.497375
 11
46.2658
 21
0.250656
  0
LINE
  8
0
 10
46.2658
 20
0.250656
 11
46.25
 21
0
  0
LINE
  8
0
 10
46.25
 20
0
 11
46.2658
 21
-0.250656
  0
LINE
  8
0
 10
46.2658
 20
-0.250656
 11
46.3128
 21
-0.497375
  0
LINE
  8
0
 10
46.3128
 20
-0.497375
 11
46.3904
 21
-0.736237
  0
LINE
  8
0
 10
46.3904
 20
-0.736237
 11
46.4974
 21
-0.963501
  0
LINE
  8
0
 10
46.4974
 20
-0.963501
 11
46.632
 21
-1.17557
  0
LINE
  8
0
 10
46.632
 20
-1.17557
 11
46.7921
 21
-1.36908
  0
LINE
  8
0
 10
46.7921
 20
-1.36908
 11
46.9751
 21
-1.54102
  0
LINE
  8
0
 10
46.9751
 20
-1.54102
 11
47.1783
 21
-1.68864
  0
LINE
  8
0
 10
47.1783
 20
-1.68864
 11
47.3984
 21
-1.80965
  0
LINE
  8
0
 10
47.3984
 20
-1.80965
 11
47.632
 21
-1.9021
  0
LINE
  8
0
 10
47.632
 20
-1.9021
 11
47.8752
 21
-1.96457
  0
LINE
  8
0
 10
47.8752
 20
-1.96457
 11
48.1244
 21
-1.99605
  0
LINE
  8
0
 10
48.1244
 20
-1.99605
 11
48.3756
 21
-1.99605
  0
LINE
  8
0
 10
48.3756
 20
-1.99605
 11
48.6248
 21
-1.96457
  0
LINE
  8
0
 10
3.48563
 20
-37.6348
 11
3.77667
 21
-36.7391
  0
LINE
  8
0
 10
3.77667
 20
-36.7391
 11
4.17769
 21
-35.8868
  0
LINE
  8
0
 10
4.17769
 20
-35.8868
 11
4.68237
 21
-35.0916
  0
LINE
  8
0
 10
4.68237
 20
-35.0916
 11
5.28273
 21
-34.3659
  0
LINE
  8
0
 10
5.28273
 20
-34.3659
 11
5.96931
 21
-33.7211
  0
LINE
  8
0
 10
5.96931
 20
-33.7211
 11
6.73129
 21
-33.1675
  0
LINE
  8
0
 10
6.73129
 20
-33.1675
 11
7.55666
 21
-32.7138
  0
LINE
  8
0
 10
7.55666
 20
-32.7138
 11
8.43237
 21
-32.3671
  0
LINE
  8
0
 10
8.43237
 20
-32.3671
 11
9.34464
 21
-32.1328
  0
LINE
  8
0
 10
9.34464
 20
-32.1328
 11
10.2791
 21
-32.0148
  0
LINE
  8
0
 10
10.2791
 20
-32.0148
 11
46.2209
 21
-32.0148
  0
LINE
  8
0
 10
46.2209
 20
-32.0148
 11
47.1553
 21
-32.1328
  0
LINE
  8
0
 10
47.1553
 20
-32.1328
 11
48.0676
 21
-32.3671
  0
LINE
  8
0
 10
48.0676
 20
-32.3671
 11
48.9433
 21
-32.7138
  0
LINE
  8
0
 10
48.9433
 20
-32.7138
 11
49.7687
 21
-33.1675
  0
LINE
  8
0
 10
49.7687
 20
-33.1675
 11
50.5307
 21
-33.7211
  0
LINE
  8
0
 10
50.5307
 20
-33.7211
 11
51.2173
 21
-34.3659
  0
LINE
  8
0
 10
51.2173
 20
-34.3659
 11
51.8176
 21
-35.0916
  0
LINE
  8
0
 10
51.8176
 20
-35.0916
 11
52.3223
 21
-35.8868
  0
LINE
  8
0
 10
52.3223
 20
-35.8868
 11
52.7233
 21
-36.7391
  0
LINE
  8
0
 10
52.7233
 20
-36.7391
 11
53.0144
 21
-37.6348
  0
LINE
  8
0
 10
53.0144
 20
-37.6348
 11
53.1909
 21
-38.56
  0
LINE
  8
0
 10
53.1909
 20
-38.56
 11
53.25
 21
-39.5
  0
LINE
  8
0
 10
53.25
 20
-39.5
 11
53.25
 21
-74.5
  0
LINE
  8
0
 10
53.25
 20
-74.5
 11
53.1909
 21
-75.44
  0
LINE
  8
0
 10
53.1909
 20
-75.44
 11
53.0144
 21
-76.3652
  0
LINE
  8
0
 10
53.0144
 20
-76.3652
 11
52.7233
 21
-77.2609
  0
LINE
  8
0
 10
52.7233
 20
-77.2609
 11
52.3223
 21
-78.1131
  0
LINE
  8
0
 10
52.3223
 20
-78.1131
 11
51.8176
 21
-78.9084
  0
LINE
  8
0
 10
51.8176
 20
-78.9084
 11
51.2173
 21
-79.6341
  0
LINE
  8
0
 10
51.2173
 20
-79.6341
 11
50.5307
 21
-80.2788
  0
LINE
  8
0
 10
50.5307
 20
-80.2788
 11
49.7687
 21
-80.8325
  0
LINE
  8
0
 10
49.7687
 20
-80.8325
 11
48.9433
 21
-81.2862
  0
LINE
  8
0
 10
48.9433
 20
-81.2862
 11
48.0676
 21
-81.6329
  0
LINE
  8
0
 10
48.0676
 20
-81.6329
 11
47.1553
 21
-81.8672
  0
LINE
  8
0
 10
47.1553
 20
-81.8672
 11
46.2209
 21
-81.9852
  0
LINE
  8
0
 10
46.2209
 20
-81.9852
 11
10.2791
 21
-81.9852
  0
LINE
  8
0
 10
10.2791
 20
-81.9852
 11
9.34464
 21
-81.8672
  0
LINE
  8
0
 10
9.34464
 20
-81.8672
 11
8.43237
 21
-81.6329
  0
LINE
  8
0
 10
8.43237
 20
-81.6329
 11
7.55666
 21
-81.2862
  0
LINE
  8
0
 10
7.55666
 20
-81.2862
 11
6.73129
 21
-80.8325
  0
LINE
  8
0
 10
6.73129
 20
-80.8325
 11
5.96931
 21
-80.2788
  0
LINE
  8
0
 10
5.96931
 20
-80.2788
 11
5.28273
 21
-79.6341
  0
LINE
  8
0
 10
5.28273
 20
-79.6341
 11
4.68237
 21
-78.9084
  0
LINE
  8
0
 10
4.68237
 20
-78.9084
 11
4.17769
 21
-78.1131
  0
LINE
  8
0
 10
4.17769
 20
-78.1131
 11
3.77667
 21
-77.2609
  0
LINE
  8
0
 10
3.77667
 20
-77.2609
 11
3.48563
 21
-76.3652
  0
LINE
  8
0
 10
3.48563
 20
-76.3652
 11
3.30913
 21
-75.44
  0
LINE
  8
0
 10
3.30913
 20
-75.44
 11
3.25
 21
-74.5
  0
LINE
  8
0
 10
3.25
 20
-74.5
 11
3.25
 21
-39.5
  0
LINE
  8
0
 10
3.25
 20
-39.5
 11
3.30913
 21
-38.56
  0
LINE
  8
0
 10
3.30913
 20
-38.56
 11
3.48563
 21
-37.6348
  0
LINE
  8
0
 10
43.25
 20
-42
 11
13.25
 21
-42
  0
LINE
  8
0
 10
13.25
 20
-42
 11
13.25
 21
-72
  0
LINE
  8
0
 10
13.25
 20
-72
 11
43.25
 21
-72
  0
LINE
  8
0
 10
43.25
 20
-72
 11
43.25
 21
-42
  0
LINE
  8
0
 10
48.6248
 20
-58.9646
 11
48.868
 21
-58.9021
  0
LINE
  8
0
 10
48.868
 20
-58.9021
 11
49.1015
 21
-58.8096
  0
LINE
  8
0
 10
49.1015
 20
-58.8096
 11
49.3217
 21
-58.6886
  0
LINE
  8
0
 10
49.3217
 20
-58.6886
 11
49.5248
 21
-58.541
  0
LINE
  8
0
 10
49.5248
 20
-58.541
 11
49.7079
 21
-58.3691
  0
LINE
  8
0
 10
49.7079
 20
-58.3691
 11
49.868
 21
-58.1756
  0
LINE
  8
0
 10
49.868
 20
-58.1756
 11
50.0026
 21
-57.9635
  0
LINE
  8
0
 10
50.0026
 20
-57.9635
 11
50.1095
 21
-57.7362
  0
LINE
  8
0
 10
50.1095
 20
-57.7362
 11
50.1872
 21
-57.4974
  0
LINE
  8
0
 10
50.1872
 20
-57.4974
 11
50.2342
 21
-57.2507
  0
LINE
  8
0
 10
50.2342
 20
-57.2507
 11
50.25
 21
-57
  0
LINE
  8
0
 10
50.25
 20
-57
 11
50.2342
 21
-56.7493
  0
LINE
  8
0
 10
50.2342
 20
-56.7493
 11
50.1872
 21
-56.5026
  0
LINE
  8
0
 10
50.1872
 20
-56.5026
 11
50.1095
 21
-56.2637
  0
LINE
  8
0
 10
50.1095
 20
-56.2637
 11
50.0026
 21
-56.0365
  0
LINE
  8
0
 10
50.0026
 20
-56.0365
 11
49.868
 21
-55.8244
  0
LINE
  8
0
 10
49.868
 20
-55.8244
 11
49.7079
 21
-55.6309
  0
LINE
  8
0
 10
49.7079
 20
-55.6309
 11
49.5248
 21
-55.459
  0
LINE
  8
0
 10
49.5248
 20
-55.459
 11
49.3217
 21
-55.3113
  0
LINE
  8
0
 10
49.3217
 20
-55.3113
 11
49.1015
 21
-55.1903
  0
LINE
  8
0
 10
49.1015
 20
-55.1903
 11
48.868
 21
-55.0979
  0
LINE
  8
0
 10
48.868
 20
-55.0979
 11
48.6248
 21
-55.0354
  0
LINE
  8
0
 10
48.6248
 20
-55.0354
 11
48.3756
 21
-55.0039
  0
LINE
  8
0
 10
48.3756
 20
-55.0039
 11
48.1244
 21
-55.0039
  0
LINE
  8
0
 10
48.1244
 20
-55.0039
 11
47.8752
 21
-55.0354
  0
LINE
  8
0
 10
47.8752
 20
-55.0354
 11
47.632
 21
-55.0979
  0
LINE
  8
0
 10
47.632
 20
-55.0979
 11
47.3984
 21
-55.1903
  0
LINE
  8
0
 10
47.3984
 20
-55.1903
 11
47.1783
 21
-55.3113
  0
LINE
  8
0
 10
47.1783
 20
-55.3113
 11
46.9751
 21
-55.459
  0
LINE
  8
0
 10
46.9751
 20
-55.459
 11
46.7921
 21
-55.6309
  0
LINE
  8
0
 10
46.7921
 20
-55.6309
 11
46.632
 21
-55.8244
  0
LINE
  8
0
 10
46.632
 20
-55.8244
 11
46.4974
 21
-56.0365
  0
LINE
  8
0
 10
46.4974
 20
-56.0365
 11
46.3904
 21
-56.2637
  0
LINE
  8
0
 10
46.3904
 20
-56.2637
 11
46.3128
 21
-56.5026
  0
LINE
  8
0
 10
46.3128
 20
-56.5026
 11
46.2658
 21
-56.7493
  0
LINE
  8
0
 10
46.2658
 20
-56.7493
 11
46.25
 21
-57
  0
LINE
  8
0
 10
46.25
 20
-57
 11
46.2658
 21
-57.2507
  0
LINE
  8
0
 10
46.2658
 20
-57.2507
 11
46.3128
 21
-57.4974
  0
LINE
  8
0
 10
46.3128
 20
-57.4974
 11
46.3904
 21
-57.7362
  0
LINE
  8
0
 10
46.3904
 20
-57.7362
 11
46.4974
 21
-57.9635
  0
LINE
  8
0
 10
46.4974
 20
-57.9635
 11
46.632
 21
-58.1756
  0
LINE
  8
0
 10
46.632
 20
-58.1756
 11
46.7921
 21
-58.3691
  0
LINE
  8
0
 10
46.7921
 20
-58.3691
 11
46.9751
 21
-58.541
  0
LINE
  8
0
 10
46.9751
 20
-58.541
 11
47.1783
 21
-58.6886
  0
LINE
  8
0
 10
47.1783
 20
-58.6886
 11
47.3984
 21
-58.8096
  0
LINE
  8
0
 10
47.3984
 20
-58.8096
 11
47.632
 21
-58.9021
  0
LINE
  8
0
 10
47.632
 20
-58.9021
 11
47.8752
 21
-58.9646
  0
LINE
  8
0
 10
47.8752
 20
-58.9646
 11
48.1244
 21
-58.996
  0
LINE
  8
0
 10
48.1244
 20
-58.996
 11
48.3756
 21
-58.996
  0
LINE
  8
0
 10
48.3756
 20
-58.996
 11
48.6248
 21
-58.9646
  0
LINE
  8
0
 10
8.62476
 20
-58.9646
 11
8.86803
 21
-58.9021
  0
LINE
  8
0
 10
8.86803
 20
-58.9021
 11
9.10155
 21
-58.8096
  0
LINE
  8
0
 10
9.10155
 20
-58.8096
 11
9.32164
 21
-58.6886
  0
LINE
  8
0
 10
9.32164
 20
-58.6886
 11
9.52484
 21
-58.541
  0
LINE
  8
0
 10
9.52484
 20
-58.541
 11
9.70793
 21
-58.3691
  0
LINE
  8
0
 10
9.70793
 20
-58.3691
 11
9.86803
 21
-58.1756
  0
LINE
  8
0
 10
9.86803
 20
-58.1756
 11
10.0026
 21
-57.9635
  0
LINE
  8
0
 10
10.0026
 20
-57.9635
 11
10.1095
 21
-57.7362
  0
LINE
  8
0
 10
10.1095
 20
-57.7362
 11
10.1872
 21
-57.4974
  0
LINE
  8
0
 10
10.1872
 20
-57.4974
 11
10.2342
 21
-57.2507
  0
LINE
  8
0
 10
10.2342
 20
-57.2507
 11
10.25
 21
-57
  0
LINE
  8
0
 10
10.25
 20
-57
 11
10.2342
 21
-56.7493
  0
LINE
  8
0
 10
10.2342
 20
-56.7493
 11
10.1872
 21
-56.5026
  0
LINE
  8
0
 10
10.1872
 20
-56.5026
 11
10.1095
 21
-56.2637
  0
LINE
  8
0
 10
10.1095
 20
-56.2637
 11
10.0026
 21
-56.0365
  0
LINE
  8
0
 10
10.0026
 20
-56.0365
 11
9.86803
 21
-55.8244
  0
LINE
  8
0
 10
9.86803
 20
-55.8244
 11
9.70793
 21
-55.6309
  0
LINE
  8
0
 10
9.70793
 20
-55.6309
 11
9.52484
 21
-55.459
  0
LINE
  8
0
 10
9.52484
 20
-55.459
 11
9.32164
 21
-55.3113
  0
LINE
  8
0
 10
9.32164
 20
-55.3113
 11
9.10155
 21
-55.1903
  0
LINE
  8
0
 10
9.10155
 20
-55.1903
 11
8.86803
 21
-55.0979
  0
LINE
  8
0
 10
8.86803
 20
-55.0979
 11
8.62476
 21
-55.0354
  0
LINE
  8
0
 10
8.62476
 20
-55.0354
 11
8.37558
 21
-55.0039
  0
LINE
  8
0
 10
8.37558
 20
-55.0039
 11
8.1244
 21
-55.0039
  0
LINE
  8
0
 10
8.1244
 20
-55.0039
 11
7.87523
 21
-55.0354
  0
LINE
  8
0
 10
7.87523
 20
-55.0354
 11
7.63196
 21
-55.0979
  0
LINE
  8
0
 10
7.63196
 20
-55.0979
 11
7.39844
 21
-55.1903
  0
LINE
  8
0
 10
7.39844
 20
-55.1903
 11
7.17834
 21
-55.3113
  0
LINE
  8
0
 10
7.17834
 20
-55.3113
 11
6.97514
 21
-55.459
  0
LINE
  8
0
 10
6.97514
 20
-55.459
 11
6.79205
 21
-55.6309
  0
LINE
  8
0
 10
6.79205
 20
-55.6309
 11
6.63196
 21
-55.8244
  0
LINE
  8
0
 10
6.63196
 20
-55.8244
 11
6.49738
 21
-56.0365
  0
LINE
  8
0
 10
6.49738
 20
-56.0365
 11
6.39044
 21
-56.2637
  0
LINE
  8
0
 10
6.39044
 20
-56.2637
 11
6.31282
 21
-56.5026
  0
LINE
  8
0
 10
6.31282
 20
-56.5026
 11
6.26576
 21
-56.7493
  0
LINE
  8
0
 10
6.26576
 20
-56.7493
 11
6.25
 21
-57
  0
LINE
  8
0
 10
6.25
 20
-57
 11
6.26576
 21
-57.2507
  0
LINE
  8
0
 10
6.26576
 20
-57.2507
 11
6.31282
 21
-57.4974
  0
LINE
  8
0
 10
6.31282
 20
-57.4974
 11
6.39044
 21
-57.7362
  0
LINE
  8
0
 10
6.39044
 20
-57.7362
 11
6.49738
 21
-57.9635
  0
LINE
  8
0
 10
6.49738
 20
-57.9635
 11
6.63196
 21
-58.1756
  0
LINE
  8
0
 10
6.63196
 20
-58.1756
 11
6.79205
 21
-58.3691
  0
LINE
  8
0
 10
6.79205
 20
-58.3691
 11
6.97514
 21
-58.541
  0
LINE
  8
0
 10
6.97514
 20
-58.541
 11
7.17834
 21
-58.6886
  0
LINE
  8
0
 10
7.17834
 20
-58.6886
 11
7.39844
 21
-58.8096
  0
LINE
  8
0
 10
7.39844
 20
-58.8096
 11
7.63196
 21
-58.9021
  0
LINE
  8
0
 10
7.63196
 20
-58.9021
 11
7.87523
 21
-58.9646
  0
LINE
  8
0
 10
7.87523
 20
-58.9646
 11
8.1244
 21
-58.996
  0
LINE
  8
0
 10
8.1244
 20
-58.996
 11
8.37558
 21
-58.996
  0
LINE
  8
0
 10
8.37558
 20
-58.996
 11
8.62476
 21
-58.9646
  0
LINE
  8
0
 10
-46.2209
 20
-138.985
 11
-47.1553
 21
-138.867
  0
LINE
  8
0
 10
-47.1553
 20
-138.867
 11
-48.0676
 21
-138.633
  0
LINE
  8
0
 10
-48.0676
 20
-138.633
 11
-48.9433
 21
-138.286
  0
LINE
  8
0
 10
-48.9433
 20
-138.286
 11
-49.7687
 21
-137.832
  0
LINE
  8
0
 10
-49.7687
 20
-137.832
 11
-50.5307
 21
-137.279
  0
LINE
  8
0
 10
-50.5307
 20
-137.279
 11
-51.2173
 21
-136.634
  0
LINE
  8
0
 10
-51.2173
 20
-136.634
 11
-51.8176
 21
-135.908
  0
LINE
  8
0
 10
-51.8176
 20
-135.908
 11
-52.3223
 21
-135.113
  0
LINE
  8
0
 10
-52.3223
 20
-135.113
 11
-52.7233
 21
-134.261
  0
LINE
  8
0
 10
-52.7233
 20
-134.261
 11
-53.0144
 21
-133.365
  0
LINE
  8
0
 10
-53.0144
 20
-133.365
 11
-53.1909
 21
-132.44
  0
LINE
  8
0
 10
-53.1909
 20
-132.44
 11
-53.25
 21
-131.5
  0
LINE
  8
0
 10
-53.25
 20
-131.5
 11
-53.25
 21
-96.5
  0
LINE
  8
0
 10
-53.25
 20
-96.5
 11
-53.1909
 21
-95.56
  0
LINE
  8
0
 10
-53.1909
 20
-95.56
 11
-53.0144
 21
-94.6348
  0
LINE
  8
0
 10
-53.0144
 20
-94.6348
 11
-52.7233
 21
-93.7391
  0
LINE
  8
0
 10
-52.7233
 20
-93.7391
 11
-52.3223
 21
-92.8868
  0
LINE
  8
0
 10
-52.3223
 20
-92.8868
 11
-51.8176
 21
-92.0916
  0
LINE
  8
0
 10
-51.8176
 20
-92.0916
 11
-51.2173
 21
-91.3659
  0
LINE
  8
0
 10
-51.2173
 20
-91.3659
 11
-50.5307
 21
-90.7211
  0
LINE
  8
0
 10
-50.5307
 20
-90.7211
 11
-49.7687
 21
-90.1675
  0
LINE
  8
0
 10
-49.7687
 20
-90.1675
 11
-48.9433
 21
-89.7138
  0
LINE
  8
0
 10
-48.9433
 20
-89.7138
 11
-48.0676
 21
-89.3671
  0
LINE
  8
0
 10
-48.0676
 20
-89.3671
 11
-47.1553
 21
-89.1328
  0
LINE
  8
0
 10
-47.1553
 20
-89.1328
 11
-46.2209
 21
-89.0148
  0
LINE
  8
0
 10
-46.2209
 20
-89.0148
 11
-10.2791
 21
-89.0148
  0
LINE
  8
0
 10
-10.2791
 20
-89.0148
 11
-9.34464
 21
-89.1328
  0
LINE
  8
0
 10
-9.34464
 20
-89.1328
 11
-8.43237
 21
-89.3671
  0
LINE
  8
0
 10
-8.43237
 20
-89.3671
 11
-7.55666
 21
-89.7138
  0
LINE
  8
0
 10
-7.55666
 20
-89.7138
 11
-6.73129
 21
-90.1675
  0
LINE
  8
0
 10
-6.73129
 20
-90.1675
 11
-5.96931
 21
-90.7211
  0
LINE
  8
0
 10
-5.96931
 20
-90.7211
 11
-5.28273
 21
-91.3659
  0
LINE
  8
0
 10
-5.28273
 20
-91.3659
 11
-4.68237
 21
-92.0916
  0
LINE
  8
0
 10
-4.68237
 20
-92.0916
 11
-4.17769
 21
-92.8868
  0
LINE
  8
0
 10
-4.17769
 20
-92.8868
 11
-3.77667
 21
-93.7391
  0
LINE
  8
0
 10
-3.77667
 20
-93.7391
 11
-3.48563
 21
-94.6348
  0
LINE
  8
0
 10
-3.48563
 20
-94.6348
 11
-3.30913
 21
-95.56
  0
LINE
  8
0
 10
-3.30913
 20
-95.56
 11
-3.25
 21
-96.5
  0
LINE
  8
0
 10
-3.25
 20
-96.5
 11
-3.25
 21
-131.5
  0
LINE
  8
0
 10
-3.25
 20
-131.5
 11
-3.30913
 21
-132.44
  0
LINE
  8
0
 10
-3.30913
 20
-132.44
 11
-3.48563
 21
-133.365
  0
LINE
  8
0
 10
-3.48563
 20
-133.365
 11
-3.77667
 21
-134.261
  0
LINE
  8
0
 10
-3.77667
 20
-134.261
 11
-4.17769
 21
-135.113
  0
LINE
  8
0
 10
-4.17769
 20
-135.113
 11
-4.68237
 21
-135.908
  0
LINE
  8
0
 10
-4.68237
 20
-135.908
 11
-5.28273
 21
-136.634
  0
LINE
  8
0
 10
-5.28273
 20
-136.634
 11
-5.96931
 21
-137.279
  0
LINE
  8
0
 10
-5.96931
 20
-137.279
 11
-6.73129
 21
-137.832
  0
LINE
  8
0
 10
-6.73129
 20
-137.832
 11
-7.55666
 21
-138.286
  0
LINE
  8
0
 10
-7.55666
 20
-138.286
 11
-8.43237
 21
-138.633
  0
LINE
  8
0
 10
-8.43237
 20
-138.633
 11
-9.34464
 21
-138.867
  0
LINE
  8
0
 10
-9.34464
 20
-138.867
 11
-10.2791
 21
-138.985
  0
LINE
  8
0
 10
-10.2791
 20
-138.985
 11
-46.2209
 21
-138.985
  0
LINE
  8
0
 10
-47.8752
 20
-115.965
 11
-47.632
 21
-115.902
  0
LINE
  8
0
 10
-47.632
 20
-115.902
 11
-47.3984
 21
-115.81
  0
LINE
  8
0
 10
-47.3984
 20
-115.81
 11
-47.1783
 21
-115.689
  0
LINE
  8
0
 10
-47.1783
 20
-115.689
 11
-46.9751
 21
-115.541
  0
LINE
  8
0
 10
-46.9751
 20
-115.541
 11
-46.7921
 21
-115.369
  0
LINE
  8
0
 10
-46.7921
 20
-115.369
 11
-46.632
 21
-115.176
  0
LINE
  8
0
 10
-46.632
 20
-115.176
 11
-46.4974
 21
-114.964
  0
LINE
  8
0
 10
-46.4974
 20
-114.964
 11
-46.3904
 21
-114.736
  0
LINE
  8
0
 10
-46.3904
 20
-114.736
 11
-46.3128
 21
-114.497
  0
LINE
  8
0
 10
-46.3128
 20
-114.497
 11
-46.2658
 21
-114.251
  0
LINE
  8
0
 10
-46.2658
 20
-114.251
 11
-46.25
 21
-114
  0
LINE
  8
0
 10
-46.25
 20
-114
 11
-46.2658
 21
-113.749
  0
LINE
  8
0
 10
-46.2658
 20
-113.749
 11
-46.3128
 21
-113.503
  0
LINE
  8
0
 10
-46.3128
 20
-113.503
 11
-46.3904
 21
-113.264
  0
LINE
  8
0
 10
-46.3904
 20
-113.264
 11
-46.4974
 21
-113.036
  0
LINE
  8
0
 10
-46.4974
 20
-113.036
 11
-46.632
 21
-112.824
  0
LINE
  8
0
 10
-46.632
 20
-112.824
 11
-46.7921
 21
-112.631
  0
LINE
  8
0
 10
-46.7921
 20
-112.631
 11
-46.9751
 21
-112.459
  0
LINE
  8
0
 10
-46.9751
 20
-112.459
 11
-47.1783
 21
-112.311
  0
LINE
  8
0
 10
-47.1783
 20
-112.311
 11
-47.3984
 21
-112.19
  0
LINE
  8
0
 10
-47.3984
 20
-112.19
 11
-47.632
 21
-112.098
  0
LINE
  8
0
 10
-47.632
 20
-112.098
 11
-47.8752
 21
-112.035
  0
LINE
  8
0
 10
-47.8752
 20
-112.035
 11
-48.1244
 21
-112.004
  0
LINE
  8
0
 10
-48.1244
 20
-112.004
 11
-48.3756
 21
-112.004
  0
LINE
  8
0
 10
-48.3756
 20
-112.004
 11
-48.6248
 21
-112.035
  0
LINE
  8
0
 10
-48.6248
 20
-112.035
 11
-48.868
 21
-112.098
  0
LINE
  8
0
 10
-48.868
 20
-112.098
 11
-49.1015
 21
-112.19
  0
LINE
  8
0
 10
-49.1015
 20
-112.19
 11
-49.3217
 21
-112.311
  0
LINE
  8
0
 10
-49.3217
 20
-112.311
 11
-49.5248
 21
-112.459
  0
LINE
  8
0
 10
-49.5248
 20
-112.459
 11
-49.7079
 21
-112.631
  0
LINE
  8
0
 10
-49.7079
 20
-112.631
 11
-49.868
 21
-112.824
  0
LINE
  8
0
 10
-49.868
 20
-112.824
 11
-50.0026
 21
-113.036
  0
LINE
  8
0
 10
-50.0026
 20
-113.036
 11
-50.1095
 21
-113.264
  0
LINE
  8
0
 10
-50.1095
 20
-113.264
 11
-50.1872
 21
-113.503
  0
LINE
  8
0
 10
-50.1872
 20
-113.503
 11
-50.2342
 21
-113.749
  0
LINE
  8
0
 10
-50.2342
 20
-113.749
 11
-50.25
 21
-114
  0
LINE
  8
0
 10
-50.25
 20
-114
 11
-50.2342
 21
-114.251
  0
LINE
  8
0
 10
-50.2342
 20
-114.251
 11
-50.1872
 21
-114.497
  0
LINE
  8
0
 10
-50.1872
 20
-114.497
 11
-50.1095
 21
-114.736
  0
LINE
  8
0
 10
-50.1095
 20
-114.736
 11
-50.0026
 21
-114.964
  0
LINE
  8
0
 10
-50.0026
 20
-114.964
 11
-49.868
 21
-115.176
  0
LINE
  8
0
 10
-49.868
 20
-115.176
 11
-49.7079
 21
-115.369
  0
LINE
  8
0
 10
-49.7079
 20
-115.369
 11
-49.5248
 21
-115.541
  0
LINE
  8
0
 10
-49.5248
 20
-115.541
 11
-49.3217
 21
-115.689
  0
LINE
  8
0
 10
-49.3217
 20
-115.689
 11
-49.1015
 21
-115.81
  0
LINE
  8
0
 10
-49.1015
 20
-115.81
 11
-48.868
 21
-115.902
  0
LINE
  8
0
 10
-48.868
 20
-115.902
 11
-48.6248
 21
-115.965
  0
LINE
  8
0
 10
-48.6248
 20
-115.965
 11
-48.3756
 21
-115.996
  0
LINE
  8
0
 10
-48.3756
 20
-115.996
 11
-48.1244
 21
-115.996
  0
LINE
  8
0
 10
-48.1244
 20
-115.996
 11
-47.8752
 21
-115.965
  0
LINE
  8
0
 10
-7.87523
 20
-115.965
 11
-7.63196
 21
-115.902
  0
LINE
  8
0
 10
-7.63196
 20
-115.902
 11
-7.39844
 21
-115.81
  0
LINE
  8
0
 10
-7.39844
 20
-115.81
 11
-7.17834
 21
-115.689
  0
LINE
  8
0
 10
-7.17834
 20
-115.689
 11
-6.97514
 21
-115.541
  0
LINE
  8
0
 10
-6.97514
 20
-115.541
 11
-6.79205
 21
-115.369
  0
LINE
  8
0
 10
-6.79205
 20
-115.369
 11
-6.63196
 21
-115.176
  0
LINE
  8
0
 10
-6.63196
 20
-115.176
 11
-6.49738
 21
-114.964
  0
LINE
  8
0
 10
-6.49738
 20
-114.964
 11
-6.39044
 21
-114.736
  0
LINE
  8
0
 10
-6.39044
 20
-114.736
 11
-6.31282
 21
-114.497
  0
LINE
  8
0
 10
-6.31282
 20
-114.497
 11
-6.26576
 21
-114.251
  0
LINE
  8
0
 10
-6.26576
 20
-114.251
 11
-6.25
 21
-114
  0
LINE
  8
0
 10
-6.25
 20
-114
 11
-6.26576
 21
-113.749
  0
LINE
  8
0
 10
-6.26576
 20
-113.749
 11
-6.31282
 21
-113.503
  0
LINE
  8
0
 10
-6.31282
 20
-113.503
 11
-6.39044
 21
-113.264
  0
LINE
  8
0
 10
-6.39044
 20
-113.264
 11
-6.49738
 21
-113.036
  0
LINE
  8
0
 10
-6.49738
 20
-113.036
 11
-6.63196
 21
-112.824
  0
LINE
  8
0
 10
-6.63196
 20
-112.824
 11
-6.79205
 21
-112.631
  0
LINE
  8
0
 10
-6.79205
 20
-112.631
 11
-6.97514
 21
-112.459
  0
LINE
  8
0
 10
-6.97514
 20
-112.459
 11
-7.17834
 21
-112.311
  0
LINE
  8
0
 10
-7.17834
 20
-112.311
 11
-7.39844
 21
-112.19
  0
LINE
  8
0
 10
-7.39844
 20
-112.19
 11
-7.63196
 21
-112.098
  0
LINE
  8
0
 10
-7.63196
 20
-112.098
 11
-7.87523
 21
-112.035
  0
LINE
  8
0
 10
-7.87523
 20
-112.035
 11
-8.1244
 21
-112.004
  0
LINE
  8
0
 10
-8.1244
 20
-112.004
 11
-8.37558
 21
-112.004
  0
LINE
  8
0
 10
-8.37558
 20
-112.004
 11
-8.62476
 21
-112.035
  0
LINE
  8
0
 10
-8.62476
 20
-112.035
 11
-8.86803
 21
-112.098
  0
LINE
  8
0
 10
-8.86803
 20
-112.098
 11
-9.10155
 21
-112.19
  0
LINE
  8
0
 10
-9.10155
 20
-112.19
 11
-9.32164
 21
-112.311
  0
LINE
  8
0
 10
-9.32164
 20
-112.311
 11
-9.52484
 21
-112.459
  0
LINE
  8
0
 10
-9.52484
 20
-112.459
 11
-9.70793
 21
-112.631
  0
LINE
  8
0
 10
-9.70793
 20
-112.631
 11
-9.86803
 21
-112.824
  0
LINE
  8
0
 10
-9.86803
 20
-112.824
 11
-10.0026
 21
-113.036
  0
LINE
  8
0
 10
-10.0026
 20
-113.036
 11
-10.1095
 21
-113.264
  0
LINE
  8
0
 10
-10.1095
 20
-113.264
 11
-10.1872
 21
-113.503
  0
LINE
  8
0
 10
-10.1872
 20
-113.503
 11
-10.2342
 21
-113.749
  0
LINE
  8
0
 10
-10.2342
 20
-113.749
 11
-10.25
 21
-114
  0
LINE
  8
0
 10
-10.25
 20
-114
 11
-10.2342
 21
-114.251
  0
LINE
  8
0
 10
-10.2342
 20
-114.251
 11
-10.1872
 21
-114.497
  0
LINE
  8
0
 10
-10.1872
 20
-114.497
 11
-10.1095
 21
-114.736
  0
LINE
  8
0
 10
-10.1095
 20
-114.736
 11
-10.0026
 21
-114.964
  0
LINE
  8
0
 10
-10.0026
 20
-114.964
 11
-9.86803
 21
-115.176
  0
LINE
  8
0
 10
-9.86803
 20
-115.176
 11
-9.70793
 21
-115.369
  0
LINE
  8
0
 10
-9.70793
 20
-115.369
 11
-9.52484
 21
-115.541
  0
LINE
  8
0
 10
-9.52484
 20
-115.541
 11
-9.32164
 21
-115.689
  0
LINE
  8
0
 10
-9.32164
 20
-115.689
 11
-9.10155
 21
-115.81
  0
LINE
  8
0
 10
-9.10155
 20
-115.81
 11
-8.86803
 21
-115.902
  0
LINE
  8
0
 10
-8.86803
 20
-115.902
 11
-8.62476
 21
-115.965
  0
LINE
  8
0
 10
-8.62476
 20
-115.965
 11
-8.37558
 21
-115.996
  0
LINE
  8
0
 10
-8.37558
 20
-115.996
 11
-8.1244
 21
-115.996
  0
LINE
  8
0
 10
-8.1244
 20
-115.996
 11
-7.87523
 21
-115.965
  0
LINE
  8
0
 10
10.2791
 20
-138.985
 11
9.34464
 21
-138.867
  0
LINE
  8
0
 10
9.34464
 20
-138.867
 11
8.43237
 21
-138.633
  0
LINE
  8
0
 10
8.43237
 20
-138.633
 11
7.55666
 21
-138.286
  0
LINE
  8
0
 10
7.55666
 20
-138.286
 11
6.73129
 21
-137.832
  0
LINE
  8
0
 10
6.73129
 20
-137.832
 11
5.96931
 21
-137.279
  0
LINE
  8
0
 10
5.96931
 20
-137.279
 11
5.28273
 21
-136.634
  0
LINE
  8
0
 10
5.28273
 20
-136.634
 11
4.68237
 21
-135.908
  0
LINE
  8
0
 10
4.68237
 20
-135.908
 11
4.17769
 21
-135.113
  0
LINE
  8
0
 10
4.17769
 20
-135.113
 11
3.77667
 21
-134.261
  0
LINE
  8
0
 10
3.77667
 20
-134.261
 11
3.48563
 21
-133.365
  0
LINE
  8
0
 10
3.48563
 20
-133.365
 11
3.30913
 21
-132.44
  0
LINE
  8
0
 10
3.30913
 20
-132.44
 11
3.25
 21
-131.5
  0
LINE
  8
0
 10
3.25
 20
-131.5
 11
3.25
 21
-96.5
  0
LINE
  8
0
 10
3.25
 20
-96.5
 11
3.30913
 21
-95.56
  0
LINE
  8
0
 10
3.30913
 20
-95.56
 11
3.48563
 21
-94.6348
  0
LINE
  8
0
 10
3.48563
 20
-94.6348
 11
3.77667
 21
-93.7391
  0
LINE
  8
0
 10
3.77667
 20
-93.7391
 11
4.17769
 21
-92.8868
  0
LINE
  8
0
 10
4.17769
 20
-92.8868
 11
4.68237
 21
-92.0916
  0
LINE
  8
0
 10
4.68237
 20
-92.0916
 11
5.28273
 21
-91.3659
  0
LINE
  8
0
 10
5.28273
 20
-91.3659
 11
5.96931
 21
-90.7211
  0
LINE
  8
0
 10
5.96931
 20
-90.7211
 11
6.73129
 21
-90.1675
  0
LINE
  8
0
 10
6.73129
 20
-90.1675
 11
7.55666
 21
-89.7138
  0
LINE
  8
0
 10
7.55666
 20
-89.7138
 11
8.43237
 21
-89.3671
  0
LINE
  8
0
 10
8.43237
 20
-89.3671
 11
9.34464
 21
-89.1328
  0
LINE
  8
0
 10
9.34464
 20
-89.1328
 11
10.2791
 21
-89.0148
  0
LINE
  8
0
 10
10.2791
 20
-89.0148
 11
46.2209
 21
-89.0148
  0
LINE
  8
0
 10
46.2209
 20
-89.0148
 11
47.1553
 21
-89.1328
  0
LINE
  8
0
 10
47.1553
 20
-89.1328
 11
48.0676
 21
-89.3671
  0
LINE
  8
0
 10
48.0676
 20
-89.3671
 11
48.9433
 21
-89.7138
  0
LINE
  8
0
 10
48.9433
 20
-89.7138
 11
49.7687
 21
-90.1675
  0
LINE
  8
0
 10
49.7687
 20
-90.1675
 11
50.5307
 21
-90.7211
  0
LINE
  8
0
 10
50.5307
 20
-90.7211
 11
51.2173
 21
-91.3659
  0
LINE
  8
0
 10
51.2173
 20
-91.3659
 11
51.8176
 21
-92.0916
  0
LINE
  8
0
 10
51.8176
 20
-92.0916
 11
52.3223
 21
-92.8868
  0
LINE
  8
0
 10
52.3223
 20
-92.8868
 11
52.7233
 21
-93.7391
  0
LINE
  8
0
 10
52.7233
 20
-93.7391
 11
53.0144
 21
-94.6348
  0
LINE
  8
0
 10
53.0144
 20
-94.6348
 11
53.1909
 21
-95.56
  0
LINE
  8
0
 10
53.1909
 20
-95.56
 11
53.25
 21
-96.5
  0
LINE
  8
0
 10
53.25
 20
-96.5
 11
53.25
 21
-131.5
  0
LINE
  8
0
 10
53.25
 20
-131.5
 11
53.1909
 21
-132.44
  0
LINE
  8
0
 10
53.1909
 20
-132.44
 11
53.0144
 21
-133.365
  0
LINE
  8
0
 10
53.0144
 20
-133.365
 11
52.7233
 21
-134.261
  0
LINE
  8
0
 10
52.7233
 20
-134.261
 11
52.3223
 21
-135.113
  0
LINE
  8
0
 10
52.3223
 20
-135.113
 11
51.8176
 21
-135.908
  0
LINE
  8
0
 10
51.8176
 20
-135.908
 11
51.2173
 21
-136.634
  0
LINE
  8
0
 10
51.2173
 20
-136.634
 11
50.5307
 21
-137.279
  0
LINE
  8
0
 10
50.5307
 20
-137.279
 11
49.7687
 21
-137.832
  0
LINE
  8
0
 10
49.7687
 20
-137.832
 11
48.9433
 21
-138.286
  0
LINE
  8
0
 10
48.9433
 20
-138.286
 11
48.0676
 21
-138.633
  0
LINE
  8
0
 10
48.0676
 20
-138.633
 11
47.1553
 21
-138.867
  0
LINE
  8
0
 10
47.1553
 20
-138.867
 11
46.2209
 21
-138.985
  0
LINE
  8
0
 10
46.2209
 20
-138.985
 11
10.2791
 21
-138.985
  0
LINE
  8
0
 10
48.6248
 20
-115.965
 11
48.868
 21
-115.902
  0
LINE
  8
0
 10
48.868
 20
-115.902
 11
49.1015
 21
-115.81
  0
LINE
  8
0
 10
49.1015
 20
-115.81
 11
49.3217
 21
-115.689
  0
LINE
  8
0
 10
49.3217
 20
-115.689
 11
49.5248
 21
-115.541
  0
LINE
  8
0
 10
49.5248
 20
-115.541
 11
49.7079
 21
-115.369
  0
LINE
  8
0
 10
49.7079
 20
-115.369
 11
49.868
 21
-115.176
  0
LINE
  8
0
 10
49.868
 20
-115.176
 11
50.0026
 21
-114.964
  0
LINE
  8
0
 10
50.0026
 20
-114.964
 11
50.1095
 21
-114.736
  0
LINE
  8
0
 10
50.1095
 20
-114.736
 11
50.1872
 21
-114.497
  0
LINE
  8
0
 10
50.1872
 20
-114.497
 11
50.2342
 21
-114.251
  0
LINE
  8
0
 10
50.2342
 20
-114.251
 11
50.25
 21
-114
  0
LINE
  8
0
 10
50.25
 20
-114
 11
50.2342
 21
-113.749
  0
LINE
  8
0
 10
50.2342
 20
-113.749
 11
50.1872
 21
-113.503
  0
LINE
  8
0
 10
50.1872
 20
-113.503
 11
50.1095
 21
-113.264
  0
LINE
  8
0
 10
50.1095
 20
-113.264
 11
50.0026
 21
-113.036
  0
LINE
  8
0
 10
50.0026
 20
-113.036
 11
49.868
 21
-112.824
  0
LINE
  8
0
 10
49.868
 20
-112.824
 11
49.7079
 21
-112.631
  0
LINE
  8
0
 10
49.7079
 20
-112.631
 11
49.5248
 21
-112.459
  0
LINE
  8
0
 10
49.5248
 20
-112.459
 11
49.3217
 21
-112.311
  0
LINE
  8
0
 10
49.3217
 20
-112.311
 11
49.1015
 21
-112.19
  0
LINE
  8
0
 10
49.1015
 20
-112.19
 11
48.868
 21
-112.098
  0
LINE
  8
0
 10
48.868
 20
-112.098
 11
48.6248
 21
-112.035
  0
LINE
  8
0
 10
48.6248
 20
-112.035
 11
48.3756
 21
-112.004
  0
LINE
  8
0
 10
48.3756
 20
-112.004
 11
48.1244
 21
-112.004
  0
LINE
  8
0
 10
48.1244
 20
-112.004
 11
47.8752
 21
-112.035
  0
LINE
  8
0
 10
47.8752
 20
-112.035
 11
47.632
 21
-112.098
  0
LINE
  8
0
 10
47.632
 20
-112.098
 11
47.3984
 21
-112.19
  0
LINE
  8
0
 10
47.3984
 20
-112.19
 11
47.1783
 21
-112.311
  0
LINE
  8
0
 10
47.1783
 20
-112.311
 11
46.9751
 21
-112.459
  0
LINE
  8
0
 10
46.9751
 20
-112.459
 11
46.7921
 21
-112.631
  0
LINE
  8
0
 10
46.7921
 20
-112.631
 11
46.632
 21
-112.824
  0
LINE
  8
0
 10
46.632
 20
-112.824
 11
46.4974
 21
-113.036
  0
LINE
  8
0
 10
46.4974
 20
-113.036
 11
46.3904
 21
-113.264
  0
LINE
  8
0
 10
46.3904
 20
-113.264
 11
46.3128
 21
-113.503
  0
LINE
  8
0
 10
46.3128
 20
-113.503
 11
46.2658
 21
-113.749
  0
LINE
  8
0
 10
46.2658
 20
-113.749
 11
46.25
 21
-114
  0
LINE
  8
0
 10
46.25
 20
-114
 11
46.2658
 21
-114.251
  0
LINE
  8
0
 10
46.2658
 20
-114.251
 11
46.3128
 21
-114.497
  0
LINE
  8
0
 10
46.3128
 20
-114.497
 11
46.3904
 21
-114.736
  0
LINE
  8
0
 10
46.3904
 20
-114.736
 11
46.4974
 21
-114.964
  0
LINE
  8
0
 10
46.4974
 20
-114.964
 11
46.632
 21
-115.176
  0
LINE
  8
0
 10
46.632
 20
-115.176
 11
46.7921
 21
-115.369
  0
LINE
  8
0
 10
46.7921
 20
-115.369
 11
46.9751
 21
-115.541
  0
LINE
  8
0
 10
46.9751
 20
-115.541
 11
47.1783
 21
-115.689
  0
LINE
  8
0
 10
47.1783
 20
-115.689
 11
47.3984
 21
-115.81
  0
LINE
  8
0
 10
47.3984
 20
-115.81
 11
47.632
 21
-115.902
  0
LINE
  8
0
 10
47.632
 20
-115.902
 11
47.8752
 21
-115.965
  0
LINE
  8
0
 10
47.8752
 20
-115.965
 11
48.1244
 21
-115.996
  0
LINE
  8
0
 10
48.1244
 20
-115.996
 11
48.3756
 21
-115.996
  0
LINE
  8
0
 10
48.3756
 20
-115.996
 11
48.6248
 21
-115.965
  0
LINE
  8
0
 10
8.62476
 20
-115.965
 11
8.86803
 21
-115.902
  0
LINE
  8
0
 10
8.86803
 20
-115.902
 11
9.10155
 21
-115.81
  0
LINE
  8
0
 10
9.10155
 20
-115.81
 11
9.32164
 21
-115.689
  0
LINE
  8
0
 10
9.32164
 20
-115.689
 11
9.52484
 21
-115.541
  0
LINE
  8
0
 10
9.52484
 20
-115.541
 11
9.70793
 21
-115.369
  0
LINE
  8
0
 10
9.70793
 20
-115.369
 11
9.86803
 21
-115.176
  0
LINE
  8
0
 10
9.86803
 20
-115.176
 11
10.0026
 21
-114.964
  0
LINE
  8
0
 10
10.0026
 20
-114.964
 11
10.1095
 21
-114.736
  0
LINE
  8
0
 10
10.1095
 20
-114.736
 11
10.1872
 21
-114.497
  0
LINE
  8
0
 10
10.1872
 20
-114.497
 11
10.2342
 21
-114.251
  0
LINE
  8
0
 10
10.2342
 20
-114.251
 11
10.25
 21
-114
  0
LINE
  8
0
 10
10.25
 20
-114
 11
10.2342
 21
-113.749
  0
LINE
  8
0
 10
10.2342
 20
-113.749
 11
10.1872
 21
-113.503
  0
LINE
  8
0
 10
10.1872
 20
-113.503
 11
10.1095
 21
-113.264
  0
LINE
  8
0
 10
10.1095
 20
-113.264
 11
10.0026
 21
-113.036
  0
LINE
  8
0
 10
10.0026
 20
-113.036
 11
9.86803
 21
-112.824
  0
LINE
  8
0
 10
9.86803
 20
-112.824
 11
9.70793
 21
-112.631
  0
LINE
  8
0
 10
9.70793
 20
-112.631
 11
9.52484
 21
-112.459
  0
LINE
  8
0
 10
9.52484
 20
-112.459
 11
9.32164
 21
-112.311
  0
LINE
  8
0
 10
9.32164
 20
-112.311
 11
9.10155
 21
-112.19
  0
LINE
  8
0
 10
9.10155
 20
-112.19
 11
8.86803
 21
-112.098
  0
LINE
  8
0
 10
8.86803
 20
-112.098
 11
8.62476
 21
-112.035
  0
LINE
  8
0
 10
8.62476
 20
-112.035
 11
8.37558
 21
-112.004
  0
LINE
  8
0
 10
8.37558
 20
-112.004
 11
8.1244
 21
-112.004
  0
LINE
  8
0
 10
8.1244
 20
-112.004
 11
7.87523
 21
-112.035
  0
LINE
  8
0
 10
7.87523
 20
-112.035
 11
7.63196
 21
-112.098
  0
LINE
  8
0
 10
7.63196
 20
-112.098
 11
7.39844
 21
-112.19
  0
LINE
  8
0
 10
7.39844
 20
-112.19
 11
7.17834
 21
-112.311
  0
LINE
  8
0
 10
7.17834
 20
-112.311
 11
6.97514
 21
-112.459
  0
LINE
  8
0
 10
6.97514
 20
-112.459
 11
6.79205
 21
-112.631
  0
LINE
  8
0
 10
6.79205
 20
-112.631
 11
6.63196
 21
-112.824
  0
LINE
  8
0
 10
6.63196
 20
-112.824
 11
6.49738
 21
-113.036
  0
LINE
  8
0
 10
6.49738
 20
-113.036
 11
6.39044
 21
-113.264
  0
LINE
  8
0
 10
6.39044
 20
-113.264
 11
6.31282
 21
-113.503
  0
LINE
  8
0
 10
6.31282
 20
-113.503
 11
6.26576
 21
-113.749
  0
LINE
  8
0
 10
6.26576
 20
-113.749
 11
6.25
 21
-114
  0
LINE
  8
0
 10
6.25
 20
-114
 11
6.26576
 21
-114.251
  0
LINE
  8
0
 10
6.26576
 20
-114.251
 11
6.31282
 21
-114.497
  0
LINE
  8
0
 10
6.31282
 20
-114.497
 11
6.39044
 21
-114.736
  0
LINE
  8
0
 10
6.39044
 20
-114.736
 11
6.49738
 21
-114.964
  0
LINE
  8
0
 10
6.49738
 20
-114.964
 11
6.63196
 21
-115.176
  0
LINE
  8
0
 10
6.63196
 20
-115.176
 11
6.79205
 21
-115.369
  0
LINE
  8
0
 10
6.79205
 20
-115.369
 11
6.97514
 21
-115.541
  0
LINE
  8
0
 10
6.97514
 20
-115.541
 11
7.17834
 21
-115.689
  0
LINE
  8
0
 10
7.17834
 20
-115.689
 11
7.39844
 21
-115.81
  0
LINE
  8
0
 10
7.39844
 20
-115.81
 11
7.63196
 21
-115.902
  0
LINE
  8
0
 10
7.63196
 20
-115.902
 11
7.87523
 21
-115.965
  0
LINE
  8
0
 10
7.87523
 20
-115.965
 11
8.1244
 21
-115.996
  0
LINE
  8
0
 10
8.1244
 20
-115.996
 11
8.37558
 21
-115.996
  0
LINE
  8
0
 10
8.37558
 20
-115.996
 11
8.62476
 21
-115.965
  0
LINE
  8
0
 10
-0.12558
 20
-144.496
 11
-0.374756
 21
-144.465
  0
LINE
  8
0
 10
-0.374756
 20
-144.465
 11
-0.618027
 21
-144.402
  0
LINE
  8
0
 10
-0.618027
 20
-144.402
 11
-0.851547
 21
-144.31
  0
LINE
  8
0
 10
-0.851547
 20
-144.31
 11
-1.07164
 21
-144.189
  0
LINE
  8
0
 10
-1.07164
 20
-144.189
 11
-1.27484
 21
-144.041
  0
LINE
  8
0
 10
-1.27484
 20
-144.041
 11
-1.45793
 21
-143.869
  0
LINE
  8
0
 10
-1.45793
 20
-143.869
 11
-1.61803
 21
-143.676
  0
LINE
  8
0
 10
-1.61803
 20
-143.676
 11
-1.75261
 21
-143.464
  0
LINE
  8
0
 10
-1.75261
 20
-143.464
 11
-1.85954
 21
-143.236
  0
LINE
  8
0
 10
-1.85954
 20
-143.236
 11
-1.93716
 21
-142.997
  0
LINE
  8
0
 10
-1.93716
 20
-142.997
 11
-1.98422
 21
-142.751
  0
LINE
  8
0
 10
-1.98422
 20
-142.751
 11
-2
 21
-142.5
  0
LINE
  8
0
 10
-2
 20
-142.5
 11
-1.98422
 21
-142.249
  0
LINE
  8
0
 10
-1.98422
 20
-142.249
 11
-1.93716
 21
-142.003
  0
LINE
  8
0
 10
-1.93716
 20
-142.003
 11
-1.85954
 21
-141.764
  0
LINE
  8
0
 10
-1.85954
 20
-141.764
 11
-1.75261
 21
-141.536
  0
LINE
  8
0
 10
-1.75261
 20
-141.536
 11
-1.61803
 21
-141.324
  0
LINE
  8
0
 10
-1.61803
 20
-141.324
 11
-1.45793
 21
-141.131
  0
LINE
  8
0
 10
-1.45793
 20
-141.131
 11
-1.27484
 21
-140.959
  0
LINE
  8
0
 10
-1.27484
 20
-140.959
 11
-1.07164
 21
-140.811
  0
LINE
  8
0
 10
-1.07164
 20
-140.811
 11
-0.851547
 21
-140.69
  0
LINE
  8
0
 10
-0.851547
 20
-140.69
 11
-0.618027
 21
-140.598
  0
LINE
  8
0
 10
-0.618027
 20
-140.598
 11
-0.374756
 21
-140.535
  0
LINE
  8
0
 10
-0.374756
 20
-140.535
 11
-0.12558
 21
-140.504
  0
LINE
  8
0
 10
-0.12558
 20
-140.504
 11
0.12558
 21
-140.504
  0
LINE
  8
0
 10
0.12558
 20
-140.504
 11
0.374756
 21
-140.535
  0
LINE
  8
0
 10
0.374756
 20
-140.535
 11
0.618027
 21
-140.598
  0
LINE
  8
0
 10
0.618027
 20
-140.598
 11
0.851547
 21
-140.69
  0
LINE
  8
0
 10
0.851547
 20
-140.69
 11
1.07164
 21
-140.811
  0
LINE
  8
0
 10
1.07164
 20
-140.811
 11
1.27484
 21
-140.959
  0
LINE
  8
0
 10
1.27484
 20
-140.959
 11
1.45793
 21
-141.131
  0
LINE
  8
0
 10
1.45793
 20
-141.131
 11
1.61803
 21
-141.324
  0
LINE
  8
0
 10
1.61803
 20
-141.324
 11
1.75261
 21
-141.536
  0
LINE
  8
0
 10
1.75261
 20
-141.536
 11
1.85954
 21
-141.764
  0
LINE
  8
0
 10
1.85954
 20
-141.764
 11
1.93716
 21
-142.003
  0
LINE
  8
0
 10
1.93716
 20
-142.003
 11
1.98422
 21
-142.249
  0
LINE
  8
0
 10
1.98422
 20
-142.249
 11
2
 21
-142.5
  0
LINE
  8
0
 10
2
 20
-142.5
 11
1.98422
 21
-142.751
  0
LINE
  8
0
 10
1.98422
 20
-142.751
 11
1.93716
 21
-142.997
  0
LINE
  8
0
 10
1.93716
 20
-142.997
 11
1.85954
 21
-143.236
  0
LINE
  8
0
 10
1.85954
 20
-143.236
 11
1.75261
 21
-143.464
  0
LINE
  8
0
 10
1.75261
 20
-143.464
 11
1.61803
 21
-143.676
  0
LINE
  8
0
 10
1.61803
 20
-143.676
 11
1.45793
 21
-143.869
  0
LINE
  8
0
 10
1.45793
 20
-143.869
 11
1.27484
 21
-144.041
  0
LINE
  8
0
 10
1.27484
 20
-144.041
 11
1.07164
 21
-144.189
  0
LINE
  8
0
 10
1.07164
 20
-144.189
 11
0.851547
 21
-144.31
  0
LINE
  8
0
 10
0.851547
 20
-144.31
 11
0.618027
 21
-144.402
  0
LINE
  8
0
 10
0.618027
 20
-144.402
 11
0.374756
 21
-144.465
  0
LINE
  8
0
 10
0.374756
 20
-144.465
 11
0.12558
 21
-144.496
  0
LINE
  8
0
 10
0.12558
 20
-144.496
 11
-0.12558
 21
-144.496
  0
LINE
  8
0
 10
-3.30913
 20
-18.44
 11
-3.48563
 21
-19.3652
  0
LINE
  8
0
 10
-3.48563
 20
-19.3652
 11
-3.77667
 21
-20.2609
  0
LINE
  8
0
 10
-3.77667
 20
-20.2609
 11
-4.17769
 21
-21.1131
  0
LINE
  8
0
 10
-4.17769
 20
-21.1131
 11
-4.68237
 21
-21.9084
  0
LINE
  8
0
 10
-4.68237
 20
-21.9084
 11
-5.28273
 21
-22.6341
  0
LINE
  8
0
 10
-5.28273
 20
-22.6341
 11
-5.96931
 21
-23.2788
  0
LINE
  8
0
 10
-5.96931
 20
-23.2788
 11
-6.73129
 21
-23.8325
  0
LINE
  8
0
 10
-6.73129
 20
-23.8325
 11
-7.55666
 21
-24.2862
  0
LINE
  8
0
 10
-7.55666
 20
-24.2862
 11
-8.43237
 21
-24.6329
  0
LINE
  8
0
 10
-8.43237
 20
-24.6329
 11
-9.34464
 21
-24.8671
  0
LINE
  8
0
 10
-9.34464
 20
-24.8671
 11
-10.2791
 21
-24.9852
  0
LINE
  8
0
 10
-10.2791
 20
-24.9852
 11
-46.2209
 21
-24.9852
  0
LINE
  8
0
 10
-46.2209
 20
-24.9852
 11
-47.1553
 21
-24.8671
  0
LINE
  8
0
 10
-47.1553
 20
-24.8671
 11
-48.0676
 21
-24.6329
  0
LINE
  8
0
 10
-48.0676
 20
-24.6329
 11
-48.9433
 21
-24.2862
  0
LINE
  8
0
 10
-48.9433
 20
-24.2862
 11
-49.7687
 21
-23.8325
  0
LINE
  8
0
 10
-49.7687
 20
-23.8325
 11
-50.5307
 21
-23.2788
  0
LINE
  8
0
 10
-50.5307
 20
-23.2788
 11
-51.2173
 21
-22.6341
  0
LINE
  8
0
 10
-51.2173
 20
-22.6341
 11
-51.8176
 21
-21.9084
  0
LINE
  8
0
 10
-51.8176
 20
-21.9084
 11
-52.3223
 21
-21.1131
  0
LINE
  8
0
 10
-52.3223
 20
-21.1131
 11
-52.7233
 21
-20.2609
  0
LINE
  8
0
 10
-52.7233
 20
-20.2609
 11
-53.0144
 21
-19.3652
  0
LINE
  8
0
 10
-53.0144
 20
-19.3652
 11
-53.1909
 21
-18.44
  0
LINE
  8
0
 10
-53.1909
 20
-18.44
 11
-53.25
 21
-17.5
  0
LINE
  8
0
 10
-53.25
 20
-17.5
 11
-53.25
 21
17.5
  0
LINE
  8
0
 10
-53.25
 20
17.5
 11
-53.1909
 21
18.44
  0
LINE
  8
0
 10
-53.1909
 20
18.44
 11
-53.0144
 21
19.3652
  0
LINE
  8
0
 10
-53.0144
 20
19.3652
 11
-52.7233
 21
20.2609
  0
LINE
  8
0
 10
-52.7233
 20
20.2609
 11
-52.3223
 21
21.1131
  0
LINE
  8
0
 10
-52.3223
 20
21.1131
 11
-51.8176
 21
21.9084
  0
LINE
  8
0
 10
-51.8176
 20
21.9084
 11
-51.2173
 21
22.6341
  0
LINE
  8
0
 10
-51.2173
 20
22.6341
 11
-50.5307
 21
23.2788
  0
LINE
  8
0
 10
-50.5307
 20
23.2788
 11
-49.7687
 21
23.8325
  0
LINE
  8
0
 10
-49.7687
 20
23.8325
 11
-48.9433
 21
24.2862
  0
LINE
  8
0
 10
-48.9433
 20
24.2862
 11
-48.0676
 21
24.6329
  0
LINE
  8
0
 10
-48.0676
 20
24.6329
 11
-47.1553
 21
24.8671
  0
LINE
  8
0
 10
-47.1553
 20
24.8671
 11
-46.2209
 21
24.9852
  0
LINE
  8
0
 10
-46.2209
 20
24.9852
 11
-10.2791
 21
24.9852
  0
LINE
  8
0
 10
-10.2791
 20
24.9852
 11
-9.34464
 21
24.8671
  0
LINE
  8
0
 10
-9.34464
 20
24.8671
 11
-8.43237
 21
24.6329
  0
LINE
  8
0
 10
-8.43237
 20
24.6329
 11
-7.55666
 21
24.2862
  0
LINE
  8
0
 10
-7.55666
 20
24.2862
 11
-6.73129
 21
23.8325
  0
LINE
  8
0
 10
-6.73129
 20
23.8325
 11
-5.96931
 21
23.2788
  0
LINE
  8
0
 10
-5.96931
 20
23.2788
 11
-5.28273
 21
22.6341
  0
LINE
  8
0
 10
-5.28273
 20
22.6341
 11
-4.68237
 21
21.9084
  0
LINE
  8
0
 10
-4.68237
 20
21.9084
 11
-4.17769
 21
21.1131
  0
LINE
  8
0
 10
-4.17769
 20
21.1131
 11
-3.77667
 21
20.2609
  0
LINE
  8
0
 10
-3.77667
 20
20.2609
 11
-3.48563
 21
19.3652
  0
LINE
  8
0
 10
-3.48563
 20
19.3652
 11
-3.30913
 21
18.44
  0
LINE
  8
0
 10
-3.30913
 20
18.44
 11
-3.25
 21
17.5
  0
LINE
  8
0
 10
-3.25
 20
17.5
 11
-3.25
 21
-17.5
  0
LINE
  8
0
 10
-3.25
 20
-17.5
 11
-3.30913
 21
-18.44
  0
LINE
  8
0
 10
-13.25
 20
15
 11
-43.25
 21
15
  0
LINE
  8
0
 10
-43.25
 20
15
 11
-43.25
 21
-15
  0
LINE
  8
0
 10
-43.25
 20
-15
 11
-13.25
 21
-15
  0
LINE
  8
0
 10
-13.25
 20
-15
 11
-13.25
 21
15
  0
LINE
  8
0
 10
-47.8752
 20
-1.96457
 11
-47.632
 21
-1.9021
  0
LINE
  8
0
 10
-47.632
 20
-1.9021
 11
-47.3984
 21
-1.80965
  0
LINE
  8
0
 10
-47.3984
 20
-1.80965
 11
-47.1783
 21
-1.68864
  0
LINE
  8
0
 10
-47.1783
 20
-1.68864
 11
-46.9751
 21
-1.54102
  0
LINE
  8
0
 10
-46.9751
 20
-1.54102
 11
-46.7921
 21
-1.36908
  0
LINE
  8
0
 10
-46.7921
 20
-1.36908
 11
-46.632
 21
-1.17557
  0
LINE
  8
0
 10
-46.632
 20
-1.17557
 11
-46.4974
 21
-0.963501
  0
LINE
  8
0
 10
-46.4974
 20
-0.963501
 11
-46.3904
 21
-0.736237
  0
LINE
  8
0
 10
-46.3904
 20
-0.736237
 11
-46.3128
 21
-0.497375
  0
LINE
  8
0
 10
-46.3128
 20
-0.497375
 11
-46.2658
 21
-0.250656
  0
LINE
  8
0
 10
-46.2658
 20
-0.250656
 11
-46.25
 21
0
  0
LINE
  8
0
 10
-46.25
 20
0
 11
-46.2658
 21
0.250656
  0
LINE
  8
0
 10
-46.2658
 20
0.250656
 11
-46.3128
 21
0.497375
  0
LINE
  8
0
 10
-46.3128
 20
0.497375
 11
-46.3904
 21
0.736237
  0
LINE
  8
0
 10
-46.3904
 20
0.736237
 11
-46.4974
 21
0.963501
  0
LINE
  8
0
 10
-46.4974
 20
0.963501
 11
-46.632
 21
1.17557
  0
LINE
  8
0
 10
-46.632
 20
1.17557
 11
-46.7921
 21
1.36908
  0
LINE
  8
0
 10
-46.7921
 20
1.36908
 11
-46.9751
 21
1.54102
  0
LINE
  8
0
 10
-46.9751
 20
1.54102
 11
-47.1783
 21
1.68864
  0
LINE
  8
0
 10
-47.1783
 20
1.68864
 11
-47.3984
 21
1.80965
  0
LINE
  8
0
 10
-47.3984
 20
1.80965
 11
-47.632
 21
1.9021
  0
LINE
  8
0
 10
-47.632
 20
1.9021
 11
-47.8752
 21
1.96457
  0
LINE
  8
0
 10
-47.8752
 20
1.96457
 11
-48.1244
 21
1.99605
  0
LINE
  8
0
 10
-48.1244
 20
1.99605
 11
-48.3756
 21
1.99605
  0
LINE
  8
0
 10
-48.3756
 20
1.99605
 11
-48.6248
 21
1.96457
  0
LINE
  8
0
 10
-48.6248
 20
1.96457
 11
-48.868
 21
1.9021
  0
LINE
  8
0
 10
-48.868
 20
1.9021
 11
-49.1015
 21
1.80965
  0
LINE
  8
0
 10
-49.1015
 20
1.80965
 11
-49.3217
 21
1.68864
  0
LINE
  8
0
 10
-49.3217
 20
1.68864
 11
-49.5248
 21
1.54102
  0
LINE
  8
0
 10
-49.5248
 20
1.54102
 11
-49.7079
 21
1.36908
  0
LINE
  8
0
 10
-49.7079
 20
1.36908
 11
-49.868
 21
1.17557
  0
LINE
  8
0
 10
-49.868
 20
1.17557
 11
-50.0026
 21
0.963501
  0
LINE
  8
0
 10
-50.0026
 20
0.963501
 11
-50.1095
 21
0.736237
  0
LINE
  8
0
 10
-50.1095
 20
0.736237
 11
-50.1872
 21
0.497375
  0
LINE
  8
0
 10
-50.1872
 20
0.497375
 11
-50.2342
 21
0.250656
  0
LINE
  8
0
 10
-50.2342
 20
0.250656
 11
-50.25
 21
0
  0
LINE
  8
0
 10
-50.25
 20
0
 11
-50.2342
 21
-0.250656
  0
LINE
  8
0
 10
-50.2342
 20
-0.250656
 11
-50.1872
 21
-0.497375
  0
LINE
  8
0
 10
-50.1872
 20
-0.497375
 11
-50.1095
 21
-0.736237
  0
LINE
  8
0
 10
-50.1095
 20
-0.736237
 11
-50.0026
 21
-0.963501
  0
LINE
  8
0
 10
-50.0026
 20
-0.963501
 11
-49.868
 21
-1.17557
  0
LINE
  8
0
 10
-49.868
 20
-1.17557
 11
-49.7079
 21
-1.36908
  0
LINE
  8
0
 10
-49.7079
 20
-1.36908
 11
-49.5248
 21
-1.54102
  0
LINE
  8
0
 10
-49.5248
 20
-1.54102
 11
-49.3217
 21
-1.68864
  0
LINE
  8
0
 10
-49.3217
 20
-1.68864
 11
-49.1015
 21
-1.80965
  0
LINE
  8
0
 10
-49.1015
 20
-1.80965
 11
-48.868
 21
-1.9021
  0
LINE
  8
0
 10
-48.868
 20
-1.9021
 11
-48.6248
 21
-1.96457
  0
LINE
  8
0
 10
-48.6248
 20
-1.96457
 11
-48.3756
 21
-1.99605
  0
LINE
  8
0
 10
-48.3756
 20
-1.99605
 11
-48.1244
 21
-1.99605
  0
LINE
  8
0
 10
-48.1244
 20
-1.99605
 11
-47.8752
 21
-1.96457
  0
LINE
  8
0
 10
-7.87523
 20
-1.96457
 11
-7.63196
 21
-1.9021
  0
LINE
  8
0
 10
-7.63196
 20
-1.9021
 11
-7.39844
 21
-1.80965
  0
LINE
  8
0
 10
-7.39844
 20
-1.80965
 11
-7.17834
 21
-1.68864
  0
LINE
  8
0
 10
-7.17834
 20
-1.68864
 11
-6.97514
 21
-1.54102
  0
LINE
  8
0
 10
-6.97514
 20
-1.54102
 11
-6.79205
 21
-1.36908
  0
LINE
  8
0
 10
-6.79205
 20
-1.36908
 11
-6.63196
 21
-1.17557
  0
LINE
  8
0
 10
-6.63196
 20
-1.17557
 11
-6.49738
 21
-0.963501
  0
LINE
  8
0
 10
-6.49738
 20
-0.963501
 11
-6.39044
 21
-0.736237
  0
LINE
  8
0
 10
-6.39044
 20
-0.736237
 11
-6.31282
 21
-0.497375
  0
LINE
  8
0
 10
-6.31282
 20
-0.497375
 11
-6.26576
 21
-0.250656
  0
LINE
  8
0
 10
-6.26576
 20
-0.250656
 11
-6.25
 21
0
  0
LINE
  8
0
 10
-6.25
 20
0
 11
-6.26576
 21
0.250656
  0
LINE
  8
0
 10
-6.26576
 20
0.250656
 11
-6.31282
 21
0.497375
  0
LINE
  8
0
 10
-6.31282
 20
0.497375
 11
-6.39044
 21
0.736237
  0
LINE
  8
0
 10
-6.39044
 20
0.736237
 11
-6.49738
 21
0.963501
  0
LINE
  8
0
 10
-6.49738
 20
0.963501
 11
-6.63196
 21
1.17557
  0
LINE
  8
0
 10
-6.63196
 20
1.17557
 11
-6.79205
 21
1.36908
  0
LINE
  8
0
 10
-6.79205
 20
1.36908
 11
-6.97514
 21
1.54102
  0
LINE
  8
0
 10
-6.97514
 20
1.54102
 11
-7.17834
 21
1.68864
  0
LINE
  8
0
 10
-7.17834
 20
1.68864
 11
-7.39844
 21
1.80965
  0
LINE
  8
0
 10
-7.39844
 20
1.80965
 11
-7.63196
 21
1.9021
  0
LINE
  8
0
 10
-7.63196
 20
1.9021
 11
-7.87523
 21
1.96457
  0
LINE
  8
0
 10
-7.87523
 20
1.96457
 11
-8.1244
 21
1.99605
  0
LINE
  8
0
 10
-8.1244
 20
1.99605
 11
-8.37558
 21
1.99605
  0
LINE
  8
0
 10
-8.37558
 20
1.99605
 11
-8.62476
 21
1.96457
  0
LINE
  8
0
 10
-8.62476
 20
1.96457
 11
-8.86803
 21
1.9021
  0
LINE
  8
0
 10
-8.86803
 20
1.9021
 11
-9.10155
 21
1.80965
  0
LINE
  8
0
 10
-9.10155
 20
1.80965
 11
-9.32164
 21
1.68864
  0
LINE
  8
0
 10
-9.32164
 20
1.68864
 11
-9.52484
 21
1.54102
  0
LINE
  8
0
 10
-9.52484
 20
1.54102
 11
-9.70793
 21
1.36908
  0
LINE
  8
0
 10
-9.70793
 20
1.36908
 11
-9.86803
 21
1.17557
  0
LINE
  8
0
 10
-9.86803
 20
1.17557
 11
-10.0026
 21
0.963501
  0
LINE
  8
0
 10
-10.0026
 20
0.963501
 11
-10.1095
 21
0.736237
  0
LINE
  8
0
 10
-10.1095
 20
0.736237
 11
-10.1872
 21
0.497375
  0
LINE
  8
0
 10
-10.1872
 20
0.497375
 11
-10.2342
 21
0.250656
  0
LINE
  8
0
 10
-10.2342
 20
0.250656
 11
-10.25
 21
0
  0
LINE
  8
0
 10
-10.25
 20
0
 11
-10.2342
 21
-0.250656
  0
LINE
  8
0
 10
-10.2342
 20
-0.250656
 11
-10.1872
 21
-0.497375
  0
LINE
  8
0
 10
-10.1872
 20
-0.497375
 11
-10.1095
 21
-0.736237
  0
LINE
  8
0
 10
-10.1095
 20
-0.736237
 11
-10.0026
 21
-0.963501
  0
LINE
  8
0
 10
-10.0026
 20
-0.963501
 11
-9.86803
 21
-1.17557
  0
LINE
  8
0
 10
-9.86803
 20
-1.17557
 11
-9.70793
 21
-1.36908
  0
LINE
  8
0
 10
-9.70793
 20
-1.36908
 11
-9.52484
 21
-1.54102
  0
LINE
  8
0
 10
-9.52484
 20
-1.54102
 11
-9.32164
 21
-1.68864
  0
LINE
  8
0
 10
-9.32164
 20
-1.68864
 11
-9.10155
 21
-1.80965
  0
LINE
  8
0
 10
-9.10155
 20
-1.80965
 11
-8.86803
 21
-1.9021
  0
LINE
  8
0
 10
-8.86803
 20
-1.9021
 11
-8.62476
 21
-1.96457
  0
LINE
  8
0
 10
-8.62476
 20
-1.96457
 11
-8.37558
 21
-1.99605
  0
LINE
  8
0
 10
-8.37558
 20
-1.99605
 11
-8.1244
 21
-1.99605
  0
LINE
  8
0
 10
-8.1244
 20
-1.99605
 11
-7.87523
 21
-1.96457
  0
LINE
  8
0
 10
-3.30913
 20
-75.44
 11
-3.48563
 21
-76.3652
  0
LINE
  8
0
 10
-3.48563
 20
-76.3652
 11
-3.77667
 21
-77.2609
  0
LINE
  8
0
 10
-3.77667
 20
-77.2609
 11
-4.17769
 21
-78.1131
  0
LINE
  8
0
 10
-4.17769
 20
-78.1131
 11
-4.68237
 21
-78.9084
  0
LINE
  8
0
 10
-4.68237
 20
-78.9084
 11
-5.28273
 21
-79.6341
  0
LINE
  8
0
 10
-5.28273
 20
-79.6341
 11
-5.96931
 21
-80.2788
  0
LINE
  8
0
 10
-5.96931
 20
-80.2788
 11
-6.73129
 21
-80.8325
  0
LINE
  8
0
 10
-6.73129
 20
-80.8325
 11
-7.55666
 21
-81.2862
  0
LINE
  8
0
 10
-7.55666
 20
-81.2862
 11
-8.43237
 21
-81.6329
  0
LINE
  8
0
 10
-8.43237
 20
-81.6329
 11
-9.34464
 21
-81.8672
  0
LINE
  8
0
 10
-9.34464
 20
-81.8672
 11
-10.2791
 21
-81.9852
  0
LINE
  8
0
 10
-10.2791
 20
-81.9852
 11
-46.2209
 21
-81.9852
  0
LINE
  8
0
 10
-46.2209
 20
-81.9852
 11
-47.1553
 21
-81.8672
  0
LINE
  8
0
 10
-47.1553
 20
-81.8672
 11
-48.0676
 21
-81.6329
  0
LINE
  8
0
 10
-48.0676
 20
-81.6329
 11
-48.9433
 21
-81.2862
  0
LINE
  8
0
 10
-48.9433
 20
-81.2862
 11
-49.7687
 21
-80.8325
  0
LINE
  8
0
 10
-49.7687
 20
-80.8325
 11
-50.5307
 21
-80.2788
  0
LINE
  8
0
 10
-50.5307
 20
-80.2788
 11
-51.2173
 21
-79.6341
  0
LINE
  8
0
 10
-51.2173
 20
-79.6341
 11
-51.8176
 21
-78.9084
  0
LINE
  8
0
 10
-51.8176
 20
-78.9084
 11
-52.3223
 21
-78.1131
  0
LINE
  8
0
 10
-52.3223
 20
-78.1131
 11
-52.7233
 21
-77.2609
  0
LINE
  8
0
 10
-52.7233
 20
-77.2609
 11
-53.0144
 21
-76.3652
  0
LINE
  8
0
 10
-53.0144
 20
-76.3652
 11
-53.1909
 21
-75.44
  0
LINE
  8
0
 10
-53.1909
 20
-75.44
 11
-53.25
 21
-74.5
  0
LINE
  8
0
 10
-53.25
 20
-74.5
 11
-53.25
 21
-39.5
  0
LINE
  8
0
 10
-53.25
 20
-39.5
 11
-53.1909
 21
-38.56
  0
LINE
  8
0
 10
-53.1909
 20
-38.56
 11
-53.0144
 21
-37.6348
  0
LINE
  8
0
 10
-53.0144
 20
-37.6348
 11
-52.7233
 21
-36.7391
  0
LINE
  8
0
 10
-52.7233
 20
-36.7391
 11
-52.3223
 21
-35.8868
  0
LINE
  8
0
 10
-52.3223
 20
-35.8868
 11
-51.8176
 21
-35.0916
  0
LINE
  8
0
 10
-51.8176
 20
-35.0916
 11
-51.2173
 21
-34.3659
  0
LINE
  8
0
 10
-51.2173
 20
-34.3659
 11
-50.5307
 21
-33.7211
  0
LINE
  8
0
 10
-50.5307
 20
-33.7211
 11
-49.7687
 21
-33.1675
  0
LINE
  8
0
 10
-49.7687
 20
-33.1675
 11
-48.9433
 21
-32.7138
  0
LINE
  8
0
 10
-48.9433
 20
-32.7138
 11
-48.0676
 21
-32.3671
  0
LINE
  8
0
 10
-48.0676
 20
-32.3671
 11
-47.1553
 21
-32.1328
  0
LINE
  8
0
 10
-47.1553
 20
-32.1328
 11
-46.2209
 21
-32.0148
  0
LINE
  8
0
 10
-46.2209
 20
-32.0148
 11
-10.2791
 21
-32.0148
  0
LINE
  8
0
 10
-10.2791
 20
-32.0148
 11
-9.34464
 21
-32.1328
  0
LINE
  8
0
 10
-9.34464
 20
-32.1328
 11
-8.43237
 21
-32.3671
  0
LINE
  8
0
 10
-8.43237
 20
-32.3671
 11
-7.55666
 21
-32.7138
  0
LINE
  8
0
 10
-7.55666
 20
-32.7138
 11
-6.73129
 21
-33.1675
  0
LINE
  8
0
 10
-6.73129
 20
-33.1675
 11
-5.96931
 21
-33.7211
  0
LINE
  8
0
 10
-5.96931
 20
-33.7211
 11
-5.28273
 21
-34.3659
  0
LINE
  8
0
 10
-5.28273
 20
-34.3659
 11
-4.68237
 21
-35.0916
  0
LINE
  8
0
 10
-4.68237
 20
-35.0916
 11
-4.17769
 21
-35.8868
  0
LINE
  8
0
 10
-4.17769
 20
-35.8868
 11
-3.77667
 21
-36.7391
  0
LINE
  8
0
 10
-3.77667
 20
-36.7391
 11
-3.48563
 21
-37.6348
  0
LINE
  8
0
 10
-3.48563
 20
-37.6348
 11
-3.30913
 21
-38.56
  0
LINE
  8
0
 10
-3.30913
 20
-38.56
 11
-3.25
 21
-39.5
  0
LINE
  8
0
 10
-3.25
 20
-39.5
 11
-3.25
 21
-74.5
  0
LINE
  8
0
 10
-3.25
 20
-74.5
 11
-3.30913
 21
-75.44
  0
LINE
  8
0
 10
-13.25
 20
-42
 11
-43.25
 21
-42
  0
LINE
  8
0
 10
-43.25
 20
-42
 11
-43.25
 21
-72
  0
LINE
  8
0
 10
-43.25
 20
-72
 11
-13.25
 21
-72
  0
LINE
  8
0
 10
-13.25
 20
-72
 11
-13.25
 21
-42
  0
LINE
  8
0
 10
-47.8752
 20
-58.9646
 11
-47.632
 21
-58.9021
  0
LINE
  8
0
 10
-47.632
 20
-58.9021
 11
-47.3984
 21
-58.8096
  0
LINE
  8
0
 10
-47.3984
 20
-58.8096
 11
-47.1783
 21
-58.6886
  0
LINE
  8
0
 10
-47.1783
 20
-58.6886
 11
-46.9751
 21
-58.541
  0
LINE
  8
0
 10
-46.9751
 20
-58.541
 11
-46.7921
 21
-58.3691
  0
LINE
  8
0
 10
-46.7921
 20
-58.3691
 11
-46.632
 21
-58.1756
  0
LINE
  8
0
 10
-46.632
 20
-58.1756
 11
-46.4974
 21
-57.9635
  0
LINE
  8
0
 10
-46.4974
 20
-57.9635
 11
-46.3904
 21
-57.7362
  0
LINE
  8
0
 10
-46.3904
 20
-57.7362
 11
-46.3128
 21
-57.4974
  0
LINE
  8
0
 10
-46.3128
 20
-57.4974
 11
-46.2658
 21
-57.2507
  0
LINE
  8
0
 10
-46.2658
 20
-57.2507
 11
-46.25
 21
-57
  0
LINE
  8
0
 10
-46.25
 20
-57
 11
-46.2658
 21
-56.7493
  0
LINE
  8
0
 10
-46.2658
 20
-56.7493
 11
-46.3128
 21
-56.5026
  0
LINE
  8
0
 10
-46.3128
 20
-56.5026
 11
-46.3904
 21
-56.2637
  0
LINE
  8
0
 10
-46.3904
 20
-56.2637
 11
-46.4974
 21
-56.0365
  0
LINE
  8
0
 10
-46.4974
 20
-56.0365
 11
-46.632
 21
-55.8244
  0
LINE
  8
0
 10
-46.632
 20
-55.8244
 11
-46.7921
 21
-55.6309
  0
LINE
  8
0
 10
-46.7921
 20
-55.6309
 11
-46.9751
 21
-55.459
  0
LINE
  8
0
 10
-46.9751
 20
-55.459
 11
-47.1783
 21
-55.3113
  0
LINE
  8
0
 10
-47.1783
 20
-55.3113
 11
-47.3984
 21
-55.1903
  0
LINE
  8
0
 10
-47.3984
 20
-55.1903
 11
-47.632
 21
-55.0979
  0
LINE
  8
0
 10
-47.632
 20
-55.0979
 11
-47.8752
 21
-55.0354
  0
LINE
  8
0
 10
-47.8752
 20
-55.0354
 11
-48.1244
 21
-55.0039
  0
LINE
  8
0
 10
-48.1244
 20
-55.0039
 11
-48.3756
 21
-55.0039
  0
LINE
  8
0
 10
-48.3756
 20
-55.0039
 11
-48.6248
 21
-55.0354
  0
LINE
  8
0
 10
-48.6248
 20
-55.0354
 11
-48.868
 21
-55.0979
  0
LINE
  8
0
 10
-48.868
 20
-55.0979
 11
-49.1015
 21
-55.1903
  0
LINE
  8
0
 10
-49.1015
 20
-55.1903
 11
-49.3217
 21
-55.3113
  0
LINE
  8
0
 10
-49.3217
 20
-55.3113
 11
-49.5248
 21
-55.459
  0
LINE
  8
0
 10
-49.5248
 20
-55.459
 11
-49.7079
 21
-55.6309
  0
LINE
  8
0
 10
-49.7079
 20
-55.6309
 11
-49.868
 21
-55.8244
  0
LINE
  8
0
 10
-49.868
 20
-55.8244
 11
-50.0026
 21
-56.0365
  0
LINE
  8
0
 10
-50.0026
 20
-56.0365
 11
-50.1095
 21
-56.2637
  0
LINE
  8
0
 10
-50.1095
 20
-56.2637
 11
-50.1872
 21
-56.5026
  0
LINE
  8
0
 10
-50.1872
 20
-56.5026
 11
-50.2342
 21
-56.7493
  0
LINE
  8
0
 10
-50.2342
 20
-56.7493
 11
-50.25
 21
-57
  0
LINE
  8
0
 10
-50.25
 20
-57
 11
-50.2342
 21
-57.2507
  0
LINE
  8
0
 10
-50.2342
 20
-57.2507
 11
-50.1872
 21
-57.4974
  0
LINE
  8
0
 10
-50.1872
 20
-57.4974
 11
-50.1095
 21
-57.7362
  0
LINE
  8
0
 10
-50.1095
 20
-57.7362
 11
-50.0026
 21
-57.9635
  0
LINE
  8
0
 10
-50.0026
 20
-57.9635
 11
-49.868
 21
-58.1756
  0
LINE
  8
0
 10
-49.868
 20
-58.1756
 11
-49.7079
 21
-58.3691
  0
LINE
  8
0
 10
-49.7079
 20
-58.3691
 11
-49.5248
 21
-58.541
  0
LINE
  8
0
 10
-49.5248
 20
-58.541
 11
-49.3217
 21
-58.6886
  0
LINE
  8
0
 10
-49.3217
 20
-58.6886
 11
-49.1015
 21
-58.8096
  0
LINE
  8
0
 10
-49.1015
 20
-58.8096
 11
-48.868
 21
-58.9021
  0
LINE
  8
0
 10
-48.868
 20
-58.9021
 11
-48.6248
 21
-58.9646
  0
LINE
  8
0
 10
-48.6248
 20
-58.9646
 11
-48.3756
 21
-58.996
  0
LINE
  8
0
 10
-48.3756
 20
-58.996
 11
-48.1244
 21
-58.996
  0
LINE
  8
0
 10
-48.1244
 20
-58.996
 11
-47.8752
 21
-58.9646
  0
LINE
  8
0
 10
-7.87523
 20
-58.9646
 11
-7.63196
 21
-58.9021
  0
LINE
  8
0
 10
-7.63196
 20
-58.9021
 11
-7.39844
 21
-58.8096
  0
LINE
  8
0
 10
-7.39844
 20
-58.8096
 11
-7.17834
 21
-58.6886
  0
LINE
  8
0
 10
-7.17834
 20
-58.6886
 11
-6.97514
 21
-58.541
  0
LINE
  8
0
 10
-6.97514
 20
-58.541
 11
-6.79205
 21
-58.3691
  0
LINE
  8
0
 10
-6.79205
 20
-58.3691
 11
-6.63196
 21
-58.1756
  0
LINE
  8
0
 10
-6.63196
 20
-58.1756
 11
-6.49738
 21
-57.9635
  0
LINE
  8
0
 10
-6.49738
 20
-57.9635
 11
-6.39044
 21
-57.7362
  0
LINE
  8
0
 10
-6.39044
 20
-57.7362
 11
-6.31282
 21
-57.4974
  0
LINE
  8
0
 10
-6.31282
 20
-57.4974
 11
-6.26576
 21
-57.2507
  0
LINE
  8
0
 10
-6.26576
 20
-57.2507
 11
-6.25
 21
-57
  0
LINE
  8
0
 10
-6.25
 20
-57
 11
-6.26576
 21
-56.7493
  0
LINE
  8
0
 10
-6.26576
 20
-56.7493
 11
-6.31282
 21
-56.5026
  0
LINE
  8
0
 10
-6.31282
 20
-56.5026
 11
-6.39044
 21
-56.2637
  0
LINE
  8
0
 10
-6.39044
 20
-56.2637
 11
-6.49738
 21
-56.0365
  0
LINE
  8
0
 10
-6.49738
 20
-56.0365
 11
-6.63196
 21
-55.8244
  0
LINE
  8
0
 10
-6.63196
 20
-55.8244
 11
-6.79205
 21
-55.6309
  0
LINE
  8
0
 10
-6.79205
 20
-55.6309
 11
-6.97514
 21
-55.459
  0
LINE
  8
0
 10
-6.97514
 20
-55.459
 11
-7.17834
 21
-55.3113
  0
LINE
  8
0
 10
-7.17834
 20
-55.3113
 11
-7.39844
 21
-55.1903
  0
LINE
  8
0
 10
-7.39844
 20
-55.1903
 11
-7.63196
 21
-55.0979
  0
LINE
  8
0
 10
-7.63196
 20
-55.0979
 11
-7.87523
 21
-55.0354
  0
LINE
  8
0
 10
-7.87523
 20
-55.0354
 11
-8.1244
 21
-55.0039
  0
LINE
  8
0
 10
-8.1244
 20
-55.0039
 11
-8.37558
 21
-55.0039
  0
LINE
  8
0
 10
-8.37558
 20
-55.0039
 11
-8.62476
 21
-55.0354
  0
LINE
  8
0
 10
-8.62476
 20
-55.0354
 11
-8.86803
 21
-55.0979
  0
LINE
  8
0
 10
-8.86803
 20
-55.0979
 11
-9.10155
 21
-55.1903
  0
LINE
  8
0
 10
-9.10155
 20
-55.1903
 11
-9.32164
 21
-55.3113
  0
LINE
  8
0
 10
-9.32164
 20
-55.3113
 11
-9.52484
 21
-55.459
  0
LINE
  8
0
 10
-9.52484
 20
-55.459
 11
-9.70793
 21
-55.6309
  0
LINE
  8
0
 10
-9.70793
 20
-55.6309
 11
-9.86803
 21
-55.8244
  0
LINE
  8
0
 10
-9.86803
 20
-55.8244
 11
-10.0026
 21
-56.0365
  0
LINE
  8
0
 10
-10.0026
 20
-56.0365
 11
-10.1095
 21
-56.2637
  0
LINE
  8
0
 10
-10.1095
 20
-56.2637
 11
-10.1872
 21
-56.5026
  0
LINE
  8
0
 10
-10.1872
 20
-56.5026
 11
-10.2342
 21
-56.7493
  0
LINE
  8
0
 10
-10.2342
 20
-56.7493
 11
-10.25
 21
-57
  0
LINE
  8
0
 10
-10.25
 20
-57
 11
-10.2342
 21
-57.2507
  0
LINE
  8
0
 10
-10.2342
 20
-57.2507
 11
-10.1872
 21
-57.4974
  0
LINE
  8
0
 10
-10.1872
 20
-57.4974
 11
-10.1095
 21
-57.7362
  0
LINE
  8
0
 10
-10.1095
 20
-57.7362
 11
-10.0026
 21
-57.9635
  0
LINE
  8
0
 10
-10.0026
 20
-57.9635
 11
-9.86803
 21
-58.1756
  0
LINE
  8
0
 10
-9.86803
 20
-58.1756
 11
-9.70793
 21
-58.3691
  0
LINE
  8
0
 10
-9.70793
 20
-58.3691
 11
-9.52484
 21
-58.541
  0
LINE
  8
0
 10
-9.52484
 20
-58.541
 11
-9.32164
 21
-58.6886
  0
LINE
  8
0
 10
-9.32164
 20
-58.6886
 11
-9.10155
 21
-58.8096
  0
LINE
  8
0
 10
-9.10155
 20
-58.8096
 11
-8.86803
 21
-58.9021
  0
LINE
  8
0
 10
-8.86803
 20
-58.9021
 11
-8.62476
 21
-58.9646
  0
LINE
  8
0
 10
-8.62476
 20
-58.9646
 11
-8.37558
 21
-58.996
  0
LINE
  8
0
 10
-8.37558
 20
-58.996
 11
-8.1244
 21
-58.996
  0
LINE
  8
0
 10
-8.1244
 20
-58.996
 11
-7.87523
 21
-58.9646
  0
ENDSEC
  0
SECTION
  2
OBJECTS
  0
DICTIONARY
  0
ENDSEC
  0
EOF
