  0
SECTION
  2
BLOCKS
  0
ENDSEC
  0
SECTION
  2
ENTITIES
  0
LINE
  8
0
 10
10
 20
15.7331
 11
10.1198
 21
15.7331
  0
LINE
  8
0
 10
10.1198
 20
15.7331
 11
10.3575
 21
15.7582
  0
LINE
  8
0
 10
10.3575
 20
15.7582
 11
10.5896
 21
15.8078
  0
LINE
  8
0
 10
10.5896
 20
15.8078
 11
10.8124
 21
15.8813
  0
LINE
  8
0
 10
10.8124
 20
15.8813
 11
11.0224
 21
15.9775
  0
LINE
  8
0
 10
11.0224
 20
15.9775
 11
11.2162
 21
16.0949
  0
LINE
  8
0
 10
11.2162
 20
16.0949
 11
11.3909
 21
16.2316
  0
LINE
  8
0
 10
11.3909
 20
16.2316
 11
11.5436
 21
16.3854
  0
LINE
  8
0
 10
11.5436
 20
16.3854
 11
11.672
 21
16.554
  0
LINE
  8
0
 10
11.672
 20
16.554
 11
11.774
 21
16.7347
  0
LINE
  8
0
 10
11.774
 20
16.7347
 11
11.8481
 21
16.9246
  0
LINE
  8
0
 10
11.8481
 20
16.9246
 11
11.8929
 21
17.1207
  0
LINE
  8
0
 10
11.8929
 20
17.1207
 11
11.908
 21
17.32
  0
LINE
  8
0
 10
11.908
 20
17.32
 11
11.8929
 21
17.5193
  0
LINE
  8
0
 10
11.8929
 20
17.5193
 11
11.8481
 21
17.7154
  0
LINE
  8
0
 10
11.8481
 20
17.7154
 11
11.774
 21
17.9053
  0
LINE
  8
0
 10
11.774
 20
17.9053
 11
11.672
 21
18.086
  0
LINE
  8
0
 10
11.672
 20
18.086
 11
11.5436
 21
18.2546
  0
LINE
  8
0
 10
11.5436
 20
18.2546
 11
11.3909
 21
18.4084
  0
LINE
  8
0
 10
11.3909
 20
18.4084
 11
11.2162
 21
18.5451
  0
LINE
  8
0
 10
11.2162
 20
18.5451
 11
11.0224
 21
18.6625
  0
LINE
  8
0
 10
11.0224
 20
18.6625
 11
10.8124
 21
18.7587
  0
LINE
  8
0
 10
10.8124
 20
18.7587
 11
10.5896
 21
18.8322
  0
LINE
  8
0
 10
10.5896
 20
18.8322
 11
10.3575
 21
18.8818
  0
LINE
  8
0
 10
10.3575
 20
18.8818
 11
10.1198
 21
18.9069
  0
LINE
  8
0
 10
10.1198
 20
18.9069
 11
9.88019
 21
18.9069
  0
LINE
  8
0
 10
9.88019
 20
18.9069
 11
9.64247
 21
18.8818
  0
LINE
  8
0
 10
9.64247
 20
18.8818
 11
9.41039
 21
18.8322
  0
LINE
  8
0
 10
9.41039
 20
18.8322
 11
9.18761
 21
18.7587
  0
LINE
  8
0
 10
9.18761
 20
18.7587
 11
8.97763
 21
18.6625
  0
LINE
  8
0
 10
8.97763
 20
18.6625
 11
8.78378
 21
18.5451
  0
LINE
  8
0
 10
8.78378
 20
18.5451
 11
8.60912
 21
18.4084
  0
LINE
  8
0
 10
8.60912
 20
18.4084
 11
8.45639
 21
18.2546
  0
LINE
  8
0
 10
8.45639
 20
18.2546
 11
8.328
 21
18.086
  0
LINE
  8
0
 10
8.328
 20
18.086
 11
8.22598
 21
17.9053
  0
LINE
  8
0
 10
8.22598
 20
17.9053
 11
8.15193
 21
17.7154
  0
LINE
  8
0
 10
8.15193
 20
17.7154
 11
8.10704
 21
17.5193
  0
LINE
  8
0
 10
8.10704
 20
17.5193
 11
8.092
 21
17.32
  0
LINE
  8
0
 10
8.092
 20
17.32
 11
4.20175
 21
17.32
  0
LINE
  8
0
 10
4.20175
 20
17.32
 11
4.35901
 21
17.4902
  0
LINE
  8
0
 10
4.35901
 20
17.4902
 11
4.67998
 21
17.9429
  0
LINE
  8
0
 10
4.67998
 20
17.9429
 11
4.73607
 21
18.0496
  0
LINE
  8
0
 10
4.73607
 20
18.0496
 11
4.22569
 21
18.56
  0
LINE
  8
0
 10
4.22569
 20
18.56
 11
3.32999
 21
18.56
  0
LINE
  8
0
 10
3.32999
 20
18.56
 11
3.32999
 21
21.44
  0
LINE
  8
0
 10
3.32999
 20
21.44
 11
4.42569
 21
21.44
  0
LINE
  8
0
 10
4.42569
 20
21.44
 11
4.80498
 21
21.8193
  0
LINE
  8
0
 10
4.80498
 20
21.8193
 11
4.67998
 21
22.0571
  0
LINE
  8
0
 10
4.67998
 20
22.0571
 11
4.35901
 21
22.5098
  0
LINE
  8
0
 10
4.35901
 20
22.5098
 11
4.26999
 21
22.6062
  0
LINE
  8
0
 10
4.26999
 20
22.6062
 11
4.26999
 21
22.68
  0
LINE
  8
0
 10
4.26999
 20
22.68
 11
8.092
 21
22.68
  0
LINE
  8
0
 10
8.092
 20
22.68
 11
8.10704
 21
22.4807
  0
LINE
  8
0
 10
8.10704
 20
22.4807
 11
8.15193
 21
22.2846
  0
LINE
  8
0
 10
8.15193
 20
22.2846
 11
8.22598
 21
22.0947
  0
LINE
  8
0
 10
8.22598
 20
22.0947
 11
8.328
 21
21.914
  0
LINE
  8
0
 10
8.328
 20
21.914
 11
8.45639
 21
21.7454
  0
LINE
  8
0
 10
8.45639
 20
21.7454
 11
8.60912
 21
21.5916
  0
LINE
  8
0
 10
8.60912
 20
21.5916
 11
8.78378
 21
21.4549
  0
LINE
  8
0
 10
8.78378
 20
21.4549
 11
8.97763
 21
21.3375
  0
LINE
  8
0
 10
8.97763
 20
21.3375
 11
9.18761
 21
21.2413
  0
LINE
  8
0
 10
9.18761
 20
21.2413
 11
9.41039
 21
21.1678
  0
LINE
  8
0
 10
9.41039
 20
21.1678
 11
9.64247
 21
21.1182
  0
LINE
  8
0
 10
9.64247
 20
21.1182
 11
9.88019
 21
21.0931
  0
LINE
  8
0
 10
9.88019
 20
21.0931
 11
10.1198
 21
21.0931
  0
LINE
  8
0
 10
10.1198
 20
21.0931
 11
10.3575
 21
21.1182
  0
LINE
  8
0
 10
10.3575
 20
21.1182
 11
10.5896
 21
21.1678
  0
LINE
  8
0
 10
10.5896
 20
21.1678
 11
10.8124
 21
21.2413
  0
LINE
  8
0
 10
10.8124
 20
21.2413
 11
11.0224
 21
21.3375
  0
LINE
  8
0
 10
11.0224
 20
21.3375
 11
11.2162
 21
21.4549
  0
LINE
  8
0
 10
11.2162
 20
21.4549
 11
11.3909
 21
21.5916
  0
LINE
  8
0
 10
11.3909
 20
21.5916
 11
11.5436
 21
21.7454
  0
LINE
  8
0
 10
11.5436
 20
21.7454
 11
11.672
 21
21.914
  0
LINE
  8
0
 10
11.672
 20
21.914
 11
11.774
 21
22.0947
  0
LINE
  8
0
 10
11.774
 20
22.0947
 11
11.8481
 21
22.2846
  0
LINE
  8
0
 10
11.8481
 20
22.2846
 11
11.8929
 21
22.4807
  0
LINE
  8
0
 10
11.8929
 20
22.4807
 11
11.908
 21
22.68
  0
LINE
  8
0
 10
11.908
 20
22.68
 11
11.8929
 21
22.8793
  0
LINE
  8
0
 10
11.8929
 20
22.8793
 11
11.8481
 21
23.0754
  0
LINE
  8
0
 10
11.8481
 20
23.0754
 11
11.774
 21
23.2653
  0
LINE
  8
0
 10
11.774
 20
23.2653
 11
11.672
 21
23.446
  0
LINE
  8
0
 10
11.672
 20
23.446
 11
11.5436
 21
23.6146
  0
LINE
  8
0
 10
11.5436
 20
23.6146
 11
11.3909
 21
23.7684
  0
LINE
  8
0
 10
11.3909
 20
23.7684
 11
11.2162
 21
23.9051
  0
LINE
  8
0
 10
11.2162
 20
23.9051
 11
11.0224
 21
24.0225
  0
LINE
  8
0
 10
11.0224
 20
24.0225
 11
10.8124
 21
24.1187
  0
LINE
  8
0
 10
10.8124
 20
24.1187
 11
10.5896
 21
24.1922
  0
LINE
  8
0
 10
10.5896
 20
24.1922
 11
10.3575
 21
24.2418
  0
LINE
  8
0
 10
10.3575
 20
24.2418
 11
10.1198
 21
24.2669
  0
LINE
  8
0
 10
10.1198
 20
24.2669
 11
10
 21
24.2669
  0
LINE
  8
0
 10
10
 20
24.2669
 11
10
 21
24.27
  0
LINE
  8
0
 10
10
 20
24.27
 11
4.26999
 21
24.27
  0
LINE
  8
0
 10
4.26999
 20
24.27
 11
4.26999
 21
30
  0
LINE
  8
0
 10
4.26999
 20
30
 11
4.26686
 21
30
  0
LINE
  8
0
 10
4.26686
 20
30
 11
4.26686
 21
30.1198
  0
LINE
  8
0
 10
4.26686
 20
30.1198
 11
4.24184
 21
30.3575
  0
LINE
  8
0
 10
4.24184
 20
30.3575
 11
4.19217
 21
30.5896
  0
LINE
  8
0
 10
4.19217
 20
30.5896
 11
4.11867
 21
30.8124
  0
LINE
  8
0
 10
4.11867
 20
30.8124
 11
4.02248
 21
31.0224
  0
LINE
  8
0
 10
4.02248
 20
31.0224
 11
3.90511
 21
31.2162
  0
LINE
  8
0
 10
3.90511
 20
31.2162
 11
3.76842
 21
31.3909
  0
LINE
  8
0
 10
3.76842
 20
31.3909
 11
3.61458
 21
31.5436
  0
LINE
  8
0
 10
3.61458
 20
31.5436
 11
3.44598
 21
31.672
  0
LINE
  8
0
 10
3.44598
 20
31.672
 11
3.2653
 21
31.774
  0
LINE
  8
0
 10
3.2653
 20
31.774
 11
3.07541
 21
31.8481
  0
LINE
  8
0
 10
3.07541
 20
31.8481
 11
2.87927
 21
31.8929
  0
LINE
  8
0
 10
2.87927
 20
31.8929
 11
2.67999
 21
31.908
  0
LINE
  8
0
 10
2.67999
 20
31.908
 11
2.48071
 21
31.8929
  0
LINE
  8
0
 10
2.48071
 20
31.8929
 11
2.28458
 21
31.8481
  0
LINE
  8
0
 10
2.28458
 20
31.8481
 11
2.09468
 21
31.774
  0
LINE
  8
0
 10
2.09468
 20
31.774
 11
1.914
 21
31.672
  0
LINE
  8
0
 10
1.914
 20
31.672
 11
1.74541
 21
31.5436
  0
LINE
  8
0
 10
1.74541
 20
31.5436
 11
1.59157
 21
31.3909
  0
LINE
  8
0
 10
1.59157
 20
31.3909
 11
1.45488
 21
31.2162
  0
LINE
  8
0
 10
1.45488
 20
31.2162
 11
1.33751
 21
31.0224
  0
LINE
  8
0
 10
1.33751
 20
31.0224
 11
1.24132
 21
30.8124
  0
LINE
  8
0
 10
1.24132
 20
30.8124
 11
1.16782
 21
30.5896
  0
LINE
  8
0
 10
1.16782
 20
30.5896
 11
1.11815
 21
30.3575
  0
LINE
  8
0
 10
1.11815
 20
30.3575
 11
1.09312
 21
30.1198
  0
LINE
  8
0
 10
1.09312
 20
30.1198
 11
1.09312
 21
29.8802
  0
LINE
  8
0
 10
1.09312
 20
29.8802
 11
1.11815
 21
29.6425
  0
LINE
  8
0
 10
1.11815
 20
29.6425
 11
1.16782
 21
29.4104
  0
LINE
  8
0
 10
1.16782
 20
29.4104
 11
1.24132
 21
29.1876
  0
LINE
  8
0
 10
1.24132
 20
29.1876
 11
1.33751
 21
28.9776
  0
LINE
  8
0
 10
1.33751
 20
28.9776
 11
1.45488
 21
28.7838
  0
LINE
  8
0
 10
1.45488
 20
28.7838
 11
1.59157
 21
28.6091
  0
LINE
  8
0
 10
1.59157
 20
28.6091
 11
1.74541
 21
28.4564
  0
LINE
  8
0
 10
1.74541
 20
28.4564
 11
1.914
 21
28.328
  0
LINE
  8
0
 10
1.914
 20
28.328
 11
2.09468
 21
28.226
  0
LINE
  8
0
 10
2.09468
 20
28.226
 11
2.28458
 21
28.1519
  0
LINE
  8
0
 10
2.28458
 20
28.1519
 11
2.48071
 21
28.107
  0
LINE
  8
0
 10
2.48071
 20
28.107
 11
2.67999
 21
28.092
  0
LINE
  8
0
 10
2.67999
 20
28.092
 11
2.67999
 21
24.27
  0
LINE
  8
0
 10
2.67999
 20
24.27
 11
2.60616
 21
24.27
  0
LINE
  8
0
 10
2.60616
 20
24.27
 11
2.50984
 21
24.359
  0
LINE
  8
0
 10
2.50984
 20
24.359
 11
2.05708
 21
24.68
  0
LINE
  8
0
 10
2.05708
 20
24.68
 11
1.95036
 21
24.7361
  0
LINE
  8
0
 10
1.95036
 20
24.7361
 11
1.43999
 21
24.2257
  0
LINE
  8
0
 10
1.43999
 20
24.2257
 11
1.43999
 21
23.33
  0
LINE
  8
0
 10
1.43999
 20
23.33
 11
-1.43999
 21
23.33
  0
LINE
  8
0
 10
-1.43999
 20
23.33
 11
-1.43999
 21
24.4257
  0
LINE
  8
0
 10
-1.43999
 20
24.4257
 11
-1.81927
 21
24.805
  0
LINE
  8
0
 10
-1.81927
 20
24.805
 11
-2.05708
 21
24.68
  0
LINE
  8
0
 10
-2.05708
 20
24.68
 11
-2.50984
 21
24.359
  0
LINE
  8
0
 10
-2.50984
 20
24.359
 11
-2.60616
 21
24.27
  0
LINE
  8
0
 10
-2.60616
 20
24.27
 11
-2.67999
 21
24.27
  0
LINE
  8
0
 10
-2.67999
 20
24.27
 11
-2.67999
 21
28.092
  0
LINE
  8
0
 10
-2.67999
 20
28.092
 11
-2.48071
 21
28.107
  0
LINE
  8
0
 10
-2.48071
 20
28.107
 11
-2.28458
 21
28.1519
  0
LINE
  8
0
 10
-2.28458
 20
28.1519
 11
-2.09468
 21
28.226
  0
LINE
  8
0
 10
-2.09468
 20
28.226
 11
-1.914
 21
28.328
  0
LINE
  8
0
 10
-1.914
 20
28.328
 11
-1.74541
 21
28.4564
  0
LINE
  8
0
 10
-1.74541
 20
28.4564
 11
-1.59157
 21
28.6091
  0
LINE
  8
0
 10
-1.59157
 20
28.6091
 11
-1.45488
 21
28.7838
  0
LINE
  8
0
 10
-1.45488
 20
28.7838
 11
-1.33751
 21
28.9776
  0
LINE
  8
0
 10
-1.33751
 20
28.9776
 11
-1.24132
 21
29.1876
  0
LINE
  8
0
 10
-1.24132
 20
29.1876
 11
-1.16782
 21
29.4104
  0
LINE
  8
0
 10
-1.16782
 20
29.4104
 11
-1.11815
 21
29.6425
  0
LINE
  8
0
 10
-1.11815
 20
29.6425
 11
-1.09312
 21
29.8802
  0
LINE
  8
0
 10
-1.09312
 20
29.8802
 11
-1.09312
 21
30.1198
  0
LINE
  8
0
 10
-1.09312
 20
30.1198
 11
-1.11815
 21
30.3575
  0
LINE
  8
0
 10
-1.11815
 20
30.3575
 11
-1.16782
 21
30.5896
  0
LINE
  8
0
 10
-1.16782
 20
30.5896
 11
-1.24132
 21
30.8124
  0
LINE
  8
0
 10
-1.24132
 20
30.8124
 11
-1.33751
 21
31.0224
  0
LINE
  8
0
 10
-1.33751
 20
31.0224
 11
-1.45488
 21
31.2162
  0
LINE
  8
0
 10
-1.45488
 20
31.2162
 11
-1.59157
 21
31.3909
  0
LINE
  8
0
 10
-1.59157
 20
31.3909
 11
-1.74541
 21
31.5436
  0
LINE
  8
0
 10
-1.74541
 20
31.5436
 11
-1.914
 21
31.672
  0
LINE
  8
0
 10
-1.914
 20
31.672
 11
-2.09468
 21
31.774
  0
LINE
  8
0
 10
-2.09468
 20
31.774
 11
-2.28458
 21
31.8481
  0
LINE
  8
0
 10
-2.28458
 20
31.8481
 11
-2.48071
 21
31.8929
  0
LINE
  8
0
 10
-2.48071
 20
31.8929
 11
-2.67999
 21
31.908
  0
LINE
  8
0
 10
-2.67999
 20
31.908
 11
-2.87927
 21
31.8929
  0
LINE
  8
0
 10
-2.87927
 20
31.8929
 11
-3.07541
 21
31.8481
  0
LINE
  8
0
 10
-3.07541
 20
31.8481
 11
-3.2653
 21
31.774
  0
LINE
  8
0
 10
-3.2653
 20
31.774
 11
-3.44598
 21
31.672
  0
LINE
  8
0
 10
-3.44598
 20
31.672
 11
-3.61458
 21
31.5436
  0
LINE
  8
0
 10
-3.61458
 20
31.5436
 11
-3.76842
 21
31.3909
  0
LINE
  8
0
 10
-3.76842
 20
31.3909
 11
-3.90511
 21
31.2162
  0
LINE
  8
0
 10
-3.90511
 20
31.2162
 11
-4.02248
 21
31.0224
  0
LINE
  8
0
 10
-4.02248
 20
31.0224
 11
-4.11867
 21
30.8124
  0
LINE
  8
0
 10
-4.11867
 20
30.8124
 11
-4.19217
 21
30.5896
  0
LINE
  8
0
 10
-4.19217
 20
30.5896
 11
-4.24184
 21
30.3575
  0
LINE
  8
0
 10
-4.24184
 20
30.3575
 11
-4.26686
 21
30.1198
  0
LINE
  8
0
 10
-4.26686
 20
30.1198
 11
-4.26686
 21
30
  0
LINE
  8
0
 10
-4.26686
 20
30
 11
-4.26999
 21
30
  0
LINE
  8
0
 10
-4.26999
 20
30
 11
-4.26999
 21
24.27
  0
LINE
  8
0
 10
-4.26999
 20
24.27
 11
-10
 21
24.27
  0
LINE
  8
0
 10
-10
 20
24.27
 11
-10
 21
24.2669
  0
LINE
  8
0
 10
-10
 20
24.2669
 11
-10.1198
 21
24.2669
  0
LINE
  8
0
 10
-10.1198
 20
24.2669
 11
-10.3575
 21
24.2418
  0
LINE
  8
0
 10
-10.3575
 20
24.2418
 11
-10.5896
 21
24.1922
  0
LINE
  8
0
 10
-10.5896
 20
24.1922
 11
-10.8124
 21
24.1187
  0
LINE
  8
0
 10
-10.8124
 20
24.1187
 11
-11.0224
 21
24.0225
  0
LINE
  8
0
 10
-11.0224
 20
24.0225
 11
-11.2162
 21
23.9051
  0
LINE
  8
0
 10
-11.2162
 20
23.9051
 11
-11.3909
 21
23.7684
  0
LINE
  8
0
 10
-11.3909
 20
23.7684
 11
-11.5436
 21
23.6146
  0
LINE
  8
0
 10
-11.5436
 20
23.6146
 11
-11.672
 21
23.446
  0
LINE
  8
0
 10
-11.672
 20
23.446
 11
-11.774
 21
23.2653
  0
LINE
  8
0
 10
-11.774
 20
23.2653
 11
-11.8481
 21
23.0754
  0
LINE
  8
0
 10
-11.8481
 20
23.0754
 11
-11.8929
 21
22.8793
  0
LINE
  8
0
 10
-11.8929
 20
22.8793
 11
-11.908
 21
22.68
  0
LINE
  8
0
 10
-11.908
 20
22.68
 11
-11.8929
 21
22.4807
  0
LINE
  8
0
 10
-11.8929
 20
22.4807
 11
-11.8481
 21
22.2846
  0
LINE
  8
0
 10
-11.8481
 20
22.2846
 11
-11.774
 21
22.0947
  0
LINE
  8
0
 10
-11.774
 20
22.0947
 11
-11.672
 21
21.914
  0
LINE
  8
0
 10
-11.672
 20
21.914
 11
-11.5436
 21
21.7454
  0
LINE
  8
0
 10
-11.5436
 20
21.7454
 11
-11.3909
 21
21.5916
  0
LINE
  8
0
 10
-11.3909
 20
21.5916
 11
-11.2162
 21
21.4549
  0
LINE
  8
0
 10
-11.2162
 20
21.4549
 11
-11.0224
 21
21.3375
  0
LINE
  8
0
 10
-11.0224
 20
21.3375
 11
-10.8124
 21
21.2413
  0
LINE
  8
0
 10
-10.8124
 20
21.2413
 11
-10.5896
 21
21.1678
  0
LINE
  8
0
 10
-10.5896
 20
21.1678
 11
-10.3575
 21
21.1182
  0
LINE
  8
0
 10
-10.3575
 20
21.1182
 11
-10.1198
 21
21.0931
  0
LINE
  8
0
 10
-10.1198
 20
21.0931
 11
-9.88019
 21
21.0931
  0
LINE
  8
0
 10
-9.88019
 20
21.0931
 11
-9.64247
 21
21.1182
  0
LINE
  8
0
 10
-9.64247
 20
21.1182
 11
-9.41039
 21
21.1678
  0
LINE
  8
0
 10
-9.41039
 20
21.1678
 11
-9.18761
 21
21.2413
  0
LINE
  8
0
 10
-9.18761
 20
21.2413
 11
-8.97763
 21
21.3375
  0
LINE
  8
0
 10
-8.97763
 20
21.3375
 11
-8.78378
 21
21.4549
  0
LINE
  8
0
 10
-8.78378
 20
21.4549
 11
-8.60912
 21
21.5916
  0
LINE
  8
0
 10
-8.60912
 20
21.5916
 11
-8.45639
 21
21.7454
  0
LINE
  8
0
 10
-8.45639
 20
21.7454
 11
-8.328
 21
21.914
  0
LINE
  8
0
 10
-8.328
 20
21.914
 11
-8.22598
 21
22.0947
  0
LINE
  8
0
 10
-8.22598
 20
22.0947
 11
-8.15193
 21
22.2846
  0
LINE
  8
0
 10
-8.15193
 20
22.2846
 11
-8.10704
 21
22.4807
  0
LINE
  8
0
 10
-8.10704
 20
22.4807
 11
-8.092
 21
22.68
  0
LINE
  8
0
 10
-8.092
 20
22.68
 11
-4.26999
 21
22.68
  0
LINE
  8
0
 10
-4.26999
 20
22.68
 11
-4.26999
 21
22.6062
  0
LINE
  8
0
 10
-4.26999
 20
22.6062
 11
-4.35901
 21
22.5098
  0
LINE
  8
0
 10
-4.35901
 20
22.5098
 11
-4.67998
 21
22.0571
  0
LINE
  8
0
 10
-4.67998
 20
22.0571
 11
-4.73607
 21
21.9504
  0
LINE
  8
0
 10
-4.73607
 20
21.9504
 11
-4.22569
 21
21.44
  0
LINE
  8
0
 10
-4.22569
 20
21.44
 11
-3.32999
 21
21.44
  0
LINE
  8
0
 10
-3.32999
 20
21.44
 11
-3.32999
 21
18.56
  0
LINE
  8
0
 10
-3.32999
 20
18.56
 11
-4.42569
 21
18.56
  0
LINE
  8
0
 10
-4.42569
 20
18.56
 11
-4.80498
 21
18.1807
  0
LINE
  8
0
 10
-4.80498
 20
18.1807
 11
-4.67998
 21
17.9429
  0
LINE
  8
0
 10
-4.67998
 20
17.9429
 11
-4.35901
 21
17.4902
  0
LINE
  8
0
 10
-4.35901
 20
17.4902
 11
-4.20175
 21
17.32
  0
LINE
  8
0
 10
-4.20175
 20
17.32
 11
-8.092
 21
17.32
  0
LINE
  8
0
 10
-8.092
 20
17.32
 11
-8.10704
 21
17.5193
  0
LINE
  8
0
 10
-8.10704
 20
17.5193
 11
-8.15193
 21
17.7154
  0
LINE
  8
0
 10
-8.15193
 20
17.7154
 11
-8.22598
 21
17.9053
  0
LINE
  8
0
 10
-8.22598
 20
17.9053
 11
-8.328
 21
18.086
  0
LINE
  8
0
 10
-8.328
 20
18.086
 11
-8.45639
 21
18.2546
  0
LINE
  8
0
 10
-8.45639
 20
18.2546
 11
-8.60912
 21
18.4084
  0
LINE
  8
0
 10
-8.60912
 20
18.4084
 11
-8.78378
 21
18.5451
  0
LINE
  8
0
 10
-8.78378
 20
18.5451
 11
-8.97763
 21
18.6625
  0
LINE
  8
0
 10
-8.97763
 20
18.6625
 11
-9.18761
 21
18.7587
  0
LINE
  8
0
 10
-9.18761
 20
18.7587
 11
-9.41039
 21
18.8322
  0
LINE
  8
0
 10
-9.41039
 20
18.8322
 11
-9.64247
 21
18.8818
  0
LINE
  8
0
 10
-9.64247
 20
18.8818
 11
-9.88019
 21
18.9069
  0
LINE
  8
0
 10
-9.88019
 20
18.9069
 11
-10.1198
 21
18.9069
  0
LINE
  8
0
 10
-10.1198
 20
18.9069
 11
-10.3575
 21
18.8818
  0
LINE
  8
0
 10
-10.3575
 20
18.8818
 11
-10.5896
 21
18.8322
  0
LINE
  8
0
 10
-10.5896
 20
18.8322
 11
-10.8124
 21
18.7587
  0
LINE
  8
0
 10
-10.8124
 20
18.7587
 11
-11.0224
 21
18.6625
  0
LINE
  8
0
 10
-11.0224
 20
18.6625
 11
-11.2162
 21
18.5451
  0
LINE
  8
0
 10
-11.2162
 20
18.5451
 11
-11.3909
 21
18.4084
  0
LINE
  8
0
 10
-11.3909
 20
18.4084
 11
-11.5436
 21
18.2546
  0
LINE
  8
0
 10
-11.5436
 20
18.2546
 11
-11.672
 21
18.086
  0
LINE
  8
0
 10
-11.672
 20
18.086
 11
-11.774
 21
17.9053
  0
LINE
  8
0
 10
-11.774
 20
17.9053
 11
-11.8481
 21
17.7154
  0
LINE
  8
0
 10
-11.8481
 20
17.7154
 11
-11.8929
 21
17.5193
  0
LINE
  8
0
 10
-11.8929
 20
17.5193
 11
-11.908
 21
17.32
  0
LINE
  8
0
 10
-11.908
 20
17.32
 11
-11.8929
 21
17.1207
  0
LINE
  8
0
 10
-11.8929
 20
17.1207
 11
-11.8481
 21
16.9246
  0
LINE
  8
0
 10
-11.8481
 20
16.9246
 11
-11.774
 21
16.7347
  0
LINE
  8
0
 10
-11.774
 20
16.7347
 11
-11.672
 21
16.554
  0
LINE
  8
0
 10
-11.672
 20
16.554
 11
-11.5436
 21
16.3854
  0
LINE
  8
0
 10
-11.5436
 20
16.3854
 11
-11.3909
 21
16.2316
  0
LINE
  8
0
 10
-11.3909
 20
16.2316
 11
-11.2162
 21
16.0949
  0
LINE
  8
0
 10
-11.2162
 20
16.0949
 11
-11.0224
 21
15.9775
  0
LINE
  8
0
 10
-11.0224
 20
15.9775
 11
-10.8124
 21
15.8813
  0
LINE
  8
0
 10
-10.8124
 20
15.8813
 11
-10.5896
 21
15.8078
  0
LINE
  8
0
 10
-10.5896
 20
15.8078
 11
-10.3575
 21
15.7582
  0
LINE
  8
0
 10
-10.3575
 20
15.7582
 11
-10.1198
 21
15.7331
  0
LINE
  8
0
 10
-10.1198
 20
15.7331
 11
-10
 21
15.7331
  0
LINE
  8
0
 10
-10
 20
15.7331
 11
-10
 21
15.73
  0
LINE
  8
0
 10
-10
 20
15.73
 11
10
 21
15.73
  0
LINE
  8
0
 10
10
 20
15.73
 11
10
 21
15.7331
  0
LINE
  8
0
 10
2.87927
 20
-51.8929
 11
3.07541
 21
-51.8481
  0
LINE
  8
0
 10
3.07541
 20
-51.8481
 11
3.2653
 21
-51.774
  0
LINE
  8
0
 10
3.2653
 20
-51.774
 11
3.44598
 21
-51.672
  0
LINE
  8
0
 10
3.44598
 20
-51.672
 11
3.61458
 21
-51.5436
  0
LINE
  8
0
 10
3.61458
 20
-51.5436
 11
3.76842
 21
-51.3909
  0
LINE
  8
0
 10
3.76842
 20
-51.3909
 11
3.90511
 21
-51.2162
  0
LINE
  8
0
 10
3.90511
 20
-51.2162
 11
4.02248
 21
-51.0224
  0
LINE
  8
0
 10
4.02248
 20
-51.0224
 11
4.11867
 21
-50.8124
  0
LINE
  8
0
 10
4.11867
 20
-50.8124
 11
4.19217
 21
-50.5896
  0
LINE
  8
0
 10
4.19217
 20
-50.5896
 11
4.24184
 21
-50.3575
  0
LINE
  8
0
 10
4.24184
 20
-50.3575
 11
4.26686
 21
-50.1198
  0
LINE
  8
0
 10
4.26686
 20
-50.1198
 11
4.26686
 21
-50
  0
LINE
  8
0
 10
4.26686
 20
-50
 11
4.26999
 21
-50
  0
LINE
  8
0
 10
4.26999
 20
-50
 11
4.26999
 21
-44.27
  0
LINE
  8
0
 10
4.26999
 20
-44.27
 11
10
 21
-44.27
  0
LINE
  8
0
 10
10
 20
-44.27
 11
10
 21
-44.2669
  0
LINE
  8
0
 10
10
 20
-44.2669
 11
10.1198
 21
-44.2669
  0
LINE
  8
0
 10
10.1198
 20
-44.2669
 11
10.3575
 21
-44.2418
  0
LINE
  8
0
 10
10.3575
 20
-44.2418
 11
10.5896
 21
-44.1922
  0
LINE
  8
0
 10
10.5896
 20
-44.1922
 11
10.8124
 21
-44.1187
  0
LINE
  8
0
 10
10.8124
 20
-44.1187
 11
11.0224
 21
-44.0225
  0
LINE
  8
0
 10
11.0224
 20
-44.0225
 11
11.2162
 21
-43.9051
  0
LINE
  8
0
 10
11.2162
 20
-43.9051
 11
11.3909
 21
-43.7684
  0
LINE
  8
0
 10
11.3909
 20
-43.7684
 11
11.5436
 21
-43.6146
  0
LINE
  8
0
 10
11.5436
 20
-43.6146
 11
11.672
 21
-43.446
  0
LINE
  8
0
 10
11.672
 20
-43.446
 11
11.774
 21
-43.2653
  0
LINE
  8
0
 10
11.774
 20
-43.2653
 11
11.8481
 21
-43.0754
  0
LINE
  8
0
 10
11.8481
 20
-43.0754
 11
11.8929
 21
-42.8793
  0
LINE
  8
0
 10
11.8929
 20
-42.8793
 11
11.908
 21
-42.68
  0
LINE
  8
0
 10
11.908
 20
-42.68
 11
11.8929
 21
-42.4807
  0
LINE
  8
0
 10
11.8929
 20
-42.4807
 11
11.8481
 21
-42.2846
  0
LINE
  8
0
 10
11.8481
 20
-42.2846
 11
11.774
 21
-42.0947
  0
LINE
  8
0
 10
11.774
 20
-42.0947
 11
11.672
 21
-41.914
  0
LINE
  8
0
 10
11.672
 20
-41.914
 11
11.5436
 21
-41.7454
  0
LINE
  8
0
 10
11.5436
 20
-41.7454
 11
11.3909
 21
-41.5916
  0
LINE
  8
0
 10
11.3909
 20
-41.5916
 11
11.2162
 21
-41.4549
  0
LINE
  8
0
 10
11.2162
 20
-41.4549
 11
11.0224
 21
-41.3375
  0
LINE
  8
0
 10
11.0224
 20
-41.3375
 11
10.8124
 21
-41.2413
  0
LINE
  8
0
 10
10.8124
 20
-41.2413
 11
10.5896
 21
-41.1678
  0
LINE
  8
0
 10
10.5896
 20
-41.1678
 11
10.3575
 21
-41.1182
  0
LINE
  8
0
 10
10.3575
 20
-41.1182
 11
10.1198
 21
-41.0931
  0
LINE
  8
0
 10
10.1198
 20
-41.0931
 11
9.88019
 21
-41.0931
  0
LINE
  8
0
 10
9.88019
 20
-41.0931
 11
9.64247
 21
-41.1182
  0
LINE
  8
0
 10
9.64247
 20
-41.1182
 11
9.41039
 21
-41.1678
  0
LINE
  8
0
 10
9.41039
 20
-41.1678
 11
9.18761
 21
-41.2413
  0
LINE
  8
0
 10
9.18761
 20
-41.2413
 11
8.97763
 21
-41.3375
  0
LINE
  8
0
 10
8.97763
 20
-41.3375
 11
8.78378
 21
-41.4549
  0
LINE
  8
0
 10
8.78378
 20
-41.4549
 11
8.60912
 21
-41.5916
  0
LINE
  8
0
 10
8.60912
 20
-41.5916
 11
8.45639
 21
-41.7454
  0
LINE
  8
0
 10
8.45639
 20
-41.7454
 11
8.328
 21
-41.914
  0
LINE
  8
0
 10
8.328
 20
-41.914
 11
8.22598
 21
-42.0947
  0
LINE
  8
0
 10
8.22598
 20
-42.0947
 11
8.15193
 21
-42.2846
  0
LINE
  8
0
 10
8.15193
 20
-42.2846
 11
8.10704
 21
-42.4807
  0
LINE
  8
0
 10
8.10704
 20
-42.4807
 11
8.092
 21
-42.68
  0
LINE
  8
0
 10
8.092
 20
-42.68
 11
4.26999
 21
-42.68
  0
LINE
  8
0
 10
4.26999
 20
-42.68
 11
4.26999
 21
-42.6062
  0
LINE
  8
0
 10
4.26999
 20
-42.6062
 11
4.35901
 21
-42.5098
  0
LINE
  8
0
 10
4.35901
 20
-42.5098
 11
4.67998
 21
-42.0571
  0
LINE
  8
0
 10
4.67998
 20
-42.0571
 11
4.73607
 21
-41.9504
  0
LINE
  8
0
 10
4.73607
 20
-41.9504
 11
4.22569
 21
-41.44
  0
LINE
  8
0
 10
4.22569
 20
-41.44
 11
3.32999
 21
-41.44
  0
LINE
  8
0
 10
3.32999
 20
-41.44
 11
3.32999
 21
-38.56
  0
LINE
  8
0
 10
3.32999
 20
-38.56
 11
4.42569
 21
-38.56
  0
LINE
  8
0
 10
4.42569
 20
-38.56
 11
4.80498
 21
-38.1807
  0
LINE
  8
0
 10
4.80498
 20
-38.1807
 11
4.67998
 21
-37.9429
  0
LINE
  8
0
 10
4.67998
 20
-37.9429
 11
4.35901
 21
-37.4902
  0
LINE
  8
0
 10
4.35901
 20
-37.4902
 11
4.26999
 21
-37.3938
  0
LINE
  8
0
 10
4.26999
 20
-37.3938
 11
4.26999
 21
-37.32
  0
LINE
  8
0
 10
4.26999
 20
-37.32
 11
8.092
 21
-37.32
  0
LINE
  8
0
 10
8.092
 20
-37.32
 11
8.10704
 21
-37.5193
  0
LINE
  8
0
 10
8.10704
 20
-37.5193
 11
8.15193
 21
-37.7154
  0
LINE
  8
0
 10
8.15193
 20
-37.7154
 11
8.22598
 21
-37.9053
  0
LINE
  8
0
 10
8.22598
 20
-37.9053
 11
8.328
 21
-38.086
  0
LINE
  8
0
 10
8.328
 20
-38.086
 11
8.45639
 21
-38.2546
  0
LINE
  8
0
 10
8.45639
 20
-38.2546
 11
8.60912
 21
-38.4084
  0
LINE
  8
0
 10
8.60912
 20
-38.4084
 11
8.78378
 21
-38.5451
  0
LINE
  8
0
 10
8.78378
 20
-38.5451
 11
8.97763
 21
-38.6625
  0
LINE
  8
0
 10
8.97763
 20
-38.6625
 11
9.18761
 21
-38.7587
  0
LINE
  8
0
 10
9.18761
 20
-38.7587
 11
9.41039
 21
-38.8322
  0
LINE
  8
0
 10
9.41039
 20
-38.8322
 11
9.64247
 21
-38.8818
  0
LINE
  8
0
 10
9.64247
 20
-38.8818
 11
9.88019
 21
-38.9069
  0
LINE
  8
0
 10
9.88019
 20
-38.9069
 11
10.1198
 21
-38.9069
  0
LINE
  8
0
 10
10.1198
 20
-38.9069
 11
10.3575
 21
-38.8818
  0
LINE
  8
0
 10
10.3575
 20
-38.8818
 11
10.5896
 21
-38.8322
  0
LINE
  8
0
 10
10.5896
 20
-38.8322
 11
10.8124
 21
-38.7587
  0
LINE
  8
0
 10
10.8124
 20
-38.7587
 11
11.0224
 21
-38.6625
  0
LINE
  8
0
 10
11.0224
 20
-38.6625
 11
11.2162
 21
-38.5451
  0
LINE
  8
0
 10
11.2162
 20
-38.5451
 11
11.3909
 21
-38.4084
  0
LINE
  8
0
 10
11.3909
 20
-38.4084
 11
11.5436
 21
-38.2546
  0
LINE
  8
0
 10
11.5436
 20
-38.2546
 11
11.672
 21
-38.086
  0
LINE
  8
0
 10
11.672
 20
-38.086
 11
11.774
 21
-37.9053
  0
LINE
  8
0
 10
11.774
 20
-37.9053
 11
11.8481
 21
-37.7154
  0
LINE
  8
0
 10
11.8481
 20
-37.7154
 11
11.8929
 21
-37.5193
  0
LINE
  8
0
 10
11.8929
 20
-37.5193
 11
11.908
 21
-37.32
  0
LINE
  8
0
 10
11.908
 20
-37.32
 11
11.8929
 21
-37.1207
  0
LINE
  8
0
 10
11.8929
 20
-37.1207
 11
11.8481
 21
-36.9246
  0
LINE
  8
0
 10
11.8481
 20
-36.9246
 11
11.774
 21
-36.7347
  0
LINE
  8
0
 10
11.774
 20
-36.7347
 11
11.672
 21
-36.554
  0
LINE
  8
0
 10
11.672
 20
-36.554
 11
11.5436
 21
-36.3854
  0
LINE
  8
0
 10
11.5436
 20
-36.3854
 11
11.3909
 21
-36.2316
  0
LINE
  8
0
 10
11.3909
 20
-36.2316
 11
11.2162
 21
-36.0949
  0
LINE
  8
0
 10
11.2162
 20
-36.0949
 11
11.0224
 21
-35.9775
  0
LINE
  8
0
 10
11.0224
 20
-35.9775
 11
10.8124
 21
-35.8813
  0
LINE
  8
0
 10
10.8124
 20
-35.8813
 11
10.5896
 21
-35.8078
  0
LINE
  8
0
 10
10.5896
 20
-35.8078
 11
10.3575
 21
-35.7582
  0
LINE
  8
0
 10
10.3575
 20
-35.7582
 11
10.1198
 21
-35.7331
  0
LINE
  8
0
 10
10.1198
 20
-35.7331
 11
10
 21
-35.7331
  0
LINE
  8
0
 10
10
 20
-35.7331
 11
10
 21
-35.73
  0
LINE
  8
0
 10
10
 20
-35.73
 11
4.26999
 21
-35.73
  0
LINE
  8
0
 10
4.26999
 20
-35.73
 11
4.26999
 21
-30
  0
LINE
  8
0
 10
4.26999
 20
-30
 11
4.26686
 21
-30
  0
LINE
  8
0
 10
4.26686
 20
-30
 11
4.26686
 21
-29.8802
  0
LINE
  8
0
 10
4.26686
 20
-29.8802
 11
4.24184
 21
-29.6425
  0
LINE
  8
0
 10
4.24184
 20
-29.6425
 11
4.19217
 21
-29.4104
  0
LINE
  8
0
 10
4.19217
 20
-29.4104
 11
4.11867
 21
-29.1876
  0
LINE
  8
0
 10
4.11867
 20
-29.1876
 11
4.02248
 21
-28.9776
  0
LINE
  8
0
 10
4.02248
 20
-28.9776
 11
3.90511
 21
-28.7838
  0
LINE
  8
0
 10
3.90511
 20
-28.7838
 11
3.76842
 21
-28.6091
  0
LINE
  8
0
 10
3.76842
 20
-28.6091
 11
3.61458
 21
-28.4564
  0
LINE
  8
0
 10
3.61458
 20
-28.4564
 11
3.44598
 21
-28.328
  0
LINE
  8
0
 10
3.44598
 20
-28.328
 11
3.2653
 21
-28.226
  0
LINE
  8
0
 10
3.2653
 20
-28.226
 11
3.07541
 21
-28.1519
  0
LINE
  8
0
 10
3.07541
 20
-28.1519
 11
2.87927
 21
-28.107
  0
LINE
  8
0
 10
2.87927
 20
-28.107
 11
2.67999
 21
-28.092
  0
LINE
  8
0
 10
2.67999
 20
-28.092
 11
2.48071
 21
-28.107
  0
LINE
  8
0
 10
2.48071
 20
-28.107
 11
2.28458
 21
-28.1519
  0
LINE
  8
0
 10
2.28458
 20
-28.1519
 11
2.09468
 21
-28.226
  0
LINE
  8
0
 10
2.09468
 20
-28.226
 11
1.914
 21
-28.328
  0
LINE
  8
0
 10
1.914
 20
-28.328
 11
1.74541
 21
-28.4564
  0
LINE
  8
0
 10
1.74541
 20
-28.4564
 11
1.59157
 21
-28.6091
  0
LINE
  8
0
 10
1.59157
 20
-28.6091
 11
1.45488
 21
-28.7838
  0
LINE
  8
0
 10
1.45488
 20
-28.7838
 11
1.33751
 21
-28.9776
  0
LINE
  8
0
 10
1.33751
 20
-28.9776
 11
1.24132
 21
-29.1876
  0
LINE
  8
0
 10
1.24132
 20
-29.1876
 11
1.16782
 21
-29.4104
  0
LINE
  8
0
 10
1.16782
 20
-29.4104
 11
1.11815
 21
-29.6425
  0
LINE
  8
0
 10
1.11815
 20
-29.6425
 11
1.09312
 21
-29.8802
  0
LINE
  8
0
 10
1.09312
 20
-29.8802
 11
1.09312
 21
-30.1198
  0
LINE
  8
0
 10
1.09312
 20
-30.1198
 11
1.11815
 21
-30.3575
  0
LINE
  8
0
 10
1.11815
 20
-30.3575
 11
1.16782
 21
-30.5896
  0
LINE
  8
0
 10
1.16782
 20
-30.5896
 11
1.24132
 21
-30.8124
  0
LINE
  8
0
 10
1.24132
 20
-30.8124
 11
1.33751
 21
-31.0224
  0
LINE
  8
0
 10
1.33751
 20
-31.0224
 11
1.45488
 21
-31.2162
  0
LINE
  8
0
 10
1.45488
 20
-31.2162
 11
1.59157
 21
-31.3909
  0
LINE
  8
0
 10
1.59157
 20
-31.3909
 11
1.74541
 21
-31.5436
  0
LINE
  8
0
 10
1.74541
 20
-31.5436
 11
1.914
 21
-31.672
  0
LINE
  8
0
 10
1.914
 20
-31.672
 11
2.09468
 21
-31.774
  0
LINE
  8
0
 10
2.09468
 20
-31.774
 11
2.28458
 21
-31.8481
  0
LINE
  8
0
 10
2.28458
 20
-31.8481
 11
2.48071
 21
-31.8929
  0
LINE
  8
0
 10
2.48071
 20
-31.8929
 11
2.67999
 21
-31.908
  0
LINE
  8
0
 10
2.67999
 20
-31.908
 11
2.67999
 21
-35.73
  0
LINE
  8
0
 10
2.67999
 20
-35.73
 11
2.60616
 21
-35.73
  0
LINE
  8
0
 10
2.60616
 20
-35.73
 11
2.50984
 21
-35.641
  0
LINE
  8
0
 10
2.50984
 20
-35.641
 11
2.05708
 21
-35.32
  0
LINE
  8
0
 10
2.05708
 20
-35.32
 11
1.95036
 21
-35.2639
  0
LINE
  8
0
 10
1.95036
 20
-35.2639
 11
1.43999
 21
-35.7743
  0
LINE
  8
0
 10
1.43999
 20
-35.7743
 11
1.43999
 21
-36.67
  0
LINE
  8
0
 10
1.43999
 20
-36.67
 11
-1.43999
 21
-36.67
  0
LINE
  8
0
 10
-1.43999
 20
-36.67
 11
-1.43999
 21
-35.5743
  0
LINE
  8
0
 10
-1.43999
 20
-35.5743
 11
-1.81927
 21
-35.195
  0
LINE
  8
0
 10
-1.81927
 20
-35.195
 11
-2.05708
 21
-35.32
  0
LINE
  8
0
 10
-2.05708
 20
-35.32
 11
-2.50984
 21
-35.641
  0
LINE
  8
0
 10
-2.50984
 20
-35.641
 11
-2.60616
 21
-35.73
  0
LINE
  8
0
 10
-2.60616
 20
-35.73
 11
-2.67999
 21
-35.73
  0
LINE
  8
0
 10
-2.67999
 20
-35.73
 11
-2.67999
 21
-31.908
  0
LINE
  8
0
 10
-2.67999
 20
-31.908
 11
-2.48071
 21
-31.8929
  0
LINE
  8
0
 10
-2.48071
 20
-31.8929
 11
-2.28458
 21
-31.8481
  0
LINE
  8
0
 10
-2.28458
 20
-31.8481
 11
-2.09468
 21
-31.774
  0
LINE
  8
0
 10
-2.09468
 20
-31.774
 11
-1.914
 21
-31.672
  0
LINE
  8
0
 10
-1.914
 20
-31.672
 11
-1.74541
 21
-31.5436
  0
LINE
  8
0
 10
-1.74541
 20
-31.5436
 11
-1.59157
 21
-31.3909
  0
LINE
  8
0
 10
-1.59157
 20
-31.3909
 11
-1.45488
 21
-31.2162
  0
LINE
  8
0
 10
-1.45488
 20
-31.2162
 11
-1.33751
 21
-31.0224
  0
LINE
  8
0
 10
-1.33751
 20
-31.0224
 11
-1.24132
 21
-30.8124
  0
LINE
  8
0
 10
-1.24132
 20
-30.8124
 11
-1.16782
 21
-30.5896
  0
LINE
  8
0
 10
-1.16782
 20
-30.5896
 11
-1.11815
 21
-30.3575
  0
LINE
  8
0
 10
-1.11815
 20
-30.3575
 11
-1.09312
 21
-30.1198
  0
LINE
  8
0
 10
-1.09312
 20
-30.1198
 11
-1.09312
 21
-29.8802
  0
LINE
  8
0
 10
-1.09312
 20
-29.8802
 11
-1.11815
 21
-29.6425
  0
LINE
  8
0
 10
-1.11815
 20
-29.6425
 11
-1.16782
 21
-29.4104
  0
LINE
  8
0
 10
-1.16782
 20
-29.4104
 11
-1.24132
 21
-29.1876
  0
LINE
  8
0
 10
-1.24132
 20
-29.1876
 11
-1.33751
 21
-28.9776
  0
LINE
  8
0
 10
-1.33751
 20
-28.9776
 11
-1.45488
 21
-28.7838
  0
LINE
  8
0
 10
-1.45488
 20
-28.7838
 11
-1.59157
 21
-28.6091
  0
LINE
  8
0
 10
-1.59157
 20
-28.6091
 11
-1.74541
 21
-28.4564
  0
LINE
  8
0
 10
-1.74541
 20
-28.4564
 11
-1.914
 21
-28.328
  0
LINE
  8
0
 10
-1.914
 20
-28.328
 11
-2.09468
 21
-28.226
  0
LINE
  8
0
 10
-2.09468
 20
-28.226
 11
-2.28458
 21
-28.1519
  0
LINE
  8
0
 10
-2.28458
 20
-28.1519
 11
-2.48071
 21
-28.107
  0
LINE
  8
0
 10
-2.48071
 20
-28.107
 11
-2.67999
 21
-28.092
  0
LINE
  8
0
 10
-2.67999
 20
-28.092
 11
-2.87927
 21
-28.107
  0
LINE
  8
0
 10
-2.87927
 20
-28.107
 11
-3.07541
 21
-28.1519
  0
LINE
  8
0
 10
-3.07541
 20
-28.1519
 11
-3.2653
 21
-28.226
  0
LINE
  8
0
 10
-3.2653
 20
-28.226
 11
-3.44598
 21
-28.328
  0
LINE
  8
0
 10
-3.44598
 20
-28.328
 11
-3.61458
 21
-28.4564
  0
LINE
  8
0
 10
-3.61458
 20
-28.4564
 11
-3.76842
 21
-28.6091
  0
LINE
  8
0
 10
-3.76842
 20
-28.6091
 11
-3.90511
 21
-28.7838
  0
LINE
  8
0
 10
-3.90511
 20
-28.7838
 11
-4.02248
 21
-28.9776
  0
LINE
  8
0
 10
-4.02248
 20
-28.9776
 11
-4.11867
 21
-29.1876
  0
LINE
  8
0
 10
-4.11867
 20
-29.1876
 11
-4.19217
 21
-29.4104
  0
LINE
  8
0
 10
-4.19217
 20
-29.4104
 11
-4.24184
 21
-29.6425
  0
LINE
  8
0
 10
-4.24184
 20
-29.6425
 11
-4.26686
 21
-29.8802
  0
LINE
  8
0
 10
-4.26686
 20
-29.8802
 11
-4.26686
 21
-30
  0
LINE
  8
0
 10
-4.26686
 20
-30
 11
-4.26999
 21
-30
  0
LINE
  8
0
 10
-4.26999
 20
-30
 11
-4.26999
 21
-35.73
  0
LINE
  8
0
 10
-4.26999
 20
-35.73
 11
-10
 21
-35.73
  0
LINE
  8
0
 10
-10
 20
-35.73
 11
-10
 21
-35.7331
  0
LINE
  8
0
 10
-10
 20
-35.7331
 11
-10.1198
 21
-35.7331
  0
LINE
  8
0
 10
-10.1198
 20
-35.7331
 11
-10.3575
 21
-35.7582
  0
LINE
  8
0
 10
-10.3575
 20
-35.7582
 11
-10.5896
 21
-35.8078
  0
LINE
  8
0
 10
-10.5896
 20
-35.8078
 11
-10.8124
 21
-35.8813
  0
LINE
  8
0
 10
-10.8124
 20
-35.8813
 11
-11.0224
 21
-35.9775
  0
LINE
  8
0
 10
-11.0224
 20
-35.9775
 11
-11.2162
 21
-36.0949
  0
LINE
  8
0
 10
-11.2162
 20
-36.0949
 11
-11.3909
 21
-36.2316
  0
LINE
  8
0
 10
-11.3909
 20
-36.2316
 11
-11.5436
 21
-36.3854
  0
LINE
  8
0
 10
-11.5436
 20
-36.3854
 11
-11.672
 21
-36.554
  0
LINE
  8
0
 10
-11.672
 20
-36.554
 11
-11.774
 21
-36.7347
  0
LINE
  8
0
 10
-11.774
 20
-36.7347
 11
-11.8481
 21
-36.9246
  0
LINE
  8
0
 10
-11.8481
 20
-36.9246
 11
-11.8929
 21
-37.1207
  0
LINE
  8
0
 10
-11.8929
 20
-37.1207
 11
-11.908
 21
-37.32
  0
LINE
  8
0
 10
-11.908
 20
-37.32
 11
-11.8929
 21
-37.5193
  0
LINE
  8
0
 10
-11.8929
 20
-37.5193
 11
-11.8481
 21
-37.7154
  0
LINE
  8
0
 10
-11.8481
 20
-37.7154
 11
-11.774
 21
-37.9053
  0
LINE
  8
0
 10
-11.774
 20
-37.9053
 11
-11.672
 21
-38.086
  0
LINE
  8
0
 10
-11.672
 20
-38.086
 11
-11.5436
 21
-38.2546
  0
LINE
  8
0
 10
-11.5436
 20
-38.2546
 11
-11.3909
 21
-38.4084
  0
LINE
  8
0
 10
-11.3909
 20
-38.4084
 11
-11.2162
 21
-38.5451
  0
LINE
  8
0
 10
-11.2162
 20
-38.5451
 11
-11.0224
 21
-38.6625
  0
LINE
  8
0
 10
-11.0224
 20
-38.6625
 11
-10.8124
 21
-38.7587
  0
LINE
  8
0
 10
-10.8124
 20
-38.7587
 11
-10.5896
 21
-38.8322
  0
LINE
  8
0
 10
-10.5896
 20
-38.8322
 11
-10.3575
 21
-38.8818
  0
LINE
  8
0
 10
-10.3575
 20
-38.8818
 11
-10.1198
 21
-38.9069
  0
LINE
  8
0
 10
-10.1198
 20
-38.9069
 11
-9.88019
 21
-38.9069
  0
LINE
  8
0
 10
-9.88019
 20
-38.9069
 11
-9.64247
 21
-38.8818
  0
LINE
  8
0
 10
-9.64247
 20
-38.8818
 11
-9.41039
 21
-38.8322
  0
LINE
  8
0
 10
-9.41039
 20
-38.8322
 11
-9.18761
 21
-38.7587
  0
LINE
  8
0
 10
-9.18761
 20
-38.7587
 11
-8.97763
 21
-38.6625
  0
LINE
  8
0
 10
-8.97763
 20
-38.6625
 11
-8.78378
 21
-38.5451
  0
LINE
  8
0
 10
-8.78378
 20
-38.5451
 11
-8.60912
 21
-38.4084
  0
LINE
  8
0
 10
-8.60912
 20
-38.4084
 11
-8.45639
 21
-38.2546
  0
LINE
  8
0
 10
-8.45639
 20
-38.2546
 11
-8.328
 21
-38.086
  0
LINE
  8
0
 10
-8.328
 20
-38.086
 11
-8.22598
 21
-37.9053
  0
LINE
  8
0
 10
-8.22598
 20
-37.9053
 11
-8.15193
 21
-37.7154
  0
LINE
  8
0
 10
-8.15193
 20
-37.7154
 11
-8.10704
 21
-37.5193
  0
LINE
  8
0
 10
-8.10704
 20
-37.5193
 11
-8.092
 21
-37.32
  0
LINE
  8
0
 10
-8.092
 20
-37.32
 11
-4.26999
 21
-37.32
  0
LINE
  8
0
 10
-4.26999
 20
-37.32
 11
-4.26999
 21
-37.3938
  0
LINE
  8
0
 10
-4.26999
 20
-37.3938
 11
-4.35901
 21
-37.4902
  0
LINE
  8
0
 10
-4.35901
 20
-37.4902
 11
-4.67998
 21
-37.9429
  0
LINE
  8
0
 10
-4.67998
 20
-37.9429
 11
-4.73607
 21
-38.0496
  0
LINE
  8
0
 10
-4.73607
 20
-38.0496
 11
-4.22569
 21
-38.56
  0
LINE
  8
0
 10
-4.22569
 20
-38.56
 11
-3.32999
 21
-38.56
  0
LINE
  8
0
 10
-3.32999
 20
-38.56
 11
-3.32999
 21
-41.44
  0
LINE
  8
0
 10
-3.32999
 20
-41.44
 11
-4.42569
 21
-41.44
  0
LINE
  8
0
 10
-4.42569
 20
-41.44
 11
-4.80498
 21
-41.8193
  0
LINE
  8
0
 10
-4.80498
 20
-41.8193
 11
-4.67998
 21
-42.0571
  0
LINE
  8
0
 10
-4.67998
 20
-42.0571
 11
-4.35901
 21
-42.5098
  0
LINE
  8
0
 10
-4.35901
 20
-42.5098
 11
-4.26999
 21
-42.6062
  0
LINE
  8
0
 10
-4.26999
 20
-42.6062
 11
-4.26999
 21
-42.68
  0
LINE
  8
0
 10
-4.26999
 20
-42.68
 11
-8.092
 21
-42.68
  0
LINE
  8
0
 10
-8.092
 20
-42.68
 11
-8.10704
 21
-42.4807
  0
LINE
  8
0
 10
-8.10704
 20
-42.4807
 11
-8.15193
 21
-42.2846
  0
LINE
  8
0
 10
-8.15193
 20
-42.2846
 11
-8.22598
 21
-42.0947
  0
LINE
  8
0
 10
-8.22598
 20
-42.0947
 11
-8.328
 21
-41.914
  0
LINE
  8
0
 10
-8.328
 20
-41.914
 11
-8.45639
 21
-41.7454
  0
LINE
  8
0
 10
-8.45639
 20
-41.7454
 11
-8.60912
 21
-41.5916
  0
LINE
  8
0
 10
-8.60912
 20
-41.5916
 11
-8.78378
 21
-41.4549
  0
LINE
  8
0
 10
-8.78378
 20
-41.4549
 11
-8.97763
 21
-41.3375
  0
LINE
  8
0
 10
-8.97763
 20
-41.3375
 11
-9.18761
 21
-41.2413
  0
LINE
  8
0
 10
-9.18761
 20
-41.2413
 11
-9.41039
 21
-41.1678
  0
LINE
  8
0
 10
-9.41039
 20
-41.1678
 11
-9.64247
 21
-41.1182
  0
LINE
  8
0
 10
-9.64247
 20
-41.1182
 11
-9.88019
 21
-41.0931
  0
LINE
  8
0
 10
-9.88019
 20
-41.0931
 11
-10.1198
 21
-41.0931
  0
LINE
  8
0
 10
-10.1198
 20
-41.0931
 11
-10.3575
 21
-41.1182
  0
LINE
  8
0
 10
-10.3575
 20
-41.1182
 11
-10.5896
 21
-41.1678
  0
LINE
  8
0
 10
-10.5896
 20
-41.1678
 11
-10.8124
 21
-41.2413
  0
LINE
  8
0
 10
-10.8124
 20
-41.2413
 11
-11.0224
 21
-41.3375
  0
LINE
  8
0
 10
-11.0224
 20
-41.3375
 11
-11.2162
 21
-41.4549
  0
LINE
  8
0
 10
-11.2162
 20
-41.4549
 11
-11.3909
 21
-41.5916
  0
LINE
  8
0
 10
-11.3909
 20
-41.5916
 11
-11.5436
 21
-41.7454
  0
LINE
  8
0
 10
-11.5436
 20
-41.7454
 11
-11.672
 21
-41.914
  0
LINE
  8
0
 10
-11.672
 20
-41.914
 11
-11.774
 21
-42.0947
  0
LINE
  8
0
 10
-11.774
 20
-42.0947
 11
-11.8481
 21
-42.2846
  0
LINE
  8
0
 10
-11.8481
 20
-42.2846
 11
-11.8929
 21
-42.4807
  0
LINE
  8
0
 10
-11.8929
 20
-42.4807
 11
-11.908
 21
-42.68
  0
LINE
  8
0
 10
-11.908
 20
-42.68
 11
-11.8929
 21
-42.8793
  0
LINE
  8
0
 10
-11.8929
 20
-42.8793
 11
-11.8481
 21
-43.0754
  0
LINE
  8
0
 10
-11.8481
 20
-43.0754
 11
-11.774
 21
-43.2653
  0
LINE
  8
0
 10
-11.774
 20
-43.2653
 11
-11.672
 21
-43.446
  0
LINE
  8
0
 10
-11.672
 20
-43.446
 11
-11.5436
 21
-43.6146
  0
LINE
  8
0
 10
-11.5436
 20
-43.6146
 11
-11.3909
 21
-43.7684
  0
LINE
  8
0
 10
-11.3909
 20
-43.7684
 11
-11.2162
 21
-43.9051
  0
LINE
  8
0
 10
-11.2162
 20
-43.9051
 11
-11.0224
 21
-44.0225
  0
LINE
  8
0
 10
-11.0224
 20
-44.0225
 11
-10.8124
 21
-44.1187
  0
LINE
  8
0
 10
-10.8124
 20
-44.1187
 11
-10.5896
 21
-44.1922
  0
LINE
  8
0
 10
-10.5896
 20
-44.1922
 11
-10.3575
 21
-44.2418
  0
LINE
  8
0
 10
-10.3575
 20
-44.2418
 11
-10.1198
 21
-44.2669
  0
LINE
  8
0
 10
-10.1198
 20
-44.2669
 11
-10
 21
-44.2669
  0
LINE
  8
0
 10
-10
 20
-44.2669
 11
-10
 21
-44.27
  0
LINE
  8
0
 10
-10
 20
-44.27
 11
-4.26999
 21
-44.27
  0
LINE
  8
0
 10
-4.26999
 20
-44.27
 11
-4.26999
 21
-50
  0
LINE
  8
0
 10
-4.26999
 20
-50
 11
-4.26686
 21
-50
  0
LINE
  8
0
 10
-4.26686
 20
-50
 11
-4.26686
 21
-50.1198
  0
LINE
  8
0
 10
-4.26686
 20
-50.1198
 11
-4.24184
 21
-50.3575
  0
LINE
  8
0
 10
-4.24184
 20
-50.3575
 11
-4.19217
 21
-50.5896
  0
LINE
  8
0
 10
-4.19217
 20
-50.5896
 11
-4.11867
 21
-50.8124
  0
LINE
  8
0
 10
-4.11867
 20
-50.8124
 11
-4.02248
 21
-51.0224
  0
LINE
  8
0
 10
-4.02248
 20
-51.0224
 11
-3.90511
 21
-51.2162
  0
LINE
  8
0
 10
-3.90511
 20
-51.2162
 11
-3.76842
 21
-51.3909
  0
LINE
  8
0
 10
-3.76842
 20
-51.3909
 11
-3.61458
 21
-51.5436
  0
LINE
  8
0
 10
-3.61458
 20
-51.5436
 11
-3.44598
 21
-51.672
  0
LINE
  8
0
 10
-3.44598
 20
-51.672
 11
-3.2653
 21
-51.774
  0
LINE
  8
0
 10
-3.2653
 20
-51.774
 11
-3.07541
 21
-51.8481
  0
LINE
  8
0
 10
-3.07541
 20
-51.8481
 11
-2.87927
 21
-51.8929
  0
LINE
  8
0
 10
-2.87927
 20
-51.8929
 11
-2.67999
 21
-51.908
  0
LINE
  8
0
 10
-2.67999
 20
-51.908
 11
-2.48071
 21
-51.8929
  0
LINE
  8
0
 10
-2.48071
 20
-51.8929
 11
-2.28458
 21
-51.8481
  0
LINE
  8
0
 10
-2.28458
 20
-51.8481
 11
-2.09468
 21
-51.774
  0
LINE
  8
0
 10
-2.09468
 20
-51.774
 11
-1.914
 21
-51.672
  0
LINE
  8
0
 10
-1.914
 20
-51.672
 11
-1.74541
 21
-51.5436
  0
LINE
  8
0
 10
-1.74541
 20
-51.5436
 11
-1.59157
 21
-51.3909
  0
LINE
  8
0
 10
-1.59157
 20
-51.3909
 11
-1.45488
 21
-51.2162
  0
LINE
  8
0
 10
-1.45488
 20
-51.2162
 11
-1.33751
 21
-51.0224
  0
LINE
  8
0
 10
-1.33751
 20
-51.0224
 11
-1.24132
 21
-50.8124
  0
LINE
  8
0
 10
-1.24132
 20
-50.8124
 11
-1.16782
 21
-50.5896
  0
LINE
  8
0
 10
-1.16782
 20
-50.5896
 11
-1.11815
 21
-50.3575
  0
LINE
  8
0
 10
-1.11815
 20
-50.3575
 11
-1.09312
 21
-50.1198
  0
LINE
  8
0
 10
-1.09312
 20
-50.1198
 11
-1.09312
 21
-49.8802
  0
LINE
  8
0
 10
-1.09312
 20
-49.8802
 11
-1.11815
 21
-49.6425
  0
LINE
  8
0
 10
-1.11815
 20
-49.6425
 11
-1.16782
 21
-49.4104
  0
LINE
  8
0
 10
-1.16782
 20
-49.4104
 11
-1.24132
 21
-49.1876
  0
LINE
  8
0
 10
-1.24132
 20
-49.1876
 11
-1.33751
 21
-48.9776
  0
LINE
  8
0
 10
-1.33751
 20
-48.9776
 11
-1.45488
 21
-48.7838
  0
LINE
  8
0
 10
-1.45488
 20
-48.7838
 11
-1.59157
 21
-48.6091
  0
LINE
  8
0
 10
-1.59157
 20
-48.6091
 11
-1.74541
 21
-48.4564
  0
LINE
  8
0
 10
-1.74541
 20
-48.4564
 11
-1.914
 21
-48.328
  0
LINE
  8
0
 10
-1.914
 20
-48.328
 11
-2.09468
 21
-48.226
  0
LINE
  8
0
 10
-2.09468
 20
-48.226
 11
-2.28458
 21
-48.1519
  0
LINE
  8
0
 10
-2.28458
 20
-48.1519
 11
-2.48071
 21
-48.107
  0
LINE
  8
0
 10
-2.48071
 20
-48.107
 11
-2.67999
 21
-48.092
  0
LINE
  8
0
 10
-2.67999
 20
-48.092
 11
-2.67999
 21
-44.27
  0
LINE
  8
0
 10
-2.67999
 20
-44.27
 11
-2.60616
 21
-44.27
  0
LINE
  8
0
 10
-2.60616
 20
-44.27
 11
-2.50984
 21
-44.359
  0
LINE
  8
0
 10
-2.50984
 20
-44.359
 11
-2.05708
 21
-44.68
  0
LINE
  8
0
 10
-2.05708
 20
-44.68
 11
-1.95036
 21
-44.7361
  0
LINE
  8
0
 10
-1.95036
 20
-44.7361
 11
-1.43999
 21
-44.2257
  0
LINE
  8
0
 10
-1.43999
 20
-44.2257
 11
-1.43999
 21
-43.33
  0
LINE
  8
0
 10
-1.43999
 20
-43.33
 11
1.43999
 21
-43.33
  0
LINE
  8
0
 10
1.43999
 20
-43.33
 11
1.43999
 21
-44.4257
  0
LINE
  8
0
 10
1.43999
 20
-44.4257
 11
1.81927
 21
-44.805
  0
LINE
  8
0
 10
1.81927
 20
-44.805
 11
2.05708
 21
-44.68
  0
LINE
  8
0
 10
2.05708
 20
-44.68
 11
2.50984
 21
-44.359
  0
LINE
  8
0
 10
2.50984
 20
-44.359
 11
2.60616
 21
-44.27
  0
LINE
  8
0
 10
2.60616
 20
-44.27
 11
2.67999
 21
-44.27
  0
LINE
  8
0
 10
2.67999
 20
-44.27
 11
2.67999
 21
-48.092
  0
LINE
  8
0
 10
2.67999
 20
-48.092
 11
2.48071
 21
-48.107
  0
LINE
  8
0
 10
2.48071
 20
-48.107
 11
2.28458
 21
-48.1519
  0
LINE
  8
0
 10
2.28458
 20
-48.1519
 11
2.09468
 21
-48.226
  0
LINE
  8
0
 10
2.09468
 20
-48.226
 11
1.914
 21
-48.328
  0
LINE
  8
0
 10
1.914
 20
-48.328
 11
1.74541
 21
-48.4564
  0
LINE
  8
0
 10
1.74541
 20
-48.4564
 11
1.59157
 21
-48.6091
  0
LINE
  8
0
 10
1.59157
 20
-48.6091
 11
1.45488
 21
-48.7838
  0
LINE
  8
0
 10
1.45488
 20
-48.7838
 11
1.33751
 21
-48.9776
  0
LINE
  8
0
 10
1.33751
 20
-48.9776
 11
1.24132
 21
-49.1876
  0
LINE
  8
0
 10
1.24132
 20
-49.1876
 11
1.16782
 21
-49.4104
  0
LINE
  8
0
 10
1.16782
 20
-49.4104
 11
1.11815
 21
-49.6425
  0
LINE
  8
0
 10
1.11815
 20
-49.6425
 11
1.09312
 21
-49.8802
  0
LINE
  8
0
 10
1.09312
 20
-49.8802
 11
1.09312
 21
-50.1198
  0
LINE
  8
0
 10
1.09312
 20
-50.1198
 11
1.11815
 21
-50.3575
  0
LINE
  8
0
 10
1.11815
 20
-50.3575
 11
1.16782
 21
-50.5896
  0
LINE
  8
0
 10
1.16782
 20
-50.5896
 11
1.24132
 21
-50.8124
  0
LINE
  8
0
 10
1.24132
 20
-50.8124
 11
1.33751
 21
-51.0224
  0
LINE
  8
0
 10
1.33751
 20
-51.0224
 11
1.45488
 21
-51.2162
  0
LINE
  8
0
 10
1.45488
 20
-51.2162
 11
1.59157
 21
-51.3909
  0
LINE
  8
0
 10
1.59157
 20
-51.3909
 11
1.74541
 21
-51.5436
  0
LINE
  8
0
 10
1.74541
 20
-51.5436
 11
1.914
 21
-51.672
  0
LINE
  8
0
 10
1.914
 20
-51.672
 11
2.09468
 21
-51.774
  0
LINE
  8
0
 10
2.09468
 20
-51.774
 11
2.28458
 21
-51.8481
  0
LINE
  8
0
 10
2.28458
 20
-51.8481
 11
2.48071
 21
-51.8929
  0
LINE
  8
0
 10
2.48071
 20
-51.8929
 11
2.67999
 21
-51.908
  0
LINE
  8
0
 10
2.67999
 20
-51.908
 11
2.87927
 21
-51.8929
  0
ENDSEC
  0
SECTION
  2
OBJECTS
  0
DICTIONARY
  0
ENDSEC
  0
EOF
