  0
SECTION
  2
HEADER
  9
$ACADVER
  1
AC1014
  9
$HANDSEED
  5
FFFF
  9
$MEASUREMENT
 70
     1
  0
ENDSEC
  0
SECTION
  2
TABLES
  0
TABLE
  2
VPORT
  5
8
330
0
100
AcDbSymbolTable
 70
     4
  0
VPORT
  5
2E
330
8
100
AcDbSymbolTableRecord
100
AcDbViewportTableRecord
  2
*ACTIVE
 70
     0
 10
0.0
 20
0.0
 11
1.0
 21
1.0
 12
210.0
 22
148.5
 13
0.0
 23
0.0
 14
10.0
 24
10.0
 15
10.0
 25
10.0
 16
0.0
 26
0.0
 36
1.0
 17
0.0
 27
0.0
 37
0.0
 40
341.0
 41
1.24
 42
50.0
 43
0.0
 44
0.0
 50
0.0
 51
0.0
 71
     0
 72
   100
 73
     1
 74
     3
 75
     0
 76
     0
 77
     0
 78
     0
  0
ENDTAB
  0
TABLE
  2
LTYPE
  5
5
330
0
100
AcDbSymbolTable
 70
     1
  0
LTYPE
  5
14
330
5
100
AcDbSymbolTableRecord
100
AcDbLinetypeTableRecord
  2
BYBLOCK
 70
     0
  3

 72
    65
 73
     0
 40
0.0
  0
LTYPE
  5
15
330
5
100
AcDbSymbolTableRecord
100
AcDbLinetypeTableRecord
  2
BYLAYER
 70
     0
  3

 72
    65
 73
     0
 40
0.0
  0
LTYPE
  5
16
330
5
100
AcDbSymbolTableRecord
100
AcDbLinetypeTableRecord
  2
CONTINUOUS
 70
     0
  3
Solid line
 72
    65
 73
     0
 40
0.0
  0
ENDTAB
  0
TABLE
  2
LAYER
  5
2
100
AcDbSymbolTable
 70
2
  0
LAYER
  5
50
100
AcDbSymbolTableRecord
100
AcDbLayerTableRecord
  2
0
 70
0
  6
CONTINUOUS
  0
LAYER
  5
51
100
AcDbSymbolTableRecord
100
AcDbLayerTableRecord
  2
Calque_1
 70
0
  6
CONTINUOUS
  0
ENDTAB
  0
TABLE
  2
STYLE
  5
3
330
0
100
AcDbSymbolTable
 70
     1
  0
STYLE
  5
11
330
3
100
AcDbSymbolTableRecord
100
AcDbTextStyleTableRecord
  2
STANDARD
 70
     0
 40
0.0
 41
1.0
 50
0.0
 71
     0
 42
2.5
  3
txt
  4

  0
ENDTAB
  0
TABLE
  2
VIEW
  5
6
330
0
100
AcDbSymbolTable
 70
     0
  0
ENDTAB
  0
TABLE
  2
UCS
  5
7
330
0
100
AcDbSymbolTable
 70
     0
  0
ENDTAB
  0
TABLE
  2
APPID
  5
9
330
0
100
AcDbSymbolTable
 70
     2
  0
APPID
  5
12
330
9
100
AcDbSymbolTableRecord
100
AcDbRegAppTableRecord
  2
ACAD
 70
     0
  0
ENDTAB
  0
TABLE
  2
DIMSTYLE
  5
A
330
0
100
AcDbSymbolTable
 70
     1
  0
DIMSTYLE
105
27
330
A
100
AcDbSymbolTableRecord
100
AcDbDimStyleTableRecord
  2
ISO-25
 70
     0
  3

  4

  5

  6

  7

 40
1.0
 41
2.5
 42
0.625
 43
3.75
 44
1.25
 45
0.0
 46
0.0
 47
0.0
 48
0.0
140
2.5
141
2.5
142
0.0
143
0.03937007874016
144
1.0
145
0.0
146
1.0
147
0.625
 71
     0
 72
     0
 73
     0
 74
     0
 75
     0
 76
     0
 77
     1
 78
     8
170
     0
171
     3
172
     1
173
     0
174
     0
175
     0
176
     0
177
     0
178
     0
270
     2
271
     2
272
     2
273
     2
274
     3
340
11
275
     0
280
     0
281
     0
282
     0
283
     0
284
     8
285
     0
286
     0
287
     3
288
     0
  0
ENDTAB
  0
TABLE
  2
BLOCK_RECORD
  5
1
330
0
100
AcDbSymbolTable
 70
     1
  0
BLOCK_RECORD
  5
1F
330
1
100
AcDbSymbolTableRecord
100
AcDbBlockTableRecord
  2
*MODEL_SPACE
  0
BLOCK_RECORD
  5
1B
330
1
100
AcDbSymbolTableRecord
100
AcDbBlockTableRecord
  2
*PAPER_SPACE
  0
ENDTAB
  0
ENDSEC
  0
SECTION
  2
BLOCKS
  0
BLOCK
  5
20
330
1F
100
AcDbEntity
  8
0
100
AcDbBlockBegin
  2
*MODEL_SPACE
 70
     0
 10
0.0
 20
0.0
 30
0.0
  3
*MODEL_SPACE
  1

  0
ENDBLK
  5
21
330
1F
100
AcDbEntity
  8
0
100
AcDbBlockEnd
  0
BLOCK
  5
1C
330
1B
100
AcDbEntity
 67
     1
  8
0
100
AcDbBlockBegin
  2
*PAPER_SPACE
  1

  0
ENDBLK
  5
1D
330
1B
100
AcDbEntity
 67
     1
  8
0
100
AcDbBlockEnd
  0
ENDSEC
  0
SECTION
  2
ENTITIES
  0
SPLINE
  5
100
100
AcDbEntity
  8
Calque_1
 62
7
100
AcDbSpline
 70
8
 71
3
 72
8
 73
4
 74
0
 40
0
 40
0
 40
0
 40
0
 40
1
 40
1
 40
1
 40
1
 10
160.460340
 20
19.743060
 30
0.0
 10
127.463490
 20
19.795185
 30
0.0
 10
100.347007
 20
19.849582
 30
0.0
 10
100.201485
 20
19.863997
 30
0.0
  0
SPLINE
  5
101
100
AcDbEntity
  8
Calque_1
 62
7
100
AcDbSpline
 70
8
 71
3
 72
8
 73
4
 74
0
 40
0
 40
0
 40
0
 40
0
 40
1
 40
1
 40
1
 40
1
 10
100.201485
 20
19.863997
 30
0.0
 10
100.055970
 20
19.878398
 30
0.0
 10
98.648887
 20
19.848622
 30
0.0
 10
97.074637
 20
19.797772
 30
0.0
  0
SPLINE
  5
102
100
AcDbEntity
  8
Calque_1
 62
7
100
AcDbSpline
 70
8
 71
3
 72
8
 73
4
 74
0
 40
0
 40
0
 40
0
 40
0
 40
1
 40
1
 40
1
 40
1
 10
97.074637
 20
19.797772
 30
0.0
 10
94.811377
 20
19.724647
 30
0.0
 10
94.182832
 20
19.782322
 30
0.0
 10
94.071225
 20
20.073127
 30
0.0
  0
SPLINE
  5
103
100
AcDbEntity
  8
Calque_1
 62
7
100
AcDbSpline
 70
8
 71
3
 72
8
 73
4
 74
0
 40
0
 40
0
 40
0
 40
0
 40
1
 40
1
 40
1
 40
1
 10
94.071225
 20
20.073127
 30
0.0
 10
93.951285
 20
20.385705
 30
0.0
 10
93.849247
 20
20.384325
 30
0.0
 10
93.391867
 20
20.063977
 30
0.0
  0
SPLINE
  5
104
100
AcDbEntity
  8
Calque_1
 62
7
100
AcDbSpline
 70
8
 71
3
 72
8
 73
4
 74
0
 40
0
 40
0
 40
0
 40
0
 40
1
 40
1
 40
1
 40
1
 10
93.391867
 20
20.063977
 30
0.0
 10
92.931562
 20
19.741567
 30
0.0
 10
86.386297
 20
19.683622
 30
0.0
 10
48.174969
 20
19.663650
 30
0.0
  0
LWPOLYLINE
  5
105
100
AcDbEntity
  8
Calque_1
 62
7
100
AcDbPolyline
 90
7
 70
0
 10
3.496283
 20
80.501213
 30
0.0
 10
3.496283
 20
141.362190
 30
0.0
 10
111.975450
 20
141.362445
 30
0.0
 10
220.454610
 20
141.362707
 30
0.0
 10
220.454610
 20
80.505517
 30
0.0
 10
220.454610
 20
19.648335
 30
0.0
 10
160.460340
 20
19.743060
 30
0.0
  0
SPLINE
  5
106
100
AcDbEntity
  8
Calque_1
 62
7
100
AcDbSpline
 70
8
 71
3
 72
8
 73
4
 74
0
 40
0
 40
0
 40
0
 40
0
 40
1
 40
1
 40
1
 40
1
 10
119.663888
 20
34.696890
 30
0.0
 10
120.839063
 20
36.031755
 30
0.0
 10
121.980113
 20
37.067318
 30
0.0
 10
122.199547
 20
36.998122
 30
0.0
  0
SPLINE
  5
107
100
AcDbEntity
  8
Calque_1
 62
7
100
AcDbSpline
 70
8
 71
3
 72
8
 73
4
 74
0
 40
0
 40
0
 40
0
 40
0
 40
1
 40
1
 40
1
 40
1
 10
122.199547
 20
36.998122
 30
0.0
 10
122.987295
 20
36.749722
 30
0.0
 10
123.871365
 20
37.865557
 30
0.0
 10
123.367665
 20
38.472480
 30
0.0
  0
SPLINE
  5
108
100
AcDbEntity
  8
Calque_1
 62
7
100
AcDbSpline
 70
8
 71
3
 72
8
 73
4
 74
0
 40
0
 40
0
 40
0
 40
0
 40
1
 40
1
 40
1
 40
1
 10
123.367665
 20
38.472480
 30
0.0
 10
123.014377
 20
38.898165
 30
0.0
 10
123.725197
 20
40.527367
 30
0.0
 10
126.181987
 20
44.922802
 30
0.0
  0
SPLINE
  5
109
100
AcDbEntity
  8
Calque_1
 62
7
100
AcDbSpline
 70
8
 71
3
 72
8
 73
4
 74
0
 40
0
 40
0
 40
0
 40
0
 40
1
 40
1
 40
1
 40
1
 10
126.181987
 20
44.922802
 30
0.0
 10
129.459945
 20
50.787405
 30
0.0
 10
131.499413
 20
53.581815
 30
0.0
 10
132.544725
 20
53.640795
 30
0.0
  0
SPLINE
  5
10a
100
AcDbEntity
  8
Calque_1
 62
7
100
AcDbSpline
 70
8
 71
3
 72
8
 73
4
 74
0
 40
0
 40
0
 40
0
 40
0
 40
1
 40
1
 40
1
 40
1
 10
132.544725
 20
53.640795
 30
0.0
 10
132.848115
 20
53.657970
 30
0.0
 10
133.046693
 20
53.895300
 30
0.0
 10
132.986010
 20
54.168338
 30
0.0
  0
SPLINE
  5
10b
100
AcDbEntity
  8
Calque_1
 62
7
100
AcDbSpline
 70
8
 71
3
 72
8
 73
4
 74
0
 40
0
 40
0
 40
0
 40
0
 40
1
 40
1
 40
1
 40
1
 10
132.986010
 20
54.168338
 30
0.0
 10
132.925335
 20
54.441390
 30
0.0
 10
133.151550
 20
54.765015
 30
0.0
 10
133.488720
 20
54.887512
 30
0.0
  0
SPLINE
  5
10c
100
AcDbEntity
  8
Calque_1
 62
7
100
AcDbSpline
 70
8
 71
3
 72
8
 73
4
 74
0
 40
0
 40
0
 40
0
 40
0
 40
1
 40
1
 40
1
 40
1
 10
133.488720
 20
54.887512
 30
0.0
 10
133.870537
 20
55.026232
 30
0.0
 10
133.982992
 20
54.918037
 30
0.0
 10
133.786882
 20
54.600780
 30
0.0
  0
SPLINE
  5
10d
100
AcDbEntity
  8
Calque_1
 62
7
100
AcDbSpline
 70
8
 71
3
 72
8
 73
4
 74
0
 40
0
 40
0
 40
0
 40
0
 40
1
 40
1
 40
1
 40
1
 10
133.786882
 20
54.600780
 30
0.0
 10
133.601790
 20
54.301305
 30
0.0
 10
133.712932
 20
54.141292
 30
0.0
 10
134.056402
 20
54.212565
 30
0.0
  0
SPLINE
  5
10e
100
AcDbEntity
  8
Calque_1
 62
7
100
AcDbSpline
 70
8
 71
3
 72
8
 73
4
 74
0
 40
0
 40
0
 40
0
 40
0
 40
1
 40
1
 40
1
 40
1
 10
134.056402
 20
54.212565
 30
0.0
 10
134.745750
 20
54.355590
 30
0.0
 10
135.411990
 20
55.785802
 30
0.0
 10
135.056903
 20
56.360340
 30
0.0
  0
SPLINE
  5
10f
100
AcDbEntity
  8
Calque_1
 62
7
100
AcDbSpline
 70
8
 71
3
 72
8
 73
4
 74
0
 40
0
 40
0
 40
0
 40
0
 40
1
 40
1
 40
1
 40
1
 10
135.056903
 20
56.360340
 30
0.0
 10
134.687895
 20
56.957407
 30
0.0
 10
133.539645
 20
56.844225
 30
0.0
 10
133.524195
 20
56.209260
 30
0.0
  0
SPLINE
  5
110
100
AcDbEntity
  8
Calque_1
 62
7
100
AcDbSpline
 70
8
 71
3
 72
8
 73
4
 74
0
 40
0
 40
0
 40
0
 40
0
 40
1
 40
1
 40
1
 40
1
 10
133.524195
 20
56.209260
 30
0.0
 10
133.516695
 20
55.905885
 30
0.0
 10
133.304670
 20
56.011800
 30
0.0
 10
133.052760
 20
56.444625
 30
0.0
  0
SPLINE
  5
111
100
AcDbEntity
  8
Calque_1
 62
7
100
AcDbSpline
 70
8
 71
3
 72
8
 73
4
 74
0
 40
0
 40
0
 40
0
 40
0
 40
1
 40
1
 40
1
 40
1
 10
133.052760
 20
56.444625
 30
0.0
 10
132.701527
 20
57.048068
 30
0.0
 10
133.113660
 20
58.848772
 30
0.0
 10
134.820465
 20
64.167015
 30
0.0
  0
SPLINE
  5
112
100
AcDbEntity
  8
Calque_1
 62
7
100
AcDbSpline
 70
8
 71
3
 72
8
 73
4
 74
0
 40
0
 40
0
 40
0
 40
0
 40
1
 40
1
 40
1
 40
1
 10
134.820465
 20
64.167015
 30
0.0
 10
136.044615
 20
67.981493
 30
0.0
 10
137.252955
 20
71.896748
 30
0.0
 10
137.505683
 20
72.867555
 30
0.0
  0
SPLINE
  5
113
100
AcDbEntity
  8
Calque_1
 62
7
100
AcDbSpline
 70
8
 71
3
 72
8
 73
4
 74
0
 40
0
 40
0
 40
0
 40
0
 40
1
 40
1
 40
1
 40
1
 10
137.505683
 20
72.867555
 30
0.0
 10
137.993970
 20
74.743387
 30
0.0
 10
139.572908
 20
76.050472
 30
0.0
 10
144.168847
 20
78.383550
 30
0.0
  0
SPLINE
  5
114
100
AcDbEntity
  8
Calque_1
 62
7
100
AcDbSpline
 70
8
 71
3
 72
8
 73
4
 74
0
 40
0
 40
0
 40
0
 40
0
 40
1
 40
1
 40
1
 40
1
 10
144.168847
 20
78.383550
 30
0.0
 10
145.364108
 20
78.990307
 30
0.0
 10
146.886480
 20
80.041965
 30
0.0
 10
147.551903
 20
80.720565
 30
0.0
  0
SPLINE
  5
115
100
AcDbEntity
  8
Calque_1
 62
7
100
AcDbSpline
 70
8
 71
3
 72
8
 73
4
 74
0
 40
0
 40
0
 40
0
 40
0
 40
1
 40
1
 40
1
 40
1
 10
147.551903
 20
80.720565
 30
0.0
 10
148.217318
 20
81.399165
 30
0.0
 10
149.992388
 20
82.833495
 30
0.0
 10
151.496512
 20
83.907982
 30
0.0
  0
SPLINE
  5
116
100
AcDbEntity
  8
Calque_1
 62
7
100
AcDbSpline
 70
8
 71
3
 72
8
 73
4
 74
0
 40
0
 40
0
 40
0
 40
0
 40
1
 40
1
 40
1
 40
1
 10
151.496512
 20
83.907982
 30
0.0
 10
154.377997
 20
85.966432
 30
0.0
 10
157.319955
 20
89.463592
 30
0.0
 10
158.454622
 20
92.179230
 30
0.0
  0
SPLINE
  5
117
100
AcDbEntity
  8
Calque_1
 62
7
100
AcDbSpline
 70
8
 71
3
 72
8
 73
4
 74
0
 40
0
 40
0
 40
0
 40
0
 40
1
 40
1
 40
1
 40
1
 10
158.454622
 20
92.179230
 30
0.0
 10
159.924698
 20
95.697592
 30
0.0
 10
158.925637
 20
99.177427
 30
0.0
 10
156.013005
 20
100.683600
 30
0.0
  0
SPLINE
  5
118
100
AcDbEntity
  8
Calque_1
 62
7
100
AcDbSpline
 70
8
 71
3
 72
8
 73
4
 74
0
 40
0
 40
0
 40
0
 40
0
 40
1
 40
1
 40
1
 40
1
 10
156.013005
 20
100.683600
 30
0.0
 10
152.252453
 20
102.628267
 30
0.0
 10
142.861177
 20
102.442815
 30
0.0
 10
130.448655
 20
100.178790
 30
0.0
  0
SPLINE
  5
119
100
AcDbEntity
  8
Calque_1
 62
7
100
AcDbSpline
 70
8
 71
3
 72
8
 73
4
 74
0
 40
0
 40
0
 40
0
 40
0
 40
1
 40
1
 40
1
 40
1
 10
130.448655
 20
100.178790
 30
0.0
 10
127.172152
 20
99.581145
 30
0.0
 10
123.386467
 20
98.902297
 30
0.0
 10
122.036010
 20
98.670225
 30
0.0
  0
SPLINE
  5
11a
100
AcDbEntity
  8
Calque_1
 62
7
100
AcDbSpline
 70
8
 71
3
 72
8
 73
4
 74
0
 40
0
 40
0
 40
0
 40
0
 40
1
 40
1
 40
1
 40
1
 10
122.036010
 20
98.670225
 30
0.0
 10
120.685560
 20
98.438137
 30
0.0
 10
118.600507
 20
97.950952
 30
0.0
 10
117.402570
 20
97.587562
 30
0.0
  0
SPLINE
  5
11b
100
AcDbEntity
  8
Calque_1
 62
7
100
AcDbSpline
 70
8
 71
3
 72
8
 73
4
 74
0
 40
0
 40
0
 40
0
 40
0
 40
1
 40
1
 40
1
 40
1
 10
117.402570
 20
97.587562
 30
0.0
 10
114.189045
 20
96.612742
 30
0.0
 10
112.371757
 20
96.785752
 30
0.0
 10
113.541180
 20
97.955175
 30
0.0
  0
SPLINE
  5
11c
100
AcDbEntity
  8
Calque_1
 62
7
100
AcDbSpline
 70
8
 71
3
 72
8
 73
4
 74
0
 40
0
 40
0
 40
0
 40
0
 40
1
 40
1
 40
1
 40
1
 10
113.541180
 20
97.955175
 30
0.0
 10
113.707515
 20
98.121517
 30
0.0
 10
114.079657
 20
98.899275
 30
0.0
 10
114.368160
 20
99.683527
 30
0.0
  0
SPLINE
  5
11d
100
AcDbEntity
  8
Calque_1
 62
7
100
AcDbSpline
 70
8
 71
3
 72
8
 73
4
 74
0
 40
0
 40
0
 40
0
 40
0
 40
1
 40
1
 40
1
 40
1
 10
114.368160
 20
99.683527
 30
0.0
 10
115.200667
 20
101.946555
 30
0.0
 10
119.579100
 20
111.786060
 30
0.0
 10
121.572135
 20
115.872780
 30
0.0
  0
SPLINE
  5
11e
100
AcDbEntity
  8
Calque_1
 62
7
100
AcDbSpline
 70
8
 71
3
 72
8
 73
4
 74
0
 40
0
 40
0
 40
0
 40
0
 40
1
 40
1
 40
1
 40
1
 10
121.572135
 20
115.872780
 30
0.0
 10
122.572995
 20
117.925020
 30
0.0
 10
124.439625
 20
120.804375
 30
0.0
 10
125.720190
 20
122.271337
 30
0.0
  0
SPLINE
  5
11f
100
AcDbEntity
  8
Calque_1
 62
7
100
AcDbSpline
 70
8
 71
3
 72
8
 73
4
 74
0
 40
0
 40
0
 40
0
 40
0
 40
1
 40
1
 40
1
 40
1
 10
125.720190
 20
122.271337
 30
0.0
 10
128.847908
 20
125.854305
 30
0.0
 10
131.229750
 20
129.267720
 30
0.0
 10
132.488603
 20
131.971140
 30
0.0
  0
SPLINE
  5
120
100
AcDbEntity
  8
Calque_1
 62
7
100
AcDbSpline
 70
8
 71
3
 72
8
 73
4
 74
0
 40
0
 40
0
 40
0
 40
0
 40
1
 40
1
 40
1
 40
1
 10
132.488603
 20
131.971140
 30
0.0
 10
133.755495
 20
134.691832
 30
0.0
 10
133.796790
 20
135.580125
 30
0.0
 10
132.684060
 20
136.175640
 30
0.0
  0
SPLINE
  5
121
100
AcDbEntity
  8
Calque_1
 62
7
100
AcDbSpline
 70
8
 71
3
 72
8
 73
4
 74
0
 40
0
 40
0
 40
0
 40
0
 40
1
 40
1
 40
1
 40
1
 10
132.684060
 20
136.175640
 30
0.0
 10
131.329335
 20
136.900672
 30
0.0
 10
130.209465
 20
136.714192
 30
0.0
 10
129.068918
 20
135.573637
 30
0.0
  0
SPLINE
  5
122
100
AcDbEntity
  8
Calque_1
 62
7
100
AcDbSpline
 70
8
 71
3
 72
8
 73
4
 74
0
 40
0
 40
0
 40
0
 40
0
 40
1
 40
1
 40
1
 40
1
 10
129.068918
 20
135.573637
 30
0.0
 10
128.486580
 20
134.991308
 30
0.0
 10
127.516268
 20
134.445210
 30
0.0
 10
126.912668
 20
134.360115
 30
0.0
  0
SPLINE
  5
123
100
AcDbEntity
  8
Calque_1
 62
7
100
AcDbSpline
 70
8
 71
3
 72
8
 73
4
 74
0
 40
0
 40
0
 40
0
 40
0
 40
1
 40
1
 40
1
 40
1
 10
126.912668
 20
134.360115
 30
0.0
 10
126.127973
 20
134.249535
 30
0.0
 10
125.855070
 20
133.972717
 30
0.0
 10
125.955053
 20
133.388887
 30
0.0
  0
SPLINE
  5
124
100
AcDbEntity
  8
Calque_1
 62
7
100
AcDbSpline
 70
8
 71
3
 72
8
 73
4
 74
0
 40
0
 40
0
 40
0
 40
0
 40
1
 40
1
 40
1
 40
1
 10
125.955053
 20
133.388887
 30
0.0
 10
126.035610
 20
132.918420
 30
0.0
 10
125.903378
 20
132.690750
 30
0.0
 10
125.642888
 20
132.851715
 30
0.0
  0
SPLINE
  5
125
100
AcDbEntity
  8
Calque_1
 62
7
100
AcDbSpline
 70
8
 71
3
 72
8
 73
4
 74
0
 40
0
 40
0
 40
0
 40
0
 40
1
 40
1
 40
1
 40
1
 10
125.642888
 20
132.851715
 30
0.0
 10
125.394285
 20
133.005360
 30
0.0
 10
124.894740
 20
132.558382
 30
0.0
 10
124.532790
 20
131.858437
 30
0.0
  0
SPLINE
  5
126
100
AcDbEntity
  8
Calque_1
 62
7
100
AcDbSpline
 70
8
 71
3
 72
8
 73
4
 74
0
 40
0
 40
0
 40
0
 40
0
 40
1
 40
1
 40
1
 40
1
 10
124.532790
 20
131.858437
 30
0.0
 10
124.019393
 20
130.865647
 30
0.0
 10
123.990998
 20
130.460122
 30
0.0
 10
124.403670
 20
130.014165
 30
0.0
  0
SPLINE
  5
127
100
AcDbEntity
  8
Calque_1
 62
7
100
AcDbSpline
 70
8
 71
3
 72
8
 73
4
 74
0
 40
0
 40
0
 40
0
 40
0
 40
1
 40
1
 40
1
 40
1
 10
124.403670
 20
130.014165
 30
0.0
 10
124.816448
 20
129.568080
 30
0.0
 10
124.812135
 20
129.510510
 30
0.0
 10
124.384020
 20
129.752107
 30
0.0
  0
SPLINE
  5
128
100
AcDbEntity
  8
Calque_1
 62
7
100
AcDbSpline
 70
8
 71
3
 72
8
 73
4
 74
0
 40
0
 40
0
 40
0
 40
0
 40
1
 40
1
 40
1
 40
1
 10
124.384020
 20
129.752107
 30
0.0
 10
124.006545
 20
129.965107
 30
0.0
 10
123.862178
 20
129.737557
 30
0.0
 10
123.921323
 20
129.022912
 30
0.0
  0
SPLINE
  5
129
100
AcDbEntity
  8
Calque_1
 62
7
100
AcDbSpline
 70
8
 71
3
 72
8
 73
4
 74
0
 40
0
 40
0
 40
0
 40
0
 40
1
 40
1
 40
1
 40
1
 10
123.921323
 20
129.022912
 30
0.0
 10
124.044285
 20
127.537687
 30
0.0
 10
120.698528
 20
121.191907
 30
0.0
 10
119.791305
 20
121.189560
 30
0.0
  0
SPLINE
  5
12a
100
AcDbEntity
  8
Calque_1
 62
7
100
AcDbSpline
 70
8
 71
3
 72
8
 73
4
 74
0
 40
0
 40
0
 40
0
 40
0
 40
1
 40
1
 40
1
 40
1
 10
119.791305
 20
121.189560
 30
0.0
 10
119.390580
 20
121.188810
 30
0.0
 10
118.038285
 20
120.005145
 30
0.0
 10
116.786205
 20
118.559835
 30
0.0
  0
SPLINE
  5
12b
100
AcDbEntity
  8
Calque_1
 62
7
100
AcDbSpline
 70
8
 71
3
 72
8
 73
4
 74
0
 40
0
 40
0
 40
0
 40
0
 40
1
 40
1
 40
1
 40
1
 10
116.786205
 20
118.559835
 30
0.0
 10
114.465285
 20
115.880775
 30
0.0
 10
111.302820
 20
113.415817
 30
0.0
 10
106.178303
 20
110.291565
 30
0.0
  0
SPLINE
  5
12c
100
AcDbEntity
  8
Calque_1
 62
7
100
AcDbSpline
 70
8
 71
3
 72
8
 73
4
 74
0
 40
0
 40
0
 40
0
 40
0
 40
1
 40
1
 40
1
 40
1
 10
106.178303
 20
110.291565
 30
0.0
 10
103.478610
 20
108.645675
 30
0.0
 10
96.872438
 20
105.195397
 30
0.0
 10
94.925670
 20
104.414527
 30
0.0
  0
SPLINE
  5
12d
100
AcDbEntity
  8
Calque_1
 62
7
100
AcDbSpline
 70
8
 71
3
 72
8
 73
4
 74
0
 40
0
 40
0
 40
0
 40
0
 40
1
 40
1
 40
1
 40
1
 10
94.925670
 20
104.414527
 30
0.0
 10
93.564720
 20
103.868647
 30
0.0
 10
88.437675
 20
102.535492
 30
0.0
 10
87.203280
 20
102.406515
 30
0.0
  0
SPLINE
  5
12e
100
AcDbEntity
  8
Calque_1
 62
7
100
AcDbSpline
 70
8
 71
3
 72
8
 73
4
 74
0
 40
0
 40
0
 40
0
 40
0
 40
1
 40
1
 40
1
 40
1
 10
87.203280
 20
102.406515
 30
0.0
 10
86.596515
 20
102.343065
 30
0.0
 10
84.610763
 20
101.989027
 30
0.0
 10
82.790483
 20
101.619630
 30
0.0
  0
SPLINE
  5
12f
100
AcDbEntity
  8
Calque_1
 62
7
100
AcDbSpline
 70
8
 71
3
 72
8
 73
4
 74
0
 40
0
 40
0
 40
0
 40
0
 40
1
 40
1
 40
1
 40
1
 10
82.790483
 20
101.619630
 30
0.0
 10
80.970210
 20
101.250232
 30
0.0
 10
79.183035
 20
100.965960
 30
0.0
 10
78.818963
 20
100.987912
 30
0.0
  0
SPLINE
  5
130
100
AcDbEntity
  8
Calque_1
 62
7
100
AcDbSpline
 70
8
 71
3
 72
8
 73
4
 74
0
 40
0
 40
0
 40
0
 40
0
 40
1
 40
1
 40
1
 40
1
 10
78.818963
 20
100.987912
 30
0.0
 10
78.454913
 20
101.009962
 30
0.0
 10
76.816658
 20
100.996687
 30
0.0
 10
75.178418
 20
100.958287
 30
0.0
  0
SPLINE
  5
131
100
AcDbEntity
  8
Calque_1
 62
7
100
AcDbSpline
 70
8
 71
3
 72
8
 73
4
 74
0
 40
0
 40
0
 40
0
 40
0
 40
1
 40
1
 40
1
 40
1
 10
75.178418
 20
100.958287
 30
0.0
 10
72.855813
 20
100.904137
 30
0.0
 10
72.199781
 20
100.742985
 30
0.0
 10
72.199781
 20
100.226850
 30
0.0
  0
SPLINE
  5
132
100
AcDbEntity
  8
Calque_1
 62
7
100
AcDbSpline
 70
8
 71
3
 72
8
 73
4
 74
0
 40
0
 40
0
 40
0
 40
0
 40
1
 40
1
 40
1
 40
1
 10
72.199781
 20
100.226850
 30
0.0
 10
72.199781
 20
99.731932
 30
0.0
 10
72.725498
 20
99.564937
 30
0.0
 10
74.283595
 20
99.564937
 30
0.0
  0
LWPOLYLINE
  5
133
100
AcDbEntity
  8
Calque_1
 62
7
100
AcDbPolyline
 90
3
 70
0
 10
48.174969
 20
19.663650
 30
0.0
 10
3.496283
 20
19.640250
 30
0.0
 10
3.496283
 20
80.501213
 30
0.0
  0
SPLINE
  5
134
100
AcDbEntity
  8
Calque_1
 62
7
100
AcDbSpline
 70
8
 71
3
 72
8
 73
4
 74
0
 40
0
 40
0
 40
0
 40
0
 40
1
 40
1
 40
1
 40
1
 10
75.391703
 20
98.589225
 30
0.0
 10
74.687438
 20
97.884960
 30
0.0
 10
74.282144
 20
97.747335
 30
0.0
 10
73.934927
 20
98.094555
 30
0.0
  0
SPLINE
  5
135
100
AcDbEntity
  8
Calque_1
 62
7
100
AcDbSpline
 70
8
 71
3
 72
8
 73
4
 74
0
 40
0
 40
0
 40
0
 40
0
 40
1
 40
1
 40
1
 40
1
 10
73.934927
 20
98.094555
 30
0.0
 10
73.587710
 20
98.441767
 30
0.0
 10
73.156648
 20
98.300145
 30
0.0
 10
72.385548
 20
97.585507
 30
0.0
  0
SPLINE
  5
136
100
AcDbEntity
  8
Calque_1
 62
7
100
AcDbSpline
 70
8
 71
3
 72
8
 73
4
 74
0
 40
0
 40
0
 40
0
 40
0
 40
1
 40
1
 40
1
 40
1
 10
72.385548
 20
97.585507
 30
0.0
 10
70.959518
 20
96.263917
 30
0.0
 10
70.993879
 20
95.428717
 30
0.0
 10
72.462727
 20
95.709502
 30
0.0
  0
SPLINE
  5
137
100
AcDbEntity
  8
Calque_1
 62
7
100
AcDbSpline
 70
8
 71
3
 72
8
 73
4
 74
0
 40
0
 40
0
 40
0
 40
0
 40
1
 40
1
 40
1
 40
1
 10
72.462727
 20
95.709502
 30
0.0
 10
73.500099
 20
95.907817
 30
0.0
 10
73.586834
 20
95.818957
 30
0.0
 10
73.381730
 20
94.768072
 30
0.0
  0
SPLINE
  5
138
100
AcDbEntity
  8
Calque_1
 62
7
100
AcDbSpline
 70
8
 71
3
 72
8
 73
4
 74
0
 40
0
 40
0
 40
0
 40
0
 40
1
 40
1
 40
1
 40
1
 10
73.381730
 20
94.768072
 30
0.0
 10
72.182456
 20
88.623397
 30
0.0
 10
72.072255
 20
87.069877
 30
0.0
 10
72.798060
 20
86.539170
 30
0.0
  0
SPLINE
  5
139
100
AcDbEntity
  8
Calque_1
 62
7
100
AcDbSpline
 70
8
 71
3
 72
8
 73
4
 74
0
 40
0
 40
0
 40
0
 40
0
 40
1
 40
1
 40
1
 40
1
 10
72.798060
 20
86.539170
 30
0.0
 10
73.197125
 20
86.247367
 30
0.0
 10
73.523628
 20
85.757977
 30
0.0
 10
73.523628
 20
85.451625
 30
0.0
  0
SPLINE
  5
13a
100
AcDbEntity
  8
Calque_1
 62
7
100
AcDbSpline
 70
8
 71
3
 72
8
 73
4
 74
0
 40
0
 40
0
 40
0
 40
0
 40
1
 40
1
 40
1
 40
1
 10
73.523628
 20
85.451625
 30
0.0
 10
73.523628
 20
85.006560
 30
0.0
 10
73.390623
 20
85.005037
 30
0.0
 10
72.861704
 20
85.444125
 30
0.0
  0
SPLINE
  5
13b
100
AcDbEntity
  8
Calque_1
 62
7
100
AcDbSpline
 70
8
 71
3
 72
8
 73
4
 74
0
 40
0
 40
0
 40
0
 40
0
 40
1
 40
1
 40
1
 40
1
 10
72.861704
 20
85.444125
 30
0.0
 10
72.163431
 20
86.023642
 30
0.0
 10
72.112370
 20
85.940970
 30
0.0
 10
71.975863
 20
84.009967
 30
0.0
  0
SPLINE
  5
13c
100
AcDbEntity
  8
Calque_1
 62
7
100
AcDbSpline
 70
8
 71
3
 72
8
 73
4
 74
0
 40
0
 40
0
 40
0
 40
0
 40
1
 40
1
 40
1
 40
1
 10
71.975863
 20
84.009967
 30
0.0
 10
71.928703
 20
83.342535
 30
0.0
 10
72.080311
 20
82.796445
 30
0.0
 10
72.312785
 20
82.796445
 30
0.0
  0
SPLINE
  5
13d
100
AcDbEntity
  8
Calque_1
 62
7
100
AcDbSpline
 70
8
 71
3
 72
8
 73
4
 74
0
 40
0
 40
0
 40
0
 40
0
 40
1
 40
1
 40
1
 40
1
 10
72.312785
 20
82.796445
 30
0.0
 10
72.545272
 20
82.796445
 30
0.0
 10
72.630481
 20
82.522777
 30
0.0
 10
72.502130
 20
82.188308
 30
0.0
  0
SPLINE
  5
13e
100
AcDbEntity
  8
Calque_1
 62
7
100
AcDbSpline
 70
8
 71
3
 72
8
 73
4
 74
0
 40
0
 40
0
 40
0
 40
0
 40
1
 40
1
 40
1
 40
1
 10
72.502130
 20
82.188308
 30
0.0
 10
72.373778
 20
81.853823
 30
0.0
 10
72.501230
 20
81.328245
 30
0.0
 10
72.785877
 20
81.020370
 30
0.0
  0
SPLINE
  5
13f
100
AcDbEntity
  8
Calque_1
 62
7
100
AcDbSpline
 70
8
 71
3
 72
8
 73
4
 74
0
 40
0
 40
0
 40
0
 40
0
 40
1
 40
1
 40
1
 40
1
 10
72.785877
 20
81.020370
 30
0.0
 10
73.184104
 20
80.589270
 30
0.0
 10
73.176173
 20
80.532180
 30
0.0
 10
72.751355
 20
80.772000
 30
0.0
  0
SPLINE
  5
140
100
AcDbEntity
  8
Calque_1
 62
7
100
AcDbSpline
 70
8
 71
3
 72
8
 73
4
 74
0
 40
0
 40
0
 40
0
 40
0
 40
1
 40
1
 40
1
 40
1
 10
72.751355
 20
80.772000
 30
0.0
 10
72.361433
 20
80.992140
 30
0.0
 10
72.199757
 20
80.680185
 30
0.0
 10
72.199757
 20
79.707495
 30
0.0
  0
SPLINE
  5
141
100
AcDbEntity
  8
Calque_1
 62
7
100
AcDbSpline
 70
8
 71
3
 72
8
 73
4
 74
0
 40
0
 40
0
 40
0
 40
0
 40
1
 40
1
 40
1
 40
1
 10
72.199757
 20
79.707495
 30
0.0
 10
72.199757
 20
78.950730
 30
0.0
 10
72.385587
 20
78.446415
 30
0.0
 10
72.612720
 20
78.586785
 30
0.0
  0
SPLINE
  5
142
100
AcDbEntity
  8
Calque_1
 62
7
100
AcDbSpline
 70
8
 71
3
 72
8
 73
4
 74
0
 40
0
 40
0
 40
0
 40
0
 40
1
 40
1
 40
1
 40
1
 10
72.612720
 20
78.586785
 30
0.0
 10
72.839853
 20
78.727162
 30
0.0
 10
73.152533
 20
77.894947
 30
0.0
 10
73.307579
 20
76.737397
 30
0.0
  0
SPLINE
  5
143
100
AcDbEntity
  8
Calque_1
 62
7
100
AcDbSpline
 70
8
 71
3
 72
8
 73
4
 74
0
 40
0
 40
0
 40
0
 40
0
 40
1
 40
1
 40
1
 40
1
 10
73.307579
 20
76.737397
 30
0.0
 10
73.716701
 20
73.682985
 30
0.0
 10
73.808315
 20
73.529580
 30
0.0
 10
75.223404
 20
73.529580
 30
0.0
  0
SPLINE
  5
144
100
AcDbEntity
  8
Calque_1
 62
7
100
AcDbSpline
 70
8
 71
3
 72
8
 73
4
 74
0
 40
0
 40
0
 40
0
 40
0
 40
1
 40
1
 40
1
 40
1
 10
75.223404
 20
73.529580
 30
0.0
 10
76.851047
 20
73.529580
 30
0.0
 10
77.044479
 20
74.213542
 30
0.0
 10
76.726959
 20
78.846105
 30
0.0
  0
SPLINE
  5
145
100
AcDbEntity
  8
Calque_1
 62
7
100
AcDbSpline
 70
8
 71
3
 72
8
 73
4
 74
0
 40
0
 40
0
 40
0
 40
0
 40
1
 40
1
 40
1
 40
1
 10
76.726959
 20
78.846105
 30
0.0
 10
76.539189
 20
81.585652
 30
0.0
 10
76.346492
 20
82.347495
 30
0.0
 10
75.886037
 20
82.170810
 30
0.0
  0
SPLINE
  5
146
100
AcDbEntity
  8
Calque_1
 62
7
100
AcDbSpline
 70
8
 71
3
 72
8
 73
4
 74
0
 40
0
 40
0
 40
0
 40
0
 40
1
 40
1
 40
1
 40
1
 10
75.886037
 20
82.170810
 30
0.0
 10
75.550877
 20
82.042207
 30
0.0
 10
75.288707
 20
82.226085
 30
0.0
 10
75.288707
 20
82.589662
 30
0.0
  0
SPLINE
  5
147
100
AcDbEntity
  8
Calque_1
 62
7
100
AcDbSpline
 70
8
 71
3
 72
8
 73
4
 74
0
 40
0
 40
0
 40
0
 40
0
 40
1
 40
1
 40
1
 40
1
 10
75.288707
 20
82.589662
 30
0.0
 10
75.288707
 20
82.946115
 30
0.0
 10
75.474002
 20
83.237737
 30
0.0
 10
75.700472
 20
83.237737
 30
0.0
  0
SPLINE
  5
148
100
AcDbEntity
  8
Calque_1
 62
7
100
AcDbSpline
 70
8
 71
3
 72
8
 73
4
 74
0
 40
0
 40
0
 40
0
 40
0
 40
1
 40
1
 40
1
 40
1
 10
75.700472
 20
83.237737
 30
0.0
 10
75.926942
 20
83.237737
 30
0.0
 10
76.096112
 20
83.804850
 30
0.0
 10
76.076409
 20
84.497977
 30
0.0
  0
SPLINE
  5
149
100
AcDbEntity
  8
Calque_1
 62
7
100
AcDbSpline
 70
8
 71
3
 72
8
 73
4
 74
0
 40
0
 40
0
 40
0
 40
0
 40
1
 40
1
 40
1
 40
1
 10
76.076409
 20
84.497977
 30
0.0
 10
76.056609
 20
85.191127
 30
0.0
 10
76.180982
 20
85.985430
 30
0.0
 10
76.352597
 20
86.263110
 30
0.0
  0
SPLINE
  5
14a
100
AcDbEntity
  8
Calque_1
 62
7
100
AcDbSpline
 70
8
 71
3
 72
8
 73
4
 74
0
 40
0
 40
0
 40
0
 40
0
 40
1
 40
1
 40
1
 40
1
 10
76.352597
 20
86.263110
 30
0.0
 10
76.535867
 20
86.559615
 30
0.0
 10
76.380722
 20
86.767972
 30
0.0
 10
75.976674
 20
86.767972
 30
0.0
  0
SPLINE
  5
14b
100
AcDbEntity
  8
Calque_1
 62
7
100
AcDbSpline
 70
8
 71
3
 72
8
 73
4
 74
0
 40
0
 40
0
 40
0
 40
0
 40
1
 40
1
 40
1
 40
1
 10
75.976674
 20
86.767972
 30
0.0
 10
75.055344
 20
86.767972
 30
0.0
 10
75.103127
 20
87.498592
 30
0.0
 10
76.060982
 20
88.056472
 30
0.0
  0
SPLINE
  5
14c
100
AcDbEntity
  8
Calque_1
 62
7
100
AcDbSpline
 70
8
 71
3
 72
8
 73
4
 74
0
 40
0
 40
0
 40
0
 40
0
 40
1
 40
1
 40
1
 40
1
 10
76.060982
 20
88.056472
 30
0.0
 10
76.485714
 20
88.303852
 30
0.0
 10
76.653519
 20
88.512300
 30
0.0
 10
76.433867
 20
88.519665
 30
0.0
  0
SPLINE
  5
14d
100
AcDbEntity
  8
Calque_1
 62
7
100
AcDbSpline
 70
8
 71
3
 72
8
 73
4
 74
0
 40
0
 40
0
 40
0
 40
0
 40
1
 40
1
 40
1
 40
1
 10
76.433867
 20
88.519665
 30
0.0
 10
76.214229
 20
88.527165
 30
0.0
 10
76.332047
 20
88.880610
 30
0.0
 10
76.695774
 20
89.305327
 30
0.0
  0
SPLINE
  5
14e
100
AcDbEntity
  8
Calque_1
 62
7
100
AcDbSpline
 70
8
 71
3
 72
8
 73
4
 74
0
 40
0
 40
0
 40
0
 40
0
 40
1
 40
1
 40
1
 40
1
 10
76.695774
 20
89.305327
 30
0.0
 10
77.059464
 20
89.730060
 30
0.0
 10
77.602479
 20
91.504755
 30
0.0
 10
77.902494
 20
93.249097
 30
0.0
  0
SPLINE
  5
14f
100
AcDbEntity
  8
Calque_1
 62
7
100
AcDbSpline
 70
8
 71
3
 72
8
 73
4
 74
0
 40
0
 40
0
 40
0
 40
0
 40
1
 40
1
 40
1
 40
1
 10
77.902494
 20
93.249097
 30
0.0
 10
78.504684
 20
96.750615
 30
0.0
 10
79.147712
 20
97.490505
 30
0.0
 10
82.064064
 20
98.037607
 30
0.0
  0
SPLINE
  5
150
100
AcDbEntity
  8
Calque_1
 62
7
100
AcDbSpline
 70
8
 71
3
 72
8
 73
4
 74
0
 40
0
 40
0
 40
0
 40
0
 40
1
 40
1
 40
1
 40
1
 10
82.064064
 20
98.037607
 30
0.0
 10
82.949004
 20
98.203635
 30
0.0
 10
83.673062
 20
98.515942
 30
0.0
 10
83.673062
 20
98.731628
 30
0.0
  0
SPLINE
  5
151
100
AcDbEntity
  8
Calque_1
 62
7
100
AcDbSpline
 70
8
 71
3
 72
8
 73
4
 74
0
 40
0
 40
0
 40
0
 40
0
 40
1
 40
1
 40
1
 40
1
 10
83.673062
 20
98.731628
 30
0.0
 10
83.673062
 20
98.947328
 30
0.0
 10
83.494337
 20
99.074152
 30
0.0
 10
83.275907
 20
99.013477
 30
0.0
  0
SPLINE
  5
152
100
AcDbEntity
  8
Calque_1
 62
7
100
AcDbSpline
 70
8
 71
3
 72
8
 73
4
 74
0
 40
0
 40
0
 40
0
 40
0
 40
1
 40
1
 40
1
 40
1
 10
83.275907
 20
99.013477
 30
0.0
 10
83.057469
 20
98.952802
 30
0.0
 10
82.809249
 20
99.101782
 30
0.0
 10
82.724297
 20
99.344445
 30
0.0
  0
SPLINE
  5
153
100
AcDbEntity
  8
Calque_1
 62
7
100
AcDbSpline
 70
8
 71
3
 72
8
 73
4
 74
0
 40
0
 40
0
 40
0
 40
0
 40
1
 40
1
 40
1
 40
1
 10
82.724297
 20
99.344445
 30
0.0
 10
82.636112
 20
99.596340
 30
0.0
 10
83.895452
 20
99.898125
 30
0.0
 10
85.658814
 20
100.047645
 30
0.0
  0
SPLINE
  5
154
100
AcDbEntity
  8
Calque_1
 62
7
100
AcDbSpline
 70
8
 71
3
 72
8
 73
4
 74
0
 40
0
 40
0
 40
0
 40
0
 40
1
 40
1
 40
1
 40
1
 10
85.658814
 20
100.047645
 30
0.0
 10
93.473507
 20
100.710293
 30
0.0
 10
103.526859
 20
104.797440
 30
0.0
 10
112.084907
 20
110.791065
 30
0.0
  0
SPLINE
  5
155
100
AcDbEntity
  8
Calque_1
 62
7
100
AcDbSpline
 70
8
 71
3
 72
8
 73
4
 74
0
 40
0
 40
0
 40
0
 40
0
 40
1
 40
1
 40
1
 40
1
 10
112.084907
 20
110.791065
 30
0.0
 10
114.726774
 20
112.641292
 30
0.0
 10
116.968142
 20
114.075277
 30
0.0
 10
117.065724
 20
113.977680
 30
0.0
  0
SPLINE
  5
156
100
AcDbEntity
  8
Calque_1
 62
7
100
AcDbSpline
 70
8
 71
3
 72
8
 73
4
 74
0
 40
0
 40
0
 40
0
 40
0
 40
1
 40
1
 40
1
 40
1
 10
117.065724
 20
113.977680
 30
0.0
 10
117.514884
 20
113.528535
 30
0.0
 10
111.674717
 20
101.291820
 30
0.0
 10
110.755779
 20
100.756673
 30
0.0
  0
SPLINE
  5
157
100
AcDbEntity
  8
Calque_1
 62
7
100
AcDbSpline
 70
8
 71
3
 72
8
 73
4
 74
0
 40
0
 40
0
 40
0
 40
0
 40
1
 40
1
 40
1
 40
1
 10
110.755779
 20
100.756673
 30
0.0
 10
110.422502
 20
100.562580
 30
0.0
 10
110.149824
 20
100.130205
 30
0.0
 10
110.149824
 20
99.795817
 30
0.0
  0
SPLINE
  5
158
100
AcDbEntity
  8
Calque_1
 62
7
100
AcDbSpline
 70
8
 71
3
 72
8
 73
4
 74
0
 40
0
 40
0
 40
0
 40
0
 40
1
 40
1
 40
1
 40
1
 10
110.149824
 20
99.795817
 30
0.0
 10
110.149824
 20
99.461438
 30
0.0
 10
109.609719
 20
98.763000
 30
0.0
 10
108.949584
 20
98.243752
 30
0.0
  0
SPLINE
  5
159
100
AcDbEntity
  8
Calque_1
 62
7
100
AcDbSpline
 70
8
 71
3
 72
8
 73
4
 74
0
 40
0
 40
0
 40
0
 40
0
 40
1
 40
1
 40
1
 40
1
 10
108.949584
 20
98.243752
 30
0.0
 10
108.215874
 20
97.666612
 30
0.0
 10
107.730662
 20
96.839422
 30
0.0
 10
107.701277
 20
96.115643
 30
0.0
  0
SPLINE
  5
15a
100
AcDbEntity
  8
Calque_1
 62
7
100
AcDbSpline
 70
8
 71
3
 72
8
 73
4
 74
0
 40
0
 40
0
 40
0
 40
0
 40
1
 40
1
 40
1
 40
1
 10
107.701277
 20
96.115643
 30
0.0
 10
107.656727
 20
95.019593
 30
0.0
 10
107.278847
 20
94.792650
 30
0.0
 10
102.613284
 20
93.060307
 30
0.0
  0
SPLINE
  5
15b
100
AcDbEntity
  8
Calque_1
 62
7
100
AcDbSpline
 70
8
 71
3
 72
8
 73
4
 74
0
 40
0
 40
0
 40
0
 40
0
 40
1
 40
1
 40
1
 40
1
 10
102.613284
 20
93.060307
 30
0.0
 10
97.836257
 20
91.286580
 30
0.0
 10
90.769652
 20
88.165395
 30
0.0
 10
90.292247
 20
87.618352
 30
0.0
  0
SPLINE
  5
15c
100
AcDbEntity
  8
Calque_1
 62
7
100
AcDbSpline
 70
8
 71
3
 72
8
 73
4
 74
0
 40
0
 40
0
 40
0
 40
0
 40
1
 40
1
 40
1
 40
1
 10
90.292247
 20
87.618352
 30
0.0
 10
90.170912
 20
87.479295
 30
0.0
 10
89.674449
 20
87.200340
 30
0.0
 10
89.189049
 20
86.998455
 30
0.0
  0
SPLINE
  5
15d
100
AcDbEntity
  8
Calque_1
 62
7
100
AcDbSpline
 70
8
 71
3
 72
8
 73
4
 74
0
 40
0
 40
0
 40
0
 40
0
 40
1
 40
1
 40
1
 40
1
 10
89.189049
 20
86.998455
 30
0.0
 10
88.433289
 20
86.684130
 30
0.0
 10
88.412147
 20
86.605875
 30
0.0
 10
89.041884
 20
86.453783
 30
0.0
  0
SPLINE
  5
15e
100
AcDbEntity
  8
Calque_1
 62
7
100
AcDbSpline
 70
8
 71
3
 72
8
 73
4
 74
0
 40
0
 40
0
 40
0
 40
0
 40
1
 40
1
 40
1
 40
1
 10
89.041884
 20
86.453783
 30
0.0
 10
89.446344
 20
86.356088
 30
0.0
 10
91.630674
 20
87.059648
 30
0.0
 10
93.895952
 20
88.017240
 30
0.0
  0
SPLINE
  5
15f
100
AcDbEntity
  8
Calque_1
 62
7
100
AcDbSpline
 70
8
 71
3
 72
8
 73
4
 74
0
 40
0
 40
0
 40
0
 40
0
 40
1
 40
1
 40
1
 40
1
 10
93.895952
 20
88.017240
 30
0.0
 10
98.341502
 20
89.896485
 30
0.0
 10
105.102782
 20
92.063325
 30
0.0
 10
106.521084
 20
92.063325
 30
0.0
  0
SPLINE
  5
160
100
AcDbEntity
  8
Calque_1
 62
7
100
AcDbSpline
 70
8
 71
3
 72
8
 73
4
 74
0
 40
0
 40
0
 40
0
 40
0
 40
1
 40
1
 40
1
 40
1
 10
106.521084
 20
92.063325
 30
0.0
 10
107.324657
 20
92.063325
 30
0.0
 10
107.355137
 20
91.938210
 30
0.0
 10
106.884812
 20
90.570105
 30
0.0
  0
SPLINE
  5
161
100
AcDbEntity
  8
Calque_1
 62
7
100
AcDbSpline
 70
8
 71
3
 72
8
 73
4
 74
0
 40
0
 40
0
 40
0
 40
0
 40
1
 40
1
 40
1
 40
1
 10
106.884812
 20
90.570105
 30
0.0
 10
106.602467
 20
89.748848
 30
0.0
 10
106.105119
 20
88.755967
 30
0.0
 10
105.779574
 20
88.363725
 30
0.0
  0
SPLINE
  5
162
100
AcDbEntity
  8
Calque_1
 62
7
100
AcDbSpline
 70
8
 71
3
 72
8
 73
4
 74
0
 40
0
 40
0
 40
0
 40
0
 40
1
 40
1
 40
1
 40
1
 10
105.779574
 20
88.363725
 30
0.0
 10
105.283494
 20
87.765967
 30
0.0
 10
105.285707
 20
87.644895
 30
0.0
 10
105.793299
 20
87.615698
 30
0.0
  0
SPLINE
  5
163
100
AcDbEntity
  8
Calque_1
 62
7
100
AcDbSpline
 70
8
 71
3
 72
8
 73
4
 74
0
 40
0
 40
0
 40
0
 40
0
 40
1
 40
1
 40
1
 40
1
 10
105.793299
 20
87.615698
 30
0.0
 10
106.240524
 20
87.589972
 30
0.0
 10
106.254662
 20
87.522638
 30
0.0
 10
105.847374
 20
87.358283
 30
0.0
  0
SPLINE
  5
164
100
AcDbEntity
  8
Calque_1
 62
7
100
AcDbSpline
 70
8
 71
3
 72
8
 73
4
 74
0
 40
0
 40
0
 40
0
 40
0
 40
1
 40
1
 40
1
 40
1
 10
105.847374
 20
87.358283
 30
0.0
 10
105.543992
 20
87.235823
 30
0.0
 10
105.295764
 20
86.928413
 30
0.0
 10
105.295764
 20
86.675032
 30
0.0
  0
SPLINE
  5
165
100
AcDbEntity
  8
Calque_1
 62
7
100
AcDbSpline
 70
8
 71
3
 72
8
 73
4
 74
0
 40
0
 40
0
 40
0
 40
0
 40
1
 40
1
 40
1
 40
1
 10
105.295764
 20
86.675032
 30
0.0
 10
105.295764
 20
86.421668
 30
0.0
 10
104.694084
 20
84.951833
 30
0.0
 10
103.958687
 20
83.408730
 30
0.0
  0
SPLINE
  5
166
100
AcDbEntity
  8
Calque_1
 62
7
100
AcDbSpline
 70
8
 71
3
 72
8
 73
4
 74
0
 40
0
 40
0
 40
0
 40
0
 40
1
 40
1
 40
1
 40
1
 10
103.958687
 20
83.408730
 30
0.0
 10
99.114812
 20
73.244805
 30
0.0
 10
94.227834
 20
62.399302
 30
0.0
 10
93.740769
 20
60.732480
 30
0.0
  0
SPLINE
  5
167
100
AcDbEntity
  8
Calque_1
 62
7
100
AcDbSpline
 70
8
 71
3
 72
8
 73
4
 74
0
 40
0
 40
0
 40
0
 40
0
 40
1
 40
1
 40
1
 40
1
 10
93.740769
 20
60.732480
 30
0.0
 10
93.492557
 20
59.883030
 30
0.0
 10
93.131799
 20
58.989427
 30
0.0
 10
92.939087
 20
58.746720
 30
0.0
  0
SPLINE
  5
168
100
AcDbEntity
  8
Calque_1
 62
7
100
AcDbSpline
 70
8
 71
3
 72
8
 73
4
 74
0
 40
0
 40
0
 40
0
 40
0
 40
1
 40
1
 40
1
 40
1
 10
92.939087
 20
58.746720
 30
0.0
 10
92.654492
 20
58.388325
 30
0.0
 10
91.174809
 20
53.879932
 30
0.0
 10
91.174809
 20
53.371282
 30
0.0
  0
SPLINE
  5
169
100
AcDbEntity
  8
Calque_1
 62
7
100
AcDbSpline
 70
8
 71
3
 72
8
 73
4
 74
0
 40
0
 40
0
 40
0
 40
0
 40
1
 40
1
 40
1
 40
1
 10
91.174809
 20
53.371282
 30
0.0
 10
91.174809
 20
53.293980
 30
0.0
 10
91.457567
 20
53.230732
 30
0.0
 10
91.803159
 20
53.230732
 30
0.0
  0
SPLINE
  5
16a
100
AcDbEntity
  8
Calque_1
 62
7
100
AcDbSpline
 70
8
 71
3
 72
8
 73
4
 74
0
 40
0
 40
0
 40
0
 40
0
 40
1
 40
1
 40
1
 40
1
 10
91.803159
 20
53.230732
 30
0.0
 10
92.148759
 20
53.230732
 30
0.0
 10
92.893419
 20
53.829735
 30
0.0
 10
93.457959
 20
54.561832
 30
0.0
  0
SPLINE
  5
16b
100
AcDbEntity
  8
Calque_1
 62
7
100
AcDbSpline
 70
8
 71
3
 72
8
 73
4
 74
0
 40
0
 40
0
 40
0
 40
0
 40
1
 40
1
 40
1
 40
1
 10
93.457959
 20
54.561832
 30
0.0
 10
94.022507
 20
55.293945
 30
0.0
 10
94.905497
 20
56.435752
 30
0.0
 10
95.420154
 20
57.099187
 30
0.0
  0
SPLINE
  5
16c
100
AcDbEntity
  8
Calque_1
 62
7
100
AcDbSpline
 70
8
 71
3
 72
8
 73
4
 74
0
 40
0
 40
0
 40
0
 40
0
 40
1
 40
1
 40
1
 40
1
 10
95.420154
 20
57.099187
 30
0.0
 10
95.934819
 20
57.762637
 30
0.0
 10
96.493659
 20
58.937107
 30
0.0
 10
96.662042
 20
59.709120
 30
0.0
  0
SPLINE
  5
16d
100
AcDbEntity
  8
Calque_1
 62
7
100
AcDbSpline
 70
8
 71
3
 72
8
 73
4
 74
0
 40
0
 40
0
 40
0
 40
0
 40
1
 40
1
 40
1
 40
1
 10
96.662042
 20
59.709120
 30
0.0
 10
96.830409
 20
60.481132
 30
0.0
 10
97.253267
 20
61.349400
 30
0.0
 10
97.601724
 20
61.638585
 30
0.0
  0
SPLINE
  5
16e
100
AcDbEntity
  8
Calque_1
 62
7
100
AcDbSpline
 70
8
 71
3
 72
8
 73
4
 74
0
 40
0
 40
0
 40
0
 40
0
 40
1
 40
1
 40
1
 40
1
 10
97.601724
 20
61.638585
 30
0.0
 10
97.950174
 20
61.927777
 30
0.0
 10
98.235272
 20
62.390557
 30
0.0
 10
98.235272
 20
62.666992
 30
0.0
  0
SPLINE
  5
16f
100
AcDbEntity
  8
Calque_1
 62
7
100
AcDbSpline
 70
8
 71
3
 72
8
 73
4
 74
0
 40
0
 40
0
 40
0
 40
0
 40
1
 40
1
 40
1
 40
1
 10
98.235272
 20
62.666992
 30
0.0
 10
98.235272
 20
62.943420
 30
0.0
 10
100.020789
 20
67.210140
 30
0.0
 10
102.203102
 20
72.148582
 30
0.0
  0
SPLINE
  5
170
100
AcDbEntity
  8
Calque_1
 62
7
100
AcDbSpline
 70
8
 71
3
 72
8
 73
4
 74
0
 40
0
 40
0
 40
0
 40
0
 40
1
 40
1
 40
1
 40
1
 10
102.203102
 20
72.148582
 30
0.0
 10
104.385407
 20
77.087032
 30
0.0
 10
106.061574
 20
81.304492
 30
0.0
 10
105.927932
 20
81.520747
 30
0.0
  0
SPLINE
  5
171
100
AcDbEntity
  8
Calque_1
 62
7
100
AcDbSpline
 70
8
 71
3
 72
8
 73
4
 74
0
 40
0
 40
0
 40
0
 40
0
 40
1
 40
1
 40
1
 40
1
 10
105.927932
 20
81.520747
 30
0.0
 10
105.794289
 20
81.736980
 30
0.0
 10
105.398799
 20
81.913905
 30
0.0
 10
105.049067
 20
81.913905
 30
0.0
  0
SPLINE
  5
172
100
AcDbEntity
  8
Calque_1
 62
7
100
AcDbSpline
 70
8
 71
3
 72
8
 73
4
 74
0
 40
0
 40
0
 40
0
 40
0
 40
1
 40
1
 40
1
 40
1
 10
105.049067
 20
81.913905
 30
0.0
 10
104.699342
 20
81.913905
 30
0.0
 10
104.413187
 20
82.112482
 30
0.0
 10
104.413187
 20
82.355175
 30
0.0
  0
SPLINE
  5
173
100
AcDbEntity
  8
Calque_1
 62
7
100
AcDbSpline
 70
8
 71
3
 72
8
 73
4
 74
0
 40
0
 40
0
 40
0
 40
0
 40
1
 40
1
 40
1
 40
1
 10
104.413187
 20
82.355175
 30
0.0
 10
104.413187
 20
82.597882
 30
0.0
 10
104.496249
 20
82.796460
 30
0.0
 10
104.597739
 20
82.796460
 30
0.0
  0
SPLINE
  5
174
100
AcDbEntity
  8
Calque_1
 62
7
100
AcDbSpline
 70
8
 71
3
 72
8
 73
4
 74
0
 40
0
 40
0
 40
0
 40
0
 40
1
 40
1
 40
1
 40
1
 10
104.597739
 20
82.796460
 30
0.0
 10
104.699192
 20
82.796460
 30
0.0
 10
105.098642
 20
82.917795
 30
0.0
 10
105.485297
 20
83.066235
 30
0.0
  0
SPLINE
  5
175
100
AcDbEntity
  8
Calque_1
 62
7
100
AcDbSpline
 70
8
 71
3
 72
8
 73
4
 74
0
 40
0
 40
0
 40
0
 40
0
 40
1
 40
1
 40
1
 40
1
 10
105.485297
 20
83.066235
 30
0.0
 10
105.999857
 20
83.263680
 30
0.0
 10
106.115177
 20
83.145412
 30
0.0
 10
105.915459
 20
82.624950
 30
0.0
  0
SPLINE
  5
176
100
AcDbEntity
  8
Calque_1
 62
7
100
AcDbSpline
 70
8
 71
3
 72
8
 73
4
 74
0
 40
0
 40
0
 40
0
 40
0
 40
1
 40
1
 40
1
 40
1
 10
105.915459
 20
82.624950
 30
0.0
 10
105.765392
 20
82.233877
 30
0.0
 10
105.828527
 20
81.913905
 30
0.0
 10
106.055657
 20
81.913905
 30
0.0
  0
SPLINE
  5
177
100
AcDbEntity
  8
Calque_1
 62
7
100
AcDbSpline
 70
8
 71
3
 72
8
 73
4
 74
0
 40
0
 40
0
 40
0
 40
0
 40
1
 40
1
 40
1
 40
1
 10
106.055657
 20
81.913905
 30
0.0
 10
106.282854
 20
81.913905
 30
0.0
 10
106.935279
 20
82.956420
 30
0.0
 10
107.505504
 20
84.230617
 30
0.0
  0
SPLINE
  5
178
100
AcDbEntity
  8
Calque_1
 62
7
100
AcDbSpline
 70
8
 71
3
 72
8
 73
4
 74
0
 40
0
 40
0
 40
0
 40
0
 40
1
 40
1
 40
1
 40
1
 10
107.505504
 20
84.230617
 30
0.0
 10
111.976929
 20
94.222140
 30
0.0
 10
111.670577
 20
93.728572
 30
0.0
 10
113.748504
 20
94.288822
 30
0.0
  0
SPLINE
  5
179
100
AcDbEntity
  8
Calque_1
 62
7
100
AcDbSpline
 70
8
 71
3
 72
8
 73
4
 74
0
 40
0
 40
0
 40
0
 40
0
 40
1
 40
1
 40
1
 40
1
 10
113.748504
 20
94.288822
 30
0.0
 10
117.945834
 20
95.420512
 30
0.0
 10
125.275382
 20
96.967222
 30
0.0
 10
131.772512
 20
98.092335
 30
0.0
  0
SPLINE
  5
17a
100
AcDbEntity
  8
Calque_1
 62
7
100
AcDbSpline
 70
8
 71
3
 72
8
 73
4
 74
0
 40
0
 40
0
 40
0
 40
0
 40
1
 40
1
 40
1
 40
1
 10
131.772512
 20
98.092335
 30
0.0
 10
137.293974
 20
99.048487
 30
0.0
 10
140.072792
 20
99.283297
 30
0.0
 10
146.189267
 20
99.310605
 30
0.0
  0
SPLINE
  5
17b
100
AcDbEntity
  8
Calque_1
 62
7
100
AcDbSpline
 70
8
 71
3
 72
8
 73
4
 74
0
 40
0
 40
0
 40
0
 40
0
 40
1
 40
1
 40
1
 40
1
 10
146.189267
 20
99.310605
 30
0.0
 10
153.227867
 20
99.342030
 30
0.0
 10
153.854904
 20
99.278580
 30
0.0
 10
155.014847
 20
98.416807
 30
0.0
  0
SPLINE
  5
17c
100
AcDbEntity
  8
Calque_1
 62
7
100
AcDbSpline
 70
8
 71
3
 72
8
 73
4
 74
0
 40
0
 40
0
 40
0
 40
0
 40
1
 40
1
 40
1
 40
1
 10
155.014847
 20
98.416807
 30
0.0
 10
155.701629
 20
97.906605
 30
0.0
 10
156.451314
 20
96.961897
 30
0.0
 10
156.680837
 20
96.317445
 30
0.0
  0
SPLINE
  5
17d
100
AcDbEntity
  8
Calque_1
 62
7
100
AcDbSpline
 70
8
 71
3
 72
8
 73
4
 74
0
 40
0
 40
0
 40
0
 40
0
 40
1
 40
1
 40
1
 40
1
 10
156.680837
 20
96.317445
 30
0.0
 10
157.556957
 20
93.857400
 30
0.0
 10
154.090569
 20
89.082022
 30
0.0
 10
148.321824
 20
84.801840
 30
0.0
  0
SPLINE
  5
17e
100
AcDbEntity
  8
Calque_1
 62
7
100
AcDbSpline
 70
8
 71
3
 72
8
 73
4
 74
0
 40
0
 40
0
 40
0
 40
0
 40
1
 40
1
 40
1
 40
1
 10
148.321824
 20
84.801840
 30
0.0
 10
143.094009
 20
80.923012
 30
0.0
 10
142.371129
 20
80.492602
 30
0.0
 10
141.588774
 20
80.792827
 30
0.0
  0
SPLINE
  5
17f
100
AcDbEntity
  8
Calque_1
 62
7
100
AcDbSpline
 70
8
 71
3
 72
8
 73
4
 74
0
 40
0
 40
0
 40
0
 40
0
 40
1
 40
1
 40
1
 40
1
 10
141.588774
 20
80.792827
 30
0.0
 10
141.180054
 20
80.949675
 30
0.0
 10
140.981792
 20
80.941837
 30
0.0
 10
141.148194
 20
80.775427
 30
0.0
  0
SPLINE
  5
180
100
AcDbEntity
  8
Calque_1
 62
7
100
AcDbSpline
 70
8
 71
3
 72
8
 73
4
 74
0
 40
0
 40
0
 40
0
 40
0
 40
1
 40
1
 40
1
 40
1
 10
141.148194
 20
80.775427
 30
0.0
 10
141.314597
 20
80.609025
 30
0.0
 10
140.950584
 20
80.079457
 30
0.0
 10
140.339267
 20
79.598595
 30
0.0
  0
SPLINE
  5
181
100
AcDbEntity
  8
Calque_1
 62
7
100
AcDbSpline
 70
8
 71
3
 72
8
 73
4
 74
0
 40
0
 40
0
 40
0
 40
0
 40
1
 40
1
 40
1
 40
1
 10
140.339267
 20
79.598595
 30
0.0
 10
139.727957
 20
79.117740
 30
0.0
 10
139.162187
 20
78.796590
 30
0.0
 10
139.082004
 20
78.884940
 30
0.0
  0
SPLINE
  5
182
100
AcDbEntity
  8
Calque_1
 62
7
100
AcDbSpline
 70
8
 71
3
 72
8
 73
4
 74
0
 40
0
 40
0
 40
0
 40
0
 40
1
 40
1
 40
1
 40
1
 10
139.082004
 20
78.884940
 30
0.0
 10
139.001822
 20
78.973253
 30
0.0
 10
139.302347
 20
80.832742
 30
0.0
 10
139.749857
 20
83.017080
 30
0.0
  0
SPLINE
  5
183
100
AcDbEntity
  8
Calque_1
 62
7
100
AcDbSpline
 70
8
 71
3
 72
8
 73
4
 74
0
 40
0
 40
0
 40
0
 40
0
 40
1
 40
1
 40
1
 40
1
 10
139.749857
 20
83.017080
 30
0.0
 10
140.670234
 20
87.509557
 30
0.0
 10
140.807679
 20
89.856915
 30
0.0
 10
140.150334
 20
89.856915
 30
0.0
  0
SPLINE
  5
184
100
AcDbEntity
  8
Calque_1
 62
7
100
AcDbSpline
 70
8
 71
3
 72
8
 73
4
 74
0
 40
0
 40
0
 40
0
 40
0
 40
1
 40
1
 40
1
 40
1
 10
140.150334
 20
89.856915
 30
0.0
 10
139.107737
 20
89.856915
 30
0.0
 10
136.047977
 20
82.468350
 30
0.0
 10
135.076052
 20
77.603737
 30
0.0
  0
SPLINE
  5
185
100
AcDbEntity
  8
Calque_1
 62
7
100
AcDbSpline
 70
8
 71
3
 72
8
 73
4
 74
0
 40
0
 40
0
 40
0
 40
0
 40
1
 40
1
 40
1
 40
1
 10
135.076052
 20
77.603737
 30
0.0
 10
134.884232
 20
76.643655
 30
0.0
 10
134.379834
 20
75.950842
 30
0.0
 10
133.566429
 20
75.530212
 30
0.0
  0
SPLINE
  5
186
100
AcDbEntity
  8
Calque_1
 62
7
100
AcDbSpline
 70
8
 71
3
 72
8
 73
4
 74
0
 40
0
 40
0
 40
0
 40
0
 40
1
 40
1
 40
1
 40
1
 10
133.566429
 20
75.530212
 30
0.0
 10
132.894557
 20
75.182782
 30
0.0
 10
132.012932
 20
74.391937
 30
0.0
 10
131.607234
 20
73.772767
 30
0.0
  0
SPLINE
  5
187
100
AcDbEntity
  8
Calque_1
 62
7
100
AcDbSpline
 70
8
 71
3
 72
8
 73
4
 74
0
 40
0
 40
0
 40
0
 40
0
 40
1
 40
1
 40
1
 40
1
 10
131.607234
 20
73.772767
 30
0.0
 10
131.201544
 20
73.153613
 30
0.0
 10
130.688544
 20
72.647018
 30
0.0
 10
130.467234
 20
72.647018
 30
0.0
  0
SPLINE
  5
188
100
AcDbEntity
  8
Calque_1
 62
7
100
AcDbSpline
 70
8
 71
3
 72
8
 73
4
 74
0
 40
0
 40
0
 40
0
 40
0
 40
1
 40
1
 40
1
 40
1
 10
130.467234
 20
72.647018
 30
0.0
 10
130.245924
 20
72.647018
 30
0.0
 10
129.505839
 20
72.417922
 30
0.0
 10
128.822612
 20
72.137925
 30
0.0
  0
SPLINE
  5
189
100
AcDbEntity
  8
Calque_1
 62
7
100
AcDbSpline
 70
8
 71
3
 72
8
 73
4
 74
0
 40
0
 40
0
 40
0
 40
0
 40
1
 40
1
 40
1
 40
1
 10
128.822612
 20
72.137925
 30
0.0
 10
128.139369
 20
71.857935
 30
0.0
 10
127.290992
 20
71.571593
 30
0.0
 10
126.937314
 20
71.501632
 30
0.0
  0
SPLINE
  5
18a
100
AcDbEntity
  8
Calque_1
 62
7
100
AcDbSpline
 70
8
 71
3
 72
8
 73
4
 74
0
 40
0
 40
0
 40
0
 40
0
 40
1
 40
1
 40
1
 40
1
 10
126.937314
 20
71.501632
 30
0.0
 10
126.107109
 20
71.337398
 30
0.0
 10
125.668914
 20
71.138595
 30
0.0
 10
118.313492
 20
67.589070
 30
0.0
  0
SPLINE
  5
18b
100
AcDbEntity
  8
Calque_1
 62
7
100
AcDbSpline
 70
8
 71
3
 72
8
 73
4
 74
0
 40
0
 40
0
 40
0
 40
0
 40
1
 40
1
 40
1
 40
1
 10
118.313492
 20
67.589070
 30
0.0
 10
113.851059
 20
65.435625
 30
0.0
 10
112.625717
 20
64.690755
 30
0.0
 10
113.900694
 20
64.906605
 30
0.0
  0
SPLINE
  5
18c
100
AcDbEntity
  8
Calque_1
 62
7
100
AcDbSpline
 70
8
 71
3
 72
8
 73
4
 74
0
 40
0
 40
0
 40
0
 40
0
 40
1
 40
1
 40
1
 40
1
 10
113.900694
 20
64.906605
 30
0.0
 10
116.639739
 20
65.370330
 30
0.0
 10
124.020219
 20
67.930845
 30
0.0
 10
129.039812
 20
70.158840
 30
0.0
  0
SPLINE
  5
18d
100
AcDbEntity
  8
Calque_1
 62
7
100
AcDbSpline
 70
8
 71
3
 72
8
 73
4
 74
0
 40
0
 40
0
 40
0
 40
0
 40
1
 40
1
 40
1
 40
1
 10
129.039812
 20
70.158840
 30
0.0
 10
132.620102
 20
71.747993
 30
0.0
 10
133.542234
 20
72.016320
 30
0.0
 10
133.372179
 20
71.419478
 30
0.0
  0
SPLINE
  5
18e
100
AcDbEntity
  8
Calque_1
 62
7
100
AcDbSpline
 70
8
 71
3
 72
8
 73
4
 74
0
 40
0
 40
0
 40
0
 40
0
 40
1
 40
1
 40
1
 40
1
 10
133.372179
 20
71.419478
 30
0.0
 10
131.889797
 20
66.216795
 30
0.0
 10
131.329757
 20
63.739545
 30
0.0
 10
131.553924
 20
63.376830
 30
0.0
  0
SPLINE
  5
18f
100
AcDbEntity
  8
Calque_1
 62
7
100
AcDbSpline
 70
8
 71
3
 72
8
 73
4
 74
0
 40
0
 40
0
 40
0
 40
0
 40
1
 40
1
 40
1
 40
1
 10
131.553924
 20
63.376830
 30
0.0
 10
131.702807
 20
63.135945
 30
0.0
 10
131.637482
 20
62.938875
 30
0.0
 10
131.408747
 20
62.938875
 30
0.0
  0
SPLINE
  5
190
100
AcDbEntity
  8
Calque_1
 62
7
100
AcDbSpline
 70
8
 71
3
 72
8
 73
4
 74
0
 40
0
 40
0
 40
0
 40
0
 40
1
 40
1
 40
1
 40
1
 10
131.408747
 20
62.938875
 30
0.0
 10
130.797684
 20
62.938875
 30
0.0
 10
130.433829
 20
61.176308
 30
0.0
 10
131.041592
 20
61.160333
 30
0.0
  0
SPLINE
  5
191
100
AcDbEntity
  8
Calque_1
 62
7
100
AcDbSpline
 70
8
 71
3
 72
8
 73
4
 74
0
 40
0
 40
0
 40
0
 40
0
 40
1
 40
1
 40
1
 40
1
 10
131.041592
 20
61.160333
 30
0.0
 10
131.322249
 20
61.152833
 30
0.0
 10
131.210087
 20
60.947700
 30
0.0
 10
130.792329
 20
60.704228
 30
0.0
  0
SPLINE
  5
192
100
AcDbEntity
  8
Calque_1
 62
7
100
AcDbSpline
 70
8
 71
3
 72
8
 73
4
 74
0
 40
0
 40
0
 40
0
 40
0
 40
1
 40
1
 40
1
 40
1
 10
130.792329
 20
60.704228
 30
0.0
 10
130.374579
 20
60.460748
 30
0.0
 10
129.751142
 20
59.324978
 30
0.0
 10
129.406914
 20
58.180283
 30
0.0
  0
SPLINE
  5
193
100
AcDbEntity
  8
Calque_1
 62
7
100
AcDbSpline
 70
8
 71
3
 72
8
 73
4
 74
0
 40
0
 40
0
 40
0
 40
0
 40
1
 40
1
 40
1
 40
1
 10
129.406914
 20
58.180283
 30
0.0
 10
129.062679
 20
57.035603
 30
0.0
 10
127.950669
 20
54.013995
 30
0.0
 10
126.935762
 20
51.465593
 30
0.0
  0
SPLINE
  5
194
100
AcDbEntity
  8
Calque_1
 62
7
100
AcDbSpline
 70
8
 71
3
 72
8
 73
4
 74
0
 40
0
 40
0
 40
0
 40
0
 40
1
 40
1
 40
1
 40
1
 10
126.935762
 20
51.465593
 30
0.0
 10
125.249259
 20
47.230807
 30
0.0
 10
124.211874
 20
45.139162
 30
0.0
 10
118.837997
 20
35.138265
 30
0.0
  0
SPLINE
  5
195
100
AcDbEntity
  8
Calque_1
 62
7
100
AcDbSpline
 70
8
 71
3
 72
8
 73
4
 74
0
 40
0
 40
0
 40
0
 40
0
 40
1
 40
1
 40
1
 40
1
 10
118.837997
 20
35.138265
 30
0.0
 10
117.859892
 20
33.317985
 30
0.0
 10
117.164829
 20
31.927950
 30
0.0
 10
117.293417
 20
32.049300
 30
0.0
  0
SPLINE
  5
196
100
AcDbEntity
  8
Calque_1
 62
7
100
AcDbSpline
 70
8
 71
3
 72
8
 73
4
 74
0
 40
0
 40
0
 40
0
 40
0
 40
1
 40
1
 40
1
 40
1
 10
117.293417
 20
32.049300
 30
0.0
 10
117.422012
 20
32.170635
 30
0.0
 10
118.488729
 20
33.362115
 30
0.0
 10
119.663912
 20
34.696980
 30
0.0
  0
LWPOLYLINE
  5
197
100
AcDbEntity
  8
Calque_1
 62
7
100
AcDbPolyline
 90
3
 70
0
 10
74.283595
 20
99.564937
 30
0.0
 10
76.367423
 20
99.564937
 30
0.0
 10
75.391703
 20
98.589225
 30
0.0
  0
SPLINE
  5
198
100
AcDbEntity
  8
Calque_1
 62
7
100
AcDbSpline
 70
8
 71
3
 72
8
 73
4
 74
0
 40
0
 40
0
 40
0
 40
0
 40
1
 40
1
 40
1
 40
1
 10
77.160562
 20
98.790188
 30
0.0
 10
77.260635
 20
99.094957
 30
0.0
 10
77.873310
 20
99.407167
 30
0.0
 10
78.522023
 20
99.483952
 30
0.0
  0
SPLINE
  5
199
100
AcDbEntity
  8
Calque_1
 62
7
100
AcDbSpline
 70
8
 71
3
 72
8
 73
4
 74
0
 40
0
 40
0
 40
0
 40
0
 40
1
 40
1
 40
1
 40
1
 10
78.522023
 20
99.483952
 30
0.0
 10
79.170750
 20
99.560760
 30
0.0
 10
79.701518
 20
99.791407
 30
0.0
 10
79.701518
 20
99.996510
 30
0.0
  0
SPLINE
  5
19a
100
AcDbEntity
  8
Calque_1
 62
7
100
AcDbSpline
 70
8
 71
3
 72
8
 73
4
 74
0
 40
0
 40
0
 40
0
 40
0
 40
1
 40
1
 40
1
 40
1
 10
79.701518
 20
99.996510
 30
0.0
 10
79.701518
 20
100.440322
 30
0.0
 10
80.563417
 20
100.352663
 30
0.0
 10
81.412987
 20
99.822450
 30
0.0
  0
SPLINE
  5
19b
100
AcDbEntity
  8
Calque_1
 62
7
100
AcDbSpline
 70
8
 71
3
 72
8
 73
4
 74
0
 40
0
 40
0
 40
0
 40
0
 40
1
 40
1
 40
1
 40
1
 10
81.412987
 20
99.822450
 30
0.0
 10
81.907305
 20
99.513953
 30
0.0
 10
81.871133
 20
99.358830
 30
0.0
 10
81.219863
 20
98.994368
 30
0.0
  0
SPLINE
  5
19c
100
AcDbEntity
  8
Calque_1
 62
7
100
AcDbSpline
 70
8
 71
3
 72
8
 73
4
 74
0
 40
0
 40
0
 40
0
 40
0
 40
1
 40
1
 40
1
 40
1
 10
81.219863
 20
98.994368
 30
0.0
 10
79.945275
 20
98.281065
 30
0.0
 10
76.943798
 20
98.130098
 30
0.0
 10
77.160562
 20
98.790188
 30
0.0
  0
LWPOLYLINE
  5
19d
100
AcDbEntity
  8
Calque_1
 62
7
100
AcDbPolyline
 90
1
 70
1
 10
119.663912
 20
34.696980
 30
0.0
  0
SPLINE
  5
19e
100
AcDbEntity
  8
Calque_1
 62
7
100
AcDbSpline
 70
8
 71
3
 72
8
 73
4
 74
0
 40
0
 40
0
 40
0
 40
0
 40
1
 40
1
 40
1
 40
1
 10
117.924270
 20
37.870110
 30
0.0
 10
118.102920
 20
38.159175
 30
0.0
 10
118.015335
 20
38.473582
 30
0.0
 10
117.729675
 20
38.568810
 30
0.0
  0
SPLINE
  5
19f
100
AcDbEntity
  8
Calque_1
 62
7
100
AcDbSpline
 70
8
 71
3
 72
8
 73
4
 74
0
 40
0
 40
0
 40
0
 40
0
 40
1
 40
1
 40
1
 40
1
 10
117.729675
 20
38.568810
 30
0.0
 10
117.444000
 20
38.664007
 30
0.0
 10
117.210278
 20
38.935695
 30
0.0
 10
117.210278
 20
39.172492
 30
0.0
  0
SPLINE
  5
1a0
100
AcDbEntity
  8
Calque_1
 62
7
100
AcDbSpline
 70
8
 71
3
 72
8
 73
4
 74
0
 40
0
 40
0
 40
0
 40
0
 40
1
 40
1
 40
1
 40
1
 10
117.210278
 20
39.172492
 30
0.0
 10
117.210278
 20
39.409297
 30
0.0
 10
117.408855
 20
39.480322
 30
0.0
 10
117.651547
 20
39.330315
 30
0.0
  0
SPLINE
  5
1a1
100
AcDbEntity
  8
Calque_1
 62
7
100
AcDbSpline
 70
8
 71
3
 72
8
 73
4
 74
0
 40
0
 40
0
 40
0
 40
0
 40
1
 40
1
 40
1
 40
1
 10
117.651547
 20
39.330315
 30
0.0
 10
117.894255
 20
39.180322
 30
0.0
 10
118.092825
 20
39.267915
 30
0.0
 10
118.092825
 20
39.524917
 30
0.0
  0
SPLINE
  5
1a2
100
AcDbEntity
  8
Calque_1
 62
7
100
AcDbSpline
 70
8
 71
3
 72
8
 73
4
 74
0
 40
0
 40
0
 40
0
 40
0
 40
1
 40
1
 40
1
 40
1
 10
118.092825
 20
39.524917
 30
0.0
 10
118.092825
 20
39.781942
 30
0.0
 10
117.844605
 20
40.004827
 30
0.0
 10
117.541230
 20
40.020210
 30
0.0
  0
SPLINE
  5
1a3
100
AcDbEntity
  8
Calque_1
 62
7
100
AcDbSpline
 70
8
 71
3
 72
8
 73
4
 74
0
 40
0
 40
0
 40
0
 40
0
 40
1
 40
1
 40
1
 40
1
 10
117.541230
 20
40.020210
 30
0.0
 10
117.237855
 20
40.035585
 30
0.0
 10
117.486030
 20
40.261027
 30
0.0
 10
118.092825
 20
40.521187
 30
0.0
  0
LWPOLYLINE
  5
1a4
100
AcDbEntity
  8
Calque_1
 62
7
100
AcDbPolyline
 90
1
 70
1
 10
77.160562
 20
98.790188
 30
0.0
  0
SPLINE
  5
1a5
100
AcDbEntity
  8
Calque_1
 62
7
100
AcDbSpline
 70
8
 71
3
 72
8
 73
4
 74
0
 40
0
 40
0
 40
0
 40
0
 40
1
 40
1
 40
1
 40
1
 10
118.092825
 20
41.331772
 30
0.0
 10
117.486067
 20
41.517465
 30
0.0
 10
117.188212
 20
41.710072
 30
0.0
 10
117.430920
 20
41.759812
 30
0.0
  0
SPLINE
  5
1a6
100
AcDbEntity
  8
Calque_1
 62
7
100
AcDbSpline
 70
8
 71
3
 72
8
 73
4
 74
0
 40
0
 40
0
 40
0
 40
0
 40
1
 40
1
 40
1
 40
1
 10
117.430920
 20
41.759812
 30
0.0
 10
117.673612
 20
41.809612
 30
0.0
 10
116.382877
 20
42.114135
 30
0.0
 10
114.562597
 20
42.436657
 30
0.0
  0
SPLINE
  5
1a7
100
AcDbEntity
  8
Calque_1
 62
7
100
AcDbSpline
 70
8
 71
3
 72
8
 73
4
 74
0
 40
0
 40
0
 40
0
 40
0
 40
1
 40
1
 40
1
 40
1
 10
114.562597
 20
42.436657
 30
0.0
 10
109.300942
 20
43.368930
 30
0.0
 10
107.412105
 20
43.806037
 30
0.0
 10
105.372457
 20
44.563335
 30
0.0
  0
SPLINE
  5
1a8
100
AcDbEntity
  8
Calque_1
 62
7
100
AcDbSpline
 70
8
 71
3
 72
8
 73
4
 74
0
 40
0
 40
0
 40
0
 40
0
 40
1
 40
1
 40
1
 40
1
 10
105.372457
 20
44.563335
 30
0.0
 10
102.947535
 20
45.463702
 30
0.0
 10
101.324212
 20
45.361620
 30
0.0
 10
101.324212
 20
44.308785
 30
0.0
  0
SPLINE
  5
1a9
100
AcDbEntity
  8
Calque_1
 62
7
100
AcDbSpline
 70
8
 71
3
 72
8
 73
4
 74
0
 40
0
 40
0
 40
0
 40
0
 40
1
 40
1
 40
1
 40
1
 10
101.324212
 20
44.308785
 30
0.0
 10
101.324212
 20
42.926782
 30
0.0
 10
100.502932
 20
43.467345
 30
0.0
 10
100.359292
 20
44.943892
 30
0.0
  0
SPLINE
  5
1aa
100
AcDbEntity
  8
Calque_1
 62
7
100
AcDbSpline
 70
8
 71
3
 72
8
 73
4
 74
0
 40
0
 40
0
 40
0
 40
0
 40
1
 40
1
 40
1
 40
1
 10
100.359292
 20
44.943892
 30
0.0
 10
100.242585
 20
46.143435
 30
0.0
 10
99.842182
 20
46.587682
 30
0.0
 10
97.793970
 20
47.790075
 30
0.0
  0
SPLINE
  5
1ab
100
AcDbEntity
  8
Calque_1
 62
7
100
AcDbSpline
 70
8
 71
3
 72
8
 73
4
 74
0
 40
0
 40
0
 40
0
 40
0
 40
1
 40
1
 40
1
 40
1
 10
97.793970
 20
47.790075
 30
0.0
 10
93.374542
 20
50.384452
 30
0.0
 10
92.100075
 20
51.024225
 30
0.0
 10
91.351335
 20
51.024225
 30
0.0
  0
SPLINE
  5
1ac
100
AcDbEntity
  8
Calque_1
 62
7
100
AcDbSpline
 70
8
 71
3
 72
8
 73
4
 74
0
 40
0
 40
0
 40
0
 40
0
 40
1
 40
1
 40
1
 40
1
 10
91.351335
 20
51.024225
 30
0.0
 10
90.501337
 20
51.024225
 30
0.0
 10
89.444377
 20
52.245420
 30
0.0
 10
89.423700
 20
53.251387
 30
0.0
  0
SPLINE
  5
1ad
100
AcDbEntity
  8
Calque_1
 62
7
100
AcDbSpline
 70
8
 71
3
 72
8
 73
4
 74
0
 40
0
 40
0
 40
0
 40
0
 40
1
 40
1
 40
1
 40
1
 10
89.423700
 20
53.251387
 30
0.0
 10
89.416200
 20
53.626860
 30
0.0
 10
88.596210
 20
54.719032
 30
0.0
 10
87.601995
 20
55.678425
 30
0.0
  0
SPLINE
  5
1ae
100
AcDbEntity
  8
Calque_1
 62
7
100
AcDbSpline
 70
8
 71
3
 72
8
 73
4
 74
0
 40
0
 40
0
 40
0
 40
0
 40
1
 40
1
 40
1
 40
1
 10
87.601995
 20
55.678425
 30
0.0
 10
85.717560
 20
57.496852
 30
0.0
 10
81.907905
 20
62.212605
 30
0.0
 10
81.907905
 20
62.726812
 30
0.0
  0
SPLINE
  5
1af
100
AcDbEntity
  8
Calque_1
 62
7
100
AcDbSpline
 70
8
 71
3
 72
8
 73
4
 74
0
 40
0
 40
0
 40
0
 40
0
 40
1
 40
1
 40
1
 40
1
 10
81.907905
 20
62.726812
 30
0.0
 10
81.907905
 20
62.889810
 30
0.0
 10
81.543577
 20
63.550267
 30
0.0
 10
81.098280
 20
64.194495
 30
0.0
  0
SPLINE
  5
1b0
100
AcDbEntity
  8
Calque_1
 62
7
100
AcDbSpline
 70
8
 71
3
 72
8
 73
4
 74
0
 40
0
 40
0
 40
0
 40
0
 40
1
 40
1
 40
1
 40
1
 10
81.098280
 20
64.194495
 30
0.0
 10
80.652982
 20
64.838715
 30
0.0
 10
79.830412
 20
66.815955
 30
0.0
 10
79.270342
 20
68.588355
 30
0.0
  0
SPLINE
  5
1b1
100
AcDbEntity
  8
Calque_1
 62
7
100
AcDbSpline
 70
8
 71
3
 72
8
 73
4
 74
0
 40
0
 40
0
 40
0
 40
0
 40
1
 40
1
 40
1
 40
1
 10
79.270342
 20
68.588355
 30
0.0
 10
78.272902
 20
71.744887
 30
0.0
 10
78.223942
 20
71.808172
 30
0.0
 10
76.880692
 20
71.677320
 30
0.0
  0
SPLINE
  5
1b2
100
AcDbEntity
  8
Calque_1
 62
7
100
AcDbSpline
 70
8
 71
3
 72
8
 73
4
 74
0
 40
0
 40
0
 40
0
 40
0
 40
1
 40
1
 40
1
 40
1
 10
76.880692
 20
71.677320
 30
0.0
 10
75.586140
 20
71.551207
 30
0.0
 10
75.512527
 20
71.444895
 30
0.0
 10
75.566002
 20
69.778605
 30
0.0
  0
SPLINE
  5
1b3
100
AcDbEntity
  8
Calque_1
 62
7
100
AcDbSpline
 70
8
 71
3
 72
8
 73
4
 74
0
 40
0
 40
0
 40
0
 40
0
 40
1
 40
1
 40
1
 40
1
 10
75.566002
 20
69.778605
 30
0.0
 10
75.650437
 20
67.147837
 30
0.0
 10
76.465507
 20
63.649717
 30
0.0
 10
77.038567
 20
63.458692
 30
0.0
  0
SPLINE
  5
1b4
100
AcDbEntity
  8
Calque_1
 62
7
100
AcDbSpline
 70
8
 71
3
 72
8
 73
4
 74
0
 40
0
 40
0
 40
0
 40
0
 40
1
 40
1
 40
1
 40
1
 10
77.038567
 20
63.458692
 30
0.0
 10
77.315520
 20
63.366382
 30
0.0
 10
78.049410
 20
62.764822
 30
0.0
 10
78.669427
 20
62.121922
 30
0.0
  0
SPLINE
  5
1b5
100
AcDbEntity
  8
Calque_1
 62
7
100
AcDbSpline
 70
8
 71
3
 72
8
 73
4
 74
0
 40
0
 40
0
 40
0
 40
0
 40
1
 40
1
 40
1
 40
1
 10
78.669427
 20
62.121922
 30
0.0
 10
79.418760
 20
61.344937
 30
0.0
 10
79.866637
 20
61.136640
 30
0.0
 10
80.005222
 20
61.500667
 30
0.0
  0
SPLINE
  5
1b6
100
AcDbEntity
  8
Calque_1
 62
7
100
AcDbSpline
 70
8
 71
3
 72
8
 73
4
 74
0
 40
0
 40
0
 40
0
 40
0
 40
1
 40
1
 40
1
 40
1
 10
80.005222
 20
61.500667
 30
0.0
 10
80.158522
 20
61.903365
 30
0.0
 10
80.407710
 20
61.854337
 30
0.0
 10
80.946547
 20
61.315492
 30
0.0
  0
SPLINE
  5
1b7
100
AcDbEntity
  8
Calque_1
 62
7
100
AcDbSpline
 70
8
 71
3
 72
8
 73
4
 74
0
 40
0
 40
0
 40
0
 40
0
 40
1
 40
1
 40
1
 40
1
 10
80.946547
 20
61.315492
 30
0.0
 10
81.480285
 20
60.781770
 30
0.0
 10
81.530595
 20
60.533055
 30
0.0
 10
81.131730
 20
60.400102
 30
0.0
  0
SPLINE
  5
1b8
100
AcDbEntity
  8
Calque_1
 62
7
100
AcDbSpline
 70
8
 71
3
 72
8
 73
4
 74
0
 40
0
 40
0
 40
0
 40
0
 40
1
 40
1
 40
1
 40
1
 10
81.131730
 20
60.400102
 30
0.0
 10
80.830515
 20
60.299655
 30
0.0
 10
80.584072
 20
59.952780
 30
0.0
 10
80.584072
 20
59.629177
 30
0.0
  0
SPLINE
  5
1b9
100
AcDbEntity
  8
Calque_1
 62
7
100
AcDbSpline
 70
8
 71
3
 72
8
 73
4
 74
0
 40
0
 40
0
 40
0
 40
0
 40
1
 40
1
 40
1
 40
1
 10
80.584072
 20
59.629177
 30
0.0
 10
80.584072
 20
59.305575
 30
0.0
 10
80.353222
 20
58.963852
 30
0.0
 10
80.071087
 20
58.869810
 30
0.0
  0
SPLINE
  5
1ba
100
AcDbEntity
  8
Calque_1
 62
7
100
AcDbSpline
 70
8
 71
3
 72
8
 73
4
 74
0
 40
0
 40
0
 40
0
 40
0
 40
1
 40
1
 40
1
 40
1
 10
80.071087
 20
58.869810
 30
0.0
 10
79.782112
 20
58.773495
 30
0.0
 10
80.270287
 20
57.986625
 30
0.0
 10
81.188992
 20
57.067920
 30
0.0
  0
SPLINE
  5
1bb
100
AcDbEntity
  8
Calque_1
 62
7
100
AcDbSpline
 70
8
 71
3
 72
8
 73
4
 74
0
 40
0
 40
0
 40
0
 40
0
 40
1
 40
1
 40
1
 40
1
 10
81.188992
 20
57.067920
 30
0.0
 10
82.085977
 20
56.170920
 30
0.0
 10
82.670550
 20
55.437022
 30
0.0
 10
82.488037
 20
55.437022
 30
0.0
  0
SPLINE
  5
1bc
100
AcDbEntity
  8
Calque_1
 62
7
100
AcDbSpline
 70
8
 71
3
 72
8
 73
4
 74
0
 40
0
 40
0
 40
0
 40
0
 40
1
 40
1
 40
1
 40
1
 10
82.488037
 20
55.437022
 30
0.0
 10
81.930810
 20
55.437022
 30
0.0
 10
87.270202
 20
50.181877
 30
0.0
 10
89.850937
 20
48.190275
 30
0.0
  0
SPLINE
  5
1bd
100
AcDbEntity
  8
Calque_1
 62
7
100
AcDbSpline
 70
8
 71
3
 72
8
 73
4
 74
0
 40
0
 40
0
 40
0
 40
0
 40
1
 40
1
 40
1
 40
1
 10
89.850937
 20
48.190275
 30
0.0
 10
93.104512
 20
45.679462
 30
0.0
 10
97.711860
 20
43.032607
 30
0.0
 10
98.004525
 20
43.506165
 30
0.0
  0
SPLINE
  5
1be
100
AcDbEntity
  8
Calque_1
 62
7
100
AcDbSpline
 70
8
 71
3
 72
8
 73
4
 74
0
 40
0
 40
0
 40
0
 40
0
 40
1
 40
1
 40
1
 40
1
 10
98.004525
 20
43.506165
 30
0.0
 10
98.134455
 20
43.716382
 30
0.0
 10
97.991250
 20
43.988947
 30
0.0
 10
97.686405
 20
44.111872
 30
0.0
  0
SPLINE
  5
1bf
100
AcDbEntity
  8
Calque_1
 62
7
100
AcDbSpline
 70
8
 71
3
 72
8
 73
4
 74
0
 40
0
 40
0
 40
0
 40
0
 40
1
 40
1
 40
1
 40
1
 10
97.686405
 20
44.111872
 30
0.0
 10
97.316572
 20
44.260980
 30
0.0
 10
97.361032
 20
44.346945
 30
0.0
 10
97.819950
 20
44.370187
 30
0.0
  0
SPLINE
  5
1c0
100
AcDbEntity
  8
Calque_1
 62
7
100
AcDbSpline
 70
8
 71
3
 72
8
 73
4
 74
0
 40
0
 40
0
 40
0
 40
0
 40
1
 40
1
 40
1
 40
1
 10
97.819950
 20
44.370187
 30
0.0
 10
98.198302
 20
44.389312
 30
0.0
 10
98.893305
 20
44.113485
 30
0.0
 10
99.364425
 20
43.757152
 30
0.0
  0
SPLINE
  5
1c1
100
AcDbEntity
  8
Calque_1
 62
7
100
AcDbSpline
 70
8
 71
3
 72
8
 73
4
 74
0
 40
0
 40
0
 40
0
 40
0
 40
1
 40
1
 40
1
 40
1
 10
99.364425
 20
43.757152
 30
0.0
 10
99.901860
 20
43.350652
 30
0.0
 10
100.003755
 20
43.104030
 30
0.0
 10
99.637890
 20
43.095225
 30
0.0
  0
SPLINE
  5
1c2
100
AcDbEntity
  8
Calque_1
 62
7
100
AcDbSpline
 70
8
 71
3
 72
8
 73
4
 74
0
 40
0
 40
0
 40
0
 40
0
 40
1
 40
1
 40
1
 40
1
 10
99.637890
 20
43.095225
 30
0.0
 10
98.654902
 20
43.071600
 30
0.0
 10
100.291560
 20
41.718052
 30
0.0
 10
101.429025
 20
41.613960
 30
0.0
  0
SPLINE
  5
1c3
100
AcDbEntity
  8
Calque_1
 62
7
100
AcDbSpline
 70
8
 71
3
 72
8
 73
4
 74
0
 40
0
 40
0
 40
0
 40
0
 40
1
 40
1
 40
1
 40
1
 10
101.429025
 20
41.613960
 30
0.0
 10
101.978130
 20
41.563710
 30
0.0
 10
102.940500
 20
41.177032
 30
0.0
 10
103.567627
 20
40.754685
 30
0.0
  0
SPLINE
  5
1c4
100
AcDbEntity
  8
Calque_1
 62
7
100
AcDbSpline
 70
8
 71
3
 72
8
 73
4
 74
0
 40
0
 40
0
 40
0
 40
0
 40
1
 40
1
 40
1
 40
1
 10
103.567627
 20
40.754685
 30
0.0
 10
104.194747
 20
40.332337
 30
0.0
 10
105.584782
 20
39.866932
 30
0.0
 10
106.656577
 20
39.720442
 30
0.0
  0
SPLINE
  5
1c5
100
AcDbEntity
  8
Calque_1
 62
7
100
AcDbSpline
 70
8
 71
3
 72
8
 73
4
 74
0
 40
0
 40
0
 40
0
 40
0
 40
1
 40
1
 40
1
 40
1
 10
106.656577
 20
39.720442
 30
0.0
 10
107.728387
 20
39.573937
 30
0.0
 10
109.140817
 20
39.141450
 30
0.0
 10
109.795327
 20
38.759347
 30
0.0
  0
SPLINE
  5
1c6
100
AcDbEntity
  8
Calque_1
 62
7
100
AcDbSpline
 70
8
 71
3
 72
8
 73
4
 74
0
 40
0
 40
0
 40
0
 40
0
 40
1
 40
1
 40
1
 40
1
 10
109.795327
 20
38.759347
 30
0.0
 10
110.779650
 20
38.184697
 30
0.0
 10
111.273457
 20
38.153032
 30
0.0
 10
112.652227
 20
38.576190
 30
0.0
  0
SPLINE
  5
1c7
100
AcDbEntity
  8
Calque_1
 62
7
100
AcDbSpline
 70
8
 71
3
 72
8
 73
4
 74
0
 40
0
 40
0
 40
0
 40
0
 40
1
 40
1
 40
1
 40
1
 10
112.652227
 20
38.576190
 30
0.0
 10
114.039345
 20
39.001912
 30
0.0
 10
114.380505
 20
38.978100
 30
0.0
 10
114.684855
 20
38.434267
 30
0.0
  0
SPLINE
  5
1c8
100
AcDbEntity
  8
Calque_1
 62
7
100
AcDbSpline
 70
8
 71
3
 72
8
 73
4
 74
0
 40
0
 40
0
 40
0
 40
0
 40
1
 40
1
 40
1
 40
1
 10
114.684855
 20
38.434267
 30
0.0
 10
114.935932
 20
37.985617
 30
0.0
 10
115.409722
 20
37.870890
 30
0.0
 10
116.196247
 20
38.068290
 30
0.0
  0
SPLINE
  5
1c9
100
AcDbEntity
  8
Calque_1
 62
7
100
AcDbSpline
 70
8
 71
3
 72
8
 73
4
 74
0
 40
0
 40
0
 40
0
 40
0
 40
1
 40
1
 40
1
 40
1
 10
116.196247
 20
38.068290
 30
0.0
 10
116.999865
 20
38.269995
 30
0.0
 10
117.248617
 20
38.204872
 30
0.0
 10
117.029415
 20
37.850197
 30
0.0
  0
SPLINE
  5
1ca
100
AcDbEntity
  8
Calque_1
 62
7
100
AcDbSpline
 70
8
 71
3
 72
8
 73
4
 74
0
 40
0
 40
0
 40
0
 40
0
 40
1
 40
1
 40
1
 40
1
 10
117.029415
 20
37.850197
 30
0.0
 10
116.857530
 20
37.572105
 30
0.0
 10
116.915460
 20
37.344562
 30
0.0
 10
117.158190
 20
37.344562
 30
0.0
  0
SPLINE
  5
1cb
100
AcDbEntity
  8
Calque_1
 62
7
100
AcDbSpline
 70
8
 71
3
 72
8
 73
4
 74
0
 40
0
 40
0
 40
0
 40
0
 40
1
 40
1
 40
1
 40
1
 10
117.158190
 20
37.344562
 30
0.0
 10
117.400897
 20
37.344562
 30
0.0
 10
117.745635
 20
37.581060
 30
0.0
 10
117.924270
 20
37.870110
 30
0.0
  0
LWPOLYLINE
  5
1cc
100
AcDbEntity
  8
Calque_1
 62
7
100
AcDbPolyline
 90
3
 70
0
 10
118.092825
 20
40.521187
 30
0.0
 10
119.196030
 20
40.994175
 30
0.0
 10
118.092825
 20
41.331772
 30
0.0
  0
SPLINE
  5
1cd
100
AcDbEntity
  8
Calque_1
 62
7
100
AcDbSpline
 70
8
 71
3
 72
8
 73
4
 74
0
 40
0
 40
0
 40
0
 40
0
 40
1
 40
1
 40
1
 40
1
 10
104.854447
 20
42.393240
 30
0.0
 10
104.854447
 20
42.771615
 30
0.0
 10
105.053025
 20
43.081192
 30
0.0
 10
105.295732
 20
43.081192
 30
0.0
  0
SPLINE
  5
1ce
100
AcDbEntity
  8
Calque_1
 62
7
100
AcDbSpline
 70
8
 71
3
 72
8
 73
4
 74
0
 40
0
 40
0
 40
0
 40
0
 40
1
 40
1
 40
1
 40
1
 10
105.295732
 20
43.081192
 30
0.0
 10
105.538425
 20
43.081192
 30
0.0
 10
105.737002
 20
42.894337
 30
0.0
 10
105.737002
 20
42.665962
 30
0.0
  0
SPLINE
  5
1cf
100
AcDbEntity
  8
Calque_1
 62
7
100
AcDbSpline
 70
8
 71
3
 72
8
 73
4
 74
0
 40
0
 40
0
 40
0
 40
0
 40
1
 40
1
 40
1
 40
1
 10
105.737002
 20
42.665962
 30
0.0
 10
105.737002
 20
42.437580
 30
0.0
 10
105.538425
 20
42.128003
 30
0.0
 10
105.295732
 20
41.978003
 30
0.0
  0
SPLINE
  5
1d0
100
AcDbEntity
  8
Calque_1
 62
7
100
AcDbSpline
 70
8
 71
3
 72
8
 73
4
 74
0
 40
0
 40
0
 40
0
 40
0
 40
1
 40
1
 40
1
 40
1
 10
105.295732
 20
41.978003
 30
0.0
 10
105.053025
 20
41.827995
 30
0.0
 10
104.854447
 20
42.014903
 30
0.0
 10
104.854447
 20
42.393240
 30
0.0
  0
LWPOLYLINE
  5
1d1
100
AcDbEntity
  8
Calque_1
 62
7
100
AcDbPolyline
 90
1
 70
1
 10
117.924270
 20
37.870110
 30
0.0
  0
SPLINE
  5
1d2
100
AcDbEntity
  8
Calque_1
 62
7
100
AcDbSpline
 70
8
 71
3
 72
8
 73
4
 74
0
 40
0
 40
0
 40
0
 40
0
 40
1
 40
1
 40
1
 40
1
 10
101.544855
 20
43.081192
 30
0.0
 10
101.694848
 20
43.323900
 30
0.0
 10
101.905140
 20
43.522477
 30
0.0
 10
102.012165
 20
43.522477
 30
0.0
  0
SPLINE
  5
1d3
100
AcDbEntity
  8
Calque_1
 62
7
100
AcDbSpline
 70
8
 71
3
 72
8
 73
4
 74
0
 40
0
 40
0
 40
0
 40
0
 40
1
 40
1
 40
1
 40
1
 10
102.012165
 20
43.522477
 30
0.0
 10
102.119242
 20
43.522477
 30
0.0
 10
102.206767
 20
43.323900
 30
0.0
 10
102.206767
 20
43.081192
 30
0.0
  0
SPLINE
  5
1d4
100
AcDbEntity
  8
Calque_1
 62
7
100
AcDbSpline
 70
8
 71
3
 72
8
 73
4
 74
0
 40
0
 40
0
 40
0
 40
0
 40
1
 40
1
 40
1
 40
1
 10
102.206767
 20
43.081192
 30
0.0
 10
102.206767
 20
42.838500
 30
0.0
 10
101.996467
 20
42.639923
 30
0.0
 10
101.739442
 20
42.639923
 30
0.0
  0
SPLINE
  5
1d5
100
AcDbEntity
  8
Calque_1
 62
7
100
AcDbSpline
 70
8
 71
3
 72
8
 73
4
 74
0
 40
0
 40
0
 40
0
 40
0
 40
1
 40
1
 40
1
 40
1
 10
101.739442
 20
42.639923
 30
0.0
 10
101.482410
 20
42.639923
 30
0.0
 10
101.394847
 20
42.838500
 30
0.0
 10
101.544855
 20
43.081192
 30
0.0
  0
LWPOLYLINE
  5
1d6
100
AcDbEntity
  8
Calque_1
 62
7
100
AcDbPolyline
 90
1
 70
1
 10
104.854447
 20
42.393240
 30
0.0
  0
SPLINE
  5
1d7
100
AcDbEntity
  8
Calque_1
 62
7
100
AcDbSpline
 70
8
 71
3
 72
8
 73
4
 74
0
 40
0
 40
0
 40
0
 40
0
 40
1
 40
1
 40
1
 40
1
 10
129.903577
 20
38.942850
 30
0.0
 10
130.238047
 20
39.277305
 30
0.0
 10
130.795748
 20
39.550958
 30
0.0
 10
131.142930
 20
39.550958
 30
0.0
  0
SPLINE
  5
1d8
100
AcDbEntity
  8
Calque_1
 62
7
100
AcDbSpline
 70
8
 71
3
 72
8
 73
4
 74
0
 40
0
 40
0
 40
0
 40
0
 40
1
 40
1
 40
1
 40
1
 10
131.142930
 20
39.550958
 30
0.0
 10
131.490097
 20
39.550958
 30
0.0
 10
133.511317
 20
40.167090
 30
0.0
 10
135.634515
 20
40.920135
 30
0.0
  0
SPLINE
  5
1d9
100
AcDbEntity
  8
Calque_1
 62
7
100
AcDbSpline
 70
8
 71
3
 72
8
 73
4
 74
0
 40
0
 40
0
 40
0
 40
0
 40
1
 40
1
 40
1
 40
1
 10
135.634515
 20
40.920135
 30
0.0
 10
137.757720
 20
41.673188
 30
0.0
 10
139.792747
 20
42.301200
 30
0.0
 10
140.156805
 20
42.315713
 30
0.0
  0
SPLINE
  5
1da
100
AcDbEntity
  8
Calque_1
 62
7
100
AcDbSpline
 70
8
 71
3
 72
8
 73
4
 74
0
 40
0
 40
0
 40
0
 40
0
 40
1
 40
1
 40
1
 40
1
 10
140.156805
 20
42.315713
 30
0.0
 10
140.520855
 20
42.330187
 30
0.0
 10
141.031785
 20
42.631140
 30
0.0
 10
141.292185
 20
42.984390
 30
0.0
  0
SPLINE
  5
1db
100
AcDbEntity
  8
Calque_1
 62
7
100
AcDbSpline
 70
8
 71
3
 72
8
 73
4
 74
0
 40
0
 40
0
 40
0
 40
0
 40
1
 40
1
 40
1
 40
1
 10
141.292185
 20
42.984390
 30
0.0
 10
141.552585
 20
43.337655
 30
0.0
 10
142.290667
 20
43.684313
 30
0.0
 10
142.932352
 20
43.754760
 30
0.0
  0
SPLINE
  5
1dc
100
AcDbEntity
  8
Calque_1
 62
7
100
AcDbSpline
 70
8
 71
3
 72
8
 73
4
 74
0
 40
0
 40
0
 40
0
 40
0
 40
1
 40
1
 40
1
 40
1
 10
142.932352
 20
43.754760
 30
0.0
 10
144.197602
 20
43.893645
 30
0.0
 10
146.775997
 20
45.534098
 30
0.0
 10
146.775997
 20
46.200203
 30
0.0
  0
SPLINE
  5
1dd
100
AcDbEntity
  8
Calque_1
 62
7
100
AcDbSpline
 70
8
 71
3
 72
8
 73
4
 74
0
 40
0
 40
0
 40
0
 40
0
 40
1
 40
1
 40
1
 40
1
 10
146.775997
 20
46.200203
 30
0.0
 10
146.775997
 20
46.426373
 30
0.0
 10
147.073860
 20
46.611435
 30
0.0
 10
147.437910
 20
46.611435
 30
0.0
  0
SPLINE
  5
1de
100
AcDbEntity
  8
Calque_1
 62
7
100
AcDbSpline
 70
8
 71
3
 72
8
 73
4
 74
0
 40
0
 40
0
 40
0
 40
0
 40
1
 40
1
 40
1
 40
1
 10
147.437910
 20
46.611435
 30
0.0
 10
147.801975
 20
46.611435
 30
0.0
 10
148.099837
 20
46.810012
 30
0.0
 10
148.099837
 20
47.052705
 30
0.0
  0
SPLINE
  5
1df
100
AcDbEntity
  8
Calque_1
 62
7
100
AcDbSpline
 70
8
 71
3
 72
8
 73
4
 74
0
 40
0
 40
0
 40
0
 40
0
 40
1
 40
1
 40
1
 40
1
 10
148.099837
 20
47.052705
 30
0.0
 10
148.099837
 20
47.295412
 30
0.0
 10
148.418947
 20
47.493990
 30
0.0
 10
148.808970
 20
47.493990
 30
0.0
  0
SPLINE
  5
1e0
100
AcDbEntity
  8
Calque_1
 62
7
100
AcDbSpline
 70
8
 71
3
 72
8
 73
4
 74
0
 40
0
 40
0
 40
0
 40
0
 40
1
 40
1
 40
1
 40
1
 10
148.808970
 20
47.493990
 30
0.0
 10
149.266237
 20
47.493990
 30
0.0
 10
149.425470
 20
47.735385
 30
0.0
 10
149.257290
 20
48.173640
 30
0.0
  0
SPLINE
  5
1e1
100
AcDbEntity
  8
Calque_1
 62
7
100
AcDbSpline
 70
8
 71
3
 72
8
 73
4
 74
0
 40
0
 40
0
 40
0
 40
0
 40
1
 40
1
 40
1
 40
1
 10
149.257290
 20
48.173640
 30
0.0
 10
149.101057
 20
48.580800
 30
0.0
 10
149.214765
 20
48.807743
 30
0.0
 10
149.541037
 20
48.739695
 30
0.0
  0
SPLINE
  5
1e2
100
AcDbEntity
  8
Calque_1
 62
7
100
AcDbSpline
 70
8
 71
3
 72
8
 73
4
 74
0
 40
0
 40
0
 40
0
 40
0
 40
1
 40
1
 40
1
 40
1
 10
149.541037
 20
48.739695
 30
0.0
 10
149.840550
 20
48.677295
 30
0.0
 10
150.780615
 20
49.291658
 30
0.0
 10
151.630065
 20
50.105108
 30
0.0
  0
SPLINE
  5
1e3
100
AcDbEntity
  8
Calque_1
 62
7
100
AcDbSpline
 70
8
 71
3
 72
8
 73
4
 74
0
 40
0
 40
0
 40
0
 40
0
 40
1
 40
1
 40
1
 40
1
 10
151.630065
 20
50.105108
 30
0.0
 10
152.479537
 20
50.918550
 30
0.0
 10
152.847503
 20
51.472208
 30
0.0
 10
152.447775
 20
51.335453
 30
0.0
  0
SPLINE
  5
1e4
100
AcDbEntity
  8
Calque_1
 62
7
100
AcDbSpline
 70
8
 71
3
 72
8
 73
4
 74
0
 40
0
 40
0
 40
0
 40
0
 40
1
 40
1
 40
1
 40
1
 10
152.447775
 20
51.335453
 30
0.0
 10
151.933065
 20
51.159368
 30
0.0
 10
151.662262
 20
51.393953
 30
0.0
 10
151.519755
 20
52.139535
 30
0.0
  0
SPLINE
  5
1e5
100
AcDbEntity
  8
Calque_1
 62
7
100
AcDbSpline
 70
8
 71
3
 72
8
 73
4
 74
0
 40
0
 40
0
 40
0
 40
0
 40
1
 40
1
 40
1
 40
1
 10
151.519755
 20
52.139535
 30
0.0
 10
151.348185
 20
53.037023
 30
0.0
 10
151.434818
 20
53.130015
 30
0.0
 10
152.107200
 20
52.770165
 30
0.0
  0
SPLINE
  5
1e6
100
AcDbEntity
  8
Calque_1
 62
7
100
AcDbSpline
 70
8
 71
3
 72
8
 73
4
 74
0
 40
0
 40
0
 40
0
 40
0
 40
1
 40
1
 40
1
 40
1
 10
152.107200
 20
52.770165
 30
0.0
 10
153.349418
 20
52.105335
 30
0.0
 10
154.457753
 20
52.271978
 30
0.0
 10
155.294633
 20
53.249400
 30
0.0
  0
SPLINE
  5
1e7
100
AcDbEntity
  8
Calque_1
 62
7
100
AcDbSpline
 70
8
 71
3
 72
8
 73
4
 74
0
 40
0
 40
0
 40
0
 40
0
 40
1
 40
1
 40
1
 40
1
 10
155.294633
 20
53.249400
 30
0.0
 10
155.719088
 20
53.745128
 30
0.0
 10
156.257393
 20
54.032678
 30
0.0
 10
156.490853
 20
53.888408
 30
0.0
  0
SPLINE
  5
1e8
100
AcDbEntity
  8
Calque_1
 62
7
100
AcDbSpline
 70
8
 71
3
 72
8
 73
4
 74
0
 40
0
 40
0
 40
0
 40
0
 40
1
 40
1
 40
1
 40
1
 10
156.490853
 20
53.888408
 30
0.0
 10
156.724305
 20
53.744115
 30
0.0
 10
156.803243
 20
53.918183
 30
0.0
 10
156.666263
 20
54.275085
 30
0.0
  0
SPLINE
  5
1e9
100
AcDbEntity
  8
Calque_1
 62
7
100
AcDbSpline
 70
8
 71
3
 72
8
 73
4
 74
0
 40
0
 40
0
 40
0
 40
0
 40
1
 40
1
 40
1
 40
1
 10
156.666263
 20
54.275085
 30
0.0
 10
156.520072
 20
54.656063
 30
0.0
 10
156.977782
 20
55.459815
 30
0.0
 10
157.774522
 20
56.221215
 30
0.0
  0
SPLINE
  5
1ea
100
AcDbEntity
  8
Calque_1
 62
7
100
AcDbSpline
 70
8
 71
3
 72
8
 73
4
 74
0
 40
0
 40
0
 40
0
 40
0
 40
1
 40
1
 40
1
 40
1
 10
157.774522
 20
56.221215
 30
0.0
 10
158.521028
 20
56.934630
 30
0.0
 10
159.131820
 20
57.659633
 30
0.0
 10
159.131820
 20
57.832328
 30
0.0
  0
SPLINE
  5
1eb
100
AcDbEntity
  8
Calque_1
 62
7
100
AcDbSpline
 70
8
 71
3
 72
8
 73
4
 74
0
 40
0
 40
0
 40
0
 40
0
 40
1
 40
1
 40
1
 40
1
 10
159.131820
 20
57.832328
 30
0.0
 10
159.131820
 20
58.005022
 30
0.0
 10
159.716115
 20
58.995563
 30
0.0
 10
160.430243
 20
60.033525
 30
0.0
  0
SPLINE
  5
1ec
100
AcDbEntity
  8
Calque_1
 62
7
100
AcDbSpline
 70
8
 71
3
 72
8
 73
4
 74
0
 40
0
 40
0
 40
0
 40
0
 40
1
 40
1
 40
1
 40
1
 10
160.430243
 20
60.033525
 30
0.0
 10
161.947575
 20
62.238885
 30
0.0
 10
162.590265
 20
64.262618
 30
0.0
 10
161.773305
 20
64.262618
 30
0.0
  0
SPLINE
  5
1ed
100
AcDbEntity
  8
Calque_1
 62
7
100
AcDbSpline
 70
8
 71
3
 72
8
 73
4
 74
0
 40
0
 40
0
 40
0
 40
0
 40
1
 40
1
 40
1
 40
1
 10
161.773305
 20
64.262618
 30
0.0
 10
161.346045
 20
64.262618
 30
0.0
 10
161.347373
 20
64.403843
 30
0.0
 10
161.779305
 20
64.924530
 30
0.0
  0
SPLINE
  5
1ee
100
AcDbEntity
  8
Calque_1
 62
7
100
AcDbSpline
 70
8
 71
3
 72
8
 73
4
 74
0
 40
0
 40
0
 40
0
 40
0
 40
1
 40
1
 40
1
 40
1
 10
161.779305
 20
64.924530
 30
0.0
 10
162.234825
 20
65.473395
 30
0.0
 10
162.185452
 20
65.586450
 30
0.0
 10
161.490240
 20
65.586450
 30
0.0
  0
SPLINE
  5
1ef
100
AcDbEntity
  8
Calque_1
 62
7
100
AcDbSpline
 70
8
 71
3
 72
8
 73
4
 74
0
 40
0
 40
0
 40
0
 40
0
 40
1
 40
1
 40
1
 40
1
 10
161.490240
 20
65.586450
 30
0.0
 10
160.273995
 20
65.586450
 30
0.0
 10
157.909245
 20
63.891998
 30
0.0
 10
155.697158
 20
61.435433
 30
0.0
  0
SPLINE
  5
1f0
100
AcDbEntity
  8
Calque_1
 62
7
100
AcDbSpline
 70
8
 71
3
 72
8
 73
4
 74
0
 40
0
 40
0
 40
0
 40
0
 40
1
 40
1
 40
1
 40
1
 10
155.697158
 20
61.435433
 30
0.0
 10
152.573745
 20
57.966818
 30
0.0
 10
152.079840
 20
57.272700
 30
0.0
 10
152.608823
 20
57.095123
 30
0.0
  0
SPLINE
  5
1f1
100
AcDbEntity
  8
Calque_1
 62
7
100
AcDbSpline
 70
8
 71
3
 72
8
 73
4
 74
0
 40
0
 40
0
 40
0
 40
0
 40
1
 40
1
 40
1
 40
1
 10
152.608823
 20
57.095123
 30
0.0
 10
153.422775
 20
56.821883
 30
0.0
 10
152.156678
 20
54.565140
 30
0.0
 10
150.927188
 20
54.097673
 30
0.0
  0
SPLINE
  5
1f2
100
AcDbEntity
  8
Calque_1
 62
7
100
AcDbSpline
 70
8
 71
3
 72
8
 73
4
 74
0
 40
0
 40
0
 40
0
 40
0
 40
1
 40
1
 40
1
 40
1
 10
150.927188
 20
54.097673
 30
0.0
 10
150.409050
 20
53.900693
 30
0.0
 10
149.856338
 20
53.403908
 30
0.0
 10
149.698935
 20
52.993718
 30
0.0
  0
SPLINE
  5
1f3
100
AcDbEntity
  8
Calque_1
 62
7
100
AcDbSpline
 70
8
 71
3
 72
8
 73
4
 74
0
 40
0
 40
0
 40
0
 40
0
 40
1
 40
1
 40
1
 40
1
 10
149.698935
 20
52.993718
 30
0.0
 10
149.513880
 20
52.511475
 30
0.0
 10
149.102940
 20
52.328955
 30
0.0
 10
148.536000
 20
52.477208
 30
0.0
  0
SPLINE
  5
1f4
100
AcDbEntity
  8
Calque_1
 62
7
100
AcDbSpline
 70
8
 71
3
 72
8
 73
4
 74
0
 40
0
 40
0
 40
0
 40
0
 40
1
 40
1
 40
1
 40
1
 10
148.536000
 20
52.477208
 30
0.0
 10
148.053787
 20
52.603313
 30
0.0
 10
147.529073
 20
52.495883
 30
0.0
 10
147.369975
 20
52.238460
 30
0.0
  0
SPLINE
  5
1f5
100
AcDbEntity
  8
Calque_1
 62
7
100
AcDbSpline
 70
8
 71
3
 72
8
 73
4
 74
0
 40
0
 40
0
 40
0
 40
0
 40
1
 40
1
 40
1
 40
1
 10
147.369975
 20
52.238460
 30
0.0
 10
147.187710
 20
51.943538
 30
0.0
 10
147.294420
 20
51.902475
 30
0.0
 10
147.658358
 20
52.127378
 30
0.0
  0
SPLINE
  5
1f6
100
AcDbEntity
  8
Calque_1
 62
7
100
AcDbSpline
 70
8
 71
3
 72
8
 73
4
 74
0
 40
0
 40
0
 40
0
 40
0
 40
1
 40
1
 40
1
 40
1
 10
147.658358
 20
52.127378
 30
0.0
 10
148.043453
 20
52.365368
 30
0.0
 10
148.129560
 20
52.312155
 30
0.0
 10
147.916688
 20
51.967718
 30
0.0
  0
SPLINE
  5
1f7
100
AcDbEntity
  8
Calque_1
 62
7
100
AcDbSpline
 70
8
 71
3
 72
8
 73
4
 74
0
 40
0
 40
0
 40
0
 40
0
 40
1
 40
1
 40
1
 40
1
 10
147.916688
 20
51.967718
 30
0.0
 10
147.741068
 20
51.683558
 30
0.0
 10
147.411165
 20
51.566138
 30
0.0
 10
147.183578
 20
51.706800
 30
0.0
  0
SPLINE
  5
1f8
100
AcDbEntity
  8
Calque_1
 62
7
100
AcDbSpline
 70
8
 71
3
 72
8
 73
4
 74
0
 40
0
 40
0
 40
0
 40
0
 40
1
 40
1
 40
1
 40
1
 10
147.183578
 20
51.706800
 30
0.0
 10
146.611455
 20
52.060380
 30
0.0
 10
144.138345
 20
50.233613
 30
0.0
 10
144.296370
 20
49.574160
 30
0.0
  0
SPLINE
  5
1f9
100
AcDbEntity
  8
Calque_1
 62
7
100
AcDbSpline
 70
8
 71
3
 72
8
 73
4
 74
0
 40
0
 40
0
 40
0
 40
0
 40
1
 40
1
 40
1
 40
1
 10
144.296370
 20
49.574160
 30
0.0
 10
144.366945
 20
49.279508
 30
0.0
 10
144.346620
 20
49.171920
 30
0.0
 10
144.251070
 20
49.335098
 30
0.0
  0
SPLINE
  5
1fa
100
AcDbEntity
  8
Calque_1
 62
7
100
AcDbSpline
 70
8
 71
3
 72
8
 73
4
 74
0
 40
0
 40
0
 40
0
 40
0
 40
1
 40
1
 40
1
 40
1
 10
144.251070
 20
49.335098
 30
0.0
 10
144.059453
 20
49.662473
 30
0.0
 10
139.582673
 20
47.481533
 30
0.0
 10
139.347585
 20
46.946280
 30
0.0
  0
SPLINE
  5
1fb
100
AcDbEntity
  8
Calque_1
 62
7
100
AcDbSpline
 70
8
 71
3
 72
8
 73
4
 74
0
 40
0
 40
0
 40
0
 40
0
 40
1
 40
1
 40
1
 40
1
 10
139.347585
 20
46.946280
 30
0.0
 10
139.266653
 20
46.762080
 30
0.0
 10
138.998828
 20
46.611390
 30
0.0
 10
138.752355
 20
46.611390
 30
0.0
  0
SPLINE
  5
1fc
100
AcDbEntity
  8
Calque_1
 62
7
100
AcDbSpline
 70
8
 71
3
 72
8
 73
4
 74
0
 40
0
 40
0
 40
0
 40
0
 40
1
 40
1
 40
1
 40
1
 10
138.752355
 20
46.611390
 30
0.0
 10
138.505875
 20
46.611390
 30
0.0
 10
137.678468
 20
46.328092
 30
0.0
 10
136.913685
 20
45.981840
 30
0.0
  0
SPLINE
  5
1fd
100
AcDbEntity
  8
Calque_1
 62
7
100
AcDbSpline
 70
8
 71
3
 72
8
 73
4
 74
0
 40
0
 40
0
 40
0
 40
0
 40
1
 40
1
 40
1
 40
1
 10
136.913685
 20
45.981840
 30
0.0
 10
134.360175
 20
44.825768
 30
0.0
 10
129.351098
 20
43.202078
 30
0.0
 10
128.870227
 20
43.374562
 30
0.0
  0
SPLINE
  5
1fe
100
AcDbEntity
  8
Calque_1
 62
7
100
AcDbSpline
 70
8
 71
3
 72
8
 73
4
 74
0
 40
0
 40
0
 40
0
 40
0
 40
1
 40
1
 40
1
 40
1
 10
128.870227
 20
43.374562
 30
0.0
 10
128.088232
 20
43.655018
 30
0.0
 10
126.038543
 20
41.440823
 30
0.0
 10
125.751480
 20
40.005503
 30
0.0
  0
SPLINE
  5
1ff
100
AcDbEntity
  8
Calque_1
 62
7
100
AcDbSpline
 70
8
 71
3
 72
8
 73
4
 74
0
 40
0
 40
0
 40
0
 40
0
 40
1
 40
1
 40
1
 40
1
 10
125.751480
 20
40.005503
 30
0.0
 10
125.604397
 20
39.270075
 30
0.0
 10
125.260650
 20
38.648558
 30
0.0
 10
124.987612
 20
38.624363
 30
0.0
  0
SPLINE
  5
200
100
AcDbEntity
  8
Calque_1
 62
7
100
AcDbSpline
 70
8
 71
3
 72
8
 73
4
 74
0
 40
0
 40
0
 40
0
 40
0
 40
1
 40
1
 40
1
 40
1
 10
124.987612
 20
38.624363
 30
0.0
 10
124.714568
 20
38.600213
 30
0.0
 10
124.987612
 20
38.419418
 30
0.0
 10
125.594370
 20
38.222708
 30
0.0
  0
SPLINE
  5
201
100
AcDbEntity
  8
Calque_1
 62
7
100
AcDbSpline
 70
8
 71
3
 72
8
 73
4
 74
0
 40
0
 40
0
 40
0
 40
0
 40
1
 40
1
 40
1
 40
1
 10
125.594370
 20
38.222708
 30
0.0
 10
126.963622
 20
37.778760
 30
0.0
 10
129.095632
 20
38.135025
 30
0.0
 10
129.903368
 20
38.942798
 30
0.0
  0
LWPOLYLINE
  5
202
100
AcDbEntity
  8
Calque_1
 62
7
100
AcDbPolyline
 90
1
 70
1
 10
101.544855
 20
43.081192
 30
0.0
  0
SPLINE
  5
203
100
AcDbEntity
  8
Calque_1
 62
7
100
AcDbSpline
 70
8
 71
3
 72
8
 73
4
 74
0
 40
0
 40
0
 40
0
 40
0
 40
1
 40
1
 40
1
 40
1
 10
142.804485
 20
46.170158
 30
0.0
 10
142.804485
 20
46.412865
 30
0.0
 10
143.003062
 20
46.611435
 30
0.0
 10
143.245755
 20
46.611435
 30
0.0
  0
SPLINE
  5
204
100
AcDbEntity
  8
Calque_1
 62
7
100
AcDbSpline
 70
8
 71
3
 72
8
 73
4
 74
0
 40
0
 40
0
 40
0
 40
0
 40
1
 40
1
 40
1
 40
1
 10
143.245755
 20
46.611435
 30
0.0
 10
143.488462
 20
46.611435
 30
0.0
 10
143.687040
 20
46.412865
 30
0.0
 10
143.687040
 20
46.170158
 30
0.0
  0
SPLINE
  5
205
100
AcDbEntity
  8
Calque_1
 62
7
100
AcDbSpline
 70
8
 71
3
 72
8
 73
4
 74
0
 40
0
 40
0
 40
0
 40
0
 40
1
 40
1
 40
1
 40
1
 10
143.687040
 20
46.170158
 30
0.0
 10
143.687040
 20
45.927450
 30
0.0
 10
143.488462
 20
45.728873
 30
0.0
 10
143.245755
 20
45.728873
 30
0.0
  0
SPLINE
  5
206
100
AcDbEntity
  8
Calque_1
 62
7
100
AcDbSpline
 70
8
 71
3
 72
8
 73
4
 74
0
 40
0
 40
0
 40
0
 40
0
 40
1
 40
1
 40
1
 40
1
 10
143.245755
 20
45.728873
 30
0.0
 10
143.003062
 20
45.728873
 30
0.0
 10
142.804485
 20
45.927450
 30
0.0
 10
142.804485
 20
46.170158
 30
0.0
  0
LWPOLYLINE
  5
207
100
AcDbEntity
  8
Calque_1
 62
7
100
AcDbPolyline
 90
2
 70
0
 10
129.903368
 20
38.942798
 30
0.0
 10
129.903577
 20
38.942850
 30
0.0
  0
SPLINE
  5
208
100
AcDbEntity
  8
Calque_1
 62
7
100
AcDbSpline
 70
8
 71
3
 72
8
 73
4
 74
0
 40
0
 40
0
 40
0
 40
0
 40
1
 40
1
 40
1
 40
1
 10
143.245755
 20
47.535308
 30
0.0
 10
143.245755
 20
47.755282
 30
0.0
 10
143.642910
 20
47.935275
 30
0.0
 10
144.128317
 20
47.935275
 30
0.0
  0
SPLINE
  5
209
100
AcDbEntity
  8
Calque_1
 62
7
100
AcDbSpline
 70
8
 71
3
 72
8
 73
4
 74
0
 40
0
 40
0
 40
0
 40
0
 40
1
 40
1
 40
1
 40
1
 10
144.128317
 20
47.935275
 30
0.0
 10
144.613732
 20
47.935275
 30
0.0
 10
145.010887
 20
47.859097
 30
0.0
 10
145.010887
 20
47.766090
 30
0.0
  0
SPLINE
  5
20a
100
AcDbEntity
  8
Calque_1
 62
7
100
AcDbSpline
 70
8
 71
3
 72
8
 73
4
 74
0
 40
0
 40
0
 40
0
 40
0
 40
1
 40
1
 40
1
 40
1
 10
145.010887
 20
47.766090
 30
0.0
 10
145.010887
 20
47.673030
 30
0.0
 10
144.613732
 20
47.493067
 30
0.0
 10
144.128317
 20
47.366123
 30
0.0
  0
SPLINE
  5
20b
100
AcDbEntity
  8
Calque_1
 62
7
100
AcDbSpline
 70
8
 71
3
 72
8
 73
4
 74
0
 40
0
 40
0
 40
0
 40
0
 40
1
 40
1
 40
1
 40
1
 10
144.128317
 20
47.366123
 30
0.0
 10
143.642910
 20
47.239185
 30
0.0
 10
143.245755
 20
47.315348
 30
0.0
 10
143.245755
 20
47.535308
 30
0.0
  0
LWPOLYLINE
  5
20c
100
AcDbEntity
  8
Calque_1
 62
7
100
AcDbPolyline
 90
1
 70
1
 10
142.804485
 20
46.170158
 30
0.0
  0
SPLINE
  5
20d
100
AcDbEntity
  8
Calque_1
 62
7
100
AcDbSpline
 70
8
 71
3
 72
8
 73
4
 74
0
 40
0
 40
0
 40
0
 40
0
 40
1
 40
1
 40
1
 40
1
 10
146.775997
 20
49.726433
 30
0.0
 10
146.775997
 20
49.983458
 30
0.0
 10
146.974575
 20
50.071020
 30
0.0
 10
147.217267
 20
49.921028
 30
0.0
  0
SPLINE
  5
20e
100
AcDbEntity
  8
Calque_1
 62
7
100
AcDbSpline
 70
8
 71
3
 72
8
 73
4
 74
0
 40
0
 40
0
 40
0
 40
0
 40
1
 40
1
 40
1
 40
1
 10
147.217267
 20
49.921028
 30
0.0
 10
147.459975
 20
49.771028
 30
0.0
 10
147.658552
 20
49.560728
 30
0.0
 10
147.658552
 20
49.453703
 30
0.0
  0
SPLINE
  5
20f
100
AcDbEntity
  8
Calque_1
 62
7
100
AcDbSpline
 70
8
 71
3
 72
8
 73
4
 74
0
 40
0
 40
0
 40
0
 40
0
 40
1
 40
1
 40
1
 40
1
 10
147.658552
 20
49.453703
 30
0.0
 10
147.658552
 20
49.346632
 30
0.0
 10
147.459975
 20
49.259108
 30
0.0
 10
147.217267
 20
49.259108
 30
0.0
  0
SPLINE
  5
210
100
AcDbEntity
  8
Calque_1
 62
7
100
AcDbSpline
 70
8
 71
3
 72
8
 73
4
 74
0
 40
0
 40
0
 40
0
 40
0
 40
1
 40
1
 40
1
 40
1
 10
147.217267
 20
49.259108
 30
0.0
 10
146.974575
 20
49.259108
 30
0.0
 10
146.775997
 20
49.469400
 30
0.0
 10
146.775997
 20
49.726433
 30
0.0
  0
LWPOLYLINE
  5
211
100
AcDbEntity
  8
Calque_1
 62
7
100
AcDbPolyline
 90
1
 70
1
 10
143.245755
 20
47.535308
 30
0.0
  0
SPLINE
  5
212
100
AcDbEntity
  8
Calque_1
 62
7
100
AcDbSpline
 70
8
 71
3
 72
8
 73
4
 74
0
 40
0
 40
0
 40
0
 40
0
 40
1
 40
1
 40
1
 40
1
 10
152.071350
 20
53.645865
 30
0.0
 10
152.071350
 20
53.874248
 30
0.0
 10
152.269927
 20
54.183825
 30
0.0
 10
152.512635
 20
54.333825
 30
0.0
  0
SPLINE
  5
213
100
AcDbEntity
  8
Calque_1
 62
7
100
AcDbSpline
 70
8
 71
3
 72
8
 73
4
 74
0
 40
0
 40
0
 40
0
 40
0
 40
1
 40
1
 40
1
 40
1
 10
152.512635
 20
54.333825
 30
0.0
 10
152.755342
 20
54.483818
 30
0.0
 10
152.953913
 20
54.296925
 30
0.0
 10
152.953913
 20
53.918588
 30
0.0
  0
SPLINE
  5
214
100
AcDbEntity
  8
Calque_1
 62
7
100
AcDbSpline
 70
8
 71
3
 72
8
 73
4
 74
0
 40
0
 40
0
 40
0
 40
0
 40
1
 40
1
 40
1
 40
1
 10
152.953913
 20
53.918588
 30
0.0
 10
152.953913
 20
53.540212
 30
0.0
 10
152.755342
 20
53.230620
 30
0.0
 10
152.512635
 20
53.230620
 30
0.0
  0
SPLINE
  5
215
100
AcDbEntity
  8
Calque_1
 62
7
100
AcDbSpline
 70
8
 71
3
 72
8
 73
4
 74
0
 40
0
 40
0
 40
0
 40
0
 40
1
 40
1
 40
1
 40
1
 10
152.512635
 20
53.230620
 30
0.0
 10
152.269927
 20
53.230620
 30
0.0
 10
152.071350
 20
53.417475
 30
0.0
 10
152.071350
 20
53.645865
 30
0.0
  0
LWPOLYLINE
  5
216
100
AcDbEntity
  8
Calque_1
 62
7
100
AcDbPolyline
 90
1
 70
1
 10
146.775997
 20
49.726433
 30
0.0
  0
SPLINE
  5
217
100
AcDbEntity
  8
Calque_1
 62
7
100
AcDbSpline
 70
8
 71
3
 72
8
 73
4
 74
0
 40
0
 40
0
 40
0
 40
0
 40
1
 40
1
 40
1
 40
1
 10
153.836467
 20
54.113190
 30
0.0
 10
153.836467
 20
54.355890
 30
0.0
 10
154.046760
 20
54.554468
 30
0.0
 10
154.303792
 20
54.554468
 30
0.0
  0
SPLINE
  5
218
100
AcDbEntity
  8
Calque_1
 62
7
100
AcDbSpline
 70
8
 71
3
 72
8
 73
4
 74
0
 40
0
 40
0
 40
0
 40
0
 40
1
 40
1
 40
1
 40
1
 10
154.303792
 20
54.554468
 30
0.0
 10
154.560825
 20
54.554468
 30
0.0
 10
154.648380
 20
54.355890
 30
0.0
 10
154.498387
 20
54.113190
 30
0.0
  0
SPLINE
  5
219
100
AcDbEntity
  8
Calque_1
 62
7
100
AcDbSpline
 70
8
 71
3
 72
8
 73
4
 74
0
 40
0
 40
0
 40
0
 40
0
 40
1
 40
1
 40
1
 40
1
 10
154.498387
 20
54.113190
 30
0.0
 10
154.348388
 20
53.870483
 30
0.0
 10
154.138087
 20
53.671905
 30
0.0
 10
154.031062
 20
53.671905
 30
0.0
  0
SPLINE
  5
21a
100
AcDbEntity
  8
Calque_1
 62
7
100
AcDbSpline
 70
8
 71
3
 72
8
 73
4
 74
0
 40
0
 40
0
 40
0
 40
0
 40
1
 40
1
 40
1
 40
1
 10
154.031062
 20
53.671905
 30
0.0
 10
153.923992
 20
53.671905
 30
0.0
 10
153.836467
 20
53.870483
 30
0.0
 10
153.836467
 20
54.113190
 30
0.0
  0
LWPOLYLINE
  5
21b
100
AcDbEntity
  8
Calque_1
 62
7
100
AcDbPolyline
 90
1
 70
1
 10
152.071350
 20
53.645865
 30
0.0
  0
SPLINE
  5
21c
100
AcDbEntity
  8
Calque_1
 62
7
100
AcDbSpline
 70
8
 71
3
 72
8
 73
4
 74
0
 40
0
 40
0
 40
0
 40
0
 40
1
 40
1
 40
1
 40
1
 10
153.676890
 20
55.657665
 30
0.0
 10
153.816592
 20
56.021715
 30
0.0
 10
154.008938
 20
56.319585
 30
0.0
 10
154.104315
 20
56.319585
 30
0.0
  0
SPLINE
  5
21d
100
AcDbEntity
  8
Calque_1
 62
7
100
AcDbSpline
 70
8
 71
3
 72
8
 73
4
 74
0
 40
0
 40
0
 40
0
 40
0
 40
1
 40
1
 40
1
 40
1
 10
154.104315
 20
56.319585
 30
0.0
 10
154.199760
 20
56.319585
 30
0.0
 10
154.277752
 20
56.021715
 30
0.0
 10
154.277752
 20
55.657665
 30
0.0
  0
SPLINE
  5
21e
100
AcDbEntity
  8
Calque_1
 62
7
100
AcDbSpline
 70
8
 71
3
 72
8
 73
4
 74
0
 40
0
 40
0
 40
0
 40
0
 40
1
 40
1
 40
1
 40
1
 10
154.277752
 20
55.657665
 30
0.0
 10
154.277752
 20
55.293608
 30
0.0
 10
154.085400
 20
54.995738
 30
0.0
 10
153.850312
 20
54.995738
 30
0.0
  0
SPLINE
  5
21f
100
AcDbEntity
  8
Calque_1
 62
7
100
AcDbSpline
 70
8
 71
3
 72
8
 73
4
 74
0
 40
0
 40
0
 40
0
 40
0
 40
1
 40
1
 40
1
 40
1
 10
153.850312
 20
54.995738
 30
0.0
 10
153.615240
 20
54.995738
 30
0.0
 10
153.537187
 20
55.293608
 30
0.0
 10
153.676890
 20
55.657665
 30
0.0
  0
LWPOLYLINE
  5
220
100
AcDbEntity
  8
Calque_1
 62
7
100
AcDbPolyline
 90
1
 70
1
 10
153.836467
 20
54.113190
 30
0.0
  0
SPLINE
  5
221
100
AcDbEntity
  8
Calque_1
 62
7
100
AcDbSpline
 70
8
 71
3
 72
8
 73
4
 74
0
 40
0
 40
0
 40
0
 40
0
 40
1
 40
1
 40
1
 40
1
 10
153.644265
 20
57.772770
 30
0.0
 10
153.809970
 20
58.207973
 30
0.0
 10
154.056720
 20
58.452885
 30
0.0
 10
154.192590
 20
58.317015
 30
0.0
  0
SPLINE
  5
222
100
AcDbEntity
  8
Calque_1
 62
7
100
AcDbSpline
 70
8
 71
3
 72
8
 73
4
 74
0
 40
0
 40
0
 40
0
 40
0
 40
1
 40
1
 40
1
 40
1
 10
154.192590
 20
58.317015
 30
0.0
 10
154.328460
 20
58.181145
 30
0.0
 10
154.192875
 20
57.825083
 30
0.0
 10
153.891292
 20
57.525735
 30
0.0
  0
SPLINE
  5
223
100
AcDbEntity
  8
Calque_1
 62
7
100
AcDbSpline
 70
8
 71
3
 72
8
 73
4
 74
0
 40
0
 40
0
 40
0
 40
0
 40
1
 40
1
 40
1
 40
1
 10
153.891292
 20
57.525735
 30
0.0
 10
153.455475
 20
57.093173
 30
0.0
 10
153.404790
 20
57.143858
 30
0.0
 10
153.644265
 20
57.772770
 30
0.0
  0
LWPOLYLINE
  5
224
100
AcDbEntity
  8
Calque_1
 62
7
100
AcDbPolyline
 90
1
 70
1
 10
153.676890
 20
55.657665
 30
0.0
  0
SPLINE
  5
225
100
AcDbEntity
  8
Calque_1
 62
7
100
AcDbSpline
 70
8
 71
3
 72
8
 73
4
 74
0
 40
0
 40
0
 40
0
 40
0
 40
1
 40
1
 40
1
 40
1
 10
150.517605
 20
58.602015
 30
0.0
 10
151.142077
 20
58.886550
 30
0.0
 10
151.591837
 20
59.234055
 30
0.0
 10
151.517085
 20
59.374253
 30
0.0
  0
SPLINE
  5
226
100
AcDbEntity
  8
Calque_1
 62
7
100
AcDbSpline
 70
8
 71
3
 72
8
 73
4
 74
0
 40
0
 40
0
 40
0
 40
0
 40
1
 40
1
 40
1
 40
1
 10
151.517085
 20
59.374253
 30
0.0
 10
151.442385
 20
59.514458
 30
0.0
 10
151.107465
 20
60.175260
 30
0.0
 10
150.772920
 20
60.842700
 30
0.0
  0
SPLINE
  5
227
100
AcDbEntity
  8
Calque_1
 62
7
100
AcDbSpline
 70
8
 71
3
 72
8
 73
4
 74
0
 40
0
 40
0
 40
0
 40
0
 40
1
 40
1
 40
1
 40
1
 10
150.772920
 20
60.842700
 30
0.0
 10
150.024547
 20
62.335703
 30
0.0
 10
149.524575
 20
62.378865
 30
0.0
 10
148.998757
 20
60.995880
 30
0.0
  0
SPLINE
  5
228
100
AcDbEntity
  8
Calque_1
 62
7
100
AcDbSpline
 70
8
 71
3
 72
8
 73
4
 74
0
 40
0
 40
0
 40
0
 40
0
 40
1
 40
1
 40
1
 40
1
 10
148.998757
 20
60.995880
 30
0.0
 10
148.777042
 20
60.412695
 30
0.0
 10
148.384807
 20
59.805248
 30
0.0
 10
148.127130
 20
59.646000
 30
0.0
  0
SPLINE
  5
229
100
AcDbEntity
  8
Calque_1
 62
7
100
AcDbSpline
 70
8
 71
3
 72
8
 73
4
 74
0
 40
0
 40
0
 40
0
 40
0
 40
1
 40
1
 40
1
 40
1
 10
148.127130
 20
59.646000
 30
0.0
 10
147.337050
 20
59.157698
 30
0.0
 10
147.607342
 20
58.084703
 30
0.0
 10
148.520422
 20
58.084703
 30
0.0
  0
SPLINE
  5
22a
100
AcDbEntity
  8
Calque_1
 62
7
100
AcDbSpline
 70
8
 71
3
 72
8
 73
4
 74
0
 40
0
 40
0
 40
0
 40
0
 40
1
 40
1
 40
1
 40
1
 10
148.520422
 20
58.084703
 30
0.0
 10
148.994415
 20
58.084703
 30
0.0
 10
149.893147
 20
58.317488
 30
0.0
 10
150.517605
 20
58.602015
 30
0.0
  0
LWPOLYLINE
  5
22b
100
AcDbEntity
  8
Calque_1
 62
7
100
AcDbPolyline
 90
1
 70
1
 10
153.644265
 20
57.772770
 30
0.0
  0
SPLINE
  5
22c
100
AcDbEntity
  8
Calque_1
 62
7
100
AcDbSpline
 70
8
 71
3
 72
8
 73
4
 74
0
 40
0
 40
0
 40
0
 40
0
 40
1
 40
1
 40
1
 40
1
 10
164.487570
 20
73.523453
 30
0.0
 10
165.571170
 20
73.528703
 30
0.0
 10
165.691207
 20
73.734135
 30
0.0
 10
166.234560
 20
76.508115
 30
0.0
  0
SPLINE
  5
22d
100
AcDbEntity
  8
Calque_1
 62
7
100
AcDbSpline
 70
8
 71
3
 72
8
 73
4
 74
0
 40
0
 40
0
 40
0
 40
0
 40
1
 40
1
 40
1
 40
1
 10
166.234560
 20
76.508115
 30
0.0
 10
167.608193
 20
83.520968
 30
0.0
 10
166.700925
 20
92.602665
 30
0.0
 10
163.909087
 20
99.785618
 30
0.0
  0
SPLINE
  5
22e
100
AcDbEntity
  8
Calque_1
 62
7
100
AcDbSpline
 70
8
 71
3
 72
8
 73
4
 74
0
 40
0
 40
0
 40
0
 40
0
 40
1
 40
1
 40
1
 40
1
 10
163.909087
 20
99.785618
 30
0.0
 10
162.732945
 20
102.811688
 30
0.0
 10
159.815190
 20
107.508008
 30
0.0
 10
159.111300
 20
107.508008
 30
0.0
  0
SPLINE
  5
22f
100
AcDbEntity
  8
Calque_1
 62
7
100
AcDbSpline
 70
8
 71
3
 72
8
 73
4
 74
0
 40
0
 40
0
 40
0
 40
0
 40
1
 40
1
 40
1
 40
1
 10
159.111300
 20
107.508008
 30
0.0
 10
158.851260
 20
107.508008
 30
0.0
 10
158.782072
 20
107.740320
 30
0.0
 10
158.957565
 20
108.024278
 30
0.0
  0
SPLINE
  5
230
100
AcDbEntity
  8
Calque_1
 62
7
100
AcDbSpline
 70
8
 71
3
 72
8
 73
4
 74
0
 40
0
 40
0
 40
0
 40
0
 40
1
 40
1
 40
1
 40
1
 10
158.957565
 20
108.024278
 30
0.0
 10
159.171645
 20
108.370658
 30
0.0
 10
159.036750
 20
108.448485
 30
0.0
 10
158.547622
 20
108.260790
 30
0.0
  0
SPLINE
  5
231
100
AcDbEntity
  8
Calque_1
 62
7
100
AcDbSpline
 70
8
 71
3
 72
8
 73
4
 74
0
 40
0
 40
0
 40
0
 40
0
 40
1
 40
1
 40
1
 40
1
 10
158.547622
 20
108.260790
 30
0.0
 10
158.146665
 20
108.106920
 30
0.0
 10
157.839742
 20
108.122820
 30
0.0
 10
157.865572
 20
108.296190
 30
0.0
  0
SPLINE
  5
232
100
AcDbEntity
  8
Calque_1
 62
7
100
AcDbSpline
 70
8
 71
3
 72
8
 73
4
 74
0
 40
0
 40
0
 40
0
 40
0
 40
1
 40
1
 40
1
 40
1
 10
157.865572
 20
108.296190
 30
0.0
 10
157.994445
 20
109.160828
 30
0.0
 10
157.747612
 20
109.422390
 30
0.0
 10
157.359982
 20
108.831900
 30
0.0
  0
SPLINE
  5
233
100
AcDbEntity
  8
Calque_1
 62
7
100
AcDbSpline
 70
8
 71
3
 72
8
 73
4
 74
0
 40
0
 40
0
 40
0
 40
0
 40
1
 40
1
 40
1
 40
1
 10
157.359982
 20
108.831900
 30
0.0
 10
156.999690
 20
108.283073
 30
0.0
 10
156.859492
 20
108.272265
 30
0.0
 10
156.539347
 20
108.768750
 30
0.0
  0
SPLINE
  5
234
100
AcDbEntity
  8
Calque_1
 62
7
100
AcDbSpline
 70
8
 71
3
 72
8
 73
4
 74
0
 40
0
 40
0
 40
0
 40
0
 40
1
 40
1
 40
1
 40
1
 10
156.539347
 20
108.768750
 30
0.0
 10
156.267435
 20
109.190363
 30
0.0
 10
156.063150
 20
109.221735
 30
0.0
 10
155.848740
 20
108.874823
 30
0.0
  0
SPLINE
  5
235
100
AcDbEntity
  8
Calque_1
 62
7
100
AcDbSpline
 70
8
 71
3
 72
8
 73
4
 74
0
 40
0
 40
0
 40
0
 40
0
 40
1
 40
1
 40
1
 40
1
 10
155.848740
 20
108.874823
 30
0.0
 10
155.681287
 20
108.603870
 30
0.0
 10
155.954318
 20
107.860868
 30
0.0
 10
156.455497
 20
107.223720
 30
0.0
  0
SPLINE
  5
236
100
AcDbEntity
  8
Calque_1
 62
7
100
AcDbSpline
 70
8
 71
3
 72
8
 73
4
 74
0
 40
0
 40
0
 40
0
 40
0
 40
1
 40
1
 40
1
 40
1
 10
156.455497
 20
107.223720
 30
0.0
 10
157.267740
 20
106.191113
 30
0.0
 10
157.577047
 20
106.176180
 30
0.0
 10
157.419000
 20
107.177220
 30
0.0
  0
SPLINE
  5
237
100
AcDbEntity
  8
Calque_1
 62
7
100
AcDbSpline
 70
8
 71
3
 72
8
 73
4
 74
0
 40
0
 40
0
 40
0
 40
0
 40
1
 40
1
 40
1
 40
1
 10
157.419000
 20
107.177220
 30
0.0
 10
157.284893
 20
108.026558
 30
0.0
 10
158.319788
 20
107.380223
 30
0.0
 10
158.701500
 20
106.376250
 30
0.0
  0
SPLINE
  5
238
100
AcDbEntity
  8
Calque_1
 62
7
100
AcDbSpline
 70
8
 71
3
 72
8
 73
4
 74
0
 40
0
 40
0
 40
0
 40
0
 40
1
 40
1
 40
1
 40
1
 10
158.701500
 20
106.376250
 30
0.0
 10
159.254138
 20
104.922697
 30
0.0
 10
159.243157
 20
104.739622
 30
0.0
 10
158.626200
 20
105.120915
 30
0.0
  0
SPLINE
  5
239
100
AcDbEntity
  8
Calque_1
 62
7
100
AcDbSpline
 70
8
 71
3
 72
8
 73
4
 74
0
 40
0
 40
0
 40
0
 40
0
 40
1
 40
1
 40
1
 40
1
 10
158.626200
 20
105.120915
 30
0.0
 10
157.999635
 20
105.508148
 30
0.0
 10
158.435857
 20
103.557225
 30
0.0
 10
159.460043
 20
101.391555
 30
0.0
  0
SPLINE
  5
23a
100
AcDbEntity
  8
Calque_1
 62
7
100
AcDbSpline
 70
8
 71
3
 72
8
 73
4
 74
0
 40
0
 40
0
 40
0
 40
0
 40
1
 40
1
 40
1
 40
1
 10
159.460043
 20
101.391555
 30
0.0
 10
159.845835
 20
100.575795
 30
0.0
 10
160.161480
 20
99.334695
 30
0.0
 10
160.161480
 20
98.633558
 30
0.0
  0
SPLINE
  5
23b
100
AcDbEntity
  8
Calque_1
 62
7
100
AcDbSpline
 70
8
 71
3
 72
8
 73
4
 74
0
 40
0
 40
0
 40
0
 40
0
 40
1
 40
1
 40
1
 40
1
 10
160.161480
 20
98.633558
 30
0.0
 10
160.161480
 20
97.932405
 30
0.0
 10
160.326960
 20
97.358745
 30
0.0
 10
160.529227
 20
97.358745
 30
0.0
  0
SPLINE
  5
23c
100
AcDbEntity
  8
Calque_1
 62
7
100
AcDbSpline
 70
8
 71
3
 72
8
 73
4
 74
0
 40
0
 40
0
 40
0
 40
0
 40
1
 40
1
 40
1
 40
1
 10
160.529227
 20
97.358745
 30
0.0
 10
160.731465
 20
97.358745
 30
0.0
 10
160.866285
 20
97.209818
 30
0.0
 10
160.828792
 20
97.027793
 30
0.0
  0
SPLINE
  5
23d
100
AcDbEntity
  8
Calque_1
 62
7
100
AcDbSpline
 70
8
 71
3
 72
8
 73
4
 74
0
 40
0
 40
0
 40
0
 40
0
 40
1
 40
1
 40
1
 40
1
 10
160.828792
 20
97.027793
 30
0.0
 10
160.791367
 20
96.845760
 30
0.0
 10
161.099160
 20
95.934668
 30
0.0
 10
161.512882
 20
95.003145
 30
0.0
  0
SPLINE
  5
23e
100
AcDbEntity
  8
Calque_1
 62
7
100
AcDbSpline
 70
8
 71
3
 72
8
 73
4
 74
0
 40
0
 40
0
 40
0
 40
0
 40
1
 40
1
 40
1
 40
1
 10
161.512882
 20
95.003145
 30
0.0
 10
162.822322
 20
92.054925
 30
0.0
 10
163.221075
 20
88.614998
 30
0.0
 10
162.913012
 20
82.924470
 30
0.0
  0
SPLINE
  5
23f
100
AcDbEntity
  8
Calque_1
 62
7
100
AcDbSpline
 70
8
 71
3
 72
8
 73
4
 74
0
 40
0
 40
0
 40
0
 40
0
 40
1
 40
1
 40
1
 40
1
 10
162.913012
 20
82.924470
 30
0.0
 10
162.752588
 20
79.961040
 30
0.0
 10
162.357382
 20
76.518930
 30
0.0
 10
162.034800
 20
75.275333
 30
0.0
  0
SPLINE
  5
240
100
AcDbEntity
  8
Calque_1
 62
7
100
AcDbSpline
 70
8
 71
3
 72
8
 73
4
 74
0
 40
0
 40
0
 40
0
 40
0
 40
1
 40
1
 40
1
 40
1
 10
162.034800
 20
75.275333
 30
0.0
 10
161.459220
 20
73.056450
 30
0.0
 10
161.465790
 20
73.018920
 30
0.0
 10
162.386130
 20
73.265903
 30
0.0
  0
SPLINE
  5
241
100
AcDbEntity
  8
Calque_1
 62
7
100
AcDbSpline
 70
8
 71
3
 72
8
 73
4
 74
0
 40
0
 40
0
 40
0
 40
0
 40
1
 40
1
 40
1
 40
1
 10
162.386130
 20
73.265903
 30
0.0
 10
162.901950
 20
73.404338
 30
0.0
 10
163.847587
 20
73.520318
 30
0.0
 10
164.487547
 20
73.523633
 30
0.0
  0
LWPOLYLINE
  5
242
100
AcDbEntity
  8
Calque_1
 62
7
100
AcDbPolyline
 90
1
 70
1
 10
150.517605
 20
58.602015
 30
0.0
  0
SPLINE
  5
243
100
AcDbEntity
  8
Calque_1
 62
7
100
AcDbSpline
 70
8
 71
3
 72
8
 73
4
 74
0
 40
0
 40
0
 40
0
 40
0
 40
1
 40
1
 40
1
 40
1
 10
145.123050
 20
75.779220
 30
0.0
 10
145.861965
 20
76.548833
 30
0.0
 10
145.856632
 20
76.607100
 30
0.0
 10
145.005593
 20
77.062583
 30
0.0
  0
SPLINE
  5
244
100
AcDbEntity
  8
Calque_1
 62
7
100
AcDbSpline
 70
8
 71
3
 72
8
 73
4
 74
0
 40
0
 40
0
 40
0
 40
0
 40
1
 40
1
 40
1
 40
1
 10
145.005593
 20
77.062583
 30
0.0
 10
144.216293
 20
77.484983
 30
0.0
 10
144.082688
 20
77.382893
 30
0.0
 10
143.840565
 20
76.172325
 30
0.0
  0
SPLINE
  5
245
100
AcDbEntity
  8
Calque_1
 62
7
100
AcDbSpline
 70
8
 71
3
 72
8
 73
4
 74
0
 40
0
 40
0
 40
0
 40
0
 40
1
 40
1
 40
1
 40
1
 10
143.840565
 20
76.172325
 30
0.0
 10
143.658562
 20
75.262328
 30
0.0
 10
143.365747
 20
74.882198
 30
0.0
 10
142.965172
 20
75.035918
 30
0.0
  0
SPLINE
  5
246
100
AcDbEntity
  8
Calque_1
 62
7
100
AcDbSpline
 70
8
 71
3
 72
8
 73
4
 74
0
 40
0
 40
0
 40
0
 40
0
 40
1
 40
1
 40
1
 40
1
 10
142.965172
 20
75.035918
 30
0.0
 10
142.621245
 20
75.167895
 30
0.0
 10
142.363252
 20
74.982518
 30
0.0
 10
142.363252
 20
74.603303
 30
0.0
  0
SPLINE
  5
247
100
AcDbEntity
  8
Calque_1
 62
7
100
AcDbSpline
 70
8
 71
3
 72
8
 73
4
 74
0
 40
0
 40
0
 40
0
 40
0
 40
1
 40
1
 40
1
 40
1
 10
142.363252
 20
74.603303
 30
0.0
 10
142.363252
 20
74.056238
 30
0.0
 10
142.537598
 20
74.030430
 30
0.0
 10
143.356133
 20
74.456355
 30
0.0
  0
SPLINE
  5
248
100
AcDbEntity
  8
Calque_1
 62
7
100
AcDbSpline
 70
8
 71
3
 72
8
 73
4
 74
0
 40
0
 40
0
 40
0
 40
0
 40
1
 40
1
 40
1
 40
1
 10
143.356133
 20
74.456355
 30
0.0
 10
143.902208
 20
74.740515
 30
0.0
 10
144.697328
 20
75.335805
 30
0.0
 10
145.123057
 20
75.779220
 30
0.0
  0
LWPOLYLINE
  5
249
100
AcDbEntity
  8
Calque_1
 62
7
100
AcDbPolyline
 90
2
 70
0
 10
164.487547
 20
73.523633
 30
0.0
 10
164.487570
 20
73.523453
 30
0.0
  0
SPLINE
  5
24a
100
AcDbEntity
  8
Calque_1
 62
7
100
AcDbSpline
 70
8
 71
3
 72
8
 73
4
 74
0
 40
0
 40
0
 40
0
 40
0
 40
1
 40
1
 40
1
 40
1
 10
141.480675
 20
74.853315
 30
0.0
 10
141.480675
 20
75.096023
 30
0.0
 10
141.270375
 20
75.294600
 30
0.0
 10
141.013357
 20
75.294600
 30
0.0
  0
SPLINE
  5
24b
100
AcDbEntity
  8
Calque_1
 62
7
100
AcDbSpline
 70
8
 71
3
 72
8
 73
4
 74
0
 40
0
 40
0
 40
0
 40
0
 40
1
 40
1
 40
1
 40
1
 10
141.013357
 20
75.294600
 30
0.0
 10
140.756332
 20
75.294600
 30
0.0
 10
140.668755
 20
75.096023
 30
0.0
 10
140.818762
 20
74.853315
 30
0.0
  0
SPLINE
  5
24c
100
AcDbEntity
  8
Calque_1
 62
7
100
AcDbSpline
 70
8
 71
3
 72
8
 73
4
 74
0
 40
0
 40
0
 40
0
 40
0
 40
1
 40
1
 40
1
 40
1
 10
140.818762
 20
74.853315
 30
0.0
 10
140.968755
 20
74.610608
 30
0.0
 10
141.179047
 20
74.412038
 30
0.0
 10
141.286088
 20
74.412038
 30
0.0
  0
SPLINE
  5
24d
100
AcDbEntity
  8
Calque_1
 62
7
100
AcDbSpline
 70
8
 71
3
 72
8
 73
4
 74
0
 40
0
 40
0
 40
0
 40
0
 40
1
 40
1
 40
1
 40
1
 10
141.286088
 20
74.412038
 30
0.0
 10
141.393165
 20
74.412038
 30
0.0
 10
141.480675
 20
74.610608
 30
0.0
 10
141.480675
 20
74.853315
 30
0.0
  0
LWPOLYLINE
  5
24e
100
AcDbEntity
  8
Calque_1
 62
7
100
AcDbPolyline
 90
1
 70
1
 10
145.123057
 20
75.779220
 30
0.0
  0
SPLINE
  5
24f
100
AcDbEntity
  8
Calque_1
 62
7
100
AcDbSpline
 70
8
 71
3
 72
8
 73
4
 74
0
 40
0
 40
0
 40
0
 40
0
 40
1
 40
1
 40
1
 40
1
 10
98.235270
 20
92.504445
 30
0.0
 10
98.235270
 20
92.747153
 30
0.0
 10
98.147715
 20
92.945730
 30
0.0
 10
98.040675
 20
92.945730
 30
0.0
  0
SPLINE
  5
250
100
AcDbEntity
  8
Calque_1
 62
7
100
AcDbSpline
 70
8
 71
3
 72
8
 73
4
 74
0
 40
0
 40
0
 40
0
 40
0
 40
1
 40
1
 40
1
 40
1
 10
98.040675
 20
92.945730
 30
0.0
 10
97.933597
 20
92.945730
 30
0.0
 10
97.723357
 20
92.747153
 30
0.0
 10
97.573365
 20
92.504445
 30
0.0
  0
SPLINE
  5
251
100
AcDbEntity
  8
Calque_1
 62
7
100
AcDbSpline
 70
8
 71
3
 72
8
 73
4
 74
0
 40
0
 40
0
 40
0
 40
0
 40
1
 40
1
 40
1
 40
1
 10
97.573365
 20
92.504445
 30
0.0
 10
97.423358
 20
92.261738
 30
0.0
 10
97.510965
 20
92.063160
 30
0.0
 10
97.767945
 20
92.063160
 30
0.0
  0
SPLINE
  5
252
100
AcDbEntity
  8
Calque_1
 62
7
100
AcDbSpline
 70
8
 71
3
 72
8
 73
4
 74
0
 40
0
 40
0
 40
0
 40
0
 40
1
 40
1
 40
1
 40
1
 10
97.767945
 20
92.063160
 30
0.0
 10
98.024978
 20
92.063160
 30
0.0
 10
98.235270
 20
92.261738
 30
0.0
 10
98.235270
 20
92.504445
 30
0.0
  0
LWPOLYLINE
  5
253
100
AcDbEntity
  8
Calque_1
 62
7
100
AcDbPolyline
 90
1
 70
1
 10
141.480675
 20
74.853315
 30
0.0
  0
SPLINE
  5
254
100
AcDbEntity
  8
Calque_1
 62
7
100
AcDbSpline
 70
8
 71
3
 72
8
 73
4
 74
0
 40
0
 40
0
 40
0
 40
0
 40
1
 40
1
 40
1
 40
1
 10
80.244720
 20
102.680070
 30
0.0
 10
80.809012
 20
102.937170
 30
0.0
 10
82.520077
 20
104.914740
 30
0.0
 10
84.047077
 20
107.074650
 30
0.0
  0
SPLINE
  5
255
100
AcDbEntity
  8
Calque_1
 62
7
100
AcDbSpline
 70
8
 71
3
 72
8
 73
4
 74
0
 40
0
 40
0
 40
0
 40
0
 40
1
 40
1
 40
1
 40
1
 10
84.047077
 20
107.074650
 30
0.0
 10
86.638162
 20
110.739683
 30
0.0
 10
92.237122
 20
116.333535
 30
0.0
 10
93.314422
 20
116.333535
 30
0.0
  0
SPLINE
  5
256
100
AcDbEntity
  8
Calque_1
 62
7
100
AcDbSpline
 70
8
 71
3
 72
8
 73
4
 74
0
 40
0
 40
0
 40
0
 40
0
 40
1
 40
1
 40
1
 40
1
 10
93.314422
 20
116.333535
 30
0.0
 10
93.576765
 20
116.333535
 30
0.0
 10
94.002922
 20
116.728710
 30
0.0
 10
94.261402
 20
117.211710
 30
0.0
  0
SPLINE
  5
257
100
AcDbEntity
  8
Calque_1
 62
7
100
AcDbSpline
 70
8
 71
3
 72
8
 73
4
 74
0
 40
0
 40
0
 40
0
 40
0
 40
1
 40
1
 40
1
 40
1
 10
94.261402
 20
117.211710
 30
0.0
 10
94.519897
 20
117.694695
 30
0.0
 10
94.874392
 20
118.060328
 30
0.0
 10
95.049180
 20
118.024215
 30
0.0
  0
SPLINE
  5
258
100
AcDbEntity
  8
Calque_1
 62
7
100
AcDbSpline
 70
8
 71
3
 72
8
 73
4
 74
0
 40
0
 40
0
 40
0
 40
0
 40
1
 40
1
 40
1
 40
1
 10
95.049180
 20
118.024215
 30
0.0
 10
95.704710
 20
117.888757
 30
0.0
 10
96.911438
 20
118.655677
 30
0.0
 10
96.911438
 20
119.207752
 30
0.0
  0
SPLINE
  5
259
100
AcDbEntity
  8
Calque_1
 62
7
100
AcDbSpline
 70
8
 71
3
 72
8
 73
4
 74
0
 40
0
 40
0
 40
0
 40
0
 40
1
 40
1
 40
1
 40
1
 10
96.911438
 20
119.207752
 30
0.0
 10
96.911438
 20
119.552025
 30
0.0
 10
97.243485
 20
119.694315
 30
0.0
 10
97.742378
 20
119.563852
 30
0.0
  0
SPLINE
  5
25a
100
AcDbEntity
  8
Calque_1
 62
7
100
AcDbSpline
 70
8
 71
3
 72
8
 73
4
 74
0
 40
0
 40
0
 40
0
 40
0
 40
1
 40
1
 40
1
 40
1
 10
97.742378
 20
119.563852
 30
0.0
 10
98.251688
 20
119.430667
 30
0.0
 10
98.808607
 20
119.682435
 30
0.0
 10
99.181170
 20
120.214380
 30
0.0
  0
SPLINE
  5
25b
100
AcDbEntity
  8
Calque_1
 62
7
100
AcDbSpline
 70
8
 71
3
 72
8
 73
4
 74
0
 40
0
 40
0
 40
0
 40
0
 40
1
 40
1
 40
1
 40
1
 10
99.181170
 20
120.214380
 30
0.0
 10
99.515475
 20
120.691672
 30
0.0
 10
100.184078
 20
121.163160
 30
0.0
 10
100.666943
 20
121.262130
 30
0.0
  0
SPLINE
  5
25c
100
AcDbEntity
  8
Calque_1
 62
7
100
AcDbSpline
 70
8
 71
3
 72
8
 73
4
 74
0
 40
0
 40
0
 40
0
 40
0
 40
1
 40
1
 40
1
 40
1
 10
100.666943
 20
121.262130
 30
0.0
 10
101.149800
 20
121.361077
 30
0.0
 10
101.521012
 20
121.759650
 30
0.0
 10
101.491838
 20
122.147827
 30
0.0
  0
SPLINE
  5
25d
100
AcDbEntity
  8
Calque_1
 62
7
100
AcDbSpline
 70
8
 71
3
 72
8
 73
4
 74
0
 40
0
 40
0
 40
0
 40
0
 40
1
 40
1
 40
1
 40
1
 10
101.491838
 20
122.147827
 30
0.0
 10
101.448562
 20
122.723437
 30
0.0
 10
101.835105
 20
122.826622
 30
0.0
 10
103.587923
 20
122.707387
 30
0.0
  0
SPLINE
  5
25e
100
AcDbEntity
  8
Calque_1
 62
7
100
AcDbSpline
 70
8
 71
3
 72
8
 73
4
 74
0
 40
0
 40
0
 40
0
 40
0
 40
1
 40
1
 40
1
 40
1
 10
103.587923
 20
122.707387
 30
0.0
 10
104.769937
 20
122.626957
 30
0.0
 10
105.737025
 20
122.714887
 30
0.0
 10
105.737025
 20
122.904060
 30
0.0
  0
SPLINE
  5
25f
100
AcDbEntity
  8
Calque_1
 62
7
100
AcDbSpline
 70
8
 71
3
 72
8
 73
4
 74
0
 40
0
 40
0
 40
0
 40
0
 40
1
 40
1
 40
1
 40
1
 10
105.737025
 20
122.904060
 30
0.0
 10
105.737025
 20
123.092632
 30
0.0
 10
105.985245
 20
123.272917
 30
0.0
 10
106.288627
 20
123.304695
 30
0.0
  0
SPLINE
  5
260
100
AcDbEntity
  8
Calque_1
 62
7
100
AcDbSpline
 70
8
 71
3
 72
8
 73
4
 74
0
 40
0
 40
0
 40
0
 40
0
 40
1
 40
1
 40
1
 40
1
 10
106.288627
 20
123.304695
 30
0.0
 10
106.592003
 20
123.336495
 30
0.0
 10
108.726690
 20
123.756667
 30
0.0
 10
111.032385
 20
124.238490
 30
0.0
  0
SPLINE
  5
261
100
AcDbEntity
  8
Calque_1
 62
7
100
AcDbSpline
 70
8
 71
3
 72
8
 73
4
 74
0
 40
0
 40
0
 40
0
 40
0
 40
1
 40
1
 40
1
 40
1
 10
111.032385
 20
124.238490
 30
0.0
 10
113.338065
 20
124.720312
 30
0.0
 10
116.371612
 20
125.238802
 30
0.0
 10
117.773602
 20
125.390692
 30
0.0
  0
SPLINE
  5
262
100
AcDbEntity
  8
Calque_1
 62
7
100
AcDbSpline
 70
8
 71
3
 72
8
 73
4
 74
0
 40
0
 40
0
 40
0
 40
0
 40
1
 40
1
 40
1
 40
1
 10
117.773602
 20
125.390692
 30
0.0
 10
119.826195
 20
125.613060
 30
0.0
 10
120.298912
 20
125.810790
 30
0.0
 10
120.200640
 20
126.405862
 30
0.0
  0
SPLINE
  5
263
100
AcDbEntity
  8
Calque_1
 62
7
100
AcDbSpline
 70
8
 71
3
 72
8
 73
4
 74
0
 40
0
 40
0
 40
0
 40
0
 40
1
 40
1
 40
1
 40
1
 10
120.200640
 20
126.405862
 30
0.0
 10
120.108577
 20
126.963615
 30
0.0
 10
120.349208
 20
127.107240
 30
0.0
 10
121.181813
 20
126.991425
 30
0.0
  0
SPLINE
  5
264
100
AcDbEntity
  8
Calque_1
 62
7
100
AcDbSpline
 70
8
 71
3
 72
8
 73
4
 74
0
 40
0
 40
0
 40
0
 40
0
 40
1
 40
1
 40
1
 40
1
 10
121.181813
 20
126.991425
 30
0.0
 10
121.788570
 20
126.906990
 30
0.0
 10
122.137793
 20
126.987675
 30
0.0
 10
121.957883
 20
127.171462
 30
0.0
  0
SPLINE
  5
265
100
AcDbEntity
  8
Calque_1
 62
7
100
AcDbSpline
 70
8
 71
3
 72
8
 73
4
 74
0
 40
0
 40
0
 40
0
 40
0
 40
1
 40
1
 40
1
 40
1
 10
121.957883
 20
127.171462
 30
0.0
 10
121.777957
 20
127.354890
 30
0.0
 10
121.851930
 20
127.771455
 30
0.0
 10
122.122230
 20
128.097165
 30
0.0
  0
SPLINE
  5
266
100
AcDbEntity
  8
Calque_1
 62
7
100
AcDbSpline
 70
8
 71
3
 72
8
 73
4
 74
0
 40
0
 40
0
 40
0
 40
0
 40
1
 40
1
 40
1
 40
1
 10
122.122230
 20
128.097165
 30
0.0
 10
122.392545
 20
128.422882
 30
0.0
 10
122.440462
 20
128.692402
 30
0.0
 10
122.228678
 20
128.696122
 30
0.0
  0
SPLINE
  5
267
100
AcDbEntity
  8
Calque_1
 62
7
100
AcDbSpline
 70
8
 71
3
 72
8
 73
4
 74
0
 40
0
 40
0
 40
0
 40
0
 40
1
 40
1
 40
1
 40
1
 10
122.228678
 20
128.696122
 30
0.0
 10
122.016930
 20
128.699872
 30
0.0
 10
122.141617
 20
128.913960
 30
0.0
 10
122.505607
 20
129.171937
 30
0.0
  0
SPLINE
  5
268
100
AcDbEntity
  8
Calque_1
 62
7
100
AcDbSpline
 70
8
 71
3
 72
8
 73
4
 74
0
 40
0
 40
0
 40
0
 40
0
 40
1
 40
1
 40
1
 40
1
 10
122.505607
 20
129.171937
 30
0.0
 10
123.353348
 20
129.772680
 30
0.0
 10
110.537962
 20
129.373567
 30
0.0
 10
108.605310
 20
128.739037
 30
0.0
  0
SPLINE
  5
269
100
AcDbEntity
  8
Calque_1
 62
7
100
AcDbSpline
 70
8
 71
3
 72
8
 73
4
 74
0
 40
0
 40
0
 40
0
 40
0
 40
1
 40
1
 40
1
 40
1
 10
108.605310
 20
128.739037
 30
0.0
 10
107.877203
 20
128.499982
 30
0.0
 10
106.586453
 20
128.104297
 30
0.0
 10
105.736987
 20
127.859737
 30
0.0
  0
SPLINE
  5
26a
100
AcDbEntity
  8
Calque_1
 62
7
100
AcDbSpline
 70
8
 71
3
 72
8
 73
4
 74
0
 40
0
 40
0
 40
0
 40
0
 40
1
 40
1
 40
1
 40
1
 10
105.736987
 20
127.859737
 30
0.0
 10
102.292410
 20
126.868020
 30
0.0
 10
99.533903
 20
125.772675
 30
0.0
 10
99.803093
 20
125.503485
 30
0.0
  0
SPLINE
  5
26b
100
AcDbEntity
  8
Calque_1
 62
7
100
AcDbSpline
 70
8
 71
3
 72
8
 73
4
 74
0
 40
0
 40
0
 40
0
 40
0
 40
1
 40
1
 40
1
 40
1
 10
99.803093
 20
125.503485
 30
0.0
 10
100.309253
 20
124.997317
 30
0.0
 10
99.524858
 20
124.197487
 30
0.0
 10
98.968193
 20
124.652167
 30
0.0
  0
SPLINE
  5
26c
100
AcDbEntity
  8
Calque_1
 62
7
100
AcDbSpline
 70
8
 71
3
 72
8
 73
4
 74
0
 40
0
 40
0
 40
0
 40
0
 40
1
 40
1
 40
1
 40
1
 10
98.968193
 20
124.652167
 30
0.0
 10
98.420243
 20
125.099730
 30
0.0
 10
97.182330
 20
124.152735
 30
0.0
 10
97.673393
 20
123.661680
 30
0.0
  0
SPLINE
  5
26d
100
AcDbEntity
  8
Calque_1
 62
7
100
AcDbSpline
 70
8
 71
3
 72
8
 73
4
 74
0
 40
0
 40
0
 40
0
 40
0
 40
1
 40
1
 40
1
 40
1
 10
97.673393
 20
123.661680
 30
0.0
 10
97.820610
 20
123.514462
 30
0.0
 10
97.721092
 20
123.394020
 30
0.0
 10
97.452263
 20
123.394020
 30
0.0
  0
SPLINE
  5
26e
100
AcDbEntity
  8
Calque_1
 62
7
100
AcDbSpline
 70
8
 71
3
 72
8
 73
4
 74
0
 40
0
 40
0
 40
0
 40
0
 40
1
 40
1
 40
1
 40
1
 10
97.452263
 20
123.394020
 30
0.0
 10
97.183440
 20
123.394020
 30
0.0
 10
96.846120
 20
123.583912
 30
0.0
 10
96.702668
 20
123.816022
 30
0.0
  0
SPLINE
  5
26f
100
AcDbEntity
  8
Calque_1
 62
7
100
AcDbSpline
 70
8
 71
3
 72
8
 73
4
 74
0
 40
0
 40
0
 40
0
 40
0
 40
1
 40
1
 40
1
 40
1
 10
96.702668
 20
123.816022
 30
0.0
 10
96.172425
 20
124.673970
 30
0.0
 10
95.072280
 20
123.748822
 30
0.0
 10
95.342498
 20
122.672280
 30
0.0
  0
SPLINE
  5
270
100
AcDbEntity
  8
Calque_1
 62
7
100
AcDbSpline
 70
8
 71
3
 72
8
 73
4
 74
0
 40
0
 40
0
 40
0
 40
0
 40
1
 40
1
 40
1
 40
1
 10
95.342498
 20
122.672280
 30
0.0
 10
95.635973
 20
121.502985
 30
0.0
 10
95.474910
 20
121.421955
 30
0.0
 10
94.206502
 20
122.100787
 30
0.0
  0
SPLINE
  5
271
100
AcDbEntity
  8
Calque_1
 62
7
100
AcDbSpline
 70
8
 71
3
 72
8
 73
4
 74
0
 40
0
 40
0
 40
0
 40
0
 40
1
 40
1
 40
1
 40
1
 10
94.206502
 20
122.100787
 30
0.0
 10
93.143280
 20
122.669827
 30
0.0
 10
91.877917
 20
121.850355
 30
0.0
 10
92.264437
 20
120.843090
 30
0.0
  0
SPLINE
  5
272
100
AcDbEntity
  8
Calque_1
 62
7
100
AcDbSpline
 70
8
 71
3
 72
8
 73
4
 74
0
 40
0
 40
0
 40
0
 40
0
 40
1
 40
1
 40
1
 40
1
 10
92.264437
 20
120.843090
 30
0.0
 10
92.445442
 20
120.371437
 30
0.0
 10
92.273212
 20
120.261022
 30
0.0
 10
91.622602
 20
120.431205
 30
0.0
  0
SPLINE
  5
273
100
AcDbEntity
  8
Calque_1
 62
7
100
AcDbSpline
 70
8
 71
3
 72
8
 73
4
 74
0
 40
0
 40
0
 40
0
 40
0
 40
1
 40
1
 40
1
 40
1
 10
91.622602
 20
120.431205
 30
0.0
 10
91.133588
 20
120.559080
 30
0.0
 10
90.733485
 20
120.483780
 30
0.0
 10
90.733485
 20
120.263737
 30
0.0
  0
SPLINE
  5
274
100
AcDbEntity
  8
Calque_1
 62
7
100
AcDbSpline
 70
8
 71
3
 72
8
 73
4
 74
0
 40
0
 40
0
 40
0
 40
0
 40
1
 40
1
 40
1
 40
1
 10
90.733485
 20
120.263737
 30
0.0
 10
90.733485
 20
120.043755
 30
0.0
 10
90.466403
 20
119.863770
 30
0.0
 10
90.139958
 20
119.863770
 30
0.0
  0
SPLINE
  5
275
100
AcDbEntity
  8
Calque_1
 62
7
100
AcDbSpline
 70
8
 71
3
 72
8
 73
4
 74
0
 40
0
 40
0
 40
0
 40
0
 40
1
 40
1
 40
1
 40
1
 10
90.139958
 20
119.863770
 30
0.0
 10
89.426288
 20
119.863770
 30
0.0
 10
87.992250
 20
118.369717
 30
0.0
 10
88.305480
 20
117.952530
 30
0.0
  0
SPLINE
  5
276
100
AcDbEntity
  8
Calque_1
 62
7
100
AcDbSpline
 70
8
 71
3
 72
8
 73
4
 74
0
 40
0
 40
0
 40
0
 40
0
 40
1
 40
1
 40
1
 40
1
 10
88.305480
 20
117.952530
 30
0.0
 10
88.427318
 20
117.790192
 30
0.0
 10
88.401675
 20
117.749685
 30
0.0
 10
88.248405
 20
117.862462
 30
0.0
  0
SPLINE
  5
277
100
AcDbEntity
  8
Calque_1
 62
7
100
AcDbSpline
 70
8
 71
3
 72
8
 73
4
 74
0
 40
0
 40
0
 40
0
 40
0
 40
1
 40
1
 40
1
 40
1
 10
88.248405
 20
117.862462
 30
0.0
 10
87.758340
 20
118.223190
 30
0.0
 10
86.320665
 20
117.209910
 30
0.0
 10
86.320665
 20
116.503777
 30
0.0
  0
SPLINE
  5
278
100
AcDbEntity
  8
Calque_1
 62
7
100
AcDbSpline
 70
8
 71
3
 72
8
 73
4
 74
0
 40
0
 40
0
 40
0
 40
0
 40
1
 40
1
 40
1
 40
1
 10
86.320665
 20
116.503777
 30
0.0
 10
86.320665
 20
115.926180
 30
0.0
 10
83.434493
 20
112.247017
 30
0.0
 10
80.982945
 20
109.699515
 30
0.0
  0
SPLINE
  5
279
100
AcDbEntity
  8
Calque_1
 62
7
100
AcDbSpline
 70
8
 71
3
 72
8
 73
4
 74
0
 40
0
 40
0
 40
0
 40
0
 40
1
 40
1
 40
1
 40
1
 10
80.982945
 20
109.699515
 30
0.0
 10
80.595593
 20
109.296997
 30
0.0
 10
79.615808
 20
107.993857
 30
0.0
 10
78.805665
 20
106.803637
 30
0.0
  0
SPLINE
  5
27a
100
AcDbEntity
  8
Calque_1
 62
7
100
AcDbSpline
 70
8
 71
3
 72
8
 73
4
 74
0
 40
0
 40
0
 40
0
 40
0
 40
1
 40
1
 40
1
 40
1
 10
78.805665
 20
106.803637
 30
0.0
 10
77.995530
 20
105.613425
 30
0.0
 10
77.210768
 20
104.540325
 30
0.0
 10
77.061757
 20
104.418967
 30
0.0
  0
SPLINE
  5
27b
100
AcDbEntity
  8
Calque_1
 62
7
100
AcDbSpline
 70
8
 71
3
 72
8
 73
4
 74
0
 40
0
 40
0
 40
0
 40
0
 40
1
 40
1
 40
1
 40
1
 10
77.061757
 20
104.418967
 30
0.0
 10
76.912740
 20
104.297632
 30
0.0
 10
76.763032
 20
103.751542
 30
0.0
 10
76.729095
 20
103.205445
 30
0.0
  0
SPLINE
  5
27c
100
AcDbEntity
  8
Calque_1
 62
7
100
AcDbSpline
 70
8
 71
3
 72
8
 73
4
 74
0
 40
0
 40
0
 40
0
 40
0
 40
1
 40
1
 40
1
 40
1
 10
76.729095
 20
103.205445
 30
0.0
 10
76.678470
 20
102.390540
 30
0.0
 10
76.896015
 20
102.212565
 30
0.0
 10
77.943015
 20
102.212565
 30
0.0
  0
SPLINE
  5
27d
100
AcDbEntity
  8
Calque_1
 62
7
100
AcDbSpline
 70
8
 71
3
 72
8
 73
4
 74
0
 40
0
 40
0
 40
0
 40
0
 40
1
 40
1
 40
1
 40
1
 10
77.943015
 20
102.212565
 30
0.0
 10
78.644617
 20
102.212565
 30
0.0
 10
79.680367
 20
102.422940
 30
0.0
 10
80.244660
 20
102.680040
 30
0.0
  0
LWPOLYLINE
  5
27e
100
AcDbEntity
  8
Calque_1
 62
7
100
AcDbPolyline
 90
1
 70
1
 10
98.235270
 20
92.504445
 30
0.0
  0
SPLINE
  5
27f
100
AcDbEntity
  8
Calque_1
 62
7
100
AcDbSpline
 70
8
 71
3
 72
8
 73
4
 74
0
 40
0
 40
0
 40
0
 40
0
 40
1
 40
1
 40
1
 40
1
 10
98.014635
 20
120.305055
 30
0.0
 10
98.164635
 20
120.547763
 30
0.0
 10
98.485935
 20
120.746333
 30
0.0
 10
98.728642
 20
120.746333
 30
0.0
  0
SPLINE
  5
280
100
AcDbEntity
  8
Calque_1
 62
7
100
AcDbSpline
 70
8
 71
3
 72
8
 73
4
 74
0
 40
0
 40
0
 40
0
 40
0
 40
1
 40
1
 40
1
 40
1
 10
98.728642
 20
120.746333
 30
0.0
 10
98.971350
 20
120.746333
 30
0.0
 10
99.047197
 20
120.547763
 30
0.0
 10
98.897197
 20
120.305055
 30
0.0
  0
SPLINE
  5
281
100
AcDbEntity
  8
Calque_1
 62
7
100
AcDbSpline
 70
8
 71
3
 72
8
 73
4
 74
0
 40
0
 40
0
 40
0
 40
0
 40
1
 40
1
 40
1
 40
1
 10
98.897197
 20
120.305055
 30
0.0
 10
98.747190
 20
120.062348
 30
0.0
 10
98.425890
 20
119.863770
 30
0.0
 10
98.183190
 20
119.863770
 30
0.0
  0
SPLINE
  5
282
100
AcDbEntity
  8
Calque_1
 62
7
100
AcDbSpline
 70
8
 71
3
 72
8
 73
4
 74
0
 40
0
 40
0
 40
0
 40
0
 40
1
 40
1
 40
1
 40
1
 10
98.183190
 20
119.863770
 30
0.0
 10
97.940490
 20
119.863770
 30
0.0
 10
97.864642
 20
120.062348
 30
0.0
 10
98.014635
 20
120.305055
 30
0.0
  0
LWPOLYLINE
  5
283
100
AcDbEntity
  8
Calque_1
 62
7
100
AcDbPolyline
 90
1
 70
1
 10
80.244660
 20
102.680040
 30
0.0
  0
SPLINE
  5
284
100
AcDbEntity
  8
Calque_1
 62
7
100
AcDbSpline
 70
8
 71
3
 72
8
 73
4
 74
0
 40
0
 40
0
 40
0
 40
0
 40
1
 40
1
 40
1
 40
1
 10
89.578057
 20
105.545115
 30
0.0
 10
89.728747
 20
105.937815
 30
0.0
 10
89.654737
 20
106.114950
 30
0.0
 10
89.404635
 20
105.960352
 30
0.0
  0
SPLINE
  5
285
100
AcDbEntity
  8
Calque_1
 62
7
100
AcDbSpline
 70
8
 71
3
 72
8
 73
4
 74
0
 40
0
 40
0
 40
0
 40
0
 40
1
 40
1
 40
1
 40
1
 10
89.404635
 20
105.960352
 30
0.0
 10
89.164710
 20
105.812070
 30
0.0
 10
88.968405
 20
105.503888
 30
0.0
 10
88.968405
 20
105.275513
 30
0.0
  0
SPLINE
  5
286
100
AcDbEntity
  8
Calque_1
 62
7
100
AcDbSpline
 70
8
 71
3
 72
8
 73
4
 74
0
 40
0
 40
0
 40
0
 40
0
 40
1
 40
1
 40
1
 40
1
 10
88.968405
 20
105.275513
 30
0.0
 10
88.968405
 20
104.640758
 30
0.0
 10
89.284702
 20
104.780633
 30
0.0
 10
89.578057
 20
105.545115
 30
0.0
  0
LWPOLYLINE
  5
287
100
AcDbEntity
  8
Calque_1
 62
7
100
AcDbPolyline
 90
1
 70
1
 10
98.014635
 20
120.305055
 30
0.0
  0
SPLINE
  5
288
100
AcDbEntity
  8
Calque_1
 62
7
100
AcDbSpline
 70
8
 71
3
 72
8
 73
4
 74
0
 40
0
 40
0
 40
0
 40
0
 40
1
 40
1
 40
1
 40
1
 10
155.160323
 20
109.714350
 30
0.0
 10
155.160323
 20
109.957050
 30
0.0
 10
154.950030
 20
110.155620
 30
0.0
 10
154.693013
 20
110.155620
 30
0.0
  0
SPLINE
  5
289
100
AcDbEntity
  8
Calque_1
 62
7
100
AcDbSpline
 70
8
 71
3
 72
8
 73
4
 74
0
 40
0
 40
0
 40
0
 40
0
 40
1
 40
1
 40
1
 40
1
 10
154.693013
 20
110.155620
 30
0.0
 10
154.435980
 20
110.155620
 30
0.0
 10
154.348410
 20
109.957050
 30
0.0
 10
154.498410
 20
109.714350
 30
0.0
  0
SPLINE
  5
28a
100
AcDbEntity
  8
Calque_1
 62
7
100
AcDbSpline
 70
8
 71
3
 72
8
 73
4
 74
0
 40
0
 40
0
 40
0
 40
0
 40
1
 40
1
 40
1
 40
1
 10
154.498410
 20
109.714350
 30
0.0
 10
154.648403
 20
109.471650
 30
0.0
 10
154.858702
 20
109.273072
 30
0.0
 10
154.965735
 20
109.273072
 30
0.0
  0
SPLINE
  5
28b
100
AcDbEntity
  8
Calque_1
 62
7
100
AcDbSpline
 70
8
 71
3
 72
8
 73
4
 74
0
 40
0
 40
0
 40
0
 40
0
 40
1
 40
1
 40
1
 40
1
 10
154.965735
 20
109.273072
 30
0.0
 10
155.072812
 20
109.273072
 30
0.0
 10
155.160323
 20
109.471650
 30
0.0
 10
155.160323
 20
109.714350
 30
0.0
  0
LWPOLYLINE
  5
28c
100
AcDbEntity
  8
Calque_1
 62
7
100
AcDbPolyline
 90
1
 70
1
 10
89.578057
 20
105.545115
 30
0.0
  0
SPLINE
  5
28d
100
AcDbEntity
  8
Calque_1
 62
7
100
AcDbSpline
 70
8
 71
3
 72
8
 73
4
 74
0
 40
0
 40
0
 40
0
 40
0
 40
1
 40
1
 40
1
 40
1
 10
151.964790
 20
116.793757
 30
0.0
 10
151.659360
 20
117.289590
 30
0.0
 10
151.098023
 20
117.615480
 30
0.0
 10
150.717367
 20
117.517950
 30
0.0
  0
SPLINE
  5
28e
100
AcDbEntity
  8
Calque_1
 62
7
100
AcDbSpline
 70
8
 71
3
 72
8
 73
4
 74
0
 40
0
 40
0
 40
0
 40
0
 40
1
 40
1
 40
1
 40
1
 10
150.717367
 20
117.517950
 30
0.0
 10
150.296490
 20
117.410122
 30
0.0
 10
149.817833
 20
117.791767
 30
0.0
 10
149.495865
 20
118.491892
 30
0.0
  0
SPLINE
  5
28f
100
AcDbEntity
  8
Calque_1
 62
7
100
AcDbSpline
 70
8
 71
3
 72
8
 73
4
 74
0
 40
0
 40
0
 40
0
 40
0
 40
1
 40
1
 40
1
 40
1
 10
149.495865
 20
118.491892
 30
0.0
 10
148.633590
 20
120.366922
 30
0.0
 10
140.340818
 20
125.254387
 30
0.0
 10
136.925077
 20
125.900677
 30
0.0
  0
SPLINE
  5
290
100
AcDbEntity
  8
Calque_1
 62
7
100
AcDbSpline
 70
8
 71
3
 72
8
 73
4
 74
0
 40
0
 40
0
 40
0
 40
0
 40
1
 40
1
 40
1
 40
1
 10
136.925077
 20
125.900677
 30
0.0
 10
136.154153
 20
126.046537
 30
0.0
 10
135.306547
 20
126.334792
 30
0.0
 10
135.041513
 20
126.541230
 30
0.0
  0
SPLINE
  5
291
100
AcDbEntity
  8
Calque_1
 62
7
100
AcDbSpline
 70
8
 71
3
 72
8
 73
4
 74
0
 40
0
 40
0
 40
0
 40
0
 40
1
 40
1
 40
1
 40
1
 10
135.041513
 20
126.541230
 30
0.0
 10
134.776477
 20
126.747675
 30
0.0
 10
134.428972
 20
126.785925
 30
0.0
 10
134.269275
 20
126.626167
 30
0.0
  0
SPLINE
  5
292
100
AcDbEntity
  8
Calque_1
 62
7
100
AcDbSpline
 70
8
 71
3
 72
8
 73
4
 74
0
 40
0
 40
0
 40
0
 40
0
 40
1
 40
1
 40
1
 40
1
 10
134.269275
 20
126.626167
 30
0.0
 10
134.109578
 20
126.466470
 30
0.0
 10
133.978913
 20
126.567517
 30
0.0
 10
133.978913
 20
126.850635
 30
0.0
  0
SPLINE
  5
293
100
AcDbEntity
  8
Calque_1
 62
7
100
AcDbSpline
 70
8
 71
3
 72
8
 73
4
 74
0
 40
0
 40
0
 40
0
 40
0
 40
1
 40
1
 40
1
 40
1
 10
133.978913
 20
126.850635
 30
0.0
 10
133.978913
 20
127.133797
 30
0.0
 10
133.802400
 20
127.365472
 30
0.0
 10
133.586663
 20
127.365472
 30
0.0
  0
SPLINE
  5
294
100
AcDbEntity
  8
Calque_1
 62
7
100
AcDbSpline
 70
8
 71
3
 72
8
 73
4
 74
0
 40
0
 40
0
 40
0
 40
0
 40
1
 40
1
 40
1
 40
1
 10
133.586663
 20
127.365472
 30
0.0
 10
133.370925
 20
127.365472
 30
0.0
 10
133.221998
 20
127.017952
 30
0.0
 10
133.255710
 20
126.593220
 30
0.0
  0
SPLINE
  5
295
100
AcDbEntity
  8
Calque_1
 62
7
100
AcDbSpline
 70
8
 71
3
 72
8
 73
4
 74
0
 40
0
 40
0
 40
0
 40
0
 40
1
 40
1
 40
1
 40
1
 10
133.255710
 20
126.593220
 30
0.0
 10
133.298085
 20
126.059437
 30
0.0
 10
132.942293
 20
125.777880
 30
0.0
 10
132.103485
 20
125.681362
 30
0.0
  0
SPLINE
  5
296
100
AcDbEntity
  8
Calque_1
 62
7
100
AcDbSpline
 70
8
 71
3
 72
8
 73
4
 74
0
 40
0
 40
0
 40
0
 40
0
 40
1
 40
1
 40
1
 40
1
 10
132.103485
 20
125.681362
 30
0.0
 10
130.340025
 20
125.478442
 30
0.0
 10
130.592190
 20
124.372357
 30
0.0
 10
132.482760
 20
124.017690
 30
0.0
  0
SPLINE
  5
297
100
AcDbEntity
  8
Calque_1
 62
7
100
AcDbSpline
 70
8
 71
3
 72
8
 73
4
 74
0
 40
0
 40
0
 40
0
 40
0
 40
1
 40
1
 40
1
 40
1
 10
132.482760
 20
124.017690
 30
0.0
 10
133.619025
 20
123.804525
 30
0.0
 10
134.186258
 20
123.893602
 30
0.0
 10
134.461762
 20
124.328655
 30
0.0
  0
SPLINE
  5
298
100
AcDbEntity
  8
Calque_1
 62
7
100
AcDbSpline
 70
8
 71
3
 72
8
 73
4
 74
0
 40
0
 40
0
 40
0
 40
0
 40
1
 40
1
 40
1
 40
1
 10
134.461762
 20
124.328655
 30
0.0
 10
134.740657
 20
124.769002
 30
0.0
 10
134.849827
 20
124.785157
 30
0.0
 10
134.854725
 20
124.386855
 30
0.0
  0
SPLINE
  5
299
100
AcDbEntity
  8
Calque_1
 62
7
100
AcDbSpline
 70
8
 71
3
 72
8
 73
4
 74
0
 40
0
 40
0
 40
0
 40
0
 40
1
 40
1
 40
1
 40
1
 10
134.854725
 20
124.386855
 30
0.0
 10
134.858475
 20
124.083472
 30
0.0
 10
135.138097
 20
123.835252
 30
0.0
 10
135.476182
 20
123.835252
 30
0.0
  0
SPLINE
  5
29a
100
AcDbEntity
  8
Calque_1
 62
7
100
AcDbSpline
 70
8
 71
3
 72
8
 73
4
 74
0
 40
0
 40
0
 40
0
 40
0
 40
1
 40
1
 40
1
 40
1
 10
135.476182
 20
123.835252
 30
0.0
 10
135.814267
 20
123.835252
 30
0.0
 10
136.201200
 20
123.547800
 30
0.0
 10
136.336013
 20
123.196470
 30
0.0
  0
SPLINE
  5
29b
100
AcDbEntity
  8
Calque_1
 62
7
100
AcDbSpline
 70
8
 71
3
 72
8
 73
4
 74
0
 40
0
 40
0
 40
0
 40
0
 40
1
 40
1
 40
1
 40
1
 10
136.336013
 20
123.196470
 30
0.0
 10
136.470833
 20
122.845125
 30
0.0
 10
137.385675
 20
122.341035
 30
0.0
 10
138.368985
 20
122.076262
 30
0.0
  0
SPLINE
  5
29c
100
AcDbEntity
  8
Calque_1
 62
7
100
AcDbSpline
 70
8
 71
3
 72
8
 73
4
 74
0
 40
0
 40
0
 40
0
 40
0
 40
1
 40
1
 40
1
 40
1
 10
138.368985
 20
122.076262
 30
0.0
 10
139.352303
 20
121.811475
 30
0.0
 10
140.156828
 20
121.382662
 30
0.0
 10
140.156828
 20
121.123357
 30
0.0
  0
SPLINE
  5
29d
100
AcDbEntity
  8
Calque_1
 62
7
100
AcDbSpline
 70
8
 71
3
 72
8
 73
4
 74
0
 40
0
 40
0
 40
0
 40
0
 40
1
 40
1
 40
1
 40
1
 10
140.156828
 20
121.123357
 30
0.0
 10
140.156828
 20
120.864045
 30
0.0
 10
140.454698
 20
120.766177
 30
0.0
 10
140.818748
 20
120.905872
 30
0.0
  0
SPLINE
  5
29e
100
AcDbEntity
  8
Calque_1
 62
7
100
AcDbSpline
 70
8
 71
3
 72
8
 73
4
 74
0
 40
0
 40
0
 40
0
 40
0
 40
1
 40
1
 40
1
 40
1
 10
140.818748
 20
120.905872
 30
0.0
 10
141.264158
 20
121.076790
 30
0.0
 10
141.480660
 20
120.885322
 30
0.0
 10
141.480660
 20
120.320475
 30
0.0
  0
SPLINE
  5
29f
100
AcDbEntity
  8
Calque_1
 62
7
100
AcDbSpline
 70
8
 71
3
 72
8
 73
4
 74
0
 40
0
 40
0
 40
0
 40
0
 40
1
 40
1
 40
1
 40
1
 10
141.480660
 20
120.320475
 30
0.0
 10
141.480660
 20
119.732805
 30
0.0
 10
141.844590
 20
119.439202
 30
0.0
 10
142.694183
 20
119.341447
 30
0.0
  0
SPLINE
  5
2a0
100
AcDbEntity
  8
Calque_1
 62
7
100
AcDbSpline
 70
8
 71
3
 72
8
 73
4
 74
0
 40
0
 40
0
 40
0
 40
0
 40
1
 40
1
 40
1
 40
1
 10
142.694183
 20
119.341447
 30
0.0
 10
143.376705
 20
119.262892
 30
0.0
 10
143.859428
 20
118.960455
 30
0.0
 10
143.797388
 20
118.650210
 30
0.0
  0
SPLINE
  5
2a1
100
AcDbEntity
  8
Calque_1
 62
7
100
AcDbSpline
 70
8
 71
3
 72
8
 73
4
 74
0
 40
0
 40
0
 40
0
 40
0
 40
1
 40
1
 40
1
 40
1
 10
143.797388
 20
118.650210
 30
0.0
 10
143.736713
 20
118.346842
 30
0.0
 10
144.074340
 20
118.098615
 30
0.0
 10
144.547695
 20
118.098615
 30
0.0
  0
SPLINE
  5
2a2
100
AcDbEntity
  8
Calque_1
 62
7
100
AcDbSpline
 70
8
 71
3
 72
8
 73
4
 74
0
 40
0
 40
0
 40
0
 40
0
 40
1
 40
1
 40
1
 40
1
 10
144.547695
 20
118.098615
 30
0.0
 10
145.021035
 20
118.098615
 30
0.0
 10
145.576710
 20
117.797722
 30
0.0
 10
145.782533
 20
117.429937
 30
0.0
  0
SPLINE
  5
2a3
100
AcDbEntity
  8
Calque_1
 62
7
100
AcDbSpline
 70
8
 71
3
 72
8
 73
4
 74
0
 40
0
 40
0
 40
0
 40
0
 40
1
 40
1
 40
1
 40
1
 10
145.782533
 20
117.429937
 30
0.0
 10
146.035035
 20
116.978760
 30
0.0
 10
147.061260
 20
116.701252
 30
0.0
 10
148.937603
 20
116.576760
 30
0.0
  0
SPLINE
  5
2a4
100
AcDbEntity
  8
Calque_1
 62
7
100
AcDbSpline
 70
8
 71
3
 72
8
 73
4
 74
0
 40
0
 40
0
 40
0
 40
0
 40
1
 40
1
 40
1
 40
1
 10
148.937603
 20
116.576760
 30
0.0
 10
150.467078
 20
116.475315
 30
0.0
 10
151.830968
 20
116.279722
 30
0.0
 10
151.968465
 20
116.142232
 30
0.0
  0
SPLINE
  5
2a5
100
AcDbEntity
  8
Calque_1
 62
7
100
AcDbSpline
 70
8
 71
3
 72
8
 73
4
 74
0
 40
0
 40
0
 40
0
 40
0
 40
1
 40
1
 40
1
 40
1
 10
151.968465
 20
116.142232
 30
0.0
 10
152.498108
 20
115.612582
 30
0.0
 10
152.496308
 20
115.930897
 30
0.0
 10
151.964715
 20
116.793720
 30
0.0
  0
LWPOLYLINE
  5
2a6
100
AcDbEntity
  8
Calque_1
 62
7
100
AcDbPolyline
 90
1
 70
1
 10
155.160323
 20
109.714350
 30
0.0
  0
SPLINE
  5
2a7
100
AcDbEntity
  8
Calque_1
 62
7
100
AcDbSpline
 70
8
 71
3
 72
8
 73
4
 74
0
 40
0
 40
0
 40
0
 40
0
 40
1
 40
1
 40
1
 40
1
 10
147.658575
 20
117.878010
 30
0.0
 10
147.960720
 20
118.242083
 30
0.0
 10
148.382182
 20
118.539937
 30
0.0
 10
148.595168
 20
118.539937
 30
0.0
  0
SPLINE
  5
2a8
100
AcDbEntity
  8
Calque_1
 62
7
100
AcDbSpline
 70
8
 71
3
 72
8
 73
4
 74
0
 40
0
 40
0
 40
0
 40
0
 40
1
 40
1
 40
1
 40
1
 10
148.595168
 20
118.539937
 30
0.0
 10
148.808153
 20
118.539937
 30
0.0
 10
148.982423
 20
118.242082
 30
0.0
 10
148.982423
 20
117.878010
 30
0.0
  0
SPLINE
  5
2a9
100
AcDbEntity
  8
Calque_1
 62
7
100
AcDbSpline
 70
8
 71
3
 72
8
 73
4
 74
0
 40
0
 40
0
 40
0
 40
0
 40
1
 40
1
 40
1
 40
1
 10
148.982423
 20
117.878010
 30
0.0
 10
148.982423
 20
117.497557
 30
0.0
 10
148.584173
 20
117.216105
 30
0.0
 10
148.045830
 20
117.216105
 30
0.0
  0
SPLINE
  5
2aa
100
AcDbEntity
  8
Calque_1
 62
7
100
AcDbSpline
 70
8
 71
3
 72
8
 73
4
 74
0
 40
0
 40
0
 40
0
 40
0
 40
1
 40
1
 40
1
 40
1
 10
148.045830
 20
117.216105
 30
0.0
 10
147.263340
 20
117.216105
 30
0.0
 10
147.199620
 20
117.325050
 30
0.0
 10
147.658575
 20
117.878010
 30
0.0
  0
LWPOLYLINE
  5
2ab
100
AcDbEntity
  8
Calque_1
 62
7
100
AcDbPolyline
 90
1
 70
1
 10
151.964715
 20
116.793720
 30
0.0
  0
SPLINE
  5
2ac
100
AcDbEntity
  8
Calque_1
 62
7
100
AcDbSpline
 70
8
 71
3
 72
8
 73
4
 74
0
 40
0
 40
0
 40
0
 40
0
 40
1
 40
1
 40
1
 40
1
 10
140.598112
 20
122.511450
 30
0.0
 10
140.598112
 20
122.754158
 30
0.0
 10
140.895967
 20
122.952735
 30
0.0
 10
141.260018
 20
122.952735
 30
0.0
  0
SPLINE
  5
2ad
100
AcDbEntity
  8
Calque_1
 62
7
100
AcDbSpline
 70
8
 71
3
 72
8
 73
4
 74
0
 40
0
 40
0
 40
0
 40
0
 40
1
 40
1
 40
1
 40
1
 10
141.260018
 20
122.952735
 30
0.0
 10
141.624082
 20
122.952735
 30
0.0
 10
141.921945
 20
122.754158
 30
0.0
 10
141.921945
 20
122.511450
 30
0.0
  0
SPLINE
  5
2ae
100
AcDbEntity
  8
Calque_1
 62
7
100
AcDbSpline
 70
8
 71
3
 72
8
 73
4
 74
0
 40
0
 40
0
 40
0
 40
0
 40
1
 40
1
 40
1
 40
1
 10
141.921945
 20
122.511450
 30
0.0
 10
141.921945
 20
122.268743
 30
0.0
 10
141.624082
 20
122.070173
 30
0.0
 10
141.260018
 20
122.070173
 30
0.0
  0
SPLINE
  5
2af
100
AcDbEntity
  8
Calque_1
 62
7
100
AcDbSpline
 70
8
 71
3
 72
8
 73
4
 74
0
 40
0
 40
0
 40
0
 40
0
 40
1
 40
1
 40
1
 40
1
 10
141.260018
 20
122.070173
 30
0.0
 10
140.895967
 20
122.070173
 30
0.0
 10
140.598112
 20
122.268743
 30
0.0
 10
140.598112
 20
122.511450
 30
0.0
  0
LWPOLYLINE
  5
2b0
100
AcDbEntity
  8
Calque_1
 62
7
100
AcDbPolyline
 90
1
 70
1
 10
147.658575
 20
117.878010
 30
0.0
  0
LWPOLYLINE
  5
2b1
100
AcDbEntity
  8
Calque_1
 62
7
100
AcDbPolyline
 90
1
 70
1
 10
140.598112
 20
122.511450
 30
0.0
  0
ENDSEC
  0
SECTION
  2
OBJECTS
  0
DICTIONARY
  5
C
330
0
100
AcDbDictionary
  3
ACAD_GROUP
350
D
  3
ACAD_MLINESTYLE
350
17
  0
DICTIONARY
  5
D
330
C
100
AcDbDictionary
  0
DICTIONARY
  5
1A
330
C
100
AcDbDictionary
  0
DICTIONARY
  5
17
330
C
100
AcDbDictionary
  3
STANDARD
350
18
  0
DICTIONARY
  5
19
330
C
100
AcDbDictionary
  0
ENDSEC
  0
EOF
