  0
SECTION
  2
HEADER
  9
$ACADVER
  1
AC1018
  9
$ACADMAINTVER
 70
     0
  9
$DWGCODEPAGE
  3
ANSI_932
  9
$INSBASE
 10
0.0
 20
0.0
 30
0.0
  9
$EXTMIN
 10
1.000000000000000E+20
 20
1.000000000000000E+20
 30
1.000000000000000E+20
  9
$EXTMAX
 10
-1.000000000000000E+20
 20
-1.000000000000000E+20
 30
-1.000000000000000E+20
  9
$LIMMIN
 10
0.0
 20
0.0
  9
$LIMMAX
 10
12.0
 20
9.0
  9
$ORTHOMODE
 70
     0
  9
$REGENMODE
 70
     1
  9
$FILLMODE
 70
     1
  9
$QTEXTMODE
 70
     0
  9
$MIRRTEXT
 70
     1
  9
$LTSCALE
 40
1.0
  9
$ATTMODE
 70
     1
  9
$TEXTSIZE
 40
0.2
  9
$TRACEWID
 40
0.05
  9
$TEXTSTYLE
  7
Standard
  9
$CLAYER
  8
0
  9
$CELTYPE
  6
ByLayer
  9
$CECOLOR
 62
   256
  9
$CELTSCALE
 40
1.0
  9
$DISPSILH
 70
     0
  9
$DIMSCALE
 40
1.0
  9
$DIMASZ
 40
0.18
  9
$DIMEXO
 40
0.0625
  9
$DIMDLI
 40
0.38
  9
$DIMRND
 40
0.0
  9
$DIMDLE
 40
0.0
  9
$DIMEXE
 40
0.18
  9
$DIMTP
 40
0.0
  9
$DIMTM
 40
0.0
  9
$DIMTXT
 40
0.18
  9
$DIMCEN
 40
0.09
  9
$DIMTSZ
 40
0.0
  9
$DIMTOL
 70
     0
  9
$DIMLIM
 70
     0
  9
$DIMTIH
 70
     1
  9
$DIMTOH
 70
     1
  9
$DIMSE1
 70
     0
  9
$DIMSE2
 70
     0
  9
$DIMTAD
 70
     0
  9
$DIMZIN
 70
     0
  9
$DIMBLK
  1

  9
$DIMASO
 70
     1
  9
$DIMSHO
 70
     1
  9
$DIMPOST
  1

  9
$DIMAPOST
  1

  9
$DIMALT
 70
     0
  9
$DIMALTD
 70
     2
  9
$DIMALTF
 40
25.4
  9
$DIMLFAC
 40
1.0
  9
$DIMTOFL
 70
     0
  9
$DIMTVP
 40
0.0
  9
$DIMTIX
 70
     0
  9
$DIMSOXD
 70
     0
  9
$DIMSAH
 70
     0
  9
$DIMBLK1
  1

  9
$DIMBLK2
  1

  9
$DIMSTYLE
  2
Standard
  9
$DIMCLRD
 70
     0
  9
$DIMCLRE
 70
     0
  9
$DIMCLRT
 70
     0
  9
$DIMTFAC
 40
1.0
  9
$DIMGAP
 40
0.09
  9
$DIMJUST
 70
     0
  9
$DIMSD1
 70
     0
  9
$DIMSD2
 70
     0
  9
$DIMTOLJ
 70
     1
  9
$DIMTZIN
 70
     0
  9
$DIMALTZ
 70
     0
  9
$DIMALTTZ
 70
     0
  9
$DIMUPT
 70
     0
  9
$DIMDEC
 70
     4
  9
$DIMTDEC
 70
     4
  9
$DIMALTU
 70
     2
  9
$DIMALTTD
 70
     2
  9
$DIMTXSTY
  7
Standard
  9
$DIMAUNIT
 70
     0
  9
$DIMADEC
 70
     0
  9
$DIMALTRND
 40
0.0
  9
$DIMAZIN
 70
     0
  9
$DIMDSEP
 70
    46
  9
$DIMATFIT
 70
     3
  9
$DIMFRAC
 70
     0
  9
$DIMLDRBLK
  1

  9
$DIMLUNIT
 70
     2
  9
$DIMLWD
 70
    -2
  9
$DIMLWE
 70
    -2
  9
$DIMTMOVE
 70
     0
  9
$LUNITS
 70
     2
  9
$LUPREC
 70
     4
  9
$SKETCHINC
 40
0.1
  9
$FILLETRAD
 40
0.5
  9
$AUNITS
 70
     0
  9
$AUPREC
 70
     0
  9
$MENU
  1
.
  9
$ELEVATION
 40
0.0
  9
$PELEVATION
 40
0.0
  9
$THICKNESS
 40
0.0
  9
$LIMCHECK
 70
     0
  9
$CHAMFERA
 40
0.5
  9
$CHAMFERB
 40
0.5
  9
$CHAMFERC
 40
1.0
  9
$CHAMFERD
 40
0.0
  9
$SKPOLY
 70
     0
  9
$TDCREATE
 40
2458655.612384259
  9
$TDUCREATE
 40
2458655.237384259
  9
$TDUPDATE
 40
2458655.612384271
  9
$TDUUPDATE
 40
2458655.237384271
  9
$TDINDWG
 40
0.0000000116
  9
$TDUSRTIMER
 40
0.0000000116
  9
$USRTIMER
 70
     1
  9
$ANGBASE
 50
0.0
  9
$ANGDIR
 70
     0
  9
$PDMODE
 70
     0
  9
$PDSIZE
 40
0.0
  9
$PLINEWID
 40
0.0
  9
$SPLFRAME
 70
     0
  9
$SPLINETYPE
 70
     6
  9
$SPLINESEGS
 70
     8
  9
$HANDSEED
  5
4F
  9
$SURFTAB1
 70
     6
  9
$SURFTAB2
 70
     6
  9
$SURFTYPE
 70
     6
  9
$SURFU
 70
     6
  9
$SURFV
 70
     6
  9
$UCSBASE
  2

  9
$UCSNAME
  2

  9
$UCSORG
 10
0.0
 20
0.0
 30
0.0
  9
$UCSXDIR
 10
1.0
 20
0.0
 30
0.0
  9
$UCSYDIR
 10
0.0
 20
1.0
 30
0.0
  9
$UCSORTHOREF
  2

  9
$UCSORTHOVIEW
 70
     0
  9
$UCSORGTOP
 10
0.0
 20
0.0
 30
0.0
  9
$UCSORGBOTTOM
 10
0.0
 20
0.0
 30
0.0
  9
$UCSORGLEFT
 10
0.0
 20
0.0
 30
0.0
  9
$UCSORGRIGHT
 10
0.0
 20
0.0
 30
0.0
  9
$UCSORGFRONT
 10
0.0
 20
0.0
 30
0.0
  9
$UCSORGBACK
 10
0.0
 20
0.0
 30
0.0
  9
$PUCSBASE
  2

  9
$PUCSNAME
  2

  9
$PUCSORG
 10
0.0
 20
0.0
 30
0.0
  9
$PUCSXDIR
 10
1.0
 20
0.0
 30
0.0
  9
$PUCSYDIR
 10
0.0
 20
1.0
 30
0.0
  9
$PUCSORTHOREF
  2

  9
$PUCSORTHOVIEW
 70
     0
  9
$PUCSORGTOP
 10
0.0
 20
0.0
 30
0.0
  9
$PUCSORGBOTTOM
 10
0.0
 20
0.0
 30
0.0
  9
$PUCSORGLEFT
 10
0.0
 20
0.0
 30
0.0
  9
$PUCSORGRIGHT
 10
0.0
 20
0.0
 30
0.0
  9
$PUCSORGFRONT
 10
0.0
 20
0.0
 30
0.0
  9
$PUCSORGBACK
 10
0.0
 20
0.0
 30
0.0
  9
$USERI1
 70
     0
  9
$USERI2
 70
     0
  9
$USERI3
 70
     0
  9
$USERI4
 70
     0
  9
$USERI5
 70
     0
  9
$USERR1
 40
0.0
  9
$USERR2
 40
0.0
  9
$USERR3
 40
0.0
  9
$USERR4
 40
0.0
  9
$USERR5
 40
0.0
  9
$WORLDVIEW
 70
     1
  9
$SHADEDGE
 70
     3
  9
$SHADEDIF
 70
    70
  9
$TILEMODE
 70
     1
  9
$MAXACTVP
 70
    64
  9
$PINSBASE
 10
0.0
 20
0.0
 30
0.0
  9
$PLIMCHECK
 70
     0
  9
$PEXTMIN
 10
1.000000000000000E+20
 20
1.000000000000000E+20
 30
1.000000000000000E+20
  9
$PEXTMAX
 10
-1.000000000000000E+20
 20
-1.000000000000000E+20
 30
-1.000000000000000E+20
  9
$PLIMMIN
 10
0.0
 20
0.0
  9
$PLIMMAX
 10
12.0
 20
9.0
  9
$UNITMODE
 70
     0
  9
$VISRETAIN
 70
     1
  9
$PLINEGEN
 70
     0
  9
$PSLTSCALE
 70
     1
  9
$TREEDEPTH
 70
  3020
  9
$CMLSTYLE
  2
Standard
  9
$CMLJUST
 70
     0
  9
$CMLSCALE
 40
1.0
  9
$PROXYGRAPHICS
 70
     1
  9
$MEASUREMENT
 70
     0
  9
$CELWEIGHT
370
    -1
  9
$ENDCAPS
280
     0
  9
$JOINSTYLE
280
     0
  9
$LWDISPLAY
290
     1
  9
$INSUNITS
 70
     1
  9
$HYPERLINKBASE
  1

  9
$STYLESHEET
  1

  9
$XEDIT
290
     1
  9
$CEPSNTYPE
380
     0
  9
$PSTYLEMODE
290
     1
  9
$FINGERPRINTGUID
  2
{CA8B3E9D-4005-D18B-B6A3-D22C691402DA}
  9
$VERSIONGUID
  2
{FAEB1C32-E019-11D5-929B-00C0DF256EC4}
  9
$EXTNAMES
290
     1
  9
$PSVPSCALE
 40
0.0
  9
$OLESTARTUP
290
     0
  9
$SORTENTS
280
   127
  9
$INDEXCTL
280
     0
  9
$HIDETEXT
280
     1
  9
$XCLIPFRAME
290
     0
  9
$HALOGAP
280
     0
  9
$OBSCOLOR
 70
   257
  9
$OBSLTYPE
280
     0
  9
$INTERSECTIONDISPLAY
280
     0
  9
$INTERSECTIONCOLOR
 70
   257
  9
$DIMASSOC
280
     2
  9
$PROJECTNAME
  1

  0
ENDSEC
  0
SECTION
  2
CLASSES
  0
CLASS
  1
ACDBDICTIONARYWDFLT
  2
AcDbDictionaryWithDefault
  3
ObjectDBX Classes
 90
        0
 91
        3
280
     0
281
     0
  0
CLASS
  1
VISUALSTYLE
  2
AcDbVisualStyle
  3
ObjectDBX Classes
 90
     4095
 91
        3
280
     0
281
     0
  0
ENDSEC
  0
SECTION
  2
TABLES
  0
TABLE
  2
VPORT
  5
8
330
0
100
AcDbSymbolTable
 70
     1
  0
VPORT
  5
29
330
8
100
AcDbSymbolTableRecord
100
AcDbViewportTableRecord
  2
*Active
 70
     0
 10
0.0
 20
0.0
 11
1.0
 21
1.0
 12
0.0
 22
0.0
 13
0.0
 23
0.0
 14
0.5
 24
0.5
 15
0.5
 25
0.5
 16
0.0
 26
0.0
 36
1.0
 17
105.0008259828644
 27
-148.4999796178229
 37
0.0
 40
296.9999592356459
 41
0.7070763662937379
 42
50.0
 43
0.0
 44
0.0
 50
0.0
 51
0.0
 71
     0
 72
   100
 73
     1
 74
     3
 75
     0
 76
     0
 77
     0
 78
     0
281
     0
 65
     1
110
0.0
120
0.0
130
0.0
111
1.0
121
0.0
131
0.0
112
0.0
122
1.0
132
0.0
 79
     0
146
0.0
  0
ENDTAB
  0
TABLE
  2
LTYPE
  5
5
330
0
100
AcDbSymbolTable
 70
     1
  0
LTYPE
  5
14
330
5
100
AcDbSymbolTableRecord
100
AcDbLinetypeTableRecord
  2
ByBlock
 70
     0
  3

 72
    65
 73
     0
 40
0.0
  0
LTYPE
  5
15
330
5
100
AcDbSymbolTableRecord
100
AcDbLinetypeTableRecord
  2
ByLayer
 70
     0
  3

 72
    65
 73
     0
 40
0.0
  0
LTYPE
  5
16
330
5
100
AcDbSymbolTableRecord
100
AcDbLinetypeTableRecord
  2
Continuous
 70
     0
  3
Solid line
 72
    65
 73
     0
 40
0.0
  0
ENDTAB
  0
TABLE
  2
LAYER
  5
2
330
0
100
AcDbSymbolTable
 70
     2
  0
LAYER
  5
10
330
2
100
AcDbSymbolTableRecord
100
AcDbLayerTableRecord
  2
0
 70
     0
 62
     7
  6
Continuous
370
    -3
390
F
  0
LAYER
  5
3B
330
2
100
AcDbSymbolTableRecord
100
AcDbLayerTableRecord
  2
Layer 1
 70
     0
 62
     7
  6
Continuous
370
    -3
390
F
  0
ENDTAB
  0
TABLE
  2
STYLE
  5
3
330
0
100
AcDbSymbolTable
 70
     1
  0
STYLE
  5
11
330
3
100
AcDbSymbolTableRecord
100
AcDbTextStyleTableRecord
  2
Standard
 70
     0
 40
0.0
 41
1.0
 50
0.0
 71
     0
 42
0.2
  3
txt
  4

  0
ENDTAB
  0
TABLE
  2
VIEW
  5
6
330
0
100
AcDbSymbolTable
 70
     0
  0
ENDTAB
  0
TABLE
  2
UCS
  5
7
330
0
100
AcDbSymbolTable
 70
     0
  0
ENDTAB
  0
TABLE
  2
APPID
  5
9
330
0
100
AcDbSymbolTable
 70
     1
  0
APPID
  5
12
330
9
100
AcDbSymbolTableRecord
100
AcDbRegAppTableRecord
  2
ACAD
 70
     0
  0
ENDTAB
  0
TABLE
  2
DIMSTYLE
  5
A
330
0
100
AcDbSymbolTable
 70
     1
100
AcDbDimStyleTable
  0
DIMSTYLE
105
27
330
A
100
AcDbSymbolTableRecord
100
AcDbDimStyleTableRecord
  2
Standard
 70
     0
340
11
  0
ENDTAB
  0
TABLE
  2
BLOCK_RECORD
  5
1
330
0
100
AcDbSymbolTable
 70
     3
  0
BLOCK_RECORD
  5
1F
330
1
100
AcDbSymbolTableRecord
100
AcDbBlockTableRecord
  2
*Model_Space
340
22
  0
BLOCK_RECORD
  5
1B
330
1
100
AcDbSymbolTableRecord
100
AcDbBlockTableRecord
  2
*Paper_Space
340
1E
  0
BLOCK_RECORD
  5
23
330
1
100
AcDbSymbolTableRecord
100
AcDbBlockTableRecord
  2
*Paper_Space0
340
26
  0
BLOCK_RECORD
  5
3C
330
1
100
AcDbSymbolTableRecord
100
AcDbBlockTableRecord
  2
block 2
340
0
102
{BLKREFS
331
3D
102
}
  0
BLOCK_RECORD
  5
40
330
1
100
AcDbSymbolTableRecord
100
AcDbBlockTableRecord
  2
block 3
340
0
102
{BLKREFS
331
41
102
}
  0
ENDTAB
  0
ENDSEC
  0
SECTION
  2
BLOCKS
  0
BLOCK
  5
20
330
1F
100
AcDbEntity
  8
0
100
AcDbBlockBegin
  2
*Model_Space
 70
     0
 71
     0
 10
0.0
 20
0.0
 30
0.0
  3
*Model_Space
  1

  0
ENDBLK
  5
21
330
1F
100
AcDbEntity
  8
0
100
AcDbBlockEnd
  0
BLOCK
  5
1C
330
1B
100
AcDbEntity
 67
     1
  8
0
100
AcDbBlockBegin
  2
*Paper_Space
 70
     0
 71
     0
 10
0.0
 20
0.0
 30
0.0
  3
*Paper_Space
  1

  0
ENDBLK
  5
1D
330
1B
100
AcDbEntity
 67
     1
  8
0
100
AcDbBlockEnd
  0
BLOCK
  5
24
330
23
100
AcDbEntity
  8
0
100
AcDbBlockBegin
  2
*Paper_Space0
 70
     0
 71
     0
 10
0.0
 20
0.0
 30
0.0
  3
*Paper_Space0
  1

  0
ENDBLK
  5
25
330
23
100
AcDbEntity
  8
0
100
AcDbBlockEnd
  0
BLOCK
  5
3E
330
3C
100
AcDbEntity
  8
0
100
AcDbBlockBegin
  2
block 2
 70
     0
 71
     0
 10
0.0
 20
0.0
 30
0.0
  3
block 2
  1

  0
INSERT
  5
41
330
3C
100
AcDbEntity
  8
Layer 1
100
AcDbBlockReference
  2
block 3
 10
0.0
 20
0.0
 30
0.0
  0
ENDBLK
  5
3F
330
3C
100
AcDbEntity
  8
0
100
AcDbBlockEnd
  0
BLOCK
  5
42
330
40
100
AcDbEntity
  8
0
100
AcDbBlockBegin
  2
block 3
 70
     0
 71
     0
 10
0.0
 20
0.0
 30
0.0
  3
block 3
  1

  0
SPLINE
  5
44
330
40
100
AcDbEntity
  8
Layer 1
370
     0
100
AcDbSpline
210
0.0
220
0.0
230
1.0
 70
    11
 71
     3
 72
   494
 73
   490
 74
     0
 42
0.0000000001
 43
0.0000000001
 40
0.0
 40
0.0
 40
0.0
 40
0.0
 40
1.0
 40
1.0
 40
1.0
 40
2.0
 40
2.0
 40
2.0
 40
3.0
 40
3.0
 40
3.0
 40
4.0
 40
4.0
 40
4.0
 40
5.0
 40
5.0
 40
5.0
 40
6.0
 40
6.0
 40
6.0
 40
7.0
 40
7.0
 40
7.0
 40
8.0
 40
8.0
 40
8.0
 40
9.0
 40
9.0
 40
9.0
 40
10.0
 40
10.0
 40
10.0
 40
11.0
 40
11.0
 40
11.0
 40
12.0
 40
12.0
 40
12.0
 40
13.0
 40
13.0
 40
13.0
 40
14.0
 40
14.0
 40
14.0
 40
15.0
 40
15.0
 40
15.0
 40
16.0
 40
16.0
 40
16.0
 40
17.0
 40
17.0
 40
17.0
 40
18.0
 40
18.0
 40
18.0
 40
19.0
 40
19.0
 40
19.0
 40
20.0
 40
20.0
 40
20.0
 40
21.0
 40
21.0
 40
21.0
 40
22.0
 40
22.0
 40
22.0
 40
23.0
 40
23.0
 40
23.0
 40
24.0
 40
24.0
 40
24.0
 40
25.0
 40
25.0
 40
25.0
 40
26.0
 40
26.0
 40
26.0
 40
27.0
 40
27.0
 40
27.0
 40
28.0
 40
28.0
 40
28.0
 40
29.0
 40
29.0
 40
29.0
 40
30.0
 40
30.0
 40
30.0
 40
31.0
 40
31.0
 40
31.0
 40
32.0
 40
32.0
 40
32.0
 40
33.0
 40
33.0
 40
33.0
 40
34.0
 40
34.0
 40
34.0
 40
35.0
 40
35.0
 40
35.0
 40
36.0
 40
36.0
 40
36.0
 40
37.0
 40
37.0
 40
37.0
 40
38.0
 40
38.0
 40
38.0
 40
39.0
 40
39.0
 40
39.0
 40
40.0
 40
40.0
 40
40.0
 40
41.0
 40
41.0
 40
41.0
 40
42.0
 40
42.0
 40
42.0
 40
43.0
 40
43.0
 40
43.0
 40
44.0
 40
44.0
 40
44.0
 40
45.0
 40
45.0
 40
45.0
 40
46.0
 40
46.0
 40
46.0
 40
47.0
 40
47.0
 40
47.0
 40
48.0
 40
48.0
 40
48.0
 40
49.0
 40
49.0
 40
49.0
 40
50.0
 40
50.0
 40
50.0
 40
51.0
 40
51.0
 40
51.0
 40
52.0
 40
52.0
 40
52.0
 40
53.0
 40
53.0
 40
53.0
 40
54.0
 40
54.0
 40
54.0
 40
55.0
 40
55.0
 40
55.0
 40
56.0
 40
56.0
 40
56.0
 40
57.0
 40
57.0
 40
57.0
 40
58.0
 40
58.0
 40
58.0
 40
59.0
 40
59.0
 40
59.0
 40
60.0
 40
60.0
 40
60.0
 40
61.0
 40
61.0
 40
61.0
 40
62.0
 40
62.0
 40
62.0
 40
63.0
 40
63.0
 40
63.0
 40
64.0
 40
64.0
 40
64.0
 40
65.0
 40
65.0
 40
65.0
 40
66.0
 40
66.0
 40
66.0
 40
67.0
 40
67.0
 40
67.0
 40
68.0
 40
68.0
 40
68.0
 40
69.0
 40
69.0
 40
69.0
 40
70.0
 40
70.0
 40
70.0
 40
71.0
 40
71.0
 40
71.0
 40
72.0
 40
72.0
 40
72.0
 40
73.0
 40
73.0
 40
73.0
 40
74.0
 40
74.0
 40
74.0
 40
75.0
 40
75.0
 40
75.0
 40
76.0
 40
76.0
 40
76.0
 40
77.0
 40
77.0
 40
77.0
 40
78.0
 40
78.0
 40
78.0
 40
79.0
 40
79.0
 40
79.0
 40
80.0
 40
80.0
 40
80.0
 40
81.0
 40
81.0
 40
81.0
 40
82.0
 40
82.0
 40
82.0
 40
83.0
 40
83.0
 40
83.0
 40
84.0
 40
84.0
 40
84.0
 40
85.0
 40
85.0
 40
85.0
 40
86.0
 40
86.0
 40
86.0
 40
87.0
 40
87.0
 40
87.0
 40
88.0
 40
88.0
 40
88.0
 40
89.0
 40
89.0
 40
89.0
 40
90.0
 40
90.0
 40
90.0
 40
91.0
 40
91.0
 40
91.0
 40
92.0
 40
92.0
 40
92.0
 40
93.0
 40
93.0
 40
93.0
 40
94.0
 40
94.0
 40
94.0
 40
95.0
 40
95.0
 40
95.0
 40
96.0
 40
96.0
 40
96.0
 40
97.0
 40
97.0
 40
97.0
 40
98.0
 40
98.0
 40
98.0
 40
99.0
 40
99.0
 40
99.0
 40
100.0
 40
100.0
 40
100.0
 40
101.0
 40
101.0
 40
101.0
 40
102.0
 40
102.0
 40
102.0
 40
103.0
 40
103.0
 40
103.0
 40
104.0
 40
104.0
 40
104.0
 40
105.0
 40
105.0
 40
105.0
 40
106.0
 40
106.0
 40
106.0
 40
107.0
 40
107.0
 40
107.0
 40
108.0
 40
108.0
 40
108.0
 40
109.0
 40
109.0
 40
109.0
 40
110.0
 40
110.0
 40
110.0
 40
111.0
 40
111.0
 40
111.0
 40
112.0
 40
112.0
 40
112.0
 40
113.0
 40
113.0
 40
113.0
 40
114.0
 40
114.0
 40
114.0
 40
115.0
 40
115.0
 40
115.0
 40
116.0
 40
116.0
 40
116.0
 40
117.0
 40
117.0
 40
117.0
 40
118.0
 40
118.0
 40
118.0
 40
119.0
 40
119.0
 40
119.0
 40
120.0
 40
120.0
 40
120.0
 40
121.0
 40
121.0
 40
121.0
 40
122.0
 40
122.0
 40
122.0
 40
123.0
 40
123.0
 40
123.0
 40
124.0
 40
124.0
 40
124.0
 40
125.0
 40
125.0
 40
125.0
 40
126.0
 40
126.0
 40
126.0
 40
127.0
 40
127.0
 40
127.0
 40
128.0
 40
128.0
 40
128.0
 40
129.0
 40
129.0
 40
129.0
 40
130.0
 40
130.0
 40
130.0
 40
131.0
 40
131.0
 40
131.0
 40
132.0
 40
132.0
 40
132.0
 40
133.0
 40
133.0
 40
133.0
 40
134.0
 40
134.0
 40
134.0
 40
135.0
 40
135.0
 40
135.0
 40
136.0
 40
136.0
 40
136.0
 40
137.0
 40
137.0
 40
137.0
 40
138.0
 40
138.0
 40
138.0
 40
139.0
 40
139.0
 40
139.0
 40
140.0
 40
140.0
 40
140.0
 40
141.0
 40
141.0
 40
141.0
 40
142.0
 40
142.0
 40
142.0
 40
143.0
 40
143.0
 40
143.0
 40
144.0
 40
144.0
 40
144.0
 40
145.0
 40
145.0
 40
145.0
 40
146.0
 40
146.0
 40
146.0
 40
147.0
 40
147.0
 40
147.0
 40
148.0
 40
148.0
 40
148.0
 40
149.0
 40
149.0
 40
149.0
 40
150.0
 40
150.0
 40
150.0
 40
151.0
 40
151.0
 40
151.0
 40
152.0
 40
152.0
 40
152.0
 40
153.0
 40
153.0
 40
153.0
 40
154.0
 40
154.0
 40
154.0
 40
155.0
 40
155.0
 40
155.0
 40
156.0
 40
156.0
 40
156.0
 40
157.0
 40
157.0
 40
157.0
 40
158.0
 40
158.0
 40
158.0
 40
159.0
 40
159.0
 40
159.0
 40
160.0
 40
160.0
 40
160.0
 40
161.0
 40
161.0
 40
161.0
 40
162.0
 40
162.0
 40
162.0
 40
163.0
 40
163.0
 40
163.0
 40
163.0
 10
184.5262043809518
 20
-139.1031371722555
 30
0.0
 10
183.853721742231
 20
-138.4048163173953
 30
0.0
 10
183.2201686824936
 20
-137.5559447898298
 30
0.0
 10
182.8963297068801
 20
-136.6572916325024
 30
0.0
 10
182.0533148416395
 20
-134.3204833648574
 30
0.0
 10
181.0852430102842
 20
-132.0947794266117
 30
0.0
 10
179.3857774074105
 20
-130.2258151258637
 30
0.0
 10
178.972710458729
 20
-129.7715792861335
 30
0.0
 10
178.6674749987359
 20
-129.1171833987103
 30
0.0
 10
178.5544758668197
 20
-128.509985319435
 30
0.0
 10
178.0838758235346
 20
-125.9809407237131
 30
0.0
 10
176.8805039705368
 20
-123.7238864165517
 30
0.0
 10
175.6275227425515
 20
-121.5856879036314
 30
0.0
 10
173.1990749349989
 20
-117.4424438182956
 30
0.0
 10
171.4930636507031
 20
-112.8816541601476
 30
0.0
 10
168.4548339422613
 20
-109.0923936359214
 30
0.0
 10
168.3931667330753
 20
-109.0155680066003
 30
0.0
 10
168.4124592677927
 20
-108.8738023273823
 30
0.0
 10
168.3797308606829
 20
-108.677431884723
 30
0.0
 10
170.6975911031589
 20
-105.0810967076707
 30
0.0
 10
173.1160481338043
 20
-101.4742539893884
 30
0.0
 10
175.3667290143181
 20
-97.76560869951693
 30
0.0
 10
176.2969047953355
 20
-96.23219669903223
 30
0.0
 10
177.1092583107574
 20
-94.54099932532309
 30
0.0
 10
177.5426513228018
 20
-92.81311168469603
 30
0.0
 10
178.1675916438262
 20
-90.31989608202072
 30
0.0
 10
176.4908636711551
 20
-89.0235066509212
 30
0.0
 10
174.0376111761087
 20
-89.79296872755177
 30
0.0
 10
172.9086533855923
 20
-90.14695228866118
 30
0.0
 10
172.2489176001669
 20
-90.89195418734646
 30
0.0
 10
171.8909721792495
 20
-91.93392331686027
 30
0.0
 10
171.4534450526228
 20
-93.20826413685418
 30
0.0
 10
171.1599229172795
 20
-94.53479815344964
 30
0.0
 10
170.6769205302475
 20
-95.78984643872616
 30
0.0
 10
170.3486029305031
 20
-96.6433688451968
 30
0.0
 10
169.8428629132684
 20
-97.43884139274098
 30
0.0
 10
169.3453911251984
 20
-98.21484915079351
 30
0.0
 10
168.2753444674798
 20
-99.8846869324941
 30
0.0
 10
167.1636121543897
 20
-101.5281697337325
 30
0.0
 10
166.0591145418186
 20
-103.1757866495533
 30
0.0
 10
165.7828178839015
 20
-103.5881645791377
 30
0.0
 10
165.4696587042923
 20
-103.9757378212283
 30
0.0
 10
165.1582220724257
 20
-104.3950059417832
 30
0.0
 10
164.8839924717998
 20
-104.1762423784698
 30
0.0
 10
164.7372314041282
 20
-104.0828802908196
 30
0.0
 10
164.6190646289841
 20
-103.9612684201902
 30
0.0
 10
161.9201768258394
 20
-101.1871052806928
 30
0.0
 10
159.2440266528973
 20
-98.39020451099273
 30
0.0
 10
156.5113769139972
 20
-95.64980330725075
 30
0.0
 10
155.9735975087497
 20
-95.11047360903488
 30
0.0
 10
155.8550862240571
 20
-94.59336477669889
 30
0.0
 10
155.9928900434671
 20
-93.91847057113844
 30
0.0
 10
156.2150987022657
 20
-92.82775334050834
 30
0.0
 10
156.4769259591447
 20
-91.74168698878333
 30
0.0
 10
156.6312662368838
 20
-90.64097898124601
 30
0.0
 10
157.3822970526683
 20
-85.28557804942514
 30
0.0
 10
156.5937146960946
 20
-79.97789169007497
 30
0.0
 10
156.1207030859698
 20
-74.65745847742939
 30
0.0
 10
155.9246771528591
 20
-72.45363089551506
 30
0.0
 10
155.0968207077536
 20
-70.32404512130788
 30
0.0
 10
155.5250460765701
 20
-68.03581270000494
 30
0.0
 10
155.7586235504701
 20
-66.78731009615039
 30
0.0
 10
155.7345078820733
 20
-65.47025009213938
 30
0.0
 10
155.6731851824359
 20
-64.19143064801465
 30
0.0
 10
155.5877468144017
 20
-62.4079047153008
 30
0.0
 10
155.0403211417955
 20
-61.78399792292206
 30
0.0
 10
153.5337808860957
 20
-61.40486516477031
 30
0.0
 10
151.5804117459591
 20
-60.9130777842509
 30
0.0
 10
150.3791069502525
 20
-61.24087861967242
 30
0.0
 10
149.5095648497754
 20
-62.6421712082978
 30
0.0
 10
148.393698422103
 20
-64.44016654204968
 30
0.0
 10
147.9468695376661
 20
-66.49878334926072
 30
0.0
 10
148.9597276103295
 20
-68.34914413438841
 30
0.0
 10
150.007381147394
 20
-70.26341144076748
 30
0.0
 10
150.2058186473444
 20
-72.21075166380496
 30
0.0
 10
150.2712754615641
 20
-74.26678464940206
 30
0.0
 10
150.2878119198933
 20
-74.78871661541741
 30
0.0
 10
150.4180365292358
 20
-75.30703123117324
 30
0.0
 10
150.4983072540421
 20
-75.82672388512319
 30
0.0
 10
150.952370838998
 20
-78.7764146395941
 30
0.0
 10
151.8463731174204
 20
-81.67770180249724
 30
0.0
 10
151.5800672364105
 20
-84.70818004609727
 30
0.0
 10
151.3947210993041
 20
-86.81933455945837
 30
0.0
 10
151.5748995931827
 20
-88.98922795084297
 30
0.0
 10
150.7987195803559
 20
-91.06076386612371
 30
0.0
 10
150.4983072540421
 20
-90.97411971466967
 30
0.0
 10
150.3160617028724
 20
-90.95603296337211
 30
0.0
 10
150.1699896542978
 20
-90.87369518127464
 30
0.0
 10
149.4027668897326
 20
-90.44081893355299
 30
0.0
 10
148.5952365079901
 20
-90.058241079916
 30
0.0
 10
147.8907144812565
 20
-89.53785940686902
 30
0.0
 10
142.7809488575339
 20
-85.76324053845502
 30
0.0
 10
136.8150770057268
 20
-84.00383027413794
 30
0.0
 10
130.8543727971475
 20
-82.21272513135655
 30
0.0
 10
125.1079535277508
 20
-80.48604327414932
 30
0.0
 10
119.1382920709099
 20
-80.65623099112067
 30
0.0
 10
113.2530354534576
 20
-80.16461586537551
 30
0.0
 10
111.9986761872781
 20
-80.05988496262393
 30
0.0
 10
110.6130587831106
 20
-80.61747366691161
 30
0.0
 10
109.4014187009483
 20
-81.13544377311892
 30
0.0
 10
107.7708550077795
 20
-81.83273109933349
 30
0.0
 10
106.1602728684252
 20
-82.36827119251558
 30
0.0
 10
104.3715792924835
 20
-82.55017223413677
 30
0.0
 10
102.8161186808932
 20
-82.70830211690973
 30
0.0
 10
101.1483479564837
 20
-82.97650280043644
 30
0.0
 10
99.79683699762025
 20
-83.69635550207938
 30
0.0
 10
96.17673066171972
 20
-85.62457544517372
 30
0.0
 10
92.69925127890852
 20
-87.81996254314917
 30
0.0
 10
89.16768389697891
 20
-89.91354706953551
 30
0.0
 10
88.78906790314996
 20
-90.1381672951738
 30
0.0
 10
88.42802189629577
 20
-90.39241534198523
 30
0.0
 10
87.9264159936434
 20
-90.7186658844384
 30
0.0
 10
87.82409665773147
 20
-88.30279267540695
 30
0.0
 10
87.53712020381016
 20
-86.07915579445243
 30
0.0
 10
87.67905813780246
 20
-83.8832519321542
 30
0.0
 10
87.92813854138602
 20
-80.03163517964487
 30
0.0
 10
88.4325005204266
 20
-76.19603812114197
 30
0.0
 10
88.85314667917561
 20
-72.35630694805675
 30
0.0
 10
88.89655488228975
 20
-71.95857067428467
 30
0.0
 10
89.08293454804178
 20
-71.57254772516242
 30
0.0
 10
89.22693953932522
 20
-71.19014212629969
 30
0.0
 10
89.97039114504213
 20
-69.21593015847728
 30
0.0
 10
90.75897350161581
 20
-67.25773788466127
 30
0.0
 10
91.44661456047169
 20
-65.26457789166997
 30
0.0
 10
91.6453965699706
 20
-64.68838567176194
 30
0.0
 10
91.71360946057855
 20
-63.98007403999457
 30
0.0
 10
91.5792507366538
 20
-63.39234075021095
 30
0.0
 10
91.12725420898903
 20
-61.41588947032312
 30
0.0
 10
89.71648760777921
 20
-60.53342826177636
 30
0.0
 10
87.4685628036537
 20
-60.67984481989949
 30
0.0
 10
85.27369247000102
 20
-60.82264402776309
 30
0.0
 10
83.85810273511187
 20
-62.02928872147185
 30
0.0
 10
83.64175073863818
 20
-64.08583847139174
 30
0.0
 10
83.23660750957279
 20
-67.9331488545445
 30
0.0
 10
82.78530000100507
 20
-71.78080374724577
 30
0.0
 10
82.55861271807562
 20
-75.64034421937117
 30
0.0
 10
82.3250352441757
 20
-79.62201332644867
 30
0.0
 10
82.25406627717955
 20
-83.61849634411274
 30
0.0
 10
82.27508135963957
 20
-87.60774466125778
 30
0.0
 10
82.28576115564384
 20
-89.59453122760137
 30
0.0
 10
82.6602430348905
 20
-91.57942299142806
 30
0.0
 10
82.87280542633042
 20
-93.56500377435181
 30
0.0
 10
82.94377439332656
 20
-94.22663436229404
 30
0.0
 10
82.83111977095889
 20
-94.7273789910751
 30
0.0
 10
82.29506291345402
 20
-95.27652721142393
 30
0.0
 10
79.83802081337383
 20
-97.79437524681877
 30
0.0
 10
77.46848413861899
 20
-100.3980061597963
 30
0.0
 10
75.07138669998216
 20
-102.9747653279889
 30
0.0
 10
74.69449325389583
 20
-103.3800808118286
 30
0.0
 10
74.33861489026951
 20
-103.8053778494827
 30
0.0
 10
73.74192435222425
 20
-104.4840616600769
 30
0.0
 10
71.88742945251425
 20
-101.6730359988873
 30
0.0
 10
70.10700410573715
 20
-99.13262258806407
 30
0.0
 10
68.51399195335762
 20
-96.4793823000989
 30
0.0
 10
67.90593260021102
 20
-95.46669648220971
 30
0.0
 10
67.5941514587959
 20
-94.21939966177501
 30
0.0
 10
67.38503416284125
 20
-93.03687063646301
 30
0.0
 10
67.06705184955268
 20
-91.24145912432506
 30
0.0
 10
66.21680228379303
 20
-89.99054495363085
 30
0.0
 10
64.46462671999495
 20
-89.42296547243593
 30
0.0
 10
63.16065807882789
 20
-89.0005967659443
 30
0.0
 10
61.59348414258774
 20
-89.58178437430594
 30
0.0
 10
61.17214896474169
 20
-90.72900117089414
 30
0.0
 10
60.64849445098371
 20
-92.15458168269052
 30
0.0
 10
60.56615666888624
 20
-93.64062362025304
 30
0.0
 10
61.4122721200636
 20
-94.97473684691604
 30
0.0
 10
63.10794811790357
 20
-97.64916447211549
 30
0.0
 10
64.82601723639766
 20
-100.3129123013107
 30
0.0
 10
66.63400334705678
 20
-102.9120645901574
 30
0.0
 10
67.79913464016828
 20
-104.5874145246344
 30
0.0
 10
69.14099933167309
 20
-106.1399468050622
 30
0.0
 10
70.34127059873413
 20
-107.6680189075448
 30
0.0
 10
68.91500106784069
 20
-110.6690415847459
 30
0.0
 10
67.47529566455479
 20
-113.4919528253597
 30
0.0
 10
66.22128090792386
 20
-116.3951347907797
 30
0.0
 10
64.96761066084143
 20
-119.2971109727799
 30
0.0
 10
63.86690265330411
 20
-122.2669555358395
 30
0.0
 10
62.75827092615071
 20
-125.2292208888316
 30
0.0
 10
61.052259641855
 20
-129.7893215278825
 30
0.0
 10
59.37243108324717
 20
-134.3619967654546
 30
0.0
 10
59.58533798423561
 20
-139.358763257261
 30
0.0
 10
59.59739581843399
 20
-139.6405720679545
 30
0.0
 10
59.48680825335747
 20
-139.9323716555551
 30
0.0
 10
59.4086045858423
 20
-140.2128024280544
 30
0.0
 10
58.58212617893086
 20
-143.1766180740149
 30
0.0
 10
58.15941296289071
 20
-146.1414672486209
 30
0.0
 10
59.09992403036391
 20
-149.1788356831914
 30
0.0
 10
59.58809406062381
 20
-150.7563449058873
 30
0.0
 10
59.60704208579268
 20
-152.3665825356931
 30
0.0
 10
59.50437824033224
 20
-154.0426214892671
 30
0.0
 10
59.3879340129308
 20
-155.9474147830618
 30
0.0
 10
59.55157604848016
 20
-157.9404025212788
 30
0.0
 10
60.00667316208167
 20
-159.7938638923432
 30
0.0
 10
60.88310545352923
 20
-163.3633273246106
 30
0.0
 10
61.76401636910761
 20
-166.9851562082537
 30
0.0
 10
64.30684134677051
 20
-169.8673230912137
 30
0.0
 10
64.38297795699454
 20
-169.953450478345
 30
0.0
 10
64.43568791791886
 20
-170.06438255297
 30
0.0
 10
64.48288572606678
 20
-170.1711805130128
 30
0.0
 10
66.96335447544666
 20
-175.7642930333159
 30
0.0
 10
69.99848359795178
 20
-181.0549261700141
 30
0.0
 10
73.21895885756332
 20
-186.2466850662856
 30
0.0
 10
73.462871617919
 20
-186.6397704611526
 30
0.0
 10
73.75846081055344
 20
-187.1107150139862
 30
0.0
 10
73.73779023764195
 20
-187.5310166631867
 30
0.0
 10
73.71160751195404
 20
-188.0670735206916
 30
0.0
 10
73.71539711698782
 20
-188.37575407617
 30
0.0
 10
74.1191623078591
 20
-188.8604790109446
 30
0.0
 10
74.6335150638069
 20
-189.4778401219014
 30
0.0
 10
75.0500271079736
 20
-190.4476345009992
 30
0.0
 10
74.97768010278337
 20
-191.2155462846614
 30
0.0
 10
74.95993786103432
 20
-191.4050265363501
 30
0.0
 10
74.9568372750976
 20
-191.5796928774523
 30
0.0
 10
74.96252168264826
 20
-191.7464354989384
 30
0.0
 10
75.15992565395308
 20
-192.1739718486579
 30
0.0
 10
75.37817245294366
 20
-192.5870387973393
 30
0.0
 10
75.62053492033098
 20
-192.9966606505356
 30
0.0
 10
75.73353405224718
 20
-193.0535047260422
 30
0.0
 10
75.8573852349419
 20
-193.1020805723842
 30
0.0
 10
76.00604110513044
 20
-193.1327419222029
 30
0.0
 10
76.9045220076836
 20
-193.3173990402123
 30
0.0
 10
77.01373153456602
 20
-194.0033175513256
 30
0.0
 10
77.4629719858426
 20
-194.5393744088304
 30
0.0
 10
78.29323999778781
 20
-195.5291503417427
 30
0.0
 10
78.17507322264373
 20
-196.6205565914699
 30
0.0
 10
78.1049655295189
 20
-197.7002495165472
 30
0.0
 10
78.42312009758173
 20
-198.5952853236151
 30
0.0
 10
78.69803871730466
 20
-199.5134032704342
 30
0.0
 10
78.98467066167744
 20
-200.4504692424221
 30
0.0
 10
79.09525822675397
 20
-200.8118597588248
 30
0.0
 10
79.20687932047606
 20
-201.1791069375525
 30
0.0
 10
79.31815590464963
 20
-201.5504882308624
 30
0.0
 10
79.34743921627425
 20
-201.5952744721706
 30
0.0
 10
79.36500920324903
 20
-201.6600422672933
 30
0.0
 10
79.37448321583346
 20
-201.7389349539056
 30
0.0
 10
79.54398191370775
 20
-202.3090982567144
 30
0.0
 10
79.71089678996812
 20
-202.890285865076
 30
0.0
 10
79.86885441796682
 20
-203.4783636644082
 30
0.0
 10
80.4181748930899
 20
-204.1108831955001
 30
0.0
 10
80.5132595284828
 20
-204.7334119496847
 30
0.0
 10
80.38131237139773
 20
-205.6022650310647
 30
0.0
 10
80.42196449812369
 20
-205.7969129259813
 30
0.0
 10
80.46054956755847
 20
-205.992249839995
 30
0.0
 10
80.49741208925064
 20
-206.1879312635572
 30
0.0
 10
80.52721216519807
 20
-206.1562363850929
 30
0.0
 10
80.557356750694
 20
-206.1183403347551
 30
0.0
 10
80.58526202412452
 20
-206.1200628824978
 30
0.0
 10
80.61971297897702
 20
-206.1221299397889
 30
0.0
 10
80.65037432879575
 20
-206.1844861680719
 30
0.0
 10
80.6827582263571
 20
-206.2203151611185
 30
0.0
 10
80.66381020118821
 20
-206.2533880777769
 30
0.0
 10
80.64451766647082
 20
-206.2864609944353
 30
0.0
 10
80.62556964130195
 20
-206.3195339110937
 30
0.0
 10
80.58543427889879
 20
-206.2895615803721
 30
0.0
 10
80.54529891649563
 20
-206.2595892496504
 30
0.0
 10
80.5049912993182
 20
-206.2296169189287
 30
0.0
 10
80.57871634270255
 20
-206.6240803519898
 30
0.0
 10
80.64348413782524
 20
-207.019921823245
 30
0.0
 10
80.69791664649219
 20
-207.4154187849517
 30
0.0
 10
80.80402558743789
 20
-207.5146375349269
 30
0.0
 10
80.93373343245754
 20
-207.6045545270919
 30
0.0
 10
81.09823674187822
 20
-207.6786240800248
 30
0.0
 10
81.32699108209881
 20
-207.7816324350338
 30
0.0
 10
81.43688962807828
 20
-208.3972709982479
 30
0.0
 10
81.40932886419628
 20
-208.7624511196844
 30
0.0
 10
81.36592066108213
 20
-209.3401936325608
 30
0.0
 10
81.21295842153704
 20
-209.9248263364077
 30
0.0
 10
81.01314288339255
 20
-210.4729410281109
 30
0.0
 10
80.95526527924035
 20
-210.6321044395295
 30
0.0
 10
80.90255531831603
 20
-210.7909233413995
 30
0.0
 10
80.85242917900564
 20
-210.9497422432695
 30
0.0
 10
80.79541284872477
 20
-211.8003363185777
 30
0.0
 10
80.65933157705739
 20
-212.6395615787846
 30
0.0
 10
80.42540959360893
 20
-213.4581162660799
 30
0.0
 10
80.41231823076498
 20
-214.34798442992
 30
0.0
 10
80.55425616475728
 20
-215.2412976892452
 30
0.0
 10
80.88911944592355
 20
-216.1446017254777
 30
0.0
 10
81.01831052662043
 20
-216.4929008790365
 30
0.0
 10
81.00349661603386
 20
-216.9293944770177
 30
0.0
 10
80.9421739163964
 20
-217.306976942201
 30
0.0
 10
80.75751679838702
 20
-218.4476480573673
 30
0.0
 10
80.4278211604486
 20
-219.5714382046557
 30
0.0
 10
80.33032495821604
 20
-220.7169324535013
 30
0.0
 10
80.26383461535072
 20
-221.4993136382016
 30
0.0
 10
80.30930987575601
 20
-222.3905598402357
 30
0.0
 10
80.62832571769015
 20
-223.0840575614165
 30
0.0
 10
81.17196178526257
 20
-224.2646917842116
 30
0.0
 10
82.02427840831338
 20
-225.2992539584321
 30
0.0
 10
82.63853893333342
 20
-226.4530164364423
 30
0.0
 10
82.77065834519276
 20
-226.7010633113803
 30
0.0
 10
82.85850828006663
 20
-226.9728813451665
 30
0.0
 10
82.93068303048261
 20
-227.2529676081173
 30
0.0
 10
83.36855466665787
 20
-227.0600422609433
 30
0.0
 10
83.99745684749023
 20
-227.2719156332862
 30
0.0
 10
83.9924614590366
 20
-227.8944443874709
 30
0.0
 10
83.9924614590366
 20
-227.8947888970194
 30
0.0
 10
83.9924614590366
 20
-227.8947888970194
 30
0.0
 10
83.9924614590366
 20
-227.8951334065679
 30
0.0
 10
84.11958548244233
 20
-227.9127033935427
 30
0.0
 10
84.26359047372577
 20
-227.9333739664542
 30
0.0
 10
84.42826603792072
 20
-227.9574896348509
 30
0.0
 10
84.4935505973662
 20
-229.7137993132313
 30
0.0
 10
84.55952417590873
 20
-231.4931911313628
 30
0.0
 10
84.6258422639998
 20
-233.2774060831737
 30
0.0
 10
84.87371688416351
 20
-232.763742346323
 30
0.0
 10
85.0520005755252
 20
-232.2063258968095
 30
0.0
 10
85.17378470092878
 20
-231.6230712311567
 30
0.0
 10
85.18911537583814
 20
-231.0391275464069
 30
0.0
 10
85.20892467487833
 20
-230.4555283712056
 30
0.0
 10
85.22580564275606
 20
-229.8715846864557
 30
0.0
 10
85.19290498087192
 20
-229.812673553658
 30
0.0
 10
85.17188989841189
 20
-229.7427381153074
 30
0.0
 10
85.17240666273467
 20
-229.6583332759187
 30
0.0
 10
85.18015812757649
 20
-228.3226697562874
 30
0.0
 10
85.26852482677315
 20
-226.9856281984619
 30
0.0
 10
85.07025958159703
 20
-225.6585774175437
 30
0.0
 10
84.99877385027808
 20
-225.1790201259969
 30
0.0
 10
85.63025985272438
 20
-224.938207951578
 30
0.0
 10
85.8455783205525
 20
-225.2548122266724
 30
0.0
 10
85.8483343969407
 20
-225.2527451693813
 30
0.0
 10
85.85177949242595
 20
-225.2506781120901
 30
0.0
 10
85.85419105926562
 20
-225.248611054799
 30
0.0
 10
85.89415416689452
 20
-225.3330158941876
 30
0.0
 10
85.93411727452342
 20
-225.4174207335762
 30
0.0
 10
85.9737358726038
 20
-225.5021700825133
 30
0.0
 10
85.95651039517755
 20
-225.5114718403235
 30
0.0
 10
85.93945717252555
 20
-225.5204290885852
 30
0.0
 10
85.92240394987357
 20
-225.5297308463954
 30
0.0
 10
85.94720863736737
 20
-225.7074977734343
 30
0.0
 10
85.96805146505314
 20
-225.8852647004731
 30
0.0
 10
85.98493243293085
 20
-226.0626871179635
 30
0.0
 10
86.0366088652096
 20
-226.0661322134488
 30
0.0
 10
86.08811304271408
 20
-226.0692327993855
 30
0.0
 10
86.13978947499284
 20
-226.0726778948707
 30
0.0
 10
86.7860893880257
 20
-230.861360619368
 30
0.0
 10
85.87658417991975
 20
-235.7509846415831
 30
0.0
 10
86.77437606337585
 20
-240.5393228565318
 30
0.0
 10
86.97315807287477
 20
-240.1152316022976
 30
0.0
 10
87.04826115445321
 20
-239.6856281952869
 30
0.0
 10
87.09545896260114
 20
-239.2529242023396
 30
0.0
 10
87.24153101117574
 20
-237.9131265681259
 30
0.0
 10
87.25737845040788
 20
-236.5461126795788
 30
0.0
 10
87.54228784703804
 20
-235.2373209047323
 30
0.0
 10
88.05732962208289
 20
-232.8684732490746
 30
0.0
 10
88.29262964372546
 20
-230.4913573642522
 30
0.0
 10
88.231306944088
 20
-228.0746228813494
 30
0.0
 10
88.22097165763226
 20
-227.6708576904781
 30
0.0
 10
88.18410913594009
 20
-227.1950900039651
 30
0.0
 10
88.36842174440095
 20
-226.8712510283517
 30
0.0
 10
89.35130748634273
 20
-225.14560269979
 30
0.0
 10
90.18192000783647
 20
-223.2645805648436
 30
0.0
 10
91.47589787209631
 20
-221.7997259645153
 30
0.0
 10
93.6986734791795
 20
-219.2834282220889
 30
0.0
 10
94.61885848328973
 20
-216.4767089302558
 30
0.0
 10
94.2929524503851
 20
-213.2197156585006
 30
0.0
 10
94.16548391743086
 20
-211.9439968003126
 30
0.0
 10
93.89504392183875
 20
-210.673101075804
 30
0.0
 10
93.57809513719576
 20
-209.4283880769832
 30
0.0
 10
93.17364092722742
 20
-207.839510039186
 30
0.0
 10
92.63069387875206
 20
-206.2781927652707
 30
0.0
 10
94.45177135225512
 20
-205.1571586943705
 30
0.0
 10
94.54720049719654
 20
-205.0985920711212
 30
0.0
 10
94.50895993731027
 20
-204.8495116675376
 30
0.0
 10
94.57028263694771
 20
-204.7048176571572
 30
0.0
 10
95.40055064889292
 20
-202.7562716506998
 30
0.0
 10
96.16777341345806
 20
-202.3662868417696
 30
0.0
 10
97.97507050502013
 20
-202.9808918763381
 30
0.0
 10
103.3735351304066
 20
-204.8167832604278
 30
0.0
 10
108.8260877549115
 20
-206.2571776828107
 30
0.0
 10
114.5880099539919
 20
-206.5617241237068
 30
0.0
 10
120.6072807858204
 20
-206.8800509465439
 30
0.0
 10
126.5648844084629
 20
-206.5203829778838
 30
0.0
 10
132.5056070632278
 20
-205.7156086725294
 30
0.0
 10
135.2165527005709
 20
-205.3487060033503
 30
0.0
 10
137.8837456252513
 20
-204.6593423967518
 30
0.0
 10
140.5002956462986
 20
-204.130520239766
 30
0.0
 10
141.4263373127337
 20
-204.8794839982593
 30
0.0
 10
141.0208495741198
 20
-205.6167344321028
 30
0.0
 10
140.8406710802412
 20
-206.4221977565542
 30
0.0
 10
140.8613416531527
 20
-206.4373561766893
 30
0.0
 10
140.8778781114819
 20
-206.4538926350185
 30
0.0
 10
140.8885579074862
 20
-206.4714626219933
 30
0.0
 10
141.4838704073374
 20
-207.4677842363275
 30
0.0
 10
142.3692599470466
 20
-207.7247883595271
 30
0.0
 10
143.4634222731619
 20
-207.9184027257982
 30
0.0
 10
144.36775983804
 20
-208.0785996658623
 30
0.0
 10
145.140150245833
 20
-208.7462591709037
 30
0.0
 10
144.974096643444
 20
-209.9561767053235
 30
0.0
 10
144.8707437788865
 20
-210.7096190879476
 30
0.0
 10
144.9320664785239
 20
-211.4840765530318
 30
0.0
 10
144.8593749637852
 20
-212.2437201075294
 30
0.0
 10
144.5003960142221
 20
-216.01093202065
 30
0.0
 10
146.4889051283083
 20
-218.5954426536845
 30
0.0
 10
149.2046738993308
 20
-220.7689533953286
 30
0.0
 10
150.4125243764594
 20
-221.7356471884897
 30
0.0
 10
152.0251735731048
 20
-221.3746011816355
 30
0.0
 10
152.67560760072
 20
-220.1068060430636
 30
0.0
 10
153.5317138288046
 20
-218.436968261363
 30
0.0
 10
154.3736951653997
 20
-216.7595512695949
 30
0.0
 10
155.1915608335979
 20
-215.0711099722739
 30
0.0
 10
155.9605061459057
 20
-213.4832654631223
 30
0.0
 10
156.1871934288351
 20
-211.8575249036329
 30
0.0
 10
155.6263318838365
 20
-210.1194742313243
 30
0.0
 10
155.3820746139323
 20
-209.3629312627635
 30
0.0
 10
155.3948214672277
 20
-208.5185383593287
 30
0.0
 10
155.3269530861683
 20
-207.7113524871347
 30
0.0
 10
155.2156765019947
 20
-206.3822346489253
 30
0.0
 10
155.1774359421084
 20
-205.0455376006483
 30
0.0
 10
155.0220621357237
 20
-203.7222764247639
 30
0.0
 10
154.9407578822718
 20
-203.0308457608742
 30
0.0
 10
154.6310437981478
 20
-202.3697319372548
 30
0.0
 10
154.5018527174509
 20
-201.6807128402048
 30
0.0
 10
154.0998100743223
 20
-199.5419975629617
 30
0.0
 10
154.5952148051012
 20
-198.4695393384035
 30
0.0
 10
156.3477348784478
 20
-197.284081981929
 30
0.0
 10
157.4994302991668
 20
-196.505145892714
 30
0.0
 10
158.6349337711052
 20
-195.691414339098
 30
0.0
 10
159.7053249383723
 20
-194.8060247993888
 30
0.0
 10
164.4361300587174
 20
-190.892396328145
 30
0.0
 10
168.6301893024605
 20
-186.4747503874091
 30
0.0
 10
172.1276502390861
 20
-181.41321610048
 30
0.0
 10
172.2995605038001
 20
-181.1648247159935
 30
0.0
 10
172.5334824872486
 20
-180.9594970250726
 30
0.0
 10
172.8011664064525
 20
-180.6649413610838
 30
0.0
 10
173.6603732204738
 20
-182.1676920117498
 30
0.0
 10
172.9413817927022
 20
-184.1510334826081
 30
0.0
 10
174.8354952904925
 20
-185.3420029918589
 30
0.0
 10
175.1452093746165
 20
-183.8523437040369
 30
0.0
 10
175.4184054465968
 20
-182.5407958528023
 30
0.0
 10
175.6912570090286
 20
-181.2289034920192
 30
0.0
 10
175.8063231982359
 20
-181.2530191604159
 30
0.0
 10
175.9210448778948
 20
-181.2767903192641
 30
0.0
 10
176.0361110671021
 20
-181.3009059876609
 30
0.0
 10
176.0361110671021
 20
-181.6509276889623
 30
0.0
 10
176.0426567485241
 20
-182.0016384093607
 30
0.0
 10
176.0350775384565
 20
-182.3513156011136
 30
0.0
 10
175.9189778206036
 20
-187.577180942689
 30
0.0
 10
175.6926350472227
 20
-192.803390793813
 30
0.0
 10
175.7164062060709
 20
-198.028222606743
 30
0.0
 10
175.7370767789824
 20
-202.6639430916951
 30
0.0
 10
176.0988118049336
 20
-207.2972520098076
 30
0.0
 10
176.1918293830354
 20
-211.9340060234054
 30
0.0
 10
176.2779567701666
 20
-216.2190157879591
 30
0.0
 10
176.1997531026515
 20
-220.5074706479981
 30
0.0
 10
176.2080213318161
 20
-224.7942029602945
 30
0.0
 10
176.213877994141
 20
-228.0842691487081
 30
0.0
 10
176.2059542745249
 20
-231.3753688657673
 30
0.0
 10
176.2876030375253
 20
-234.6640570159868
 30
0.0
 10
176.3058620435972
 20
-235.3954507875053
 30
0.0
 10
176.089854556672
 20
-236.3201144157464
 30
0.0
 10
177.1881509973696
 20
-237.02463644248
 30
0.0
 10
177.1881509973696
 20
-235.3510090557456
 30
0.0
 10
177.1481878897407
 20
-233.8930446463879
 30
0.0
 10
177.1950411883401
 20
-232.4381808229668
 30
0.0
 10
177.4451551205693
 20
-224.6360730775216
 30
0.0
 10
178.1851616308009
 20
-216.8498127713084
 30
0.0
 10
177.8502983496346
 20
-209.0280679815972
 30
0.0
 10
177.7421223513978
 20
-206.5059135768458
 30
0.0
 10
177.7786403635415
 20
-203.9706678092504
 30
0.0
 10
177.8840602853901
 20
-201.4474798758534
 30
0.0
 10
178.1190157974841
 20
-195.8188828720522
 30
0.0
 10
178.4369981107727
 20
-190.1940754732848
 30
0.0
 10
178.7267306410822
 20
-184.5678900363233
 30
0.0
 10
178.8169921427958
 20
-182.8119248674915
 30
0.0
 10
178.9330918606487
 20
-181.0576822464023
 30
0.0
 10
179.0243868910078
 20
-179.3017170775704
 30
0.0
 10
179.0843315524511
 20
-178.145198523172
 30
0.0
 10
179.2913817911147
 20
-176.9635307717313
 30
0.0
 10
179.1360079847299
 20
-175.8342284716664
 30
0.0
 10
178.7119167304956
 20
-172.7556911460472
 30
0.0
 10
179.1335964178902
 20
-169.7536349402005
 30
0.0
 10
179.6699977849436
 20
-166.7474446197715
 30
0.0
 10
180.0706623898782
 20
-164.5019313824856
 30
0.0
 10
180.4523789696439
 20
-162.2515950115204
 30
0.0
 10
180.9143662742159
 20
-160.0184841179815
 30
0.0
 10
181.0869655580269
 20
-159.1844265010025
 30
0.0
 10
181.3722194642056
 20
-158.3441677121501
 30
0.0
 10
181.771506030946
 20
-157.5948594441082
 30
0.0
 10
182.2093776671213
 20
-156.7725151517791
 30
0.0
 10
182.7726507789596
 20
-155.9925455339185
 30
0.0
 10
183.398969138178
 20
-155.3000813413833
 30
0.0
 10
184.378065275086
 20
-154.2176323399178
 30
0.0
 10
184.7360106960035
 20
-153.0018581431732
 30
0.0
 10
184.5820149278128
 20
-151.5773111600223
 30
0.0
 10
184.3198431613853
 20
-149.1498968811153
 30
0.0
 10
184.5954508002053
 20
-146.8587361286499
 30
0.0
 10
185.6865125403839
 20
-144.5811835033512
 30
0.0
 10
186.6208224359837
 20
-142.6316039682484
 30
0.0
 10
186.0840765593818
 20
-140.7211262669031
 30
0.0
 10
184.5262043809518
 20
-139.1031371722555
 30
0.0
  0
SPLINE
  5
45
330
40
100
AcDbEntity
  8
Layer 1
370
     0
100
AcDbSpline
210
0.0
220
0.0
230
1.0
 70
    11
 71
     3
 72
    47
 73
    43
 74
     0
 42
0.0000000001
 43
0.0000000001
 40
0.0
 40
0.0
 40
0.0
 40
0.0
 40
1.0
 40
1.0
 40
1.0
 40
2.0
 40
2.0
 40
2.0
 40
3.0
 40
3.0
 40
3.0
 40
4.0
 40
4.0
 40
4.0
 40
5.0
 40
5.0
 40
5.0
 40
6.0
 40
6.0
 40
6.0
 40
7.0
 40
7.0
 40
7.0
 40
8.0
 40
8.0
 40
8.0
 40
9.0
 40
9.0
 40
9.0
 40
10.0
 40
10.0
 40
10.0
 40
11.0
 40
11.0
 40
11.0
 40
12.0
 40
12.0
 40
12.0
 40
13.0
 40
13.0
 40
13.0
 40
14.0
 40
14.0
 40
14.0
 40
14.0
 10
166.926934094553
 20
-118.1464490807064
 30
0.0
 10
167.3114067507069
 20
-118.929691539278
 30
0.0
 10
167.7224066420972
 20
-119.7503132838645
 30
0.0
 10
168.3132405178175
 20
-120.3712917450808
 30
0.0
 10
169.5331488291445
 20
-121.6533840299165
 30
0.0
 10
169.3853542328273
 20
-123.1340860694769
 30
0.0
 10
169.1793375228093
 20
-124.6509616116324
 30
0.0
 10
169.0336099837833
 20
-125.720319250254
 30
0.0
 10
168.8282822928624
 20
-126.7815809144852
 30
0.0
 10
168.609518729549
 20
-128.0865830842978
 30
0.0
 10
167.264897961656
 20
-129.4604871638154
 30
0.0
 10
165.2736327711816
 20
-130.0490817274704
 30
0.0
 10
163.2113986137111
 20
-130.6833238063049
 30
0.0
 10
162.272954603529
 20
-130.9718505531945
 30
0.0
 10
161.0744058842106
 20
-130.6860798826931
 30
0.0
 10
160.301670966869
 20
-131.6755113060568
 30
0.0
 10
159.570621704899
 20
-132.6115437493992
 30
0.0
 10
159.0858967701244
 20
-133.5792710712059
 30
0.0
 10
159.135506145112
 20
-134.8169216242819
 30
0.0
 10
156.7873290623657
 20
-135.8690537854772
 30
0.0
 10
154.2944579692389
 20
-135.6244520060245
 30
0.0
 10
151.8873697536948
 20
-135.3050916545418
 30
0.0
 10
148.7120252449401
 20
-134.8837564766957
 30
0.0
 10
145.6813747465658
 20
-135.1709051853913
 30
0.0
 10
142.7482204504241
 20
-136.3641140067076
 30
0.0
 10
139.9852538712537
 20
-137.4879041539961
 30
0.0
 10
137.1609645924459
 20
-137.4768798484433
 30
0.0
 10
133.9466905047078
 20
-137.1163506059119
 30
0.0
 10
134.4844699099553
 20
-136.8328192474758
 30
0.0
 10
134.7366508994756
 20
-136.6044094168038
 30
0.0
 10
135.0146701051352
 20
-136.5675468951116
 30
0.0
 10
141.7467311928619
 20
-135.6750949096576
 30
0.0
 10
146.939523617779
 20
-131.9810912755985
 30
0.0
 10
151.6706732476726
 20
-127.4440727762987
 30
0.0
 10
153.2371581648157
 20
-125.9418388899555
 30
0.0
 10
154.8053656297014
 20
-124.4408107870322
 30
0.0
 10
156.3425672352199
 20
-122.9086045699673
 30
0.0
 10
158.8733343786845
 20
-120.3855888913446
 30
0.0
 10
161.3792968346552
 20
-117.8375962704538
 30
0.0
 10
163.9582953149132
 20
-115.2372381981872
 30
0.0
 10
165.2974039300298
 20
-115.7567585973629
 30
0.0
 10
166.2547959653808
 20
-116.7775403896424
 30
0.0
 10
166.926934094553
 20
-118.1464490807064
 30
0.0
  0
SPLINE
  5
46
330
40
100
AcDbEntity
  8
Layer 1
370
     0
100
AcDbSpline
210
0.0
220
0.0
230
1.0
 70
    11
 71
     3
 72
    26
 73
    22
 74
     0
 42
0.0000000001
 43
0.0000000001
 40
0.0
 40
0.0
 40
0.0
 40
0.0
 40
1.0
 40
1.0
 40
1.0
 40
2.0
 40
2.0
 40
2.0
 40
3.0
 40
3.0
 40
3.0
 40
4.0
 40
4.0
 40
4.0
 40
5.0
 40
5.0
 40
5.0
 40
6.0
 40
6.0
 40
6.0
 40
7.0
 40
7.0
 40
7.0
 40
7.0
 10
153.7604681690252
 20
-103.7433661307482
 30
0.0
 10
156.9116970093832
 20
-105.3139851624736
 30
0.0
 10
159.019406427259
 20
-108.0357828505952
 30
0.0
 10
161.3289984405705
 20
-110.7677435703984
 30
0.0
 10
160.7161159537446
 20
-111.4009521205873
 30
0.0
 10
160.1232150207331
 20
-111.9545789650669
 30
0.0
 10
159.598182468781
 20
-112.5666001780215
 30
0.0
 10
158.0351426471232
 20
-114.3890556897187
 30
0.0
 10
156.5954372438373
 20
-116.3277831740431
 30
0.0
 10
154.9328341626557
 20
-118.0527424835077
 30
0.0
 10
150.8441948407612
 20
-122.2943440449473
 30
0.0
 10
146.2429253106615
 20
-125.9144503808478
 30
0.0
 10
141.0904405029218
 20
-128.7900715823858
 30
0.0
 10
139.6486680423448
 20
-129.5946736329659
 30
0.0
 10
138.0370523743449
 20
-129.947795920204
 30
0.0
 10
136.1009087116345
 20
-129.8025851455008
 30
0.0
 10
137.6963324308537
 20
-128.1746052739459
 30
0.0
 10
138.9524142447758
 20
-126.5933064462163
 30
0.0
 10
140.4937499648766
 20
-125.3718478419209
 30
0.0
 10
147.5351806271787
 20
-119.7914821749132
 30
0.0
 10
150.9223985082764
 20
-112.0221028365778
 30
0.0
 10
153.7604681690252
 20
-103.7433661307482
 30
0.0
  0
SPLINE
  5
47
330
40
100
AcDbEntity
  8
Layer 1
370
     0
100
AcDbSpline
210
0.0
220
0.0
230
1.0
 70
    11
 71
     3
 72
    83
 73
    79
 74
     0
 42
0.0000000001
 43
0.0000000001
 40
0.0
 40
0.0
 40
0.0
 40
0.0
 40
1.0
 40
1.0
 40
1.0
 40
2.0
 40
2.0
 40
2.0
 40
3.0
 40
3.0
 40
3.0
 40
4.0
 40
4.0
 40
4.0
 40
5.0
 40
5.0
 40
5.0
 40
6.0
 40
6.0
 40
6.0
 40
7.0
 40
7.0
 40
7.0
 40
8.0
 40
8.0
 40
8.0
 40
9.0
 40
9.0
 40
9.0
 40
10.0
 40
10.0
 40
10.0
 40
11.0
 40
11.0
 40
11.0
 40
12.0
 40
12.0
 40
12.0
 40
13.0
 40
13.0
 40
13.0
 40
14.0
 40
14.0
 40
14.0
 40
15.0
 40
15.0
 40
15.0
 40
16.0
 40
16.0
 40
16.0
 40
17.0
 40
17.0
 40
17.0
 40
18.0
 40
18.0
 40
18.0
 40
19.0
 40
19.0
 40
19.0
 40
20.0
 40
20.0
 40
20.0
 40
21.0
 40
21.0
 40
21.0
 40
22.0
 40
22.0
 40
22.0
 40
23.0
 40
23.0
 40
23.0
 40
24.0
 40
24.0
 40
24.0
 40
25.0
 40
25.0
 40
25.0
 40
26.0
 40
26.0
 40
26.0
 40
26.0
 10
106.6425862363602
 20
-89.38145207183867
 30
0.0
 10
108.0957275120386
 20
-89.01541067653088
 30
0.0
 10
109.6780598684138
 20
-89.18904348898747
 30
0.0
 10
111.1914903150841
 20
-89.0276407655035
 30
0.0
 10
113.2313313519005
 20
-88.81025524038425
 30
0.0
 10
115.2594590640671
 20
-88.48434920747961
 30
0.0
 10
117.2979220626894
 20
-88.24939369538558
 30
0.0
 10
120.9307752518854
 20
-87.83064233915346
 30
0.0
 10
124.3827609281057
 20
-88.79234074386095
 30
0.0
 10
127.8860785270563
 20
-89.55474037474674
 30
0.0
 10
132.7216145501529
 20
-90.60721704549056
 30
0.0
 10
137.362502678333
 20
-92.01212698437544
 30
0.0
 10
141.7326063013724
 20
-94.45056556883527
 30
0.0
 10
144.7498209273542
 20
-96.13435598725114
 30
0.0
 10
147.2995360959876
 20
-98.30338810476444
 30
0.0
 10
149.9167751361319
 20
-100.55131290889
 30
0.0
 10
148.2190320810008
 20
-106.8525648061862
 30
0.0
 10
145.62900929519
 20
-112.5304266754264
 30
0.0
 10
140.7042452990253
 20
-117.0512532259455
 30
0.0
 10
137.5795436939037
 20
-119.9196397269645
 30
0.0
 10
134.0545219933961
 20
-121.7949774543603
 30
0.0
 10
130.0557996636666
 20
-122.9435722891426
 30
0.0
 10
128.6119601457984
 20
-123.3581895307924
 30
0.0
 10
128.4131781362995
 20
-123.2510470612011
 30
0.0
 10
127.8216552414821
 20
-121.821676944371
 30
0.0
 10
127.324183453412
 20
-120.6189941104703
 30
0.0
 10
127.1088649855839
 20
-119.4151054931497
 30
0.0
 10
127.2087727546562
 20
-118.0620442413178
 30
0.0
 10
127.3545002936822
 20
-116.0943779549174
 30
0.0
 10
127.2597601678378
 20
-114.0929497327615
 30
0.0
 10
127.0816487312504
 20
-112.1225273699728
 30
0.0
 10
126.944878440486
 20
-110.6096136876254
 30
0.0
 10
126.4398274423484
 20
-110.3260823291893
 30
0.0
 10
124.9777289184083
 20
-110.452517333498
 30
0.0
 10
123.0250487973687
 20
-110.621154757501
 30
0.0
 10
121.8447590841221
 20
-111.7228962936839
 30
0.0
 10
121.6714707812141
 20
-113.6821220961454
 30
0.0
 10
121.4802679817827
 20
-115.8416802010743
 30
0.0
 10
121.380704722259
 20
-118.0091620256192
 30
0.0
 10
121.2329101259418
 20
-120.3072129690551
 30
0.0
 10
120.4443277693681
 20
-120.7273423634814
 30
0.0
 10
119.5754746879881
 20
-121.1903631966989
 30
0.0
 10
118.684917505051
 20
-121.6647528450178
 30
0.0
 10
117.3106689159848
 20
-120.2078219643057
 30
0.0
 10
116.8676296365817
 20
-118.4866522598749
 30
0.0
 10
116.8063069369443
 20
-116.6281955003568
 30
0.0
 10
116.7677218675095
 20
-115.4544514685322
 30
0.0
 10
116.8390353440541
 20
-114.2708889145746
 30
0.0
 10
116.7143228874881
 20
-113.1074801692058
 30
0.0
 10
116.5017604960482
 20
-111.1256889913158
 30
0.0
 10
115.651855439837
 20
-110.3999796273479
 30
0.0
 10
113.947566703284
 20
-110.3999796273479
 30
0.0
 10
112.9102484526752
 20
-110.3999796273479
 30
0.0
 10
112.2481011004102
 20
-110.9257011983971
 30
0.0
 10
111.8956678322691
 20
-111.7681992993149
 30
0.0
 10
111.5862982576937
 20
-112.5080335547723
 30
0.0
 10
111.3623670511525
 20
-113.3431247003969
 30
0.0
 10
111.3540988219879
 20
-114.138597247941
 30
0.0
 10
111.3261935485573
 20
-116.8864054069763
 30
0.0
 10
111.5084390997271
 20
-119.6474771836298
 30
0.0
 10
110.1865559620367
 20
-122.3835720180152
 30
0.0
 10
108.1877115614947
 20
-122.5909667662273
 30
0.0
 10
105.9924967182936
 20
-122.3344794073504
 30
0.0
 10
104.2541015364365
 20
-121.2143066103214
 30
0.0
 10
101.0129557039134
 20
-119.125889727163
 30
0.0
 10
97.80694984533993
 20
-116.8758978657463
 30
0.0
 10
95.77709958543073
 20
-113.4259792468171
 30
0.0
 10
95.30581052304855
 20
-112.6253390560451
 30
0.0
 10
94.96405705091176
 20
-111.7494235289203
 30
0.0
 10
94.54203285396866
 20
-110.9186387526523
 30
0.0
 10
93.21670462079305
 20
-108.3091511773498
 30
0.0
 10
91.8038709622921
 20
-105.7406602383218
 30
0.0
 10
90.58017304593135
 20
-103.0846638739684
 30
0.0
 10
89.85256887944658
 20
-101.5056043583042
 30
0.0
 10
89.417108810111
 20
-99.7920138639409
 30
0.0
 10
88.87726234757235
 20
-98.21708846285892
 30
0.0
 10
94.12310924296229
 20
-93.3276366954181
 30
0.0
 10
100.2254068759853
 20
-90.99840763784069
 30
0.0
 10
106.6425862363602
 20
-89.38145207183867
 30
0.0
  0
SPLINE
  5
48
330
40
100
AcDbEntity
  8
Layer 1
370
     0
100
AcDbSpline
210
0.0
220
0.0
230
1.0
 70
    11
 71
     3
 72
    38
 73
    34
 74
     0
 42
0.0000000001
 43
0.0000000001
 40
0.0
 40
0.0
 40
0.0
 40
0.0
 40
1.0
 40
1.0
 40
1.0
 40
2.0
 40
2.0
 40
2.0
 40
3.0
 40
3.0
 40
3.0
 40
4.0
 40
4.0
 40
4.0
 40
5.0
 40
5.0
 40
5.0
 40
6.0
 40
6.0
 40
6.0
 40
7.0
 40
7.0
 40
7.0
 40
8.0
 40
8.0
 40
8.0
 40
9.0
 40
9.0
 40
9.0
 40
10.0
 40
10.0
 40
10.0
 40
11.0
 40
11.0
 40
11.0
 40
11.0
 10
84.97534720097839
 20
-101.5648600006505
 30
0.0
 10
85.20375703165045
 20
-101.9493326568043
 30
0.0
 10
85.48487682324684
 20
-102.3129624852725
 30
0.0
 10
85.65368650202409
 20
-102.7227565932429
 30
0.0
 10
87.55090058575117
 20
-107.3276434736021
 30
0.0
 10
89.44398055489596
 20
-111.9344251564782
 30
0.0
 10
91.30846623151317
 20
-116.5527479092299
 30
0.0
 10
91.91618107511124
 20
-118.0580823815098
 30
0.0
 10
92.85565861393887
 20
-119.246640323921
 30
0.0
 10
94.08280162578485
 20
-120.325471975127
 30
0.0
 10
96.85472545321687
 20
-122.7628770309412
 30
0.0
 10
99.52122935880026
 20
-125.3205159191907
 30
0.0
 10
102.2073703086495
 20
-127.854383648592
 30
0.0
 10
102.6039007990018
 20
-128.2281765087416
 30
0.0
 10
102.8715847182057
 20
-128.7383951501071
 30
0.0
 10
103.1988687893045
 20
-129.1853962893182
 30
0.0
 10
101.3361056604299
 20
-128.7950669708394
 30
0.0
 10
99.57462833882163
 20
-128.4629597660613
 30
0.0
 10
98.1207980440462
 20
-127.2656168301628
 30
0.0
 10
97.4135199409244
 20
-126.683051183607
 30
0.0
 10
96.55327959825752
 20
-126.1959146819927
 30
0.0
 10
95.68201495003784
 20
-125.9191012597529
 30
0.0
 10
92.65997719037668
 20
-124.959125402788
 30
0.0
 10
90.33867185241533
 20
-123.0915391402341
 30
0.0
 10
88.36566566801275
 20
-120.6813503387533
 30
0.0
 10
87.69972871071396
 20
-119.8677910399115
 30
0.0
 10
86.97867022565117
 20
-119.0580213461036
 30
0.0
 10
86.14392358957514
 20
-118.4313584773366
 30
0.0
 10
82.8490342674822
 20
-115.9577799189272
 30
0.0
 10
80.71273055707877
 20
-112.46186927527
 30
0.0
 10
78.03279077910291
 20
-109.4778998207208
 30
0.0
 10
78.9123236564872
 20
-106.9772772627522
 30
0.0
 10
82.22099336052115
 20
-103.1852606621377
 30
0.0
 10
84.97534720097839
 20
-101.5648600006505
 30
0.0
  0
SPLINE
  5
49
330
40
100
AcDbEntity
  8
Layer 1
370
     0
100
AcDbSpline
210
0.0
220
0.0
230
1.0
 70
    11
 71
     3
 72
   140
 73
   136
 74
     0
 42
0.0000000001
 43
0.0000000001
 40
0.0
 40
0.0
 40
0.0
 40
0.0
 40
1.0
 40
1.0
 40
1.0
 40
2.0
 40
2.0
 40
2.0
 40
3.0
 40
3.0
 40
3.0
 40
4.0
 40
4.0
 40
4.0
 40
5.0
 40
5.0
 40
5.0
 40
6.0
 40
6.0
 40
6.0
 40
7.0
 40
7.0
 40
7.0
 40
8.0
 40
8.0
 40
8.0
 40
9.0
 40
9.0
 40
9.0
 40
10.0
 40
10.0
 40
10.0
 40
11.0
 40
11.0
 40
11.0
 40
12.0
 40
12.0
 40
12.0
 40
13.0
 40
13.0
 40
13.0
 40
14.0
 40
14.0
 40
14.0
 40
15.0
 40
15.0
 40
15.0
 40
16.0
 40
16.0
 40
16.0
 40
17.0
 40
17.0
 40
17.0
 40
18.0
 40
18.0
 40
18.0
 40
19.0
 40
19.0
 40
19.0
 40
20.0
 40
20.0
 40
20.0
 40
21.0
 40
21.0
 40
21.0
 40
22.0
 40
22.0
 40
22.0
 40
23.0
 40
23.0
 40
23.0
 40
24.0
 40
24.0
 40
24.0
 40
25.0
 40
25.0
 40
25.0
 40
26.0
 40
26.0
 40
26.0
 40
27.0
 40
27.0
 40
27.0
 40
28.0
 40
28.0
 40
28.0
 40
29.0
 40
29.0
 40
29.0
 40
30.0
 40
30.0
 40
30.0
 40
31.0
 40
31.0
 40
31.0
 40
32.0
 40
32.0
 40
32.0
 40
33.0
 40
33.0
 40
33.0
 40
34.0
 40
34.0
 40
34.0
 40
35.0
 40
35.0
 40
35.0
 40
36.0
 40
36.0
 40
36.0
 40
37.0
 40
37.0
 40
37.0
 40
38.0
 40
38.0
 40
38.0
 40
39.0
 40
39.0
 40
39.0
 40
40.0
 40
40.0
 40
40.0
 40
41.0
 40
41.0
 40
41.0
 40
42.0
 40
42.0
 40
42.0
 40
43.0
 40
43.0
 40
43.0
 40
44.0
 40
44.0
 40
44.0
 40
45.0
 40
45.0
 40
45.0
 40
45.0
 10
88.17618541632402
 20
-159.4059461407041
 30
0.0
 10
87.79377981746129
 20
-161.1202256541644
 30
0.0
 10
87.34936249986406
 20
-162.8221028238778
 30
0.0
 10
87.02724607199319
 20
-164.5474066428909
 30
0.0
 10
86.79125703125358
 20
-165.8110676668806
 30
0.0
 10
86.75198294272172
 20
-167.1105576839168
 30
0.0
 10
86.54631074225232
 20
-168.3814534084255
 30
0.0
 10
86.37164440115015
 20
-169.4618353525998
 30
0.0
 10
86.04814993508519
 20
-170.5177571188289
 30
0.0
 10
85.86108125023613
 20
-171.5971055343577
 30
0.0
 10
85.756005837936
 20
-172.201719792019
 30
0.0
 10
85.563080490762
 20
-172.9486164932212
 30
0.0
 10
85.80768227021476
 20
-173.428862803865
 30
0.0
 10
86.90012204858748
 20
-175.5717121956904
 30
0.0
 10
86.1876763022378
 20
-177.5912271691439
 30
0.0
 10
85.44629175381205
 20
-179.5473523856687
 30
0.0
 10
84.97603622007544
 20
-180.7875867603587
 30
0.0
 10
84.08789060397802
 20
-181.867279685436
 30
0.0
 10
83.41196286977201
 20
-183.0330999976445
 30
0.0
 10
82.77565373364637
 20
-184.1307074192451
 30
0.0
 10
82.17207300463059
 20
-185.2472628660146
 30
0.0
 10
81.40795082600218
 20
-186.6173773404985
 30
0.0
 10
80.86879338256058
 20
-186.7400227397733
 30
0.0
 10
80.32860241047341
 20
-186.2735568110705
 30
0.0
 10
79.82837454601513
 20
-185.6648084388269
 30
0.0
 10
75.42760957315699
 20
-180.3128526024912
 30
0.0
 10
71.96735566777205
 20
-174.4189832463258
 30
0.0
 10
69.71839733500096
 20
-167.8553873278278
 30
0.0
 10
69.48206378471282
 20
-167.1656792116808
 30
0.0
 10
69.58886174475556
 20
-166.1852050365787
 30
0.0
 10
69.90270994346183
 20
-165.5092773023727
 30
0.0
 10
71.22769366708891
 20
-162.6553602023917
 30
0.0
 10
70.95139700917187
 20
-159.9371798645296
 30
0.0
 10
69.46828340277182
 20
-157.2761881117226
 30
0.0
 10
67.72472057768688
 20
-154.1480414111158
 30
0.0
 10
66.65295137222566
 20
-150.8517740508287
 30
0.0
 10
66.65157333403155
 20
-147.2311509506054
 30
0.0
 10
66.65122882448303
 20
-145.7092800199963
 30
0.0
 10
66.12964136801621
 20
-144.0926689635428
 30
0.0
 10
66.49137639396744
 20
-142.685175203044
 30
0.0
 10
67.2451632861401
 20
-139.7528821807736
 30
0.0
 10
67.32061087726707
 20
-136.7930283946212
 30
0.0
 10
67.60414223570314
 20
-133.8268011818211
 30
0.0
 10
67.7567599656997
 20
-132.2317219721504
 30
0.0
 10
68.27283526939013
 20
-130.6087374890492
 30
0.0
 10
68.93877222668893
 20
-129.14061004801
 30
0.0
 10
69.88755152332672
 20
-127.0489203241406
 30
0.0
 10
70.74538029915394
 20
-124.9627427530475
 30
0.0
 10
71.26490069832961
 20
-122.7118896177595
 30
0.0
 10
71.9969834889452
 20
-119.5420572617812
 30
0.0
 10
73.66303166561202
 20
-116.7697889248006
 30
0.0
 10
75.23158364004627
 20
-113.7462008721711
 30
0.0
 10
76.2716579670432
 20
-115.1106309391043
 30
0.0
 10
77.06368541910214
 20
-116.3605115811529
 30
0.0
 10
78.06035154298492
 20
-117.4172946212533
 30
0.0
 10
80.87706161172518
 20
-120.4041924069649
 30
0.0
 10
83.76646319520422
 20
-123.3228773020686
 30
0.0
 10
86.65689830732883
 20
-126.2389783755583
 30
0.0
 10
87.10200464402311
 20
-126.6880465720606
 30
0.0
 10
87.71557614994612
 20
-126.9667547968173
 30
0.0
 10
88.23165145363653
 20
-127.3507106886484
 30
0.0
 10
88.79354652728078
 20
-127.7687730257835
 30
0.0
 10
89.52011716511997
 20
-128.1088039501777
 30
0.0
 10
89.84671221712166
 20
-128.6729383358873
 30
0.0
 10
90.87335067172612
 20
-130.4461289821454
 30
0.0
 10
92.39194876162423
 20
-131.3294514645635
 30
0.0
 10
94.3425618253727
 20
-131.681540223156
 30
0.0
 10
94.84623478531623
 20
-131.7723184891923
 30
0.0
 10
95.36609969404043
 20
-132.0226046761958
 30
0.0
 10
95.77709958543073
 20
-132.3335245437395
 30
0.0
 10
97.14514700262345
 20
-133.3677422084116
 30
0.0
 10
98.64307451961007
 20
-133.7995849274876
 30
0.0
 10
100.3659667717835
 20
-133.8073363923294
 30
0.0
 10
101.8129068755884
 20
-133.8140543285257
 30
0.0
 10
103.0152451999406
 20
-134.6198621625256
 30
0.0
 10
104.4666639278764
 20
-135.8342583210762
 30
0.0
 10
102.6765923137406
 20
-135.9393337333763
 30
0.0
 10
101.2730604130498
 20
-136.1084879217021
 30
0.0
 10
99.87262909829573
 20
-136.0866115653707
 30
0.0
 10
96.53812117812242
 20
-136.0351073878662
 30
0.0
 10
93.1912109142022
 20
-136.0378634642544
 30
0.0
 10
89.87634003829481
 20
-135.729182908776
 30
0.0
 10
88.11727428352624
 20
-135.5653686184524
 30
0.0
 10
86.41539711381282
 20
-135.3204223294512
 30
0.0
 10
84.64565156303998
 20
-135.6127386813746
 30
0.0
 10
84.18228622027388
 20
-135.6892198011471
 30
0.0
 10
83.58215058674335
 20
-135.2408406237419
 30
0.0
 10
83.11499563894348
 20
-134.9288872275525
 30
0.0
 10
82.04839407671012
 20
-134.2171305002999
 30
0.0
 10
81.0675753920595
 20
-133.3715318134453
 30
0.0
 10
79.97616914233235
 20
-132.7035277988554
 30
0.0
 10
77.11949596596318
 20
-130.9553140948653
 30
0.0
 10
71.16533743880589
 20
-133.5115749449207
 30
0.0
 10
70.84942218280848
 20
-137.9116508986818
 30
0.0
 10
70.63410371498037
 20
-140.9143961236256
 30
0.0
 10
71.01478676610047
 20
-143.5235391893795
 30
0.0
 10
73.42187498164454
 20
-145.550288863352
 30
0.0
 10
74.44713539805488
 20
-146.4136297919556
 30
0.0
 10
74.44541285031227
 20
-147.5765217730017
 30
0.0
 10
74.43645560205061
 20
-148.7764485305142
 30
0.0
 10
74.43163246837126
 20
-149.4048339470238
 30
0.0
 10
74.07954370977873
 20
-150.4266492679489
 30
0.0
 10
75.15200193433701
 20
-150.4225151533666
 30
0.0
 10
76.18415254171785
 20
-150.4183810387843
 30
0.0
 10
75.86823728572044
 20
-149.435150787294
 30
0.0
 10
75.90509980741261
 20
-148.7728311802547
 30
0.0
 10
75.94471840549299
 20
-148.0574571027426
 30
0.0
 10
75.48858776324592
 20
-147.1789577540039
 30
0.0
 10
76.42772079252502
 20
-146.7379855318919
 30
0.0
 10
77.08986814479003
 20
-146.4268934095738
 30
0.0
 10
77.80024683384855
 20
-146.0946139500215
 30
0.0
 10
78.51165905155264
 20
-146.0341525242553
 30
0.0
 10
81.02692326533355
 20
-145.8202120946214
 30
0.0
 10
82.78530000100507
 20
-144.6276922924021
 30
0.0
 10
83.87739526982926
 20
-142.3516899600718
 30
0.0
 10
84.05240612047996
 20
-141.9866820934096
 30
0.0
 10
84.53540850751199
 20
-141.6497517549521
 30
0.0
 10
84.94158526522294
 20
-141.5379584064558
 30
0.0
 10
86.12359752621217
 20
-141.2122246283254
 30
0.0
 10
87.33523760837453
 20
-140.8158663927474
 30
0.0
 10
88.54171004730902
 20
-140.7931287625448
 30
0.0
 10
91.52550724708391
 20
-140.7368014513609
 30
0.0
 10
94.51274954234404
 20
-140.8732272325769
 30
0.0
 10
97.86310490174951
 20
-140.9393730658936
 30
0.0
 10
97.3887152534306
 20
-141.5982475774477
 30
0.0
 10
97.17236325695691
 20
-141.905550094732
 30
0.0
 10
96.94912106951273
 20
-142.2080294783369
 30
0.0
 10
95.80052623473043
 20
-143.7653848924441
 30
0.0
 10
94.48518877846205
 20
-145.2281724354812
 30
0.0
 10
93.53640948182424
 20
-146.8990437458273
 30
0.0
 10
91.88896482077776
 20
-149.8017089469246
 30
0.0
 10
90.39448239927638
 20
-152.7982529999949
 30
0.0
 10
88.99129500813413
 20
-155.8278699697236
 30
0.0
 10
88.48831106728765
 20
-156.9134195571258
 30
0.0
 10
88.44318031643087
 20
-158.2091199691283
 30
0.0
 10
88.17618541632402
 20
-159.4059461407041
 30
0.0
  0
SPLINE
  5
4A
330
40
100
AcDbEntity
  8
Layer 1
370
     0
100
AcDbSpline
210
0.0
220
0.0
230
1.0
 70
    11
 71
     3
 72
   209
 73
   205
 74
     0
 42
0.0000000001
 43
0.0000000001
 40
0.0
 40
0.0
 40
0.0
 40
0.0
 40
1.0
 40
1.0
 40
1.0
 40
2.0
 40
2.0
 40
2.0
 40
3.0
 40
3.0
 40
3.0
 40
4.0
 40
4.0
 40
4.0
 40
5.0
 40
5.0
 40
5.0
 40
6.0
 40
6.0
 40
6.0
 40
7.0
 40
7.0
 40
7.0
 40
8.0
 40
8.0
 40
8.0
 40
9.0
 40
9.0
 40
9.0
 40
10.0
 40
10.0
 40
10.0
 40
11.0
 40
11.0
 40
11.0
 40
12.0
 40
12.0
 40
12.0
 40
13.0
 40
13.0
 40
13.0
 40
14.0
 40
14.0
 40
14.0
 40
15.0
 40
15.0
 40
15.0
 40
16.0
 40
16.0
 40
16.0
 40
17.0
 40
17.0
 40
17.0
 40
18.0
 40
18.0
 40
18.0
 40
19.0
 40
19.0
 40
19.0
 40
20.0
 40
20.0
 40
20.0
 40
21.0
 40
21.0
 40
21.0
 40
22.0
 40
22.0
 40
22.0
 40
23.0
 40
23.0
 40
23.0
 40
24.0
 40
24.0
 40
24.0
 40
25.0
 40
25.0
 40
25.0
 40
26.0
 40
26.0
 40
26.0
 40
27.0
 40
27.0
 40
27.0
 40
28.0
 40
28.0
 40
28.0
 40
29.0
 40
29.0
 40
29.0
 40
30.0
 40
30.0
 40
30.0
 40
31.0
 40
31.0
 40
31.0
 40
32.0
 40
32.0
 40
32.0
 40
33.0
 40
33.0
 40
33.0
 40
34.0
 40
34.0
 40
34.0
 40
35.0
 40
35.0
 40
35.0
 40
36.0
 40
36.0
 40
36.0
 40
37.0
 40
37.0
 40
37.0
 40
38.0
 40
38.0
 40
38.0
 40
39.0
 40
39.0
 40
39.0
 40
40.0
 40
40.0
 40
40.0
 40
41.0
 40
41.0
 40
41.0
 40
42.0
 40
42.0
 40
42.0
 40
43.0
 40
43.0
 40
43.0
 40
44.0
 40
44.0
 40
44.0
 40
45.0
 40
45.0
 40
45.0
 40
46.0
 40
46.0
 40
46.0
 40
47.0
 40
47.0
 40
47.0
 40
48.0
 40
48.0
 40
48.0
 40
49.0
 40
49.0
 40
49.0
 40
50.0
 40
50.0
 40
50.0
 40
51.0
 40
51.0
 40
51.0
 40
52.0
 40
52.0
 40
52.0
 40
53.0
 40
53.0
 40
53.0
 40
54.0
 40
54.0
 40
54.0
 40
55.0
 40
55.0
 40
55.0
 40
56.0
 40
56.0
 40
56.0
 40
57.0
 40
57.0
 40
57.0
 40
58.0
 40
58.0
 40
58.0
 40
59.0
 40
59.0
 40
59.0
 40
60.0
 40
60.0
 40
60.0
 40
61.0
 40
61.0
 40
61.0
 40
62.0
 40
62.0
 40
62.0
 40
63.0
 40
63.0
 40
63.0
 40
64.0
 40
64.0
 40
64.0
 40
65.0
 40
65.0
 40
65.0
 40
66.0
 40
66.0
 40
66.0
 40
67.0
 40
67.0
 40
67.0
 40
68.0
 40
68.0
 40
68.0
 40
68.0
 10
147.4890163476764
 20
-185.2510524710484
 30
0.0
 10
147.0924858573241
 20
-188.0295219799023
 30
0.0
 10
146.9519259615259
 20
-190.8569118446469
 30
0.0
 10
146.8892252236944
 20
-193.6670762319652
 30
0.0
 10
146.835826243673
 20
-196.0417805499479
 30
0.0
 10
145.6741400460467
 20
-197.331968809174
 30
0.0
 10
143.4961506802718
 20
-197.897653487852
 30
0.0
 10
139.8674316056581
 20
-198.8398871030678
 30
0.0
 10
136.2500813461458
 20
-199.8310410741742
 30
0.0
 10
132.6031032654603
 20
-200.697827098263
 30
0.0
 10
127.9573920036009
 20
-201.8016356917371
 30
0.0
 10
123.2117729726693
 20
-202.3049641421321
 30
0.0
 10
118.4547851266363
 20
-202.2498426143681
 30
0.0
 10
115.3614338904305
 20
-202.2140136213215
 30
0.0
 10
112.1623182228275
 20
-202.0403808088649
 30
0.0
 10
109.2098713919684
 20
-201.2152804401476
 30
0.0
 10
104.4256672916019
 20
-199.8782388823221
 30
0.0
 10
99.79304739258646
 20
-197.9889485182111
 30
0.0
 10
95.12356497187884
 20
-196.2595105846157
 30
0.0
 10
93.70211857466475
 20
-195.7330999944695
 30
0.0
 10
93.33624943413122
 20
-194.7853542264773
 30
0.0
 10
93.47887638722057
 20
-193.2050889273932
 30
0.0
 10
93.49954696013207
 20
-192.9742675298814
 30
0.0
 10
92.81569550630996
 20
-192.5980631028922
 30
0.0
 10
92.87219507226807
 20
-192.4654269267101
 30
0.0
 10
93.24874400880587
 20
-191.5803818965494
 30
0.0
 10
92.60554468170973
 20
-191.2799695702356
 30
0.0
 10
92.09394800215013
 20
-190.8772379080099
 30
0.0
 10
91.60508895279318
 20
-190.4920762327589
 30
0.0
 10
91.33361542855549
 20
-190.1031249524742
 30
0.0
 10
91.46694062383466
 20
-189.3607068754029
 30
0.0
 10
91.6164577678945
 20
-188.5287163157151
 30
0.0
 10
91.46349552834941
 20
-187.6378146232294
 30
0.0
 10
91.4069959623913
 20
-186.7751627137229
 30
0.0
 10
91.37220049799029
 20
-186.2494411426738
 30
0.0
 10
91.09831540691293
 20
-185.6803113685105
 30
0.0
 10
91.22785099715831
 20
-185.2124674016136
 30
0.0
 10
92.112896027319
 20
-182.0250650586604
 30
0.0
 10
91.17479652668547
 20
-178.8225042955722
 30
0.0
 10
91.38391382264014
 20
-175.6406141053954
 30
0.0
 10
91.67605791978933
 20
-171.1957519103261
 30
0.0
 10
91.526885285278
 20
-166.6323784305641
 30
0.0
 10
92.90457896982942
 20
-162.3866427545422
 30
0.0
 10
94.55891382184639
 20
-157.2885904554695
 30
0.0
 10
96.85265839592573
 20
-152.3813964462797
 30
0.0
 10
101.7088649919339
 20
-149.4034559088297
 30
0.0
 10
103.5919541841715
 20
-148.2483153926254
 30
0.0
 10
105.7596082634907
 20
-147.597709110236
 30
0.0
 10
107.6054904244875
 20
-146.3094156535268
 30
0.0
 10
108.3375732151031
 20
-145.7986802478385
 30
0.0
 10
109.3142577851714
 20
-145.6384833077744
 30
0.0
 10
110.2444335661889
 20
-145.2946627783465
 30
0.0
 10
110.2444335661889
 20
-151.2131645672314
 30
0.0
 10
110.239265922961
 20
-157.1445854641861
 30
0.0
 10
110.2520127762564
 20
-163.0756618515922
 30
0.0
 10
110.2533908144505
 20
-163.714038045009
 30
0.0
 10
110.3109239090542
 20
-164.3620605057845
 30
0.0
 10
110.4428710661393
 20
-164.9842447504206
 30
0.0
 10
110.4855902501564
 20
-165.1861273458562
 30
0.0
 10
110.852837428884
 20
-165.4541557746087
 30
0.0
 10
111.0643662916784
 20
-165.4476100931867
 30
0.0
 10
111.2879529886711
 20
-165.4410644117647
 30
0.0
 10
111.6362521422298
 20
-165.1795816644343
 30
0.0
 10
111.694129746382
 20
-164.9656412348003
 30
0.0
 10
111.8136745597202
 20
-164.5246690126883
 30
0.0
 10
111.7819796812559
 20
-164.0409776065592
 30
0.0
 10
111.8029947637159
 20
-163.5745116778564
 30
0.0
 10
111.9187499720203
 20
-161.005159464957
 30
0.0
 10
112.0317491039365
 20
-158.4358072520577
 30
0.0
 10
112.2822075457142
 20
-155.8647324914158
 30
0.0
 10
112.92781843965
 20
-157.3981444919005
 30
0.0
 10
112.2432779667309
 20
-159.1417073169854
 30
0.0
 10
112.9677815472789
 20
-160.6386013053265
 30
0.0
 10
113.1307345637312
 20
-160.6634059928203
 30
0.0
 10
113.2940320897321
 20
-160.6882106803141
 30
0.0
 10
113.4569851061844
 20
-160.7130153678079
 30
0.0
 10
113.6478433960672
 20
-160.1804036057882
 30
0.0
 10
113.9334418117944
 20
-159.6615722257096
 30
0.0
 10
114.0116454793096
 20
-159.1131130244578
 30
0.0
 10
114.2762288125768
 20
-157.2582736151993
 30
0.0
 10
114.4116210651471
 20
-155.3837971616749
 30
0.0
 10
114.7123779010094
 20
-153.5355034338384
 30
0.0
 10
114.844669567643
 20
-152.7238389375135
 30
0.0
 10
115.2570474972274
 20
-151.9576497015939
 30
0.0
 10
115.5423014034061
 20
-151.1707898927629
 30
0.0
 10
115.6759711082338
 20
-151.2031737903242
 30
0.0
 10
115.8096408130615
 20
-151.2359021974341
 30
0.0
 10
115.9433105178892
 20
-151.2682860949954
 30
0.0
 10
115.9433105178892
 20
-153.4555772185805
 30
0.0
 10
115.9484781611171
 20
-155.6432128517142
 30
0.0
 10
115.940554441501
 20
-157.8308484848478
 30
0.0
 10
115.9381428746613
 20
-158.4730142832984
 30
0.0
 10
115.7838025969221
 20
-159.1368841833061
 30
0.0
 10
115.8981797670324
 20
-159.7539007847143
 30
0.0
 10
116.2154730612239
 20
-161.4657687313349
 30
0.0
 10
116.6943413336736
 20
-163.1642008055631
 30
0.0
 10
116.1982475837977
 20
-164.9453151714373
 30
0.0
 10
116.2926432000935
 20
-165.2092094856074
 30
0.0
 10
116.3891058736805
 20
-165.4724147806805
 30
0.0
 10
116.4890136427528
 20
-165.734586547108
 30
0.0
 10
117.3030897059173
 20
-165.28569060538
 30
0.0
 10
117.5501030522097
 20
-164.7575574674912
 30
0.0
 10
117.5724961728638
 20
-163.6995686439709
 30
0.0
 10
117.5924777266783
 20
-162.762502671983
 30
0.0
 10
117.4612195886903
 20
-161.8230251331554
 30
0.0
 10
117.4484727353948
 20
-160.8838921038763
 30
0.0
 10
117.4402045062302
 20
-160.2641194260798
 30
0.0
 10
117.5228867978762
 20
-159.6429687100893
 30
0.0
 10
117.8322563724517
 20
-158.9573947085246
 30
0.0
 10
118.1560953480652
 20
-159.6719075121654
 30
0.0
 10
118.4802788332272
 20
-160.3871093349032
 30
0.0
 10
118.7169568930638
 20
-160.9086967913701
 30
0.0
 10
119.5265543320975
 20
-161.2776665178403
 30
0.0
 10
119.5792642930219
 20
-159.749077651035
 30
0.0
 10
120.3068684595066
 20
-160.6647840310144
 30
0.0
 10
120.6117594099512
 20
-160.3602375901183
 30
0.0
 10
121.056521237097
 20
-160.1053005242098
 30
0.0
 10
121.1881238846335
 20
-159.7387423645792
 30
0.0
 10
121.3769151172252
 20
-159.2130207935301
 30
0.0
 10
121.3366075000478
 20
-158.605305949932
 30
0.0
 10
121.3944851042
 20
-158.033075589832
 30
0.0
 10
121.5081732552132
 20
-158.0351426471232
 30
0.0
 10
121.622205915775
 20
-158.0375542139628
 30
0.0
 10
121.7358940667882
 20
-158.039621271254
 30
0.0
 10
121.7358940667882
 20
-159.122414782268
 30
0.0
 10
121.7414062195647
 20
-160.205208293282
 30
0.0
 10
121.7341715190456
 20
-161.2876572947475
 30
0.0
 10
121.7283148567207
 20
-162.1654676243892
 30
0.0
 10
121.5856879036314
 20
-163.0639485269423
 30
0.0
 10
121.7352050476912
 20
-163.9128200545079
 30
0.0
 10
121.7617322829276
 20
-164.0637152367619
 30
0.0
 10
121.8147867534005
 20
-164.210131794885
 30
0.0
 10
121.8847221917511
 20
-164.3555148243625
 30
0.0
 10
122.1810004034825
 20
-164.0010144989303
 30
0.0
 10
122.5010497740622
 20
-163.6623616127303
 30
0.0
 10
122.8417697175534
 20
-163.3395561657623
 30
0.0
 10
122.8603732331738
 20
-162.1551323379335
 30
0.0
 10
123.1845567183358
 20
-160.9882784970793
 30
0.0
 10
123.3712808936364
 20
-159.8028211406049
 30
0.0
 10
123.5411241010592
 20
-158.7224391964305
 30
0.0
 10
123.2455349084247
 20
-157.5769449475849
 30
0.0
 10
123.3051350603196
 20
-156.4686577299801
 30
0.0
 10
123.4222683068181
 20
-154.2934244405933
 30
0.0
 10
123.6410318701314
 20
-152.1230142848859
 30
0.0
 10
123.8177652685247
 20
-149.9508815814359
 30
0.0
 10
123.9479898778672
 20
-149.9498480527903
 30
0.0
 10
124.0785589967581
 20
-149.9484700145962
 30
0.0
 10
124.2087836061006
 20
-149.9470919764021
 30
0.0
 10
124.2807861017423
 20
-150.3277750275222
 30
0.0
 10
124.3896511190762
 20
-150.7057020022541
 30
0.0
 10
124.4192789402494
 20
-151.089485639311
 30
0.0
 10
124.5811984280561
 20
-153.1958170189927
 30
0.0
 10
124.7641329983229
 20
-155.3018038891259
 30
0.0
 10
124.8571505764246
 20
-157.4115803642929
 30
0.0
 10
124.9102050468975
 20
-158.6197753509701
 30
0.0
 10
125.2292208888316
 20
-159.5775118958695
 30
0.0
 10
126.3319959536601
 20
-159.8968722473522
 30
0.0
 10
126.3319959536601
 20
-164.4816053191227
 30
0.0
 10
126.3430202592129
 20
-168.9399033865845
 30
0.0
 10
126.3288953677233
 20
-173.3982014540463
 30
0.0
 10
126.3158040048794
 20
-177.510611934789
 30
0.0
 10
126.2765299163475
 20
-181.6226779059832
 30
0.0
 10
126.2469020951744
 20
-185.7347438771774
 30
0.0
 10
126.242078961495
 20
-186.3941351530543
 30
0.0
 10
126.2365668087186
 20
-187.0473252570576
 30
0.0
 10
127.3224609056694
 20
-187.272634501793
 30
0.0
 10
127.3224609056694
 20
-182.309629945742
 30
0.0
 10
127.2594156582893
 20
-177.4144937707505
 30
0.0
 10
127.3403754021927
 20
-172.5221136721473
 30
0.0
 10
127.4220241651931
 20
-167.6083739815354
 30
0.0
 10
126.9562472555873
 20
-162.6705186225268
 30
0.0
 10
127.8423258143936
 20
-157.4022786064828
 30
0.0
 10
128.3621907231178
 20
-160.0153835320448
 30
0.0
 10
127.6635253587091
 20
-162.3067165392845
 30
0.0
 10
127.9143283100353
 20
-164.5460286046968
 30
0.0
 10
128.0831379888126
 20
-164.5453395855998
 30
0.0
 10
128.2519476675898
 20
-164.5446505665027
 30
0.0
 10
128.4211018559156
 20
-164.5443060569542
 30
0.0
 10
128.5272107968613
 20
-162.9392360703763
 30
0.0
 10
128.6946424374444
 20
-161.335888631541
 30
0.0
 10
128.7266818254572
 20
-159.729440606769
 30
0.0
 10
128.7828368818668
 20
-156.908940932995
 30
0.0
 10
128.7735351240566
 20
-154.0863742019298
 30
0.0
 10
128.7569986657274
 20
-151.2651855090587
 30
0.0
 10
128.7497639652084
 20
-150.0749050189049
 30
0.0
 10
129.0870388132143
 20
-149.5522840337925
 30
0.0
 10
130.3465657226217
 20
-148.9087401971478
 30
0.0
 10
132.1538628141838
 20
-147.9851100975523
 30
0.0
 10
133.5036512253047
 20
-148.4334892749576
 30
0.0
 10
135.1001084731694
 20
-148.9624836867177
 30
0.0
 10
138.4184244445621
 20
-150.0621581656095
 30
0.0
 10
140.6832302165653
 20
-152.2911349445661
 30
0.0
 10
142.2693521779743
 20
-155.3276421052653
 30
0.0
 10
142.8670762446652
 20
-156.4714138063683
 30
0.0
 10
143.4951171516262
 20
-157.6062282592096
 30
0.0
 10
144.1982611401657
 20
-158.6876437320295
 30
0.0
 10
145.7158257014183
 20
-161.0220404328348
 30
0.0
 10
146.3300862264383
 20
-163.5803683401813
 30
0.0
 10
146.5033745293464
 20
-166.3378227665753
 30
0.0
 10
146.7421196464742
 20
-170.1405191631941
 30
0.0
 10
147.0973089910034
 20
-173.9401149738761
 30
0.0
 10
147.5403482704066
 20
-177.724552364423
 30
0.0
 10
147.8362819725895
 20
-180.2501518646597
 30
0.0
 10
147.8500623545305
 20
-182.7195963084868
 30
0.0
 10
147.4890163476764
 20
-185.2510524710484
 30
0.0
  0
SPLINE
  5
4B
330
40
100
AcDbEntity
  8
Layer 1
370
     0
100
AcDbSpline
210
0.0
220
0.0
230
1.0
 70
    11
 71
     3
 72
    65
 73
    61
 74
     0
 42
0.0000000001
 43
0.0000000001
 40
0.0
 40
0.0
 40
0.0
 40
0.0
 40
1.0
 40
1.0
 40
1.0
 40
2.0
 40
2.0
 40
2.0
 40
3.0
 40
3.0
 40
3.0
 40
4.0
 40
4.0
 40
4.0
 40
5.0
 40
5.0
 40
5.0
 40
6.0
 40
6.0
 40
6.0
 40
7.0
 40
7.0
 40
7.0
 40
8.0
 40
8.0
 40
8.0
 40
9.0
 40
9.0
 40
9.0
 40
10.0
 40
10.0
 40
10.0
 40
11.0
 40
11.0
 40
11.0
 40
12.0
 40
12.0
 40
12.0
 40
13.0
 40
13.0
 40
13.0
 40
14.0
 40
14.0
 40
14.0
 40
15.0
 40
15.0
 40
15.0
 40
16.0
 40
16.0
 40
16.0
 40
17.0
 40
17.0
 40
17.0
 40
18.0
 40
18.0
 40
18.0
 40
19.0
 40
19.0
 40
19.0
 40
20.0
 40
20.0
 40
20.0
 40
20.0
 10
165.0004366992013
 20
-154.1256482904616
 30
0.0
 10
164.7837401931791
 20
-156.6109401735209
 30
0.0
 10
164.0151393904198
 20
-159.0469671911411
 30
0.0
 10
163.5059542776999
 20
-161.5081434058035
 30
0.0
 10
163.2947699244541
 20
-162.5306477458257
 30
0.0
 10
162.9688638915495
 20
-163.5638318818521
 30
0.0
 10
162.976443101617
 20
-164.590125826908
 30
0.0
 10
163.004003865499
 20
-168.402123981337
 30
0.0
 10
163.1669568819513
 20
-172.2130886071203
 30
0.0
 10
163.238959377593
 20
-176.0250867615493
 30
0.0
 10
163.2610079886987
 20
-177.1946966787916
 30
0.0
 10
163.1528319904618
 20
-178.3663736533251
 30
0.0
 10
163.107701239605
 20
-179.5373616087615
 30
0.0
 10
163.0849636094024
 20
-180.1213052935113
 30
0.0
 10
162.9151204019796
 20
-180.7534803150547
 30
0.0
 10
163.0797959661745
 20
-181.2798909052009
 30
0.0
 10
163.5683105059829
 20
-182.8394856313735
 30
0.0
 10
162.9988362222711
 20
-183.9171114991596
 30
0.0
 10
161.9174207494512
 20
-185.0209200926337
 30
0.0
 10
159.7814615485963
 20
-187.2009765156998
 30
0.0
 10
157.6110513928889
 20
-189.3124755386094
 30
0.0
 10
154.7519666496801
 20
-191.0391573958166
 30
0.0
 10
154.537337200949
 20
-189.3393472833943
 30
0.0
 10
154.3047932556946
 20
-187.810758416589
 30
0.0
 10
154.157343168926
 20
-186.2742458301676
 30
0.0
 10
153.6708956864087
 20
-181.1996201803946
 30
0.0
 10
153.2113199486763
 20
-176.1229274733304
 30
0.0
 10
152.7493326441043
 20
-171.0458902567177
 30
0.0
 10
152.6166964679222
 20
-169.5872368282629
 30
0.0
 10
152.37898487944
 20
-168.1223822279347
 30
0.0
 10
152.42101504436
 20
-166.6668293854166
 30
0.0
 10
152.4999077309722
 20
-163.9190212263814
 30
0.0
 10
152.0871852918393
 20
-161.3341660837984
 30
0.0
 10
150.889325591618
 20
-158.8202799082116
 30
0.0
 10
149.5043972065475
 20
-155.9146863759519
 30
0.0
 10
148.3816405879046
 20
-152.8850694062232
 30
0.0
 10
147.0456325587247
 20
-149.9543266769211
 30
0.0
 10
146.1254475546145
 20
-147.9365342512103
 30
0.0
 10
144.7491319082572
 20
-146.4293049764135
 30
0.0
 10
142.5363470780812
 20
-145.5425373985102
 30
0.0
 10
140.8448051948235
 20
-144.864542607013
 30
0.0
 10
139.4202582116727
 20
-143.5194050747972
 30
0.0
 10
137.8771999438293
 20
-142.4710625186357
 30
0.0
 10
137.9312879429477
 20
-142.3048366614724
 30
0.0
 10
137.9857204516147
 20
-142.1386108043091
 30
0.0
 10
138.0398084507331
 20
-141.9723849471458
 30
0.0
 10
143.3831515483556
 20
-141.065635815428
 30
0.0
 10
148.7096136781004
 20
-139.5094861847407
 30
0.0
 10
154.1752576654492
 20
-140.4148572782643
 30
0.0
 10
156.7049912802682
 20
-140.833953144045
 30
0.0
 10
159.1368841833061
 20
-142.092618779581
 30
0.0
 10
161.4881618519891
 20
-143.2289835253907
 30
0.0
 10
162.5919704454631
 20
-143.7624565612816
 30
0.0
 10
163.4432535398684
 20
-144.8667819190784
 30
0.0
 10
164.3179632835733
 20
-145.7979912287415
 30
0.0
 10
164.5970160178785
 20
-146.0951307143443
 30
0.0
 10
164.6600612652586
 20
-146.6628824503134
 30
0.0
 10
164.6893445768832
 20
-147.1152234875267
 30
0.0
 10
164.8398952495886
 20
-149.4523762647202
 30
0.0
 10
165.2019747850884
 20
-151.814678238956
 30
0.0
 10
165.0004366992013
 20
-154.1256482904616
 30
0.0
  0
SPLINE
  5
4C
330
40
100
AcDbEntity
  8
Layer 1
370
     0
100
AcDbSpline
210
0.0
220
0.0
230
1.0
 70
    11
 71
     3
 72
    41
 73
    37
 74
     0
 42
0.0000000001
 43
0.0000000001
 40
0.0
 40
0.0
 40
0.0
 40
0.0
 40
1.0
 40
1.0
 40
1.0
 40
2.0
 40
2.0
 40
2.0
 40
3.0
 40
3.0
 40
3.0
 40
4.0
 40
4.0
 40
4.0
 40
5.0
 40
5.0
 40
5.0
 40
6.0
 40
6.0
 40
6.0
 40
7.0
 40
7.0
 40
7.0
 40
8.0
 40
8.0
 40
8.0
 40
9.0
 40
9.0
 40
9.0
 40
10.0
 40
10.0
 40
10.0
 40
11.0
 40
11.0
 40
11.0
 40
12.0
 40
12.0
 40
12.0
 40
12.0
 10
170.6373019321671
 20
-174.6849446177871
 30
0.0
 10
170.4602240242252
 20
-175.0377223954767
 30
0.0
 10
170.1952961814095
 20
-175.4955755854664
 30
0.0
 10
169.8721462248931
 20
-175.6006509977665
 30
0.0
 10
168.2202229397158
 20
-176.1391194221111
 30
0.0
 10
167.568755383455
 20
-177.4926974382657
 30
0.0
 10
166.9586289730173
 20
-178.9148328545768
 30
0.0
 10
166.7987765425017
 20
-179.2875921860809
 30
0.0
 10
166.5927598324838
 20
-179.640714473319
 30
0.0
 10
166.2944145634611
 20
-180.2253471771659
 30
0.0
 10
166.1166476364222
 20
-179.689290319661
 30
0.0
 10
165.913042493244
 20
-179.3516709621065
 30
0.0
 10
165.906496811822
 20
-179.0106065090668
 30
0.0
 10
165.8661891946446
 20
-176.9111653203555
 30
0.0
 10
165.8730793856151
 20
-174.8110351125472
 30
0.0
 10
165.8592990036741
 20
-172.710904904739
 30
0.0
 10
165.8530978318006
 20
-171.7145832904047
 30
0.0
 10
165.8875487866531
 20
-170.7148165805852
 30
0.0
 10
165.8148572719143
 20
-169.7226290808332
 30
0.0
 10
165.583002345757
 20
-166.5448730052388
 30
0.0
 10
165.643980535846
 20
-163.4336072725096
 30
0.0
 10
167.657294337426
 20
-160.5455837272247
 30
0.0
 10
167.7437662341057
 20
-161.0699272600797
 30
0.0
 10
167.8588324233131
 20
-161.5019422339301
 30
0.0
 10
167.8795029962246
 20
-161.9380913223627
 30
0.0
 10
168.0176513251831
 20
-164.87227914715
 30
0.0
 10
168.1316839857449
 20
-167.8075005005828
 30
0.0
 10
168.2615640855388
 20
-170.7420328349187
 30
0.0
 10
168.3235758042733
 20
-172.1424641496727
 30
0.0
 10
168.5320040811309
 20
-173.4950086371818
 30
0.0
 10
169.7822292327281
 20
-174.5471407983771
 30
0.0
 10
171.6697970490964
 20
-169.9472493064715
 30
0.0
 10
170.429907183955
 20
-165.0076713997203
 30
0.0
 10
171.6002061202944
 20
-160.446020467701
 30
0.0
 10
173.3995794922404
 20
-165.2729437520846
 30
0.0
 10
172.9637749133563
 20
-170.04336747051
 30
0.0
 10
170.6373019321671
 20
-174.6849446177871
 30
0.0
  0
HATCH
  5
4D
330
40
100
AcDbEntity
  8
Layer 1
 62
    22
420
 15212068
100
AcDbHatch
 10
0.0
 20
0.0
 30
0.0
210
0.0
220
0.0
230
1.0
  2
SOLID
 70
     1
 71
     0
 91
        9
 92
        1
 93
        1
 72
     4
 94
        3
 73
     0
 74
     1
 95
      494
 96
      490
 40
0.0
 40
0.0
 40
0.0
 40
0.0
 40
1.0
 40
1.0
 40
1.0
 40
2.0
 40
2.0
 40
2.0
 40
3.0
 40
3.0
 40
3.0
 40
4.0
 40
4.0
 40
4.0
 40
5.0
 40
5.0
 40
5.0
 40
6.0
 40
6.0
 40
6.0
 40
7.0
 40
7.0
 40
7.0
 40
8.0
 40
8.0
 40
8.0
 40
9.0
 40
9.0
 40
9.0
 40
10.0
 40
10.0
 40
10.0
 40
11.0
 40
11.0
 40
11.0
 40
12.0
 40
12.0
 40
12.0
 40
13.0
 40
13.0
 40
13.0
 40
14.0
 40
14.0
 40
14.0
 40
15.0
 40
15.0
 40
15.0
 40
16.0
 40
16.0
 40
16.0
 40
17.0
 40
17.0
 40
17.0
 40
18.0
 40
18.0
 40
18.0
 40
19.0
 40
19.0
 40
19.0
 40
20.0
 40
20.0
 40
20.0
 40
21.0
 40
21.0
 40
21.0
 40
22.0
 40
22.0
 40
22.0
 40
23.0
 40
23.0
 40
23.0
 40
24.0
 40
24.0
 40
24.0
 40
25.0
 40
25.0
 40
25.0
 40
26.0
 40
26.0
 40
26.0
 40
27.0
 40
27.0
 40
27.0
 40
28.0
 40
28.0
 40
28.0
 40
29.0
 40
29.0
 40
29.0
 40
30.0
 40
30.0
 40
30.0
 40
31.0
 40
31.0
 40
31.0
 40
32.0
 40
32.0
 40
32.0
 40
33.0
 40
33.0
 40
33.0
 40
34.0
 40
34.0
 40
34.0
 40
35.0
 40
35.0
 40
35.0
 40
36.0
 40
36.0
 40
36.0
 40
37.0
 40
37.0
 40
37.0
 40
38.0
 40
38.0
 40
38.0
 40
39.0
 40
39.0
 40
39.0
 40
40.0
 40
40.0
 40
40.0
 40
41.0
 40
41.0
 40
41.0
 40
42.0
 40
42.0
 40
42.0
 40
43.0
 40
43.0
 40
43.0
 40
44.0
 40
44.0
 40
44.0
 40
45.0
 40
45.0
 40
45.0
 40
46.0
 40
46.0
 40
46.0
 40
47.0
 40
47.0
 40
47.0
 40
48.0
 40
48.0
 40
48.0
 40
49.0
 40
49.0
 40
49.0
 40
50.0
 40
50.0
 40
50.0
 40
51.0
 40
51.0
 40
51.0
 40
52.0
 40
52.0
 40
52.0
 40
53.0
 40
53.0
 40
53.0
 40
54.0
 40
54.0
 40
54.0
 40
55.0
 40
55.0
 40
55.0
 40
56.0
 40
56.0
 40
56.0
 40
57.0
 40
57.0
 40
57.0
 40
58.0
 40
58.0
 40
58.0
 40
59.0
 40
59.0
 40
59.0
 40
60.0
 40
60.0
 40
60.0
 40
61.0
 40
61.0
 40
61.0
 40
62.0
 40
62.0
 40
62.0
 40
63.0
 40
63.0
 40
63.0
 40
64.0
 40
64.0
 40
64.0
 40
65.0
 40
65.0
 40
65.0
 40
66.0
 40
66.0
 40
66.0
 40
67.0
 40
67.0
 40
67.0
 40
68.0
 40
68.0
 40
68.0
 40
69.0
 40
69.0
 40
69.0
 40
70.0
 40
70.0
 40
70.0
 40
71.0
 40
71.0
 40
71.0
 40
72.0
 40
72.0
 40
72.0
 40
73.0
 40
73.0
 40
73.0
 40
74.0
 40
74.0
 40
74.0
 40
75.0
 40
75.0
 40
75.0
 40
76.0
 40
76.0
 40
76.0
 40
77.0
 40
77.0
 40
77.0
 40
78.0
 40
78.0
 40
78.0
 40
79.0
 40
79.0
 40
79.0
 40
80.0
 40
80.0
 40
80.0
 40
81.0
 40
81.0
 40
81.0
 40
82.0
 40
82.0
 40
82.0
 40
83.0
 40
83.0
 40
83.0
 40
84.0
 40
84.0
 40
84.0
 40
85.0
 40
85.0
 40
85.0
 40
86.0
 40
86.0
 40
86.0
 40
87.0
 40
87.0
 40
87.0
 40
88.0
 40
88.0
 40
88.0
 40
89.0
 40
89.0
 40
89.0
 40
90.0
 40
90.0
 40
90.0
 40
91.0
 40
91.0
 40
91.0
 40
92.0
 40
92.0
 40
92.0
 40
93.0
 40
93.0
 40
93.0
 40
94.0
 40
94.0
 40
94.0
 40
95.0
 40
95.0
 40
95.0
 40
96.0
 40
96.0
 40
96.0
 40
97.0
 40
97.0
 40
97.0
 40
98.0
 40
98.0
 40
98.0
 40
99.0
 40
99.0
 40
99.0
 40
100.0
 40
100.0
 40
100.0
 40
101.0
 40
101.0
 40
101.0
 40
102.0
 40
102.0
 40
102.0
 40
103.0
 40
103.0
 40
103.0
 40
104.0
 40
104.0
 40
104.0
 40
105.0
 40
105.0
 40
105.0
 40
106.0
 40
106.0
 40
106.0
 40
107.0
 40
107.0
 40
107.0
 40
108.0
 40
108.0
 40
108.0
 40
109.0
 40
109.0
 40
109.0
 40
110.0
 40
110.0
 40
110.0
 40
111.0
 40
111.0
 40
111.0
 40
112.0
 40
112.0
 40
112.0
 40
113.0
 40
113.0
 40
113.0
 40
114.0
 40
114.0
 40
114.0
 40
115.0
 40
115.0
 40
115.0
 40
116.0
 40
116.0
 40
116.0
 40
117.0
 40
117.0
 40
117.0
 40
118.0
 40
118.0
 40
118.0
 40
119.0
 40
119.0
 40
119.0
 40
120.0
 40
120.0
 40
120.0
 40
121.0
 40
121.0
 40
121.0
 40
122.0
 40
122.0
 40
122.0
 40
123.0
 40
123.0
 40
123.0
 40
124.0
 40
124.0
 40
124.0
 40
125.0
 40
125.0
 40
125.0
 40
126.0
 40
126.0
 40
126.0
 40
127.0
 40
127.0
 40
127.0
 40
128.0
 40
128.0
 40
128.0
 40
129.0
 40
129.0
 40
129.0
 40
130.0
 40
130.0
 40
130.0
 40
131.0
 40
131.0
 40
131.0
 40
132.0
 40
132.0
 40
132.0
 40
133.0
 40
133.0
 40
133.0
 40
134.0
 40
134.0
 40
134.0
 40
135.0
 40
135.0
 40
135.0
 40
136.0
 40
136.0
 40
136.0
 40
137.0
 40
137.0
 40
137.0
 40
138.0
 40
138.0
 40
138.0
 40
139.0
 40
139.0
 40
139.0
 40
140.0
 40
140.0
 40
140.0
 40
141.0
 40
141.0
 40
141.0
 40
142.0
 40
142.0
 40
142.0
 40
143.0
 40
143.0
 40
143.0
 40
144.0
 40
144.0
 40
144.0
 40
145.0
 40
145.0
 40
145.0
 40
146.0
 40
146.0
 40
146.0
 40
147.0
 40
147.0
 40
147.0
 40
148.0
 40
148.0
 40
148.0
 40
149.0
 40
149.0
 40
149.0
 40
150.0
 40
150.0
 40
150.0
 40
151.0
 40
151.0
 40
151.0
 40
152.0
 40
152.0
 40
152.0
 40
153.0
 40
153.0
 40
153.0
 40
154.0
 40
154.0
 40
154.0
 40
155.0
 40
155.0
 40
155.0
 40
156.0
 40
156.0
 40
156.0
 40
157.0
 40
157.0
 40
157.0
 40
158.0
 40
158.0
 40
158.0
 40
159.0
 40
159.0
 40
159.0
 40
160.0
 40
160.0
 40
160.0
 40
161.0
 40
161.0
 40
161.0
 40
162.0
 40
162.0
 40
162.0
 40
163.0
 40
163.0
 40
163.0
 40
163.0
 10
184.5262043809518
 20
-139.1031371722555
 10
183.853721742231
 20
-138.4048163173953
 10
183.2201686824936
 20
-137.5559447898298
 10
182.8963297068801
 20
-136.6572916325024
 10
182.0533148416395
 20
-134.3204833648574
 10
181.0852430102842
 20
-132.0947794266117
 10
179.3857774074105
 20
-130.2258151258637
 10
178.972710458729
 20
-129.7715792861335
 10
178.6674749987359
 20
-129.1171833987103
 10
178.5544758668197
 20
-128.509985319435
 10
178.0838758235346
 20
-125.9809407237131
 10
176.8805039705368
 20
-123.7238864165517
 10
175.6275227425515
 20
-121.5856879036314
 10
173.1990749349989
 20
-117.4424438182956
 10
171.4930636507031
 20
-112.8816541601476
 10
168.4548339422613
 20
-109.0923936359214
 10
168.3931667330753
 20
-109.0155680066003
 10
168.4124592677927
 20
-108.8738023273823
 10
168.3797308606829
 20
-108.677431884723
 10
170.6975911031589
 20
-105.0810967076707
 10
173.1160481338043
 20
-101.4742539893884
 10
175.3667290143181
 20
-97.76560869951693
 10
176.2969047953355
 20
-96.23219669903223
 10
177.1092583107574
 20
-94.54099932532309
 10
177.5426513228018
 20
-92.81311168469603
 10
178.1675916438262
 20
-90.31989608202072
 10
176.4908636711551
 20
-89.0235066509212
 10
174.0376111761087
 20
-89.79296872755177
 10
172.9086533855923
 20
-90.14695228866118
 10
172.2489176001669
 20
-90.89195418734646
 10
171.8909721792495
 20
-91.93392331686027
 10
171.4534450526228
 20
-93.20826413685418
 10
171.1599229172795
 20
-94.53479815344964
 10
170.6769205302475
 20
-95.78984643872616
 10
170.3486029305031
 20
-96.6433688451968
 10
169.8428629132684
 20
-97.43884139274098
 10
169.3453911251984
 20
-98.21484915079351
 10
168.2753444674798
 20
-99.8846869324941
 10
167.1636121543897
 20
-101.5281697337325
 10
166.0591145418186
 20
-103.1757866495533
 10
165.7828178839015
 20
-103.5881645791377
 10
165.4696587042923
 20
-103.9757378212283
 10
165.1582220724257
 20
-104.3950059417832
 10
164.8839924717998
 20
-104.1762423784698
 10
164.7372314041282
 20
-104.0828802908196
 10
164.6190646289841
 20
-103.9612684201902
 10
161.9201768258394
 20
-101.1871052806928
 10
159.2440266528973
 20
-98.39020451099273
 10
156.5113769139972
 20
-95.64980330725075
 10
155.9735975087497
 20
-95.11047360903488
 10
155.8550862240571
 20
-94.59336477669889
 10
155.9928900434671
 20
-93.91847057113844
 10
156.2150987022657
 20
-92.82775334050834
 10
156.4769259591447
 20
-91.74168698878333
 10
156.6312662368838
 20
-90.64097898124601
 10
157.3822970526683
 20
-85.28557804942514
 10
156.5937146960946
 20
-79.97789169007497
 10
156.1207030859698
 20
-74.65745847742939
 10
155.9246771528591
 20
-72.45363089551506
 10
155.0968207077536
 20
-70.32404512130788
 10
155.5250460765701
 20
-68.03581270000494
 10
155.7586235504701
 20
-66.78731009615039
 10
155.7345078820733
 20
-65.47025009213938
 10
155.6731851824359
 20
-64.19143064801465
 10
155.5877468144017
 20
-62.4079047153008
 10
155.0403211417955
 20
-61.78399792292206
 10
153.5337808860957
 20
-61.40486516477031
 10
151.5804117459591
 20
-60.9130777842509
 10
150.3791069502525
 20
-61.24087861967242
 10
149.5095648497754
 20
-62.6421712082978
 10
148.393698422103
 20
-64.44016654204968
 10
147.9468695376661
 20
-66.49878334926072
 10
148.9597276103295
 20
-68.34914413438841
 10
150.007381147394
 20
-70.26341144076748
 10
150.2058186473444
 20
-72.21075166380496
 10
150.2712754615641
 20
-74.26678464940206
 10
150.2878119198933
 20
-74.78871661541741
 10
150.4180365292358
 20
-75.30703123117324
 10
150.4983072540421
 20
-75.82672388512319
 10
150.952370838998
 20
-78.7764146395941
 10
151.8463731174204
 20
-81.67770180249724
 10
151.5800672364105
 20
-84.70818004609727
 10
151.3947210993041
 20
-86.81933455945837
 10
151.5748995931827
 20
-88.98922795084297
 10
150.7987195803559
 20
-91.06076386612371
 10
150.4983072540421
 20
-90.97411971466967
 10
150.3160617028724
 20
-90.95603296337211
 10
150.1699896542978
 20
-90.87369518127464
 10
149.4027668897326
 20
-90.44081893355299
 10
148.5952365079901
 20
-90.058241079916
 10
147.8907144812565
 20
-89.53785940686902
 10
142.7809488575339
 20
-85.76324053845502
 10
136.8150770057268
 20
-84.00383027413794
 10
130.8543727971475
 20
-82.21272513135655
 10
125.1079535277508
 20
-80.48604327414932
 10
119.1382920709099
 20
-80.65623099112067
 10
113.2530354534576
 20
-80.16461586537551
 10
111.9986761872781
 20
-80.05988496262393
 10
110.6130587831106
 20
-80.61747366691161
 10
109.4014187009483
 20
-81.13544377311892
 10
107.7708550077795
 20
-81.83273109933349
 10
106.1602728684252
 20
-82.36827119251558
 10
104.3715792924835
 20
-82.55017223413677
 10
102.8161186808932
 20
-82.70830211690973
 10
101.1483479564837
 20
-82.97650280043644
 10
99.79683699762025
 20
-83.69635550207938
 10
96.17673066171972
 20
-85.62457544517372
 10
92.69925127890852
 20
-87.81996254314917
 10
89.16768389697891
 20
-89.91354706953551
 10
88.78906790314996
 20
-90.1381672951738
 10
88.42802189629577
 20
-90.39241534198523
 10
87.9264159936434
 20
-90.7186658844384
 10
87.82409665773147
 20
-88.30279267540695
 10
87.53712020381016
 20
-86.07915579445243
 10
87.67905813780246
 20
-83.8832519321542
 10
87.92813854138602
 20
-80.03163517964487
 10
88.4325005204266
 20
-76.19603812114197
 10
88.85314667917561
 20
-72.35630694805675
 10
88.89655488228975
 20
-71.95857067428467
 10
89.08293454804178
 20
-71.57254772516242
 10
89.22693953932522
 20
-71.19014212629969
 10
89.97039114504213
 20
-69.21593015847728
 10
90.75897350161581
 20
-67.25773788466127
 10
91.44661456047169
 20
-65.26457789166997
 10
91.6453965699706
 20
-64.68838567176194
 10
91.71360946057855
 20
-63.98007403999457
 10
91.5792507366538
 20
-63.39234075021095
 10
91.12725420898903
 20
-61.41588947032312
 10
89.71648760777921
 20
-60.53342826177636
 10
87.4685628036537
 20
-60.67984481989949
 10
85.27369247000102
 20
-60.82264402776309
 10
83.85810273511187
 20
-62.02928872147185
 10
83.64175073863818
 20
-64.08583847139174
 10
83.23660750957279
 20
-67.9331488545445
 10
82.78530000100507
 20
-71.78080374724577
 10
82.55861271807562
 20
-75.64034421937117
 10
82.3250352441757
 20
-79.62201332644867
 10
82.25406627717955
 20
-83.61849634411274
 10
82.27508135963957
 20
-87.60774466125778
 10
82.28576115564384
 20
-89.59453122760137
 10
82.6602430348905
 20
-91.57942299142806
 10
82.87280542633042
 20
-93.56500377435181
 10
82.94377439332656
 20
-94.22663436229404
 10
82.83111977095889
 20
-94.7273789910751
 10
82.29506291345402
 20
-95.27652721142393
 10
79.83802081337383
 20
-97.79437524681877
 10
77.46848413861899
 20
-100.3980061597963
 10
75.07138669998216
 20
-102.9747653279889
 10
74.69449325389583
 20
-103.3800808118286
 10
74.33861489026951
 20
-103.8053778494827
 10
73.74192435222425
 20
-104.4840616600769
 10
71.88742945251425
 20
-101.6730359988873
 10
70.10700410573715
 20
-99.13262258806407
 10
68.51399195335762
 20
-96.4793823000989
 10
67.90593260021102
 20
-95.46669648220971
 10
67.5941514587959
 20
-94.21939966177501
 10
67.38503416284125
 20
-93.03687063646301
 10
67.06705184955268
 20
-91.24145912432506
 10
66.21680228379303
 20
-89.99054495363085
 10
64.46462671999495
 20
-89.42296547243593
 10
63.16065807882789
 20
-89.0005967659443
 10
61.59348414258774
 20
-89.58178437430594
 10
61.17214896474169
 20
-90.72900117089414
 10
60.64849445098371
 20
-92.15458168269052
 10
60.56615666888624
 20
-93.64062362025304
 10
61.4122721200636
 20
-94.97473684691604
 10
63.10794811790357
 20
-97.64916447211549
 10
64.82601723639766
 20
-100.3129123013107
 10
66.63400334705678
 20
-102.9120645901574
 10
67.79913464016828
 20
-104.5874145246344
 10
69.14099933167309
 20
-106.1399468050622
 10
70.34127059873413
 20
-107.6680189075448
 10
68.91500106784069
 20
-110.6690415847459
 10
67.47529566455479
 20
-113.4919528253597
 10
66.22128090792386
 20
-116.3951347907797
 10
64.96761066084143
 20
-119.2971109727799
 10
63.86690265330411
 20
-122.2669555358395
 10
62.75827092615071
 20
-125.2292208888316
 10
61.052259641855
 20
-129.7893215278825
 10
59.37243108324717
 20
-134.3619967654546
 10
59.58533798423561
 20
-139.358763257261
 10
59.59739581843399
 20
-139.6405720679545
 10
59.48680825335747
 20
-139.9323716555551
 10
59.4086045858423
 20
-140.2128024280544
 10
58.58212617893086
 20
-143.1766180740149
 10
58.15941296289071
 20
-146.1414672486209
 10
59.09992403036391
 20
-149.1788356831914
 10
59.58809406062381
 20
-150.7563449058873
 10
59.60704208579268
 20
-152.3665825356931
 10
59.50437824033224
 20
-154.0426214892671
 10
59.3879340129308
 20
-155.9474147830618
 10
59.55157604848016
 20
-157.9404025212788
 10
60.00667316208167
 20
-159.7938638923432
 10
60.88310545352923
 20
-163.3633273246106
 10
61.76401636910761
 20
-166.9851562082537
 10
64.30684134677051
 20
-169.8673230912137
 10
64.38297795699454
 20
-169.953450478345
 10
64.43568791791886
 20
-170.06438255297
 10
64.48288572606678
 20
-170.1711805130128
 10
66.96335447544666
 20
-175.7642930333159
 10
69.99848359795178
 20
-181.0549261700141
 10
73.21895885756332
 20
-186.2466850662856
 10
73.462871617919
 20
-186.6397704611526
 10
73.75846081055344
 20
-187.1107150139862
 10
73.73779023764195
 20
-187.5310166631867
 10
73.71160751195404
 20
-188.0670735206916
 10
73.71539711698782
 20
-188.37575407617
 10
74.1191623078591
 20
-188.8604790109446
 10
74.6335150638069
 20
-189.4778401219014
 10
75.0500271079736
 20
-190.4476345009992
 10
74.97768010278337
 20
-191.2155462846614
 10
74.95993786103432
 20
-191.4050265363501
 10
74.9568372750976
 20
-191.5796928774523
 10
74.96252168264826
 20
-191.7464354989384
 10
75.15992565395308
 20
-192.1739718486579
 10
75.37817245294366
 20
-192.5870387973393
 10
75.62053492033098
 20
-192.9966606505356
 10
75.73353405224718
 20
-193.0535047260422
 10
75.8573852349419
 20
-193.1020805723842
 10
76.00604110513044
 20
-193.1327419222029
 10
76.9045220076836
 20
-193.3173990402123
 10
77.01373153456602
 20
-194.0033175513256
 10
77.4629719858426
 20
-194.5393744088304
 10
78.29323999778781
 20
-195.5291503417427
 10
78.17507322264373
 20
-196.6205565914699
 10
78.1049655295189
 20
-197.7002495165472
 10
78.42312009758173
 20
-198.5952853236151
 10
78.69803871730466
 20
-199.5134032704342
 10
78.98467066167744
 20
-200.4504692424221
 10
79.09525822675397
 20
-200.8118597588248
 10
79.20687932047606
 20
-201.1791069375525
 10
79.31815590464963
 20
-201.5504882308624
 10
79.34743921627425
 20
-201.5952744721706
 10
79.36500920324903
 20
-201.6600422672933
 10
79.37448321583346
 20
-201.7389349539056
 10
79.54398191370775
 20
-202.3090982567144
 10
79.71089678996812
 20
-202.890285865076
 10
79.86885441796682
 20
-203.4783636644082
 10
80.4181748930899
 20
-204.1108831955001
 10
80.5132595284828
 20
-204.7334119496847
 10
80.38131237139773
 20
-205.6022650310647
 10
80.42196449812369
 20
-205.7969129259813
 10
80.46054956755847
 20
-205.992249839995
 10
80.49741208925064
 20
-206.1879312635572
 10
80.52721216519807
 20
-206.1562363850929
 10
80.557356750694
 20
-206.1183403347551
 10
80.58526202412452
 20
-206.1200628824978
 10
80.61971297897702
 20
-206.1221299397889
 10
80.65037432879575
 20
-206.1844861680719
 10
80.6827582263571
 20
-206.2203151611185
 10
80.66381020118821
 20
-206.2533880777769
 10
80.64451766647082
 20
-206.2864609944353
 10
80.62556964130195
 20
-206.3195339110937
 10
80.58543427889879
 20
-206.2895615803721
 10
80.54529891649563
 20
-206.2595892496504
 10
80.5049912993182
 20
-206.2296169189287
 10
80.57871634270255
 20
-206.6240803519898
 10
80.64348413782524
 20
-207.019921823245
 10
80.69791664649219
 20
-207.4154187849517
 10
80.80402558743789
 20
-207.5146375349269
 10
80.93373343245754
 20
-207.6045545270919
 10
81.09823674187822
 20
-207.6786240800248
 10
81.32699108209881
 20
-207.7816324350338
 10
81.43688962807828
 20
-208.3972709982479
 10
81.40932886419628
 20
-208.7624511196844
 10
81.36592066108213
 20
-209.3401936325608
 10
81.21295842153704
 20
-209.9248263364077
 10
81.01314288339255
 20
-210.4729410281109
 10
80.95526527924035
 20
-210.6321044395295
 10
80.90255531831603
 20
-210.7909233413995
 10
80.85242917900564
 20
-210.9497422432695
 10
80.79541284872477
 20
-211.8003363185777
 10
80.65933157705739
 20
-212.6395615787846
 10
80.42540959360893
 20
-213.4581162660799
 10
80.41231823076498
 20
-214.34798442992
 10
80.55425616475728
 20
-215.2412976892452
 10
80.88911944592355
 20
-216.1446017254777
 10
81.01831052662043
 20
-216.4929008790365
 10
81.00349661603386
 20
-216.9293944770177
 10
80.9421739163964
 20
-217.306976942201
 10
80.75751679838702
 20
-218.4476480573673
 10
80.4278211604486
 20
-219.5714382046557
 10
80.33032495821604
 20
-220.7169324535013
 10
80.26383461535072
 20
-221.4993136382016
 10
80.30930987575601
 20
-222.3905598402357
 10
80.62832571769015
 20
-223.0840575614165
 10
81.17196178526257
 20
-224.2646917842116
 10
82.02427840831338
 20
-225.2992539584321
 10
82.63853893333342
 20
-226.4530164364423
 10
82.77065834519276
 20
-226.7010633113803
 10
82.85850828006663
 20
-226.9728813451665
 10
82.93068303048261
 20
-227.2529676081173
 10
83.36855466665787
 20
-227.0600422609433
 10
83.99745684749023
 20
-227.2719156332862
 10
83.9924614590366
 20
-227.8944443874709
 10
83.9924614590366
 20
-227.8947888970194
 10
83.9924614590366
 20
-227.8947888970194
 10
83.9924614590366
 20
-227.8951334065679
 10
84.11958548244233
 20
-227.9127033935427
 10
84.26359047372577
 20
-227.9333739664542
 10
84.42826603792072
 20
-227.9574896348509
 10
84.4935505973662
 20
-229.7137993132313
 10
84.55952417590873
 20
-231.4931911313628
 10
84.6258422639998
 20
-233.2774060831737
 10
84.87371688416351
 20
-232.763742346323
 10
85.0520005755252
 20
-232.2063258968095
 10
85.17378470092878
 20
-231.6230712311567
 10
85.18911537583814
 20
-231.0391275464069
 10
85.20892467487833
 20
-230.4555283712056
 10
85.22580564275606
 20
-229.8715846864557
 10
85.19290498087192
 20
-229.812673553658
 10
85.17188989841189
 20
-229.7427381153074
 10
85.17240666273467
 20
-229.6583332759187
 10
85.18015812757649
 20
-228.3226697562874
 10
85.26852482677315
 20
-226.9856281984619
 10
85.07025958159703
 20
-225.6585774175437
 10
84.99877385027808
 20
-225.1790201259969
 10
85.63025985272438
 20
-224.938207951578
 10
85.8455783205525
 20
-225.2548122266724
 10
85.8483343969407
 20
-225.2527451693813
 10
85.85177949242595
 20
-225.2506781120901
 10
85.85419105926562
 20
-225.248611054799
 10
85.89415416689452
 20
-225.3330158941876
 10
85.93411727452342
 20
-225.4174207335762
 10
85.9737358726038
 20
-225.5021700825133
 10
85.95651039517755
 20
-225.5114718403235
 10
85.93945717252555
 20
-225.5204290885852
 10
85.92240394987357
 20
-225.5297308463954
 10
85.94720863736737
 20
-225.7074977734343
 10
85.96805146505314
 20
-225.8852647004731
 10
85.98493243293085
 20
-226.0626871179635
 10
86.0366088652096
 20
-226.0661322134488
 10
86.08811304271408
 20
-226.0692327993855
 10
86.13978947499284
 20
-226.0726778948707
 10
86.7860893880257
 20
-230.861360619368
 10
85.87658417991975
 20
-235.7509846415831
 10
86.77437606337585
 20
-240.5393228565318
 10
86.97315807287477
 20
-240.1152316022976
 10
87.04826115445321
 20
-239.6856281952869
 10
87.09545896260114
 20
-239.2529242023396
 10
87.24153101117574
 20
-237.9131265681259
 10
87.25737845040788
 20
-236.5461126795788
 10
87.54228784703804
 20
-235.2373209047323
 10
88.05732962208289
 20
-232.8684732490746
 10
88.29262964372546
 20
-230.4913573642522
 10
88.231306944088
 20
-228.0746228813494
 10
88.22097165763226
 20
-227.6708576904781
 10
88.18410913594009
 20
-227.1950900039651
 10
88.36842174440095
 20
-226.8712510283517
 10
89.35130748634273
 20
-225.14560269979
 10
90.18192000783647
 20
-223.2645805648436
 10
91.47589787209631
 20
-221.7997259645153
 10
93.6986734791795
 20
-219.2834282220889
 10
94.61885848328973
 20
-216.4767089302558
 10
94.2929524503851
 20
-213.2197156585006
 10
94.16548391743086
 20
-211.9439968003126
 10
93.89504392183875
 20
-210.673101075804
 10
93.57809513719576
 20
-209.4283880769832
 10
93.17364092722742
 20
-207.839510039186
 10
92.63069387875206
 20
-206.2781927652707
 10
94.45177135225512
 20
-205.1571586943705
 10
94.54720049719654
 20
-205.0985920711212
 10
94.50895993731027
 20
-204.8495116675376
 10
94.57028263694771
 20
-204.7048176571572
 10
95.40055064889292
 20
-202.7562716506998
 10
96.16777341345806
 20
-202.3662868417696
 10
97.97507050502013
 20
-202.9808918763381
 10
103.3735351304066
 20
-204.8167832604278
 10
108.8260877549115
 20
-206.2571776828107
 10
114.5880099539919
 20
-206.5617241237068
 10
120.6072807858204
 20
-206.8800509465439
 10
126.5648844084629
 20
-206.5203829778838
 10
132.5056070632278
 20
-205.7156086725294
 10
135.2165527005709
 20
-205.3487060033503
 10
137.8837456252513
 20
-204.6593423967518
 10
140.5002956462986
 20
-204.130520239766
 10
141.4263373127337
 20
-204.8794839982593
 10
141.0208495741198
 20
-205.6167344321028
 10
140.8406710802412
 20
-206.4221977565542
 10
140.8613416531527
 20
-206.4373561766893
 10
140.8778781114819
 20
-206.4538926350185
 10
140.8885579074862
 20
-206.4714626219933
 10
141.4838704073374
 20
-207.4677842363275
 10
142.3692599470466
 20
-207.7247883595271
 10
143.4634222731619
 20
-207.9184027257982
 10
144.36775983804
 20
-208.0785996658623
 10
145.140150245833
 20
-208.7462591709037
 10
144.974096643444
 20
-209.9561767053235
 10
144.8707437788865
 20
-210.7096190879476
 10
144.9320664785239
 20
-211.4840765530318
 10
144.8593749637852
 20
-212.2437201075294
 10
144.5003960142221
 20
-216.01093202065
 10
146.4889051283083
 20
-218.5954426536845
 10
149.2046738993308
 20
-220.7689533953286
 10
150.4125243764594
 20
-221.7356471884897
 10
152.0251735731048
 20
-221.3746011816355
 10
152.67560760072
 20
-220.1068060430636
 10
153.5317138288046
 20
-218.436968261363
 10
154.3736951653997
 20
-216.7595512695949
 10
155.1915608335979
 20
-215.0711099722739
 10
155.9605061459057
 20
-213.4832654631223
 10
156.1871934288351
 20
-211.8575249036329
 10
155.6263318838365
 20
-210.1194742313243
 10
155.3820746139323
 20
-209.3629312627635
 10
155.3948214672277
 20
-208.5185383593287
 10
155.3269530861683
 20
-207.7113524871347
 10
155.2156765019947
 20
-206.3822346489253
 10
155.1774359421084
 20
-205.0455376006483
 10
155.0220621357237
 20
-203.7222764247639
 10
154.9407578822718
 20
-203.0308457608742
 10
154.6310437981478
 20
-202.3697319372548
 10
154.5018527174509
 20
-201.6807128402048
 10
154.0998100743223
 20
-199.5419975629617
 10
154.5952148051012
 20
-198.4695393384035
 10
156.3477348784478
 20
-197.284081981929
 10
157.4994302991668
 20
-196.505145892714
 10
158.6349337711052
 20
-195.691414339098
 10
159.7053249383723
 20
-194.8060247993888
 10
164.4361300587174
 20
-190.892396328145
 10
168.6301893024605
 20
-186.4747503874091
 10
172.1276502390861
 20
-181.41321610048
 10
172.2995605038001
 20
-181.1648247159935
 10
172.5334824872486
 20
-180.9594970250726
 10
172.8011664064525
 20
-180.6649413610838
 10
173.6603732204738
 20
-182.1676920117498
 10
172.9413817927022
 20
-184.1510334826081
 10
174.8354952904925
 20
-185.3420029918589
 10
175.1452093746165
 20
-183.8523437040369
 10
175.4184054465968
 20
-182.5407958528023
 10
175.6912570090286
 20
-181.2289034920192
 10
175.8063231982359
 20
-181.2530191604159
 10
175.9210448778948
 20
-181.2767903192641
 10
176.0361110671021
 20
-181.3009059876609
 10
176.0361110671021
 20
-181.6509276889623
 10
176.0426567485241
 20
-182.0016384093607
 10
176.0350775384565
 20
-182.3513156011136
 10
175.9189778206036
 20
-187.577180942689
 10
175.6926350472227
 20
-192.803390793813
 10
175.7164062060709
 20
-198.028222606743
 10
175.7370767789824
 20
-202.6639430916951
 10
176.0988118049336
 20
-207.2972520098076
 10
176.1918293830354
 20
-211.9340060234054
 10
176.2779567701666
 20
-216.2190157879591
 10
176.1997531026515
 20
-220.5074706479981
 10
176.2080213318161
 20
-224.7942029602945
 10
176.213877994141
 20
-228.0842691487081
 10
176.2059542745249
 20
-231.3753688657673
 10
176.2876030375253
 20
-234.6640570159868
 10
176.3058620435972
 20
-235.3954507875053
 10
176.089854556672
 20
-236.3201144157464
 10
177.1881509973696
 20
-237.02463644248
 10
177.1881509973696
 20
-235.3510090557456
 10
177.1481878897407
 20
-233.8930446463879
 10
177.1950411883401
 20
-232.4381808229668
 10
177.4451551205693
 20
-224.6360730775216
 10
178.1851616308009
 20
-216.8498127713084
 10
177.8502983496346
 20
-209.0280679815972
 10
177.7421223513978
 20
-206.5059135768458
 10
177.7786403635415
 20
-203.9706678092504
 10
177.8840602853901
 20
-201.4474798758534
 10
178.1190157974841
 20
-195.8188828720522
 10
178.4369981107727
 20
-190.1940754732848
 10
178.7267306410822
 20
-184.5678900363233
 10
178.8169921427958
 20
-182.8119248674915
 10
178.9330918606487
 20
-181.0576822464023
 10
179.0243868910078
 20
-179.3017170775704
 10
179.0843315524511
 20
-178.145198523172
 10
179.2913817911147
 20
-176.9635307717313
 10
179.1360079847299
 20
-175.8342284716664
 10
178.7119167304956
 20
-172.7556911460472
 10
179.1335964178902
 20
-169.7536349402005
 10
179.6699977849436
 20
-166.7474446197715
 10
180.0706623898782
 20
-164.5019313824856
 10
180.4523789696439
 20
-162.2515950115204
 10
180.9143662742159
 20
-160.0184841179815
 10
181.0869655580269
 20
-159.1844265010025
 10
181.3722194642056
 20
-158.3441677121501
 10
181.771506030946
 20
-157.5948594441082
 10
182.2093776671213
 20
-156.7725151517791
 10
182.7726507789596
 20
-155.9925455339185
 10
183.398969138178
 20
-155.3000813413833
 10
184.378065275086
 20
-154.2176323399178
 10
184.7360106960035
 20
-153.0018581431732
 10
184.5820149278128
 20
-151.5773111600223
 10
184.3198431613853
 20
-149.1498968811153
 10
184.5954508002053
 20
-146.8587361286499
 10
185.6865125403839
 20
-144.5811835033512
 10
186.6208224359837
 20
-142.6316039682484
 10
186.0840765593818
 20
-140.7211262669031
 10
184.5262043809518
 20
-139.1031371722555
 97
        0
 92
        1
 93
        1
 72
     4
 94
        3
 73
     0
 74
     1
 95
       47
 96
       43
 40
0.0
 40
0.0
 40
0.0
 40
0.0
 40
1.0
 40
1.0
 40
1.0
 40
2.0
 40
2.0
 40
2.0
 40
3.0
 40
3.0
 40
3.0
 40
4.0
 40
4.0
 40
4.0
 40
5.0
 40
5.0
 40
5.0
 40
6.0
 40
6.0
 40
6.0
 40
7.0
 40
7.0
 40
7.0
 40
8.0
 40
8.0
 40
8.0
 40
9.0
 40
9.0
 40
9.0
 40
10.0
 40
10.0
 40
10.0
 40
11.0
 40
11.0
 40
11.0
 40
12.0
 40
12.0
 40
12.0
 40
13.0
 40
13.0
 40
13.0
 40
14.0
 40
14.0
 40
14.0
 40
14.0
 10
166.926934094553
 20
-118.1464490807064
 10
167.3114067507069
 20
-118.929691539278
 10
167.7224066420972
 20
-119.7503132838645
 10
168.3132405178175
 20
-120.3712917450808
 10
169.5331488291445
 20
-121.6533840299165
 10
169.3853542328273
 20
-123.1340860694769
 10
169.1793375228093
 20
-124.6509616116324
 10
169.0336099837833
 20
-125.720319250254
 10
168.8282822928624
 20
-126.7815809144852
 10
168.609518729549
 20
-128.0865830842978
 10
167.264897961656
 20
-129.4604871638154
 10
165.2736327711816
 20
-130.0490817274704
 10
163.2113986137111
 20
-130.6833238063049
 10
162.272954603529
 20
-130.9718505531945
 10
161.0744058842106
 20
-130.6860798826931
 10
160.301670966869
 20
-131.6755113060568
 10
159.570621704899
 20
-132.6115437493992
 10
159.0858967701244
 20
-133.5792710712059
 10
159.135506145112
 20
-134.8169216242819
 10
156.7873290623657
 20
-135.8690537854772
 10
154.2944579692389
 20
-135.6244520060245
 10
151.8873697536948
 20
-135.3050916545418
 10
148.7120252449401
 20
-134.8837564766957
 10
145.6813747465658
 20
-135.1709051853913
 10
142.7482204504241
 20
-136.3641140067076
 10
139.9852538712537
 20
-137.4879041539961
 10
137.1609645924459
 20
-137.4768798484433
 10
133.9466905047078
 20
-137.1163506059119
 10
134.4844699099553
 20
-136.8328192474758
 10
134.7366508994756
 20
-136.6044094168038
 10
135.0146701051352
 20
-136.5675468951116
 10
141.7467311928619
 20
-135.6750949096576
 10
146.939523617779
 20
-131.9810912755985
 10
151.6706732476726
 20
-127.4440727762987
 10
153.2371581648157
 20
-125.9418388899555
 10
154.8053656297014
 20
-124.4408107870322
 10
156.3425672352199
 20
-122.9086045699673
 10
158.8733343786845
 20
-120.3855888913446
 10
161.3792968346552
 20
-117.8375962704538
 10
163.9582953149132
 20
-115.2372381981872
 10
165.2974039300298
 20
-115.7567585973629
 10
166.2547959653808
 20
-116.7775403896424
 10
166.926934094553
 20
-118.1464490807064
 97
        0
 92
        1
 93
        1
 72
     4
 94
        3
 73
     0
 74
     1
 95
       26
 96
       22
 40
0.0
 40
0.0
 40
0.0
 40
0.0
 40
1.0
 40
1.0
 40
1.0
 40
2.0
 40
2.0
 40
2.0
 40
3.0
 40
3.0
 40
3.0
 40
4.0
 40
4.0
 40
4.0
 40
5.0
 40
5.0
 40
5.0
 40
6.0
 40
6.0
 40
6.0
 40
7.0
 40
7.0
 40
7.0
 40
7.0
 10
153.7604681690252
 20
-103.7433661307482
 10
156.9116970093832
 20
-105.3139851624736
 10
159.019406427259
 20
-108.0357828505952
 10
161.3289984405705
 20
-110.7677435703984
 10
160.7161159537446
 20
-111.4009521205873
 10
160.1232150207331
 20
-111.9545789650669
 10
159.598182468781
 20
-112.5666001780215
 10
158.0351426471232
 20
-114.3890556897187
 10
156.5954372438373
 20
-116.3277831740431
 10
154.9328341626557
 20
-118.0527424835077
 10
150.8441948407612
 20
-122.2943440449473
 10
146.2429253106615
 20
-125.9144503808478
 10
141.0904405029218
 20
-128.7900715823858
 10
139.6486680423448
 20
-129.5946736329659
 10
138.0370523743449
 20
-129.947795920204
 10
136.1009087116345
 20
-129.8025851455008
 10
137.6963324308537
 20
-128.1746052739459
 10
138.9524142447758
 20
-126.5933064462163
 10
140.4937499648766
 20
-125.3718478419209
 10
147.5351806271787
 20
-119.7914821749132
 10
150.9223985082764
 20
-112.0221028365778
 10
153.7604681690252
 20
-103.7433661307482
 97
        0
 92
        1
 93
        1
 72
     4
 94
        3
 73
     0
 74
     1
 95
       83
 96
       79
 40
0.0
 40
0.0
 40
0.0
 40
0.0
 40
1.0
 40
1.0
 40
1.0
 40
2.0
 40
2.0
 40
2.0
 40
3.0
 40
3.0
 40
3.0
 40
4.0
 40
4.0
 40
4.0
 40
5.0
 40
5.0
 40
5.0
 40
6.0
 40
6.0
 40
6.0
 40
7.0
 40
7.0
 40
7.0
 40
8.0
 40
8.0
 40
8.0
 40
9.0
 40
9.0
 40
9.0
 40
10.0
 40
10.0
 40
10.0
 40
11.0
 40
11.0
 40
11.0
 40
12.0
 40
12.0
 40
12.0
 40
13.0
 40
13.0
 40
13.0
 40
14.0
 40
14.0
 40
14.0
 40
15.0
 40
15.0
 40
15.0
 40
16.0
 40
16.0
 40
16.0
 40
17.0
 40
17.0
 40
17.0
 40
18.0
 40
18.0
 40
18.0
 40
19.0
 40
19.0
 40
19.0
 40
20.0
 40
20.0
 40
20.0
 40
21.0
 40
21.0
 40
21.0
 40
22.0
 40
22.0
 40
22.0
 40
23.0
 40
23.0
 40
23.0
 40
24.0
 40
24.0
 40
24.0
 40
25.0
 40
25.0
 40
25.0
 40
26.0
 40
26.0
 40
26.0
 40
26.0
 10
106.6425862363602
 20
-89.38145207183867
 10
108.0957275120386
 20
-89.01541067653088
 10
109.6780598684138
 20
-89.18904348898747
 10
111.1914903150841
 20
-89.0276407655035
 10
113.2313313519005
 20
-88.81025524038425
 10
115.2594590640671
 20
-88.48434920747961
 10
117.2979220626894
 20
-88.24939369538558
 10
120.9307752518854
 20
-87.83064233915346
 10
124.3827609281057
 20
-88.79234074386095
 10
127.8860785270563
 20
-89.55474037474674
 10
132.7216145501529
 20
-90.60721704549056
 10
137.362502678333
 20
-92.01212698437544
 10
141.7326063013724
 20
-94.45056556883527
 10
144.7498209273542
 20
-96.13435598725114
 10
147.2995360959876
 20
-98.30338810476444
 10
149.9167751361319
 20
-100.55131290889
 10
148.2190320810008
 20
-106.8525648061862
 10
145.62900929519
 20
-112.5304266754264
 10
140.7042452990253
 20
-117.0512532259455
 10
137.5795436939037
 20
-119.9196397269645
 10
134.0545219933961
 20
-121.7949774543603
 10
130.0557996636666
 20
-122.9435722891426
 10
128.6119601457984
 20
-123.3581895307924
 10
128.4131781362995
 20
-123.2510470612011
 10
127.8216552414821
 20
-121.821676944371
 10
127.324183453412
 20
-120.6189941104703
 10
127.1088649855839
 20
-119.4151054931497
 10
127.2087727546562
 20
-118.0620442413178
 10
127.3545002936822
 20
-116.0943779549174
 10
127.2597601678378
 20
-114.0929497327615
 10
127.0816487312504
 20
-112.1225273699728
 10
126.944878440486
 20
-110.6096136876254
 10
126.4398274423484
 20
-110.3260823291893
 10
124.9777289184083
 20
-110.452517333498
 10
123.0250487973687
 20
-110.621154757501
 10
121.8447590841221
 20
-111.7228962936839
 10
121.6714707812141
 20
-113.6821220961454
 10
121.4802679817827
 20
-115.8416802010743
 10
121.380704722259
 20
-118.0091620256192
 10
121.2329101259418
 20
-120.3072129690551
 10
120.4443277693681
 20
-120.7273423634814
 10
119.5754746879881
 20
-121.1903631966989
 10
118.684917505051
 20
-121.6647528450178
 10
117.3106689159848
 20
-120.2078219643057
 10
116.8676296365817
 20
-118.4866522598749
 10
116.8063069369443
 20
-116.6281955003568
 10
116.7677218675095
 20
-115.4544514685322
 10
116.8390353440541
 20
-114.2708889145746
 10
116.7143228874881
 20
-113.1074801692058
 10
116.5017604960482
 20
-111.1256889913158
 10
115.651855439837
 20
-110.3999796273479
 10
113.947566703284
 20
-110.3999796273479
 10
112.9102484526752
 20
-110.3999796273479
 10
112.2481011004102
 20
-110.9257011983971
 10
111.8956678322691
 20
-111.7681992993149
 10
111.5862982576937
 20
-112.5080335547723
 10
111.3623670511525
 20
-113.3431247003969
 10
111.3540988219879
 20
-114.138597247941
 10
111.3261935485573
 20
-116.8864054069763
 10
111.5084390997271
 20
-119.6474771836298
 10
110.1865559620367
 20
-122.3835720180152
 10
108.1877115614947
 20
-122.5909667662273
 10
105.9924967182936
 20
-122.3344794073504
 10
104.2541015364365
 20
-121.2143066103214
 10
101.0129557039134
 20
-119.125889727163
 10
97.80694984533993
 20
-116.8758978657463
 10
95.77709958543073
 20
-113.4259792468171
 10
95.30581052304855
 20
-112.6253390560451
 10
94.96405705091176
 20
-111.7494235289203
 10
94.54203285396866
 20
-110.9186387526523
 10
93.21670462079305
 20
-108.3091511773498
 10
91.8038709622921
 20
-105.7406602383218
 10
90.58017304593135
 20
-103.0846638739684
 10
89.85256887944658
 20
-101.5056043583042
 10
89.417108810111
 20
-99.7920138639409
 10
88.87726234757235
 20
-98.21708846285892
 10
94.12310924296229
 20
-93.3276366954181
 10
100.2254068759853
 20
-90.99840763784069
 10
106.6425862363602
 20
-89.38145207183867
 97
        0
 92
        1
 93
        1
 72
     4
 94
        3
 73
     0
 74
     1
 95
       38
 96
       34
 40
0.0
 40
0.0
 40
0.0
 40
0.0
 40
1.0
 40
1.0
 40
1.0
 40
2.0
 40
2.0
 40
2.0
 40
3.0
 40
3.0
 40
3.0
 40
4.0
 40
4.0
 40
4.0
 40
5.0
 40
5.0
 40
5.0
 40
6.0
 40
6.0
 40
6.0
 40
7.0
 40
7.0
 40
7.0
 40
8.0
 40
8.0
 40
8.0
 40
9.0
 40
9.0
 40
9.0
 40
10.0
 40
10.0
 40
10.0
 40
11.0
 40
11.0
 40
11.0
 40
11.0
 10
84.97534720097839
 20
-101.5648600006505
 10
85.20375703165045
 20
-101.9493326568043
 10
85.48487682324684
 20
-102.3129624852725
 10
85.65368650202409
 20
-102.7227565932429
 10
87.55090058575117
 20
-107.3276434736021
 10
89.44398055489596
 20
-111.9344251564782
 10
91.30846623151317
 20
-116.5527479092299
 10
91.91618107511124
 20
-118.0580823815098
 10
92.85565861393887
 20
-119.246640323921
 10
94.08280162578485
 20
-120.325471975127
 10
96.85472545321687
 20
-122.7628770309412
 10
99.52122935880026
 20
-125.3205159191907
 10
102.2073703086495
 20
-127.854383648592
 10
102.6039007990018
 20
-128.2281765087416
 10
102.8715847182057
 20
-128.7383951501071
 10
103.1988687893045
 20
-129.1853962893182
 10
101.3361056604299
 20
-128.7950669708394
 10
99.57462833882163
 20
-128.4629597660613
 10
98.1207980440462
 20
-127.2656168301628
 10
97.4135199409244
 20
-126.683051183607
 10
96.55327959825752
 20
-126.1959146819927
 10
95.68201495003784
 20
-125.9191012597529
 10
92.65997719037668
 20
-124.959125402788
 10
90.33867185241533
 20
-123.0915391402341
 10
88.36566566801275
 20
-120.6813503387533
 10
87.69972871071396
 20
-119.8677910399115
 10
86.97867022565117
 20
-119.0580213461036
 10
86.14392358957514
 20
-118.4313584773366
 10
82.8490342674822
 20
-115.9577799189272
 10
80.71273055707877
 20
-112.46186927527
 10
78.03279077910291
 20
-109.4778998207208
 10
78.9123236564872
 20
-106.9772772627522
 10
82.22099336052115
 20
-103.1852606621377
 10
84.97534720097839
 20
-101.5648600006505
 97
        0
 92
        1
 93
        1
 72
     4
 94
        3
 73
     0
 74
     1
 95
      140
 96
      136
 40
0.0
 40
0.0
 40
0.0
 40
0.0
 40
1.0
 40
1.0
 40
1.0
 40
2.0
 40
2.0
 40
2.0
 40
3.0
 40
3.0
 40
3.0
 40
4.0
 40
4.0
 40
4.0
 40
5.0
 40
5.0
 40
5.0
 40
6.0
 40
6.0
 40
6.0
 40
7.0
 40
7.0
 40
7.0
 40
8.0
 40
8.0
 40
8.0
 40
9.0
 40
9.0
 40
9.0
 40
10.0
 40
10.0
 40
10.0
 40
11.0
 40
11.0
 40
11.0
 40
12.0
 40
12.0
 40
12.0
 40
13.0
 40
13.0
 40
13.0
 40
14.0
 40
14.0
 40
14.0
 40
15.0
 40
15.0
 40
15.0
 40
16.0
 40
16.0
 40
16.0
 40
17.0
 40
17.0
 40
17.0
 40
18.0
 40
18.0
 40
18.0
 40
19.0
 40
19.0
 40
19.0
 40
20.0
 40
20.0
 40
20.0
 40
21.0
 40
21.0
 40
21.0
 40
22.0
 40
22.0
 40
22.0
 40
23.0
 40
23.0
 40
23.0
 40
24.0
 40
24.0
 40
24.0
 40
25.0
 40
25.0
 40
25.0
 40
26.0
 40
26.0
 40
26.0
 40
27.0
 40
27.0
 40
27.0
 40
28.0
 40
28.0
 40
28.0
 40
29.0
 40
29.0
 40
29.0
 40
30.0
 40
30.0
 40
30.0
 40
31.0
 40
31.0
 40
31.0
 40
32.0
 40
32.0
 40
32.0
 40
33.0
 40
33.0
 40
33.0
 40
34.0
 40
34.0
 40
34.0
 40
35.0
 40
35.0
 40
35.0
 40
36.0
 40
36.0
 40
36.0
 40
37.0
 40
37.0
 40
37.0
 40
38.0
 40
38.0
 40
38.0
 40
39.0
 40
39.0
 40
39.0
 40
40.0
 40
40.0
 40
40.0
 40
41.0
 40
41.0
 40
41.0
 40
42.0
 40
42.0
 40
42.0
 40
43.0
 40
43.0
 40
43.0
 40
44.0
 40
44.0
 40
44.0
 40
45.0
 40
45.0
 40
45.0
 40
45.0
 10
88.17618541632402
 20
-159.4059461407041
 10
87.79377981746129
 20
-161.1202256541644
 10
87.34936249986406
 20
-162.8221028238778
 10
87.02724607199319
 20
-164.5474066428909
 10
86.79125703125358
 20
-165.8110676668806
 10
86.75198294272172
 20
-167.1105576839168
 10
86.54631074225232
 20
-168.3814534084255
 10
86.37164440115015
 20
-169.4618353525998
 10
86.04814993508519
 20
-170.5177571188289
 10
85.86108125023613
 20
-171.5971055343577
 10
85.756005837936
 20
-172.201719792019
 10
85.563080490762
 20
-172.9486164932212
 10
85.80768227021476
 20
-173.428862803865
 10
86.90012204858748
 20
-175.5717121956904
 10
86.1876763022378
 20
-177.5912271691439
 10
85.44629175381205
 20
-179.5473523856687
 10
84.97603622007544
 20
-180.7875867603587
 10
84.08789060397802
 20
-181.867279685436
 10
83.41196286977201
 20
-183.0330999976445
 10
82.77565373364637
 20
-184.1307074192451
 10
82.17207300463059
 20
-185.2472628660146
 10
81.40795082600218
 20
-186.6173773404985
 10
80.86879338256058
 20
-186.7400227397733
 10
80.32860241047341
 20
-186.2735568110705
 10
79.82837454601513
 20
-185.6648084388269
 10
75.42760957315699
 20
-180.3128526024912
 10
71.96735566777205
 20
-174.4189832463258
 10
69.71839733500096
 20
-167.8553873278278
 10
69.48206378471282
 20
-167.1656792116808
 10
69.58886174475556
 20
-166.1852050365787
 10
69.90270994346183
 20
-165.5092773023727
 10
71.22769366708891
 20
-162.6553602023917
 10
70.95139700917187
 20
-159.9371798645296
 10
69.46828340277182
 20
-157.2761881117226
 10
67.72472057768688
 20
-154.1480414111158
 10
66.65295137222566
 20
-150.8517740508287
 10
66.65157333403155
 20
-147.2311509506054
 10
66.65122882448303
 20
-145.7092800199963
 10
66.12964136801621
 20
-144.0926689635428
 10
66.49137639396744
 20
-142.685175203044
 10
67.2451632861401
 20
-139.7528821807736
 10
67.32061087726707
 20
-136.7930283946212
 10
67.60414223570314
 20
-133.8268011818211
 10
67.7567599656997
 20
-132.2317219721504
 10
68.27283526939013
 20
-130.6087374890492
 10
68.93877222668893
 20
-129.14061004801
 10
69.88755152332672
 20
-127.0489203241406
 10
70.74538029915394
 20
-124.9627427530475
 10
71.26490069832961
 20
-122.7118896177595
 10
71.9969834889452
 20
-119.5420572617812
 10
73.66303166561202
 20
-116.7697889248006
 10
75.23158364004627
 20
-113.7462008721711
 10
76.2716579670432
 20
-115.1106309391043
 10
77.06368541910214
 20
-116.3605115811529
 10
78.06035154298492
 20
-117.4172946212533
 10
80.87706161172518
 20
-120.4041924069649
 10
83.76646319520422
 20
-123.3228773020686
 10
86.65689830732883
 20
-126.2389783755583
 10
87.10200464402311
 20
-126.6880465720606
 10
87.71557614994612
 20
-126.9667547968173
 10
88.23165145363653
 20
-127.3507106886484
 10
88.79354652728078
 20
-127.7687730257835
 10
89.52011716511997
 20
-128.1088039501777
 10
89.84671221712166
 20
-128.6729383358873
 10
90.87335067172612
 20
-130.4461289821454
 10
92.39194876162423
 20
-131.3294514645635
 10
94.3425618253727
 20
-131.681540223156
 10
94.84623478531623
 20
-131.7723184891923
 10
95.36609969404043
 20
-132.0226046761958
 10
95.77709958543073
 20
-132.3335245437395
 10
97.14514700262345
 20
-133.3677422084116
 10
98.64307451961007
 20
-133.7995849274876
 10
100.3659667717835
 20
-133.8073363923294
 10
101.8129068755884
 20
-133.8140543285257
 10
103.0152451999406
 20
-134.6198621625256
 10
104.4666639278764
 20
-135.8342583210762
 10
102.6765923137406
 20
-135.9393337333763
 10
101.2730604130498
 20
-136.1084879217021
 10
99.87262909829573
 20
-136.0866115653707
 10
96.53812117812242
 20
-136.0351073878662
 10
93.1912109142022
 20
-136.0378634642544
 10
89.87634003829481
 20
-135.729182908776
 10
88.11727428352624
 20
-135.5653686184524
 10
86.41539711381282
 20
-135.3204223294512
 10
84.64565156303998
 20
-135.6127386813746
 10
84.18228622027388
 20
-135.6892198011471
 10
83.58215058674335
 20
-135.2408406237419
 10
83.11499563894348
 20
-134.9288872275525
 10
82.04839407671012
 20
-134.2171305002999
 10
81.0675753920595
 20
-133.3715318134453
 10
79.97616914233235
 20
-132.7035277988554
 10
77.11949596596318
 20
-130.9553140948653
 10
71.16533743880589
 20
-133.5115749449207
 10
70.84942218280848
 20
-137.9116508986818
 10
70.63410371498037
 20
-140.9143961236256
 10
71.01478676610047
 20
-143.5235391893795
 10
73.42187498164454
 20
-145.550288863352
 10
74.44713539805488
 20
-146.4136297919556
 10
74.44541285031227
 20
-147.5765217730017
 10
74.43645560205061
 20
-148.7764485305142
 10
74.43163246837126
 20
-149.4048339470238
 10
74.07954370977873
 20
-150.4266492679489
 10
75.15200193433701
 20
-150.4225151533666
 10
76.18415254171785
 20
-150.4183810387843
 10
75.86823728572044
 20
-149.435150787294
 10
75.90509980741261
 20
-148.7728311802547
 10
75.94471840549299
 20
-148.0574571027426
 10
75.48858776324592
 20
-147.1789577540039
 10
76.42772079252502
 20
-146.7379855318919
 10
77.08986814479003
 20
-146.4268934095738
 10
77.80024683384855
 20
-146.0946139500215
 10
78.51165905155264
 20
-146.0341525242553
 10
81.02692326533355
 20
-145.8202120946214
 10
82.78530000100507
 20
-144.6276922924021
 10
83.87739526982926
 20
-142.3516899600718
 10
84.05240612047996
 20
-141.9866820934096
 10
84.53540850751199
 20
-141.6497517549521
 10
84.94158526522294
 20
-141.5379584064558
 10
86.12359752621217
 20
-141.2122246283254
 10
87.33523760837453
 20
-140.8158663927474
 10
88.54171004730902
 20
-140.7931287625448
 10
91.52550724708391
 20
-140.7368014513609
 10
94.51274954234404
 20
-140.8732272325769
 10
97.86310490174951
 20
-140.9393730658936
 10
97.3887152534306
 20
-141.5982475774477
 10
97.17236325695691
 20
-141.905550094732
 10
96.94912106951273
 20
-142.2080294783369
 10
95.80052623473043
 20
-143.7653848924441
 10
94.48518877846205
 20
-145.2281724354812
 10
93.53640948182424
 20
-146.8990437458273
 10
91.88896482077776
 20
-149.8017089469246
 10
90.39448239927638
 20
-152.7982529999949
 10
88.99129500813413
 20
-155.8278699697236
 10
88.48831106728765
 20
-156.9134195571258
 10
88.44318031643087
 20
-158.2091199691283
 10
88.17618541632402
 20
-159.4059461407041
 97
        0
 92
        1
 93
        1
 72
     4
 94
        3
 73
     0
 74
     1
 95
      209
 96
      205
 40
0.0
 40
0.0
 40
0.0
 40
0.0
 40
1.0
 40
1.0
 40
1.0
 40
2.0
 40
2.0
 40
2.0
 40
3.0
 40
3.0
 40
3.0
 40
4.0
 40
4.0
 40
4.0
 40
5.0
 40
5.0
 40
5.0
 40
6.0
 40
6.0
 40
6.0
 40
7.0
 40
7.0
 40
7.0
 40
8.0
 40
8.0
 40
8.0
 40
9.0
 40
9.0
 40
9.0
 40
10.0
 40
10.0
 40
10.0
 40
11.0
 40
11.0
 40
11.0
 40
12.0
 40
12.0
 40
12.0
 40
13.0
 40
13.0
 40
13.0
 40
14.0
 40
14.0
 40
14.0
 40
15.0
 40
15.0
 40
15.0
 40
16.0
 40
16.0
 40
16.0
 40
17.0
 40
17.0
 40
17.0
 40
18.0
 40
18.0
 40
18.0
 40
19.0
 40
19.0
 40
19.0
 40
20.0
 40
20.0
 40
20.0
 40
21.0
 40
21.0
 40
21.0
 40
22.0
 40
22.0
 40
22.0
 40
23.0
 40
23.0
 40
23.0
 40
24.0
 40
24.0
 40
24.0
 40
25.0
 40
25.0
 40
25.0
 40
26.0
 40
26.0
 40
26.0
 40
27.0
 40
27.0
 40
27.0
 40
28.0
 40
28.0
 40
28.0
 40
29.0
 40
29.0
 40
29.0
 40
30.0
 40
30.0
 40
30.0
 40
31.0
 40
31.0
 40
31.0
 40
32.0
 40
32.0
 40
32.0
 40
33.0
 40
33.0
 40
33.0
 40
34.0
 40
34.0
 40
34.0
 40
35.0
 40
35.0
 40
35.0
 40
36.0
 40
36.0
 40
36.0
 40
37.0
 40
37.0
 40
37.0
 40
38.0
 40
38.0
 40
38.0
 40
39.0
 40
39.0
 40
39.0
 40
40.0
 40
40.0
 40
40.0
 40
41.0
 40
41.0
 40
41.0
 40
42.0
 40
42.0
 40
42.0
 40
43.0
 40
43.0
 40
43.0
 40
44.0
 40
44.0
 40
44.0
 40
45.0
 40
45.0
 40
45.0
 40
46.0
 40
46.0
 40
46.0
 40
47.0
 40
47.0
 40
47.0
 40
48.0
 40
48.0
 40
48.0
 40
49.0
 40
49.0
 40
49.0
 40
50.0
 40
50.0
 40
50.0
 40
51.0
 40
51.0
 40
51.0
 40
52.0
 40
52.0
 40
52.0
 40
53.0
 40
53.0
 40
53.0
 40
54.0
 40
54.0
 40
54.0
 40
55.0
 40
55.0
 40
55.0
 40
56.0
 40
56.0
 40
56.0
 40
57.0
 40
57.0
 40
57.0
 40
58.0
 40
58.0
 40
58.0
 40
59.0
 40
59.0
 40
59.0
 40
60.0
 40
60.0
 40
60.0
 40
61.0
 40
61.0
 40
61.0
 40
62.0
 40
62.0
 40
62.0
 40
63.0
 40
63.0
 40
63.0
 40
64.0
 40
64.0
 40
64.0
 40
65.0
 40
65.0
 40
65.0
 40
66.0
 40
66.0
 40
66.0
 40
67.0
 40
67.0
 40
67.0
 40
68.0
 40
68.0
 40
68.0
 40
68.0
 10
147.4890163476764
 20
-185.2510524710484
 10
147.0924858573241
 20
-188.0295219799023
 10
146.9519259615259
 20
-190.8569118446469
 10
146.8892252236944
 20
-193.6670762319652
 10
146.835826243673
 20
-196.0417805499479
 10
145.6741400460467
 20
-197.331968809174
 10
143.4961506802718
 20
-197.897653487852
 10
139.8674316056581
 20
-198.8398871030678
 10
136.2500813461458
 20
-199.8310410741742
 10
132.6031032654603
 20
-200.697827098263
 10
127.9573920036009
 20
-201.8016356917371
 10
123.2117729726693
 20
-202.3049641421321
 10
118.4547851266363
 20
-202.2498426143681
 10
115.3614338904305
 20
-202.2140136213215
 10
112.1623182228275
 20
-202.0403808088649
 10
109.2098713919684
 20
-201.2152804401476
 10
104.4256672916019
 20
-199.8782388823221
 10
99.79304739258646
 20
-197.9889485182111
 10
95.12356497187884
 20
-196.2595105846157
 10
93.70211857466475
 20
-195.7330999944695
 10
93.33624943413122
 20
-194.7853542264773
 10
93.47887638722057
 20
-193.2050889273932
 10
93.49954696013207
 20
-192.9742675298814
 10
92.81569550630996
 20
-192.5980631028922
 10
92.87219507226807
 20
-192.4654269267101
 10
93.24874400880587
 20
-191.5803818965494
 10
92.60554468170973
 20
-191.2799695702356
 10
92.09394800215013
 20
-190.8772379080099
 10
91.60508895279318
 20
-190.4920762327589
 10
91.33361542855549
 20
-190.1031249524742
 10
91.46694062383466
 20
-189.3607068754029
 10
91.6164577678945
 20
-188.5287163157151
 10
91.46349552834941
 20
-187.6378146232294
 10
91.4069959623913
 20
-186.7751627137229
 10
91.37220049799029
 20
-186.2494411426738
 10
91.09831540691293
 20
-185.6803113685105
 10
91.22785099715831
 20
-185.2124674016136
 10
92.112896027319
 20
-182.0250650586604
 10
91.17479652668547
 20
-178.8225042955722
 10
91.38391382264014
 20
-175.6406141053954
 10
91.67605791978933
 20
-171.1957519103261
 10
91.526885285278
 20
-166.6323784305641
 10
92.90457896982942
 20
-162.3866427545422
 10
94.55891382184639
 20
-157.2885904554695
 10
96.85265839592573
 20
-152.3813964462797
 10
101.7088649919339
 20
-149.4034559088297
 10
103.5919541841715
 20
-148.2483153926254
 10
105.7596082634907
 20
-147.597709110236
 10
107.6054904244875
 20
-146.3094156535268
 10
108.3375732151031
 20
-145.7986802478385
 10
109.3142577851714
 20
-145.6384833077744
 10
110.2444335661889
 20
-145.2946627783465
 10
110.2444335661889
 20
-151.2131645672314
 10
110.239265922961
 20
-157.1445854641861
 10
110.2520127762564
 20
-163.0756618515922
 10
110.2533908144505
 20
-163.714038045009
 10
110.3109239090542
 20
-164.3620605057845
 10
110.4428710661393
 20
-164.9842447504206
 10
110.4855902501564
 20
-165.1861273458562
 10
110.852837428884
 20
-165.4541557746087
 10
111.0643662916784
 20
-165.4476100931867
 10
111.2879529886711
 20
-165.4410644117647
 10
111.6362521422298
 20
-165.1795816644343
 10
111.694129746382
 20
-164.9656412348003
 10
111.8136745597202
 20
-164.5246690126883
 10
111.7819796812559
 20
-164.0409776065592
 10
111.8029947637159
 20
-163.5745116778564
 10
111.9187499720203
 20
-161.005159464957
 10
112.0317491039365
 20
-158.4358072520577
 10
112.2822075457142
 20
-155.8647324914158
 10
112.92781843965
 20
-157.3981444919005
 10
112.2432779667309
 20
-159.1417073169854
 10
112.9677815472789
 20
-160.6386013053265
 10
113.1307345637312
 20
-160.6634059928203
 10
113.2940320897321
 20
-160.6882106803141
 10
113.4569851061844
 20
-160.7130153678079
 10
113.6478433960672
 20
-160.1804036057882
 10
113.9334418117944
 20
-159.6615722257096
 10
114.0116454793096
 20
-159.1131130244578
 10
114.2762288125768
 20
-157.2582736151993
 10
114.4116210651471
 20
-155.3837971616749
 10
114.7123779010094
 20
-153.5355034338384
 10
114.844669567643
 20
-152.7238389375135
 10
115.2570474972274
 20
-151.9576497015939
 10
115.5423014034061
 20
-151.1707898927629
 10
115.6759711082338
 20
-151.2031737903242
 10
115.8096408130615
 20
-151.2359021974341
 10
115.9433105178892
 20
-151.2682860949954
 10
115.9433105178892
 20
-153.4555772185805
 10
115.9484781611171
 20
-155.6432128517142
 10
115.940554441501
 20
-157.8308484848478
 10
115.9381428746613
 20
-158.4730142832984
 10
115.7838025969221
 20
-159.1368841833061
 10
115.8981797670324
 20
-159.7539007847143
 10
116.2154730612239
 20
-161.4657687313349
 10
116.6943413336736
 20
-163.1642008055631
 10
116.1982475837977
 20
-164.9453151714373
 10
116.2926432000935
 20
-165.2092094856074
 10
116.3891058736805
 20
-165.4724147806805
 10
116.4890136427528
 20
-165.734586547108
 10
117.3030897059173
 20
-165.28569060538
 10
117.5501030522097
 20
-164.7575574674912
 10
117.5724961728638
 20
-163.6995686439709
 10
117.5924777266783
 20
-162.762502671983
 10
117.4612195886903
 20
-161.8230251331554
 10
117.4484727353948
 20
-160.8838921038763
 10
117.4402045062302
 20
-160.2641194260798
 10
117.5228867978762
 20
-159.6429687100893
 10
117.8322563724517
 20
-158.9573947085246
 10
118.1560953480652
 20
-159.6719075121654
 10
118.4802788332272
 20
-160.3871093349032
 10
118.7169568930638
 20
-160.9086967913701
 10
119.5265543320975
 20
-161.2776665178403
 10
119.5792642930219
 20
-159.749077651035
 10
120.3068684595066
 20
-160.6647840310144
 10
120.6117594099512
 20
-160.3602375901183
 10
121.056521237097
 20
-160.1053005242098
 10
121.1881238846335
 20
-159.7387423645792
 10
121.3769151172252
 20
-159.2130207935301
 10
121.3366075000478
 20
-158.605305949932
 10
121.3944851042
 20
-158.033075589832
 10
121.5081732552132
 20
-158.0351426471232
 10
121.622205915775
 20
-158.0375542139628
 10
121.7358940667882
 20
-158.039621271254
 10
121.7358940667882
 20
-159.122414782268
 10
121.7414062195647
 20
-160.205208293282
 10
121.7341715190456
 20
-161.2876572947475
 10
121.7283148567207
 20
-162.1654676243892
 10
121.5856879036314
 20
-163.0639485269423
 10
121.7352050476912
 20
-163.9128200545079
 10
121.7617322829276
 20
-164.0637152367619
 10
121.8147867534005
 20
-164.210131794885
 10
121.8847221917511
 20
-164.3555148243625
 10
122.1810004034825
 20
-164.0010144989303
 10
122.5010497740622
 20
-163.6623616127303
 10
122.8417697175534
 20
-163.3395561657623
 10
122.8603732331738
 20
-162.1551323379335
 10
123.1845567183358
 20
-160.9882784970793
 10
123.3712808936364
 20
-159.8028211406049
 10
123.5411241010592
 20
-158.7224391964305
 10
123.2455349084247
 20
-157.5769449475849
 10
123.3051350603196
 20
-156.4686577299801
 10
123.4222683068181
 20
-154.2934244405933
 10
123.6410318701314
 20
-152.1230142848859
 10
123.8177652685247
 20
-149.9508815814359
 10
123.9479898778672
 20
-149.9498480527903
 10
124.0785589967581
 20
-149.9484700145962
 10
124.2087836061006
 20
-149.9470919764021
 10
124.2807861017423
 20
-150.3277750275222
 10
124.3896511190762
 20
-150.7057020022541
 10
124.4192789402494
 20
-151.089485639311
 10
124.5811984280561
 20
-153.1958170189927
 10
124.7641329983229
 20
-155.3018038891259
 10
124.8571505764246
 20
-157.4115803642929
 10
124.9102050468975
 20
-158.6197753509701
 10
125.2292208888316
 20
-159.5775118958695
 10
126.3319959536601
 20
-159.8968722473522
 10
126.3319959536601
 20
-164.4816053191227
 10
126.3430202592129
 20
-168.9399033865845
 10
126.3288953677233
 20
-173.3982014540463
 10
126.3158040048794
 20
-177.510611934789
 10
126.2765299163475
 20
-181.6226779059832
 10
126.2469020951744
 20
-185.7347438771774
 10
126.242078961495
 20
-186.3941351530543
 10
126.2365668087186
 20
-187.0473252570576
 10
127.3224609056694
 20
-187.272634501793
 10
127.3224609056694
 20
-182.309629945742
 10
127.2594156582893
 20
-177.4144937707505
 10
127.3403754021927
 20
-172.5221136721473
 10
127.4220241651931
 20
-167.6083739815354
 10
126.9562472555873
 20
-162.6705186225268
 10
127.8423258143936
 20
-157.4022786064828
 10
128.3621907231178
 20
-160.0153835320448
 10
127.6635253587091
 20
-162.3067165392845
 10
127.9143283100353
 20
-164.5460286046968
 10
128.0831379888126
 20
-164.5453395855998
 10
128.2519476675898
 20
-164.5446505665027
 10
128.4211018559156
 20
-164.5443060569542
 10
128.5272107968613
 20
-162.9392360703763
 10
128.6946424374444
 20
-161.335888631541
 10
128.7266818254572
 20
-159.729440606769
 10
128.7828368818668
 20
-156.908940932995
 10
128.7735351240566
 20
-154.0863742019298
 10
128.7569986657274
 20
-151.2651855090587
 10
128.7497639652084
 20
-150.0749050189049
 10
129.0870388132143
 20
-149.5522840337925
 10
130.3465657226217
 20
-148.9087401971478
 10
132.1538628141838
 20
-147.9851100975523
 10
133.5036512253047
 20
-148.4334892749576
 10
135.1001084731694
 20
-148.9624836867177
 10
138.4184244445621
 20
-150.0621581656095
 10
140.6832302165653
 20
-152.2911349445661
 10
142.2693521779743
 20
-155.3276421052653
 10
142.8670762446652
 20
-156.4714138063683
 10
143.4951171516262
 20
-157.6062282592096
 10
144.1982611401657
 20
-158.6876437320295
 10
145.7158257014183
 20
-161.0220404328348
 10
146.3300862264383
 20
-163.5803683401813
 10
146.5033745293464
 20
-166.3378227665753
 10
146.7421196464742
 20
-170.1405191631941
 10
147.0973089910034
 20
-173.9401149738761
 10
147.5403482704066
 20
-177.724552364423
 10
147.8362819725895
 20
-180.2501518646597
 10
147.8500623545305
 20
-182.7195963084868
 10
147.4890163476764
 20
-185.2510524710484
 97
        0
 92
        1
 93
        1
 72
     4
 94
        3
 73
     0
 74
     1
 95
       65
 96
       61
 40
0.0
 40
0.0
 40
0.0
 40
0.0
 40
1.0
 40
1.0
 40
1.0
 40
2.0
 40
2.0
 40
2.0
 40
3.0
 40
3.0
 40
3.0
 40
4.0
 40
4.0
 40
4.0
 40
5.0
 40
5.0
 40
5.0
 40
6.0
 40
6.0
 40
6.0
 40
7.0
 40
7.0
 40
7.0
 40
8.0
 40
8.0
 40
8.0
 40
9.0
 40
9.0
 40
9.0
 40
10.0
 40
10.0
 40
10.0
 40
11.0
 40
11.0
 40
11.0
 40
12.0
 40
12.0
 40
12.0
 40
13.0
 40
13.0
 40
13.0
 40
14.0
 40
14.0
 40
14.0
 40
15.0
 40
15.0
 40
15.0
 40
16.0
 40
16.0
 40
16.0
 40
17.0
 40
17.0
 40
17.0
 40
18.0
 40
18.0
 40
18.0
 40
19.0
 40
19.0
 40
19.0
 40
20.0
 40
20.0
 40
20.0
 40
20.0
 10
165.0004366992013
 20
-154.1256482904616
 10
164.7837401931791
 20
-156.6109401735209
 10
164.0151393904198
 20
-159.0469671911411
 10
163.5059542776999
 20
-161.5081434058035
 10
163.2947699244541
 20
-162.5306477458257
 10
162.9688638915495
 20
-163.5638318818521
 10
162.976443101617
 20
-164.590125826908
 10
163.004003865499
 20
-168.402123981337
 10
163.1669568819513
 20
-172.2130886071203
 10
163.238959377593
 20
-176.0250867615493
 10
163.2610079886987
 20
-177.1946966787916
 10
163.1528319904618
 20
-178.3663736533251
 10
163.107701239605
 20
-179.5373616087615
 10
163.0849636094024
 20
-180.1213052935113
 10
162.9151204019796
 20
-180.7534803150547
 10
163.0797959661745
 20
-181.2798909052009
 10
163.5683105059829
 20
-182.8394856313735
 10
162.9988362222711
 20
-183.9171114991596
 10
161.9174207494512
 20
-185.0209200926337
 10
159.7814615485963
 20
-187.2009765156998
 10
157.6110513928889
 20
-189.3124755386094
 10
154.7519666496801
 20
-191.0391573958166
 10
154.537337200949
 20
-189.3393472833943
 10
154.3047932556946
 20
-187.810758416589
 10
154.157343168926
 20
-186.2742458301676
 10
153.6708956864087
 20
-181.1996201803946
 10
153.2113199486763
 20
-176.1229274733304
 10
152.7493326441043
 20
-171.0458902567177
 10
152.6166964679222
 20
-169.5872368282629
 10
152.37898487944
 20
-168.1223822279347
 10
152.42101504436
 20
-166.6668293854166
 10
152.4999077309722
 20
-163.9190212263814
 10
152.0871852918393
 20
-161.3341660837984
 10
150.889325591618
 20
-158.8202799082116
 10
149.5043972065475
 20
-155.9146863759519
 10
148.3816405879046
 20
-152.8850694062232
 10
147.0456325587247
 20
-149.9543266769211
 10
146.1254475546145
 20
-147.9365342512103
 10
144.7491319082572
 20
-146.4293049764135
 10
142.5363470780812
 20
-145.5425373985102
 10
140.8448051948235
 20
-144.864542607013
 10
139.4202582116727
 20
-143.5194050747972
 10
137.8771999438293
 20
-142.4710625186357
 10
137.9312879429477
 20
-142.3048366614724
 10
137.9857204516147
 20
-142.1386108043091
 10
138.0398084507331
 20
-141.9723849471458
 10
143.3831515483556
 20
-141.065635815428
 10
148.7096136781004
 20
-139.5094861847407
 10
154.1752576654492
 20
-140.4148572782643
 10
156.7049912802682
 20
-140.833953144045
 10
159.1368841833061
 20
-142.092618779581
 10
161.4881618519891
 20
-143.2289835253907
 10
162.5919704454631
 20
-143.7624565612816
 10
163.4432535398684
 20
-144.8667819190784
 10
164.3179632835733
 20
-145.7979912287415
 10
164.5970160178785
 20
-146.0951307143443
 10
164.6600612652586
 20
-146.6628824503134
 10
164.6893445768832
 20
-147.1152234875267
 10
164.8398952495886
 20
-149.4523762647202
 10
165.2019747850884
 20
-151.814678238956
 10
165.0004366992013
 20
-154.1256482904616
 97
        0
 92
        1
 93
        1
 72
     4
 94
        3
 73
     0
 74
     1
 95
       41
 96
       37
 40
0.0
 40
0.0
 40
0.0
 40
0.0
 40
1.0
 40
1.0
 40
1.0
 40
2.0
 40
2.0
 40
2.0
 40
3.0
 40
3.0
 40
3.0
 40
4.0
 40
4.0
 40
4.0
 40
5.0
 40
5.0
 40
5.0
 40
6.0
 40
6.0
 40
6.0
 40
7.0
 40
7.0
 40
7.0
 40
8.0
 40
8.0
 40
8.0
 40
9.0
 40
9.0
 40
9.0
 40
10.0
 40
10.0
 40
10.0
 40
11.0
 40
11.0
 40
11.0
 40
12.0
 40
12.0
 40
12.0
 40
12.0
 10
170.6373019321671
 20
-174.6849446177871
 10
170.4602240242252
 20
-175.0377223954767
 10
170.1952961814095
 20
-175.4955755854664
 10
169.8721462248931
 20
-175.6006509977665
 10
168.2202229397158
 20
-176.1391194221111
 10
167.568755383455
 20
-177.4926974382657
 10
166.9586289730173
 20
-178.9148328545768
 10
166.7987765425017
 20
-179.2875921860809
 10
166.5927598324838
 20
-179.640714473319
 10
166.2944145634611
 20
-180.2253471771659
 10
166.1166476364222
 20
-179.689290319661
 10
165.913042493244
 20
-179.3516709621065
 10
165.906496811822
 20
-179.0106065090668
 10
165.8661891946446
 20
-176.9111653203555
 10
165.8730793856151
 20
-174.8110351125472
 10
165.8592990036741
 20
-172.710904904739
 10
165.8530978318006
 20
-171.7145832904047
 10
165.8875487866531
 20
-170.7148165805852
 10
165.8148572719143
 20
-169.7226290808332
 10
165.583002345757
 20
-166.5448730052388
 10
165.643980535846
 20
-163.4336072725096
 10
167.657294337426
 20
-160.5455837272247
 10
167.7437662341057
 20
-161.0699272600797
 10
167.8588324233131
 20
-161.5019422339301
 10
167.8795029962246
 20
-161.9380913223627
 10
168.0176513251831
 20
-164.87227914715
 10
168.1316839857449
 20
-167.8075005005828
 10
168.2615640855388
 20
-170.7420328349187
 10
168.3235758042733
 20
-172.1424641496727
 10
168.5320040811309
 20
-173.4950086371818
 10
169.7822292327281
 20
-174.5471407983771
 10
171.6697970490964
 20
-169.9472493064715
 10
170.429907183955
 20
-165.0076713997203
 10
171.6002061202944
 20
-160.446020467701
 10
173.3995794922404
 20
-165.2729437520846
 10
172.9637749133563
 20
-170.04336747051
 10
170.6373019321671
 20
-174.6849446177871
 97
        0
 75
     2
 76
     1
 98
        0
  0
ENDBLK
  5
43
330
40
100
AcDbEntity
  8
0
100
AcDbBlockEnd
  0
ENDSEC
  0
SECTION
  2
ENTITIES
  0
INSERT
  5
3D
330
1F
100
AcDbEntity
  8
Layer 1
100
AcDbBlockReference
  2
block 2
 10
0.0
 20
0.0
 30
0.0
  0
ENDSEC
  0
SECTION
  2
OBJECTS
  0
DICTIONARY
  5
C
330
0
100
AcDbDictionary
281
     1
  3
ACAD_GROUP
350
D
  3
ACAD_LAYOUT
350
1A
  3
ACAD_MLINESTYLE
350
17
  3
ACAD_PLOTSETTINGS
350
19
  3
ACAD_PLOTSTYLENAME
350
E
  3
ACAD_TABLESTYLE
350
4E
  3
ACAD_VISUALSTYLE
350
2A
  0
DICTIONARY
  5
D
102
{ACAD_REACTORS
330
C
102
}
330
C
100
AcDbDictionary
281
     1
  0
DICTIONARY
  5
1A
102
{ACAD_REACTORS
330
C
102
}
330
C
100
AcDbDictionary
281
     1
  3
Layout1
350
1E
  3
Layout2
350
26
  3
Model
350
22
  0
DICTIONARY
  5
17
102
{ACAD_REACTORS
330
C
102
}
330
C
100
AcDbDictionary
281
     1
  3
Standard
350
18
  0
DICTIONARY
  5
19
102
{ACAD_REACTORS
330
C
102
}
330
C
100
AcDbDictionary
281
     1
  0
ACDBDICTIONARYWDFLT
  5
E
102
{ACAD_REACTORS
330
C
102
}
330
C
100
AcDbDictionary
281
     1
  3
Normal
350
F
100
AcDbDictionaryWithDefault
340
F
  0
DICTIONARY
  5
4E
102
{ACAD_REACTORS
330
C
102
}
330
C
100
AcDbDictionary
281
     1
  0
DICTIONARY
  5
2A
102
{ACAD_REACTORS
330
C
102
}
330
C
100
AcDbDictionary
281
     1
  3
2dWireframe
350
2F
  3
3D Hidden
350
31
  3
3dWireframe
350
30
  3
Basic
350
32
  3
Brighten
350
36
  3
ColorChange
350
3A
  3
Conceptual
350
34
  3
Dim
350
35
  3
Facepattern
350
39
  3
Flat
350
2B
  3
FlatWithEdges
350
2C
  3
Gouraud
350
2D
  3
GouraudWithEdges
350
2E
  3
Linepattern
350
38
  3
Realistic
350
33
  3
Thicken
350
37
  0
LAYOUT
  5
1E
102
{ACAD_REACTORS
330
1A
102
}
330
1A
100
AcDbPlotSettings
  1

  2
none_device
  4

  6

 40
0.0
 41
0.0
 42
0.0
 43
0.0
 44
0.0
 45
0.0
 46
0.0
 47
0.0
 48
0.0
 49
0.0
140
0.0
141
0.0
142
1.0
143
1.0
 70
   688
 72
     0
 73
     0
 74
     5
  7

 75
    16
 76
     0
 77
     2
 78
   300
147
1.0
148
0.0
149
0.0
100
AcDbLayout
  1
Layout1
 70
     1
 71
     1
 10
0.0
 20
0.0
 11
12.0
 21
9.0
 12
0.0
 22
0.0
 32
0.0
 14
1.000000000000000E+20
 24
1.000000000000000E+20
 34
1.000000000000000E+20
 15
-1.000000000000000E+20
 25
-1.000000000000000E+20
 35
-1.000000000000000E+20
146
0.0
 13
0.0
 23
0.0
 33
0.0
 16
1.0
 26
0.0
 36
0.0
 17
0.0
 27
1.0
 37
0.0
 76
     0
330
1B
  0
LAYOUT
  5
26
102
{ACAD_REACTORS
330
1A
102
}
330
1A
100
AcDbPlotSettings
  1

  2
none_device
  4

  6

 40
0.0
 41
0.0
 42
0.0
 43
0.0
 44
0.0
 45
0.0
 46
0.0
 47
0.0
 48
0.0
 49
0.0
140
0.0
141
0.0
142
1.0
143
1.0
 70
   688
 72
     0
 73
     0
 74
     5
  7

 75
    16
 76
     0
 77
     2
 78
   300
147
1.0
148
0.0
149
0.0
100
AcDbLayout
  1
Layout2
 70
     1
 71
     2
 10
0.0
 20
0.0
 11
0.0
 21
0.0
 12
0.0
 22
0.0
 32
0.0
 14
0.0
 24
0.0
 34
0.0
 15
0.0
 25
0.0
 35
0.0
146
0.0
 13
0.0
 23
0.0
 33
0.0
 16
1.0
 26
0.0
 36
0.0
 17
0.0
 27
1.0
 37
0.0
 76
     0
330
23
  0
LAYOUT
  5
22
102
{ACAD_REACTORS
330
1A
102
}
330
1A
100
AcDbPlotSettings
  1

  2
none_device
  4

  6

 40
0.0
 41
0.0
 42
0.0
 43
0.0
 44
0.0
 45
0.0
 46
0.0
 47
0.0
 48
0.0
 49
0.0
140
0.0
141
0.0
142
1.0
143
1.0
 70
  1712
 72
     0
 73
     0
 74
     0
  7

 75
     0
 76
     0
 77
     2
 78
   300
147
1.0
148
0.0
149
0.0
100
AcDbLayout
  1
Model
 70
     1
 71
     0
 10
0.0
 20
0.0
 11
12.0
 21
9.0
 12
0.0
 22
0.0
 32
0.0
 14
1.000000000000000E+20
 24
1.000000000000000E+20
 34
1.000000000000000E+20
 15
-1.000000000000000E+20
 25
-1.000000000000000E+20
 35
-1.000000000000000E+20
146
0.0
 13
0.0
 23
0.0
 33
0.0
 16
1.0
 26
0.0
 36
0.0
 17
0.0
 27
1.0
 37
0.0
 76
     0
330
1F
331
29
  0
MLINESTYLE
  5
18
102
{ACAD_REACTORS
330
17
102
}
330
17
100
AcDbMlineStyle
  2
Standard
 70
     0
  3

 62
   256
 51
90.0
 52
90.0
 71
     2
 49
0.5
 62
   256
  6
BYLAYER
 49
-0.5
 62
   256
  6
BYLAYER
  0
ACDBPLACEHOLDER
  5
F
102
{ACAD_REACTORS
330
E
102
}
330
E
  0
VISUALSTYLE
  5
2F
102
{ACAD_REACTORS
330
2A
102
}
330
2A
100
AcDbVisualStyle
  2
2dWireframe
 70
     4
 71
     0
 72
     2
 73
     0
 90
        0
 40
-0.6
 41
-30.0
 62
     5
 63
     7
421
 16777215
 74
     1
 91
        4
 64
     7
 65
   257
 75
     1
175
     1
 42
1.0
 92
        0
 66
   257
 43
1.0
 76
     1
 77
     6
 78
     2
 67
     7
 79
     5
170
     0
171
     0
290
     0
174
     0
 93
        1
 44
0.0
173
     0
291
     0
 45
0.0
1001
ACAD
1000
AcDbSavedByObjectVersion
1070
     0
  0
VISUALSTYLE
  5
31
102
{ACAD_REACTORS
330
2A
102
}
330
2A
100
AcDbVisualStyle
  2
3D Hidden
 70
     6
 71
     1
 72
     2
 73
     2
 90
        0
 40
-0.6
 41
-30.0
 62
     5
 63
     7
421
 16777215
 74
     2
 91
        2
 64
     7
 65
   257
 75
     2
175
     1
 42
40.0
 92
        0
 66
   257
 43
1.0
 76
     1
 77
     6
 78
     2
 67
     7
 79
     3
170
     0
171
     0
290
     0
174
     0
 93
        1
 44
0.0
173
     0
291
     0
 45
0.0
1001
ACAD
1000
AcDbSavedByObjectVersion
1070
     0
  0
VISUALSTYLE
  5
30
102
{ACAD_REACTORS
330
2A
102
}
330
2A
100
AcDbVisualStyle
  2
3dWireframe
 70
     5
 71
     0
 72
     2
 73
     0
 90
        0
 40
-0.6
 41
-30.0
 62
     5
 63
     7
421
 16777215
 74
     1
 91
        4
 64
     7
 65
   257
 75
     1
175
     1
 42
1.0
 92
        0
 66
   257
 43
1.0
 76
     1
 77
     6
 78
     2
 67
     7
 79
     5
170
     0
171
     0
290
     0
174
     0
 93
        1
 44
0.0
173
     0
291
     0
 45
0.0
1001
ACAD
1000
AcDbSavedByObjectVersion
1070
     0
  0
VISUALSTYLE
  5
32
102
{ACAD_REACTORS
330
2A
102
}
330
2A
100
AcDbVisualStyle
  2
Basic
 70
     7
 71
     1
 72
     0
 73
     1
 90
        0
 40
-0.6
 41
-30.0
 62
     5
 63
     7
421
 16777215
 74
     0
 91
        4
 64
     7
 65
   257
 75
     1
175
     1
 42
1.0
 92
        8
 66
     7
 43
1.0
 76
     1
 77
     6
 78
     2
 67
     7
 79
     5
170
     0
171
     0
290
     0
174
     0
 93
        1
 44
0.0
173
     0
291
     1
 45
0.0
1001
ACAD
1000
AcDbSavedByObjectVersion
1070
     0
  0
VISUALSTYLE
  5
36
102
{ACAD_REACTORS
330
2A
102
}
330
2A
100
AcDbVisualStyle
  2
Brighten
 70
    12
 71
     2
 72
     2
 73
     0
 90
        0
 40
-0.6
 41
-30.0
 62
     5
 63
     7
421
 16777215
 74
     1
 91
        4
 64
     7
 65
   257
 75
     1
175
     1
 42
1.0
 92
        8
 66
     7
 43
1.0
 76
     1
 77
     6
 78
     2
 67
     7
 79
     5
170
     0
171
     0
290
     0
174
     0
 93
        1
 44
50.0
173
     0
291
     1
 45
0.0
1001
ACAD
1000
AcDbSavedByObjectVersion
1070
     0
  0
VISUALSTYLE
  5
3A
102
{ACAD_REACTORS
330
2A
102
}
330
2A
100
AcDbVisualStyle
  2
ColorChange
 70
    16
 71
     2
 72
     2
 73
     3
 90
        0
 40
-0.6
 41
-30.0
 62
     5
 63
     8
421
  8421504
 74
     1
 91
        4
 64
     7
 65
   257
 75
     1
175
     1
 42
1.0
 92
        8
 66
     8
424
  8421504
 43
1.0
 76
     1
 77
     6
 78
     2
 67
     7
 79
     5
170
     0
171
     0
290
     0
174
     0
 93
        1
 44
0.0
173
     0
291
     1
 45
0.0
1001
ACAD
1000
AcDbSavedByObjectVersion
1070
     0
  0
VISUALSTYLE
  5
34
102
{ACAD_REACTORS
330
2A
102
}
330
2A
100
AcDbVisualStyle
  2
Conceptual
 70
     9
 71
     3
 72
     2
 73
     0
 90
        0
 40
-0.6
 41
-30.0
 62
     5
 63
     7
421
 16777215
 74
     2
 91
        2
 64
     7
 65
   257
 75
     1
175
     1
 42
40.0
 92
        8
 66
     7
 43
1.0
 76
     1
 77
     6
 78
     2
 67
     7
 79
     3
170
     0
171
     0
290
     0
174
     0
 93
        1
 44
0.0
173
     0
291
     0
 45
0.0
1001
ACAD
1000
AcDbSavedByObjectVersion
1070
     0
  0
VISUALSTYLE
  5
35
102
{ACAD_REACTORS
330
2A
102
}
330
2A
100
AcDbVisualStyle
  2
Dim
 70
    11
 71
     2
 72
     2
 73
     0
 90
        0
 40
-0.6
 41
-30.0
 62
     5
 63
     7
421
 16777215
 74
     1
 91
        4
 64
     7
 65
   257
 75
     1
175
     1
 42
1.0
 92
        8
 66
     7
 43
1.0
 76
     1
 77
     6
 78
     2
 67
     7
 79
     5
170
     0
171
     0
290
     0
174
     0
 93
        1
 44
-50.0
173
     0
291
     1
 45
0.0
1001
ACAD
1000
AcDbSavedByObjectVersion
1070
     0
  0
VISUALSTYLE
  5
39
102
{ACAD_REACTORS
330
2A
102
}
330
2A
100
AcDbVisualStyle
  2
Facepattern
 70
    15
 71
     2
 72
     2
 73
     0
 90
        0
 40
-0.6
 41
-30.0
 62
     5
 63
     7
421
 16777215
 74
     1
 91
        4
 64
     7
 65
   257
 75
     1
175
     1
 42
1.0
 92
        8
 66
     7
 43
1.0
 76
     1
 77
     6
 78
     2
 67
     7
 79
     5
170
     0
171
     0
290
     0
174
     0
 93
        1
 44
0.0
173
     0
291
     1
 45
0.0
1001
ACAD
1000
AcDbSavedByObjectVersion
1070
     0
  0
VISUALSTYLE
  5
2B
102
{ACAD_REACTORS
330
2A
102
}
330
2A
100
AcDbVisualStyle
  2
Flat
 70
     0
 71
     2
 72
     1
 73
     1
 90
        2
 40
-0.6
 41
30.0
 62
     5
 63
     7
421
 16777215
 74
     0
 91
        4
 64
     7
 65
   257
 75
     1
175
     1
 42
1.0
 92
        8
 66
     7
 43
1.0
 76
     1
 77
     6
 78
     2
 67
     7
 79
     5
170
     0
171
     0
290
     0
174
     0
 93
       13
 44
0.0
173
     0
291
     1
 45
0.0
1001
ACAD
1000
AcDbSavedByObjectVersion
1070
     0
  0
VISUALSTYLE
  5
2C
102
{ACAD_REACTORS
330
2A
102
}
330
2A
100
AcDbVisualStyle
  2
FlatWithEdges
 70
     1
 71
     2
 72
     1
 73
     1
 90
        2
 40
-0.6
 41
30.0
 62
     5
 63
     7
421
 16777215
 74
     1
 91
        4
 64
     7
 65
   257
 75
     1
175
     1
 42
1.0
 92
        0
 66
   257
 43
1.0
 76
     1
 77
     6
 78
     2
 67
     7
 79
     5
170
     0
171
     0
290
     0
174
     0
 93
       13
 44
0.0
173
     0
291
     1
 45
0.0
1001
ACAD
1000
AcDbSavedByObjectVersion
1070
     0
  0
VISUALSTYLE
  5
2D
102
{ACAD_REACTORS
330
2A
102
}
330
2A
100
AcDbVisualStyle
  2
Gouraud
 70
     2
 71
     2
 72
     2
 73
     1
 90
        2
 40
-0.6
 41
30.0
 62
     5
 63
     7
421
 16777215
 74
     0
 91
        4
 64
     7
 65
   257
 75
     1
175
     1
 42
1.0
 92
        0
 66
     7
 43
1.0
 76
     1
 77
     6
 78
     2
 67
     7
 79
     5
170
     0
171
     0
290
     0
174
     0
 93
       13
 44
0.0
173
     0
291
     1
 45
0.0
1001
ACAD
1000
AcDbSavedByObjectVersion
1070
     0
  0
VISUALSTYLE
  5
2E
102
{ACAD_REACTORS
330
2A
102
}
330
2A
100
AcDbVisualStyle
  2
GouraudWithEdges
 70
     3
 71
     2
 72
     2
 73
     1
 90
        2
 40
-0.6
 41
30.0
 62
     5
 63
     7
421
 16777215
 74
     1
 91
        4
 64
     7
 65
   257
 75
     1
175
     1
 42
1.0
 92
        0
 66
   257
 43
1.0
 76
     1
 77
     6
 78
     2
 67
     7
 79
     5
170
     0
171
     0
290
     0
174
     0
 93
       13
 44
0.0
173
     0
291
     1
 45
0.0
1001
ACAD
1000
AcDbSavedByObjectVersion
1070
     0
  0
VISUALSTYLE
  5
38
102
{ACAD_REACTORS
330
2A
102
}
330
2A
100
AcDbVisualStyle
  2
Linepattern
 70
    14
 71
     2
 72
     2
 73
     0
 90
        0
 40
-0.6
 41
-30.0
 62
     5
 63
     7
421
 16777215
 74
     1
 91
        4
 64
     7
 65
   257
 75
     7
175
     7
 42
1.0
 92
        8
 66
     7
 43
1.0
 76
     1
 77
     6
 78
     2
 67
     7
 79
     5
170
     0
171
     0
290
     0
174
     0
 93
        1
 44
0.0
173
     0
291
     1
 45
0.0
1001
ACAD
1000
AcDbSavedByObjectVersion
1070
     0
  0
VISUALSTYLE
  5
33
102
{ACAD_REACTORS
330
2A
102
}
330
2A
100
AcDbVisualStyle
  2
Realistic
 70
     8
 71
     2
 72
     2
 73
     0
 90
        0
 40
-0.6
 41
-30.0
 62
     5
 63
     7
421
 16777215
 74
     1
 91
        0
 64
     7
 65
   257
 75
     1
175
     1
 42
1.0
 92
        8
 66
     8
424
  7895160
 43
1.0
 76
     1
 77
     6
 78
     2
 67
     7
 79
     5
170
     0
171
     0
290
     0
174
     0
 93
       13
 44
0.0
173
     0
291
     0
 45
0.0
1001
ACAD
1000
AcDbSavedByObjectVersion
1070
     0
  0
VISUALSTYLE
  5
37
102
{ACAD_REACTORS
330
2A
102
}
330
2A
100
AcDbVisualStyle
  2
Thicken
 70
    13
 71
     2
 72
     2
 73
     0
 90
        0
 40
-0.6
 41
-30.0
 62
     5
 63
     7
421
 16777215
 74
     1
 91
        4
 64
     7
 65
   257
 75
     1
175
     1
 42
1.0
 92
       12
 66
     7
 43
1.0
 76
     1
 77
     6
 78
     2
 67
     7
 79
     5
170
     0
171
     0
290
     0
174
     0
 93
        1
 44
0.0
173
     0
291
     1
 45
0.0
1001
ACAD
1000
AcDbSavedByObjectVersion
1070
     0
  0
ENDSEC
  0
EOF
