  0
SECTION
  2
HEADER
  9
$ACADVER
  1
AC1018
  9
$ACADMAINTVER
 70
     0
  9
$DWGCODEPAGE
  3
ANSI_936
  9
$INSBASE
 10
0.0
 20
0.0
 30
0.0
  9
$EXTMIN
 10
-1220.0
 20
-1286.014445213667
 30
0.3644860130863207
  9
$EXTMAX
 10
1220.0
 20
-66.0144452136667
 30
0.3644860130863209
  9
$LIMMIN
 10
0.0
 20
0.0
  9
$LIMMAX
 10
12.0
 20
9.0
  9
$ORTHOMODE
 70
     0
  9
$REGENMODE
 70
     1
  9
$FILLMODE
 70
     1
  9
$QTEXTMODE
 70
     0
  9
$MIRRTEXT
 70
     1
  9
$LTSCALE
 40
1.0
  9
$ATTMODE
 70
     1
  9
$TEXTSIZE
 40
0.2
  9
$TRACEWID
 40
0.05
  9
$TEXTSTYLE
  7
Standard
  9
$CLAYER
  8
Default
  9
$CELTYPE
  6
ByLayer
  9
$CECOLOR
 62
   256
  9
$CELTSCALE
 40
1.0
  9
$DISPSILH
 70
     0
  9
$DIMSCALE
 40
1.0
  9
$DIMASZ
 40
0.18
  9
$DIMEXO
 40
0.0625
  9
$DIMDLI
 40
0.38
  9
$DIMRND
 40
0.0
  9
$DIMDLE
 40
0.0
  9
$DIMEXE
 40
0.18
  9
$DIMTP
 40
0.0
  9
$DIMTM
 40
0.0
  9
$DIMTXT
 40
0.18
  9
$DIMCEN
 40
0.09
  9
$DIMTSZ
 40
0.0
  9
$DIMTOL
 70
     0
  9
$DIMLIM
 70
     0
  9
$DIMTIH
 70
     1
  9
$DIMTOH
 70
     1
  9
$DIMSE1
 70
     0
  9
$DIMSE2
 70
     0
  9
$DIMTAD
 70
     0
  9
$DIMZIN
 70
     0
  9
$DIMBLK
  1

  9
$DIMASO
 70
     1
  9
$DIMSHO
 70
     1
  9
$DIMPOST
  1

  9
$DIMAPOST
  1

  9
$DIMALT
 70
     0
  9
$DIMALTD
 70
     2
  9
$DIMALTF
 40
25.4
  9
$DIMLFAC
 40
1.0
  9
$DIMTOFL
 70
     0
  9
$DIMTVP
 40
0.0
  9
$DIMTIX
 70
     0
  9
$DIMSOXD
 70
     0
  9
$DIMSAH
 70
     0
  9
$DIMBLK1
  1

  9
$DIMBLK2
  1

  9
$DIMSTYLE
  2
Standard
  9
$DIMCLRD
 70
     0
  9
$DIMCLRE
 70
     0
  9
$DIMCLRT
 70
     0
  9
$DIMTFAC
 40
1.0
  9
$DIMGAP
 40
0.09
  9
$DIMJUST
 70
     0
  9
$DIMSD1
 70
     0
  9
$DIMSD2
 70
     0
  9
$DIMTOLJ
 70
     1
  9
$DIMTZIN
 70
     0
  9
$DIMALTZ
 70
     0
  9
$DIMALTTZ
 70
     0
  9
$DIMUPT
 70
     0
  9
$DIMDEC
 70
     4
  9
$DIMTDEC
 70
     4
  9
$DIMALTU
 70
     2
  9
$DIMALTTD
 70
     2
  9
$DIMTXSTY
  7
Standard
  9
$DIMAUNIT
 70
     0
  9
$DIMADEC
 70
     0
  9
$DIMALTRND
 40
0.0
  9
$DIMAZIN
 70
     0
  9
$DIMDSEP
 70
    46
  9
$DIMATFIT
 70
     3
  9
$DIMFRAC
 70
     0
  9
$DIMLDRBLK
  1

  9
$DIMLUNIT
 70
     2
  9
$DIMLWD
 70
    -2
  9
$DIMLWE
 70
    -2
  9
$DIMTMOVE
 70
     2
  9
$LUNITS
 70
     2
  9
$LUPREC
 70
     3
  9
$SKETCHINC
 40
0.1
  9
$FILLETRAD
 40
0.5
  9
$AUNITS
 70
     0
  9
$AUPREC
 70
     0
  9
$MENU
  1
.
  9
$ELEVATION
 40
0.0
  9
$PELEVATION
 40
0.0
  9
$THICKNESS
 40
0.0
  9
$LIMCHECK
 70
     0
  9
$CHAMFERA
 40
0.0
  9
$CHAMFERB
 40
0.0
  9
$CHAMFERC
 40
0.0
  9
$CHAMFERD
 40
0.0
  9
$SKPOLY
 70
     0
  9
$TDCREATE
 40
2458647.60569853
  9
$TDUCREATE
 40
2458647.272365197
  9
$TDUPDATE
 40
2458647.605716794
  9
$TDUUPDATE
 40
2458647.272383461
  9
$TDINDWG
 40
0.0000000116
  9
$TDUSRTIMER
 40
0.0000000116
  9
$USRTIMER
 70
     1
  9
$ANGBASE
 50
0.0
  9
$ANGDIR
 70
     0
  9
$PDMODE
 70
     0
  9
$PDSIZE
 40
0.0
  9
$PLINEWID
 40
0.0
  9
$SPLFRAME
 70
     0
  9
$SPLINETYPE
 70
     6
  9
$SPLINESEGS
 70
     8
  9
$HANDSEED
  5
EA
  9
$SURFTAB1
 70
     6
  9
$SURFTAB2
 70
     6
  9
$SURFTYPE
 70
     6
  9
$SURFU
 70
     6
  9
$SURFV
 70
     6
  9
$UCSBASE
  2

  9
$UCSNAME
  2

  9
$UCSORG
 10
0.0
 20
0.0
 30
0.0
  9
$UCSXDIR
 10
1.0
 20
0.0
 30
0.0
  9
$UCSYDIR
 10
0.0
 20
1.0
 30
0.0
  9
$UCSORTHOREF
  2

  9
$UCSORTHOVIEW
 70
     0
  9
$UCSORGTOP
 10
0.0
 20
0.0
 30
0.0
  9
$UCSORGBOTTOM
 10
0.0
 20
0.0
 30
0.0
  9
$UCSORGLEFT
 10
0.0
 20
0.0
 30
0.0
  9
$UCSORGRIGHT
 10
0.0
 20
0.0
 30
0.0
  9
$UCSORGFRONT
 10
0.0
 20
0.0
 30
0.0
  9
$UCSORGBACK
 10
0.0
 20
0.0
 30
0.0
  9
$PUCSBASE
  2

  9
$PUCSNAME
  2

  9
$PUCSORG
 10
0.0
 20
0.0
 30
0.0
  9
$PUCSXDIR
 10
1.0
 20
0.0
 30
0.0
  9
$PUCSYDIR
 10
0.0
 20
1.0
 30
0.0
  9
$PUCSORTHOREF
  2

  9
$PUCSORTHOVIEW
 70
     0
  9
$PUCSORGTOP
 10
0.0
 20
0.0
 30
0.0
  9
$PUCSORGBOTTOM
 10
0.0
 20
0.0
 30
0.0
  9
$PUCSORGLEFT
 10
0.0
 20
0.0
 30
0.0
  9
$PUCSORGRIGHT
 10
0.0
 20
0.0
 30
0.0
  9
$PUCSORGFRONT
 10
0.0
 20
0.0
 30
0.0
  9
$PUCSORGBACK
 10
0.0
 20
0.0
 30
0.0
  9
$USERI1
 70
     0
  9
$USERI2
 70
     0
  9
$USERI3
 70
     0
  9
$USERI4
 70
     0
  9
$USERI5
 70
     0
  9
$USERR1
 40
0.0
  9
$USERR2
 40
0.0
  9
$USERR3
 40
0.0
  9
$USERR4
 40
0.0
  9
$USERR5
 40
0.0
  9
$WORLDVIEW
 70
     1
  9
$SHADEDGE
 70
     3
  9
$SHADEDIF
 70
    70
  9
$TILEMODE
 70
     1
  9
$MAXACTVP
 70
    64
  9
$PINSBASE
 10
0.0
 20
0.0
 30
0.0
  9
$PLIMCHECK
 70
     0
  9
$PEXTMIN
 10
1.000000000000000E+20
 20
1.000000000000000E+20
 30
1.000000000000000E+20
  9
$PEXTMAX
 10
-1.000000000000000E+20
 20
-1.000000000000000E+20
 30
-1.000000000000000E+20
  9
$PLIMMIN
 10
0.0
 20
0.0
  9
$PLIMMAX
 10
12.0
 20
9.0
  9
$UNITMODE
 70
     0
  9
$VISRETAIN
 70
     1
  9
$PLINEGEN
 70
     0
  9
$PSLTSCALE
 70
     1
  9
$TREEDEPTH
 70
  3020
  9
$CMLSTYLE
  2
Standard
  9
$CMLJUST
 70
     0
  9
$CMLSCALE
 40
1.0
  9
$PROXYGRAPHICS
 70
     1
  9
$MEASUREMENT
 70
     0
  9
$CELWEIGHT
370
    -1
  9
$ENDCAPS
280
     0
  9
$JOINSTYLE
280
     0
  9
$LWDISPLAY
290
     0
  9
$INSUNITS
 70
     4
  9
$HYPERLINKBASE
  1

  9
$STYLESHEET
  1

  9
$XEDIT
290
     1
  9
$CEPSNTYPE
380
     0
  9
$PSTYLEMODE
290
     1
  9
$FINGERPRINTGUID
  2
{351EFA34-A12E-499F-BAFA-93047ED228F1}
  9
$VERSIONGUID
  2
{FAEB1C32-E019-11D5-929B-00C0DF256EC4}
  9
$EXTNAMES
290
     1
  9
$PSVPSCALE
 40
0.0
  9
$OLESTARTUP
290
     0
  9
$SORTENTS
280
   127
  9
$INDEXCTL
280
     0
  9
$HIDETEXT
280
     1
  9
$XCLIPFRAME
290
     0
  9
$HALOGAP
280
     0
  9
$OBSCOLOR
 70
   257
  9
$OBSLTYPE
280
     0
  9
$INTERSECTIONDISPLAY
280
     0
  9
$INTERSECTIONCOLOR
 70
   257
  9
$DIMASSOC
280
     2
  9
$PROJECTNAME
  1

  0
ENDSEC
  0
SECTION
  2
CLASSES
  0
CLASS
  1
ACDBDICTIONARYWDFLT
  2
AcDbDictionaryWithDefault
  3
ObjectDBX Classes
 90
        0
 91
        4
280
     0
281
     0
  0
CLASS
  1
VISUALSTYLE
  2
AcDbVisualStyle
  3
ObjectDBX Classes
 90
     4095
 91
        4
280
     0
281
     0
  0
CLASS
  1
MATERIAL
  2
AcDbMaterial
  3
ObjectDBX Classes
 90
     1153
 91
        4
280
     0
281
     0
  0
CLASS
  1
SCALE
  2
AcDbScale
  3
ObjectDBX Classes
 90
     1153
 91
        4
280
     0
281
     0
  0
CLASS
  1
TABLESTYLE
  2
AcDbTableStyle
  3
ObjectDBX Classes
 90
     4095
 91
        4
280
     0
281
     0
  0
CLASS
  1
MLEADERSTYLE
  2
AcDbMLeaderStyle
  3
ACDB_MLEADERSTYLE_CLASS
 90
     4095
 91
        4
280
     0
281
     0
  0
CLASS
  1
SUN
  2
AcDbSun
  3
SCENEOE
 90
     1153
 91
        4
280
     0
281
     0
  0
CLASS
  1
DICTIONARYVAR
  2
AcDbDictionaryVar
  3
ObjectDBX Classes
 90
        0
 91
        4
280
     0
281
     0
  0
CLASS
  1
CELLSTYLEMAP
  2
AcDbCellStyleMap
  3
ObjectDBX Classes
 90
     1152
 91
        4
280
     0
281
     0
  0
ENDSEC
  0
SECTION
  2
TABLES
  0
TABLE
  2
VPORT
  5
8
102
{ACAD_XDICTIONARY
360
A3
102
}
330
0
100
AcDbSymbolTable
 70
     1
  0
VPORT
  5
29
330
8
100
AcDbSymbolTableRecord
100
AcDbViewportTableRecord
  2
*Active
 70
     0
 10
0.0
 20
0.0
 11
1.0
 21
1.0
 12
0.0
 22
-676.0144452136668
 13
0.0
 23
0.0
 14
0.5
 24
0.5
 15
0.5
 25
0.5
 16
0.0
 26
0.0
 36
1.0
 17
0.0
 27
0.0
 37
0.0
 40
1244.4
 41
2.0
 42
50.0
 43
0.0
 44
0.0
 50
0.0
 51
0.0
 71
     0
 72
   100
 73
     1
 74
     3
 75
     0
 76
     0
 77
     0
 78
     0
281
     0
 65
     1
110
0.0
120
0.0
130
0.0
111
1.0
121
0.0
131
0.0
112
0.0
122
1.0
132
0.0
 79
     0
146
0.0
  0
ENDTAB
  0
TABLE
  2
LTYPE
  5
5
330
0
100
AcDbSymbolTable
 70
     1
  0
LTYPE
  5
14
330
5
100
AcDbSymbolTableRecord
100
AcDbLinetypeTableRecord
  2
ByBlock
 70
     0
  3

 72
    65
 73
     0
 40
0.0
  0
LTYPE
  5
15
330
5
100
AcDbSymbolTableRecord
100
AcDbLinetypeTableRecord
  2
ByLayer
 70
     0
  3

 72
    65
 73
     0
 40
0.0
  0
LTYPE
  5
16
330
5
100
AcDbSymbolTableRecord
100
AcDbLinetypeTableRecord
  2
Continuous
 70
     0
  3
Solid line
 72
    65
 73
     0
 40
0.0
  0
ENDTAB
  0
TABLE
  2
LAYER
  5
2
330
0
100
AcDbSymbolTable
 70
     6
  0
LAYER
  5
10
330
2
100
AcDbSymbolTableRecord
100
AcDbLayerTableRecord
  2
0
 70
     0
 62
     7
  6
Continuous
370
    -3
390
F
  0
LAYER
  5
6E
330
2
100
AcDbSymbolTableRecord
100
AcDbLayerTableRecord
  2
cutoutline
 70
     0
 62
    96
420
    32512
  6
Continuous
370
    -3
390
F
  0
LAYER
  5
70
330
2
100
AcDbSymbolTableRecord
100
AcDbLayerTableRecord
  2
Default
 70
     0
 62
    18
420
        0
  6
Continuous
370
    -3
390
F
  0
LAYER
  5
76
330
2
100
AcDbSymbolTableRecord
100
AcDbLayerTableRecord
  2
INSIEDE
 70
     0
 62
    30
420
 16744192
  6
Continuous
370
    -3
390
F
  0
LAYER
  5
81
330
2
100
AcDbSymbolTableRecord
100
AcDbLayerTableRecord
  2
7mm cut
 70
     0
 62
   192
420
  8201933
  6
Continuous
370
    -3
390
F
  0
LAYER
  5
93
330
2
100
AcDbSymbolTableRecord
100
AcDbLayerTableRecord
  2
14mmbrd
 70
     0
 62
     7
420
 16777215
  6
Continuous
370
    -3
390
F
  0
ENDTAB
  0
TABLE
  2
STYLE
  5
3
330
0
100
AcDbSymbolTable
 70
     1
  0
STYLE
  5
11
330
3
100
AcDbSymbolTableRecord
100
AcDbTextStyleTableRecord
  2
Standard
 70
     0
 40
0.0
 41
1.0
 50
0.0
 71
     0
 42
0.2
  3
txt
  4

  0
ENDTAB
  0
TABLE
  2
VIEW
  5
6
330
0
100
AcDbSymbolTable
 70
     0
  0
ENDTAB
  0
TABLE
  2
UCS
  5
7
330
0
100
AcDbSymbolTable
 70
     0
  0
ENDTAB
  0
TABLE
  2
APPID
  5
9
330
0
100
AcDbSymbolTable
 70
     2
  0
APPID
  5
12
330
9
100
AcDbSymbolTableRecord
100
AcDbRegAppTableRecord
  2
ACAD
 70
     0
  0
APPID
  5
E2
330
9
100
AcDbSymbolTableRecord
100
AcDbRegAppTableRecord
  2
ACAD_MLEADERVER
 70
     0
  0
ENDTAB
  0
TABLE
  2
DIMSTYLE
  5
A
330
0
100
AcDbSymbolTable
 70
     1
100
AcDbDimStyleTable
  0
DIMSTYLE
105
27
330
A
100
AcDbSymbolTableRecord
100
AcDbDimStyleTableRecord
  2
Standard
 70
     0
178
     0
340
11
  0
ENDTAB
  0
TABLE
  2
BLOCK_RECORD
  5
1
330
0
100
AcDbSymbolTable
 70
     1
  0
BLOCK_RECORD
  5
1F
330
1
100
AcDbSymbolTableRecord
100
AcDbBlockTableRecord
  2
*Model_Space
340
22
  0
BLOCK_RECORD
  5
1B
330
1
100
AcDbSymbolTableRecord
100
AcDbBlockTableRecord
  2
*Paper_Space
340
1E
  0
BLOCK_RECORD
  5
23
330
1
100
AcDbSymbolTableRecord
100
AcDbBlockTableRecord
  2
*Paper_Space0
340
26
  0
ENDTAB
  0
ENDSEC
  0
SECTION
  2
BLOCKS
  0
BLOCK
  5
20
330
1F
100
AcDbEntity
  8
0
100
AcDbBlockBegin
  2
*Model_Space
 70
     0
 10
0.0
 20
0.0
 30
0.0
  3
*Model_Space
  1

  0
ENDBLK
  5
21
330
1F
100
AcDbEntity
  8
0
100
AcDbBlockEnd
  0
BLOCK
  5
1C
330
1B
100
AcDbEntity
 67
     1
  8
0
100
AcDbBlockBegin
  2
*Paper_Space
 70
     0
 10
0.0
 20
0.0
 30
0.0
  3
*Paper_Space
  1

  0
ENDBLK
  5
1D
330
1B
100
AcDbEntity
 67
     1
  8
0
100
AcDbBlockEnd
  0
BLOCK
  5
24
330
23
100
AcDbEntity
  8
0
100
AcDbBlockBegin
  2
*Paper_Space0
 70
     0
 10
0.0
 20
0.0
 30
0.0
  3
*Paper_Space0
  1

  0
ENDBLK
  5
25
330
23
100
AcDbEntity
  8
0
100
AcDbBlockEnd
  0
ENDSEC
  0
SECTION
  2
ENTITIES
  0
SPLINE
  5
6F
330
1F
100
AcDbEntity
  8
cutoutline
100
AcDbSpline
210
0.0
220
0.0
230
1.0
 70
    15
 71
     2
 72
   152
 73
   149
 74
     0
 42
0.000000001
 43
0.0000000001
 40
-22.73640857299776
 40
-22.73640857299776
 40
-22.73640857299776
 40
-17.05230642974832
 40
-17.05230642974832
 40
-14.21025535812362
 40
-14.21025535812362
 40
-13.92295968560378
 40
-13.92295968560378
 40
-10.61717456163684
 40
-10.61717456163684
 40
-10.32987888911699
 40
-10.32987888911699
 40
-7.487827817492272
 40
-7.487827817492272
 40
-1.803725674242833
 40
-1.803725674242833
 40
3.880376469006606
 40
3.880376469006606
 40
6.722427540631326
 40
6.722427540631326
 40
7.686254786401991
 40
7.686254786401991
 40
8.68625478640199
 40
8.68625478640199
 40
9.68625478640199
 40
9.68625478640199
 40
10.68625478640199
 40
10.68625478640199
 40
11.68625478640199
 40
11.68625478640199
 40
12.68625478640199
 40
12.68625478640199
 40
13.68625478640199
 40
13.68625478640199
 40
14.68625478640199
 40
14.68625478640199
 40
15.68625478640199
 40
15.68625478640199
 40
16.68625478640199
 40
16.68625478640199
 40
17.68625478640199
 40
17.68625478640199
 40
18.68625478640199
 40
18.68625478640199
 40
19.68625478640199
 40
19.68625478640199
 40
20.68625478640199
 40
20.68625478640199
 40
21.68625478640199
 40
21.68625478640199
 40
22.68625478640199
 40
22.68625478640199
 40
23.68625478640199
 40
23.68625478640199
 40
24.68625478640199
 40
24.68625478640199
 40
25.68625478640199
 40
25.68625478640199
 40
26.68625478640199
 40
26.68625478640199
 40
27.68625478640199
 40
27.68625478640199
 40
28.68625478640199
 40
28.68625478640199
 40
29.68625478640199
 40
29.68625478640199
 40
30.68625478640199
 40
30.68625478640199
 40
31.68625478640199
 40
31.68625478640199
 40
32.65008203217137
 40
32.65008203217137
 40
35.49213310379609
 40
35.49213310379609
 40
41.17623524704553
 40
41.17623524704553
 40
46.86033739029497
 40
46.86033739029497
 40
49.70238846191968
 40
49.70238846191968
 40
50.53006237612317
 40
50.53006237612317
 40
51.53006237612317
 40
51.53006237612317
 40
52.35773629032649
 40
52.35773629032649
 40
55.1997873619514
 40
55.1997873619514
 40
60.88388950520084
 40
60.88388950520084
 40
66.56799164845027
 40
66.56799164845027
 40
69.41004272007501
 40
69.41004272007501
 40
70.37384322817651
 40
70.37384322817651
 40
71.37384322817651
 40
71.37384322817651
 40
72.37384322817651
 40
72.37384322817651
 40
73.37384322817651
 40
73.37384322817651
 40
74.37384322817651
 40
74.37384322817651
 40
75.37384322817651
 40
75.37384322817651
 40
76.37384322817651
 40
76.37384322817651
 40
77.37384322817651
 40
77.37384322817651
 40
78.37384322817651
 40
78.37384322817651
 40
79.37384322817651
 40
79.37384322817651
 40
80.37384322817651
 40
80.37384322817651
 40
81.37384322817651
 40
81.37384322817651
 40
82.37384322817651
 40
82.37384322817651
 40
83.37384322817651
 40
83.37384322817651
 40
84.37384322817651
 40
84.37384322817651
 40
85.37384322817651
 40
85.37384322817651
 40
86.37384322817651
 40
86.37384322817651
 40
87.37384322817651
 40
87.37384322817651
 40
88.37384322817651
 40
88.37384322817651
 40
89.37384322817651
 40
89.37384322817651
 40
90.37384322817651
 40
90.37384322817651
 40
91.37384322817651
 40
91.37384322817651
 40
92.37384322817651
 40
92.37384322817651
 40
93.37384322817651
 40
93.37384322817651
 40
94.37384322817651
 40
94.37384322817651
 40
95.33764373627672
 40
95.33764373627672
 40
98.17969480790165
 40
98.17969480790165
 40
103.8637969511511
 40
103.8637969511511
 40
103.8637969511511
 10
-1126.303610013116
 20
-240.6509858596808
 30
0.3644860130863208
 41
1.0
 10
-1128.862354964252
 20
-243.2097308108164
 30
0.3644860130863208
 41
0.7071067811865476
 10
-1131.421099915387
 20
-240.6509858596808
 30
0.3644860130863208
 41
1.0
 10
-1132.480966776802
 20
-239.5911189982668
 30
0.3644860130863208
 41
0.8535533905932751
 10
-1132.480966776802
 20
-238.0922409085453
 30
0.3644860130863208
 41
0.8535533905932737
 10
-1141.171660870527
 20
-238.0922409086795
 30
0.3644860130863208
 41
0.8535533905932737
 10
-1149.862354964252
 20
-238.0922409086795
 30
0.3644860130863208
 41
0.8535533905932737
 10
-1149.862354964252
 20
-338.0922409086795
 30
0.3644860130863208
 41
0.8535533905932737
 10
-1149.862354964252
 20
-438.0922409086795
 30
0.3644860130863208
 41
0.8535533905932737
 10
-1141.171660870527
 20
-438.0922409086795
 30
0.3644860130863208
 41
0.8535533905932737
 10
-1132.480966776802
 20
-438.0922409086795
 30
0.3644860130863208
 41
0.8535533905932737
 10
-1132.480966776802
 20
-436.5933628188237
 30
0.3644860130863208
 41
0.8535533905932738
 10
-1131.421099915388
 20
-435.53349595741
 30
0.3644860130863208
 41
0.9999999999999999
 10
-1128.862354964252
 20
-432.9747510062743
 30
0.3644860130863208
 41
0.7071067811865475
 10
-1126.303610013117
 20
-435.5334959574099
 30
0.3644860130863208
 41
0.9999999999999999
 10
-1123.744865061981
 20
-438.0922409085453
 30
0.3644860130863208
 41
0.7071067811865475
 10
-1126.303610013116
 20
-440.6509858596809
 30
0.3644860130863208
 41
0.9999999999999999
 10
-1127.363476874531
 20
-441.7108527210949
 30
0.3644860130863208
 41
0.8535533905932736
 10
-1128.862354964252
 20
-441.7108527210949
 30
0.3644860130863208
 41
0.8535533905932736
 10
-1128.862354964253
 20
-489.9200191362559
 30
0.3644860130863208
 41
0.8535533905932736
 10
-1128.862354964253
 20
-538.1291855514169
 30
0.3644860130863208
 41
0.8535533905932736
 10
-1103.862354964252
 20
-508.1291855514173
 30
0.3644860130863208
 41
0.8535533905932736
 10
-1078.862354964251
 20
-478.1291855514178
 30
0.3644860130863208
 41
0.8535533905932736
 10
-1053.862354964252
 20
-508.1291855514183
 30
0.3644860130863208
 41
0.8535533905932736
 10
-1028.862354964253
 20
-538.1291855514187
 30
0.3644860130863208
 41
0.8535533905932736
 10
-1003.862354964252
 20
-508.1291855514191
 30
0.3644860130863208
 41
0.8535533905932736
 10
-978.8623549642514
 20
-478.1291855514195
 30
0.3644860130863208
 41
0.8535533905932736
 10
-953.8623549642523
 20
-508.1291855514202
 30
0.3644860130863208
 41
0.8535533905932736
 10
-928.8623549642527
 20
-538.1291855514205
 30
0.3644860130863208
 41
0.8535533905932736
 10
-903.8623549642521
 20
-508.129185551421
 30
0.3644860130863208
 41
0.8535533905932736
 10
-878.8623549642514
 20
-478.1291855514212
 30
0.3644860130863208
 41
0.8535533905932736
 10
-853.8623549642522
 20
-508.1291855514219
 30
0.3644860130863208
 41
0.8535533905932736
 10
-828.8623549642531
 20
-538.1291855514222
 30
0.3644860130863208
 41
0.8535533905932736
 10
-803.8623549642524
 20
-508.1291855514227
 30
0.3644860130863208
 41
0.8535533905932736
 10
-778.8623549642514
 20
-478.1291855514232
 30
0.3644860130863208
 41
0.8535533905932736
 10
-753.8623549642521
 20
-508.1291855514236
 30
0.3644860130863208
 41
0.8535533905932736
 10
-728.8623549642526
 20
-538.129185551424
 30
0.3644860130863208
 41
0.8535533905932736
 10
-703.862354964252
 20
-508.1291855514246
 30
0.3644860130863208
 41
0.8535533905932736
 10
-678.8623549642515
 20
-478.1291855514249
 30
0.3644860130863208
 41
0.8535533905932736
 10
-653.8623549642524
 20
-508.1291855514253
 30
0.3644860130863208
 41
0.8535533905932736
 10
-628.8623549642527
 20
-538.1291855514257
 30
0.3644860130863208
 41
0.8535533905932736
 10
-603.8623549642521
 20
-508.1291855514262
 30
0.3644860130863208
 41
0.8535533905932736
 10
-578.8623549642514
 20
-478.1291855514268
 30
0.3644860130863208
 41
0.8535533905932736
 10
-553.8623549642521
 20
-508.1291855514272
 30
0.3644860130863208
 41
0.8535533905932736
 10
-528.8623549642527
 20
-538.1291855514276
 30
0.3644860130863208
 41
0.8535533905932736
 10
-503.862354964252
 20
-508.1291855514281
 30
0.3644860130863208
 41
0.8535533905932736
 10
-478.8623549642514
 20
-478.1291855514286
 30
0.3644860130863208
 41
0.8535533905932736
 10
-453.862354964252
 20
-508.1291855514289
 30
0.3644860130863208
 41
0.8535533905932736
 10
-428.8623549642527
 20
-538.1291855514294
 30
0.3644860130863208
 41
0.8535533905932736
 10
-403.862354964252
 20
-508.1291855514299
 30
0.3644860130863208
 41
0.8535533905932736
 10
-378.8623549642513
 20
-478.1291855514302
 30
0.3644860130863208
 41
0.8535533905932736
 10
-353.8623549642521
 20
-508.1291855514308
 30
0.3644860130863208
 41
0.8535533905932736
 10
-328.8623549642527
 20
-538.1291855514312
 30
0.3644860130863208
 41
0.8535533905932736
 10
-303.862354964252
 20
-508.1291855514316
 30
0.3644860130863208
 41
0.8535533905932736
 10
-278.8623549642514
 20
-478.1291855514321
 30
0.3644860130863208
 41
0.8535533905932736
 10
-253.8623549642521
 20
-508.1291855514324
 30
0.3644860130863208
 41
0.8535533905932736
 10
-228.8623549642527
 20
-538.1291855514329
 30
0.3644860130863208
 41
0.8535533905932736
 10
-203.862354964252
 20
-508.1291855514335
 30
0.3644860130863208
 41
0.8535533905932736
 10
-178.8623549642513
 20
-478.1291855514338
 30
0.3644860130863208
 41
0.8535533905932736
 10
-153.862354964252
 20
-508.1291855514342
 30
0.3644860130863208
 41
0.8535533905932736
 10
-128.8623549642527
 20
-538.1291855514347
 30
0.3644860130863208
 41
0.8535533905932736
 10
-103.8623549642522
 20
-508.1291855514352
 30
0.3644860130863208
 41
0.8535533905932736
 10
-78.8623549642518
 20
-478.1291855514357
 30
0.3644860130863208
 41
0.8535533905932736
 10
-53.86235496425223
 20
-508.1291855514361
 30
0.3644860130863208
 41
0.8535533905932736
 10
-28.8623549642527
 20
-538.1291855514364
 30
0.3644860130863208
 41
0.8535533905932736
 10
-3.862354964252233
 20
-508.1291855514369
 30
0.3644860130863208
 41
0.8535533905932736
 10
21.13764503574822
 20
-478.1291855514374
 30
0.3644860130863208
 41
0.8535533905932736
 10
46.13764503574777
 20
-508.1291855514378
 30
0.3644860130863208
 41
0.8535533905932736
 10
71.13764503574731
 20
-538.1291855514382
 30
0.3644860130863208
 41
0.8535533905932736
 10
71.13764503574743
 20
-489.9200191362665
 30
0.3644860130863208
 41
0.8535533905932736
 10
71.13764503574752
 20
-441.7108527210949
 30
0.3644860130863208
 41
0.8535533905932736
 10
69.6387669460265
 20
-441.7108527210949
 30
0.3644860130863208
 41
0.8535533905932736
 10
68.57890008461246
 20
-440.6509858596809
 30
0.3644860130863208
 41
0.9999999999999999
 10
66.0201551334769
 20
-438.0922409085454
 30
0.3644860130863208
 41
0.7071067811865475
 10
68.57890008461243
 20
-435.53349595741
 30
0.3644860130863208
 41
0.9999999999999999
 10
71.13764503574795
 20
-432.9747510062743
 30
0.3644860130863208
 41
0.7071067811865475
 10
73.69638998688347
 20
-435.5334959574099
 30
0.3644860130863208
 41
0.9999999999999999
 10
74.75625684829751
 20
-436.5933628188238
 30
0.3644860130863208
 41
0.8535533905932736
 10
74.75625684829751
 20
-438.0922409085454
 30
0.3644860130863208
 41
0.8535533905932736
 10
83.44626622509267
 20
-438.0922409085437
 30
0.3644860130863208
 41
0.8535533905932736
 10
92.13627560188786
 20
-438.0922409085427
 30
0.3644860130863208
 41
0.8535533905932736
 10
92.1362756018767
 20
-338.0922409085426
 30
0.3644860130863208
 41
0.8535533905932736
 10
92.13627560186559
 20
-238.0922409085426
 30
0.3644860130863208
 41
0.8535533905932736
 10
83.44626622508153
 20
-238.0922409085438
 30
0.3644860130863208
 41
0.8535533905932736
 10
74.75625684829748
 20
-238.0922409085449
 30
0.3644860130863208
 41
0.8535533905932736
 10
74.7562568482976
 20
-239.5911189982668
 30
0.3644860130863208
 41
0.853553390593264
 10
73.6963899868835
 20
-240.6509858596808
 30
0.3644860130863208
 41
0.9999999999999999
 10
71.13764503574798
 20
-243.2097308108164
 30
0.3644860130863208
 41
0.7071067811865475
 10
68.57890008461246
 20
-240.6509858596809
 30
0.3644860130863208
 41
0.9999999999999999
 10
66.0201551334769
 20
-238.0922409085453
 30
0.3644860130863208
 41
0.7071067811865475
 10
68.57890008461243
 20
-235.5334959574098
 30
0.3644860130863208
 41
0.9999999999999999
 10
69.63876694602645
 20
-234.4736290959958
 30
0.3644860130863208
 41
0.8535533905932728
 10
71.13764503574797
 20
-234.4736290959958
 30
0.3644860130863208
 41
0.8535533905932736
 10
71.13764503574811
 20
-186.3014073237118
 30
0.3644860130863208
 41
0.8535533905932736
 10
71.13764503574822
 20
-138.1291855514276
 30
0.3644860130863208
 41
0.8535533905932736
 10
46.13764503574822
 20
-168.1291855514276
 30
0.3644860130863208
 41
0.8535533905932736
 10
21.13764503574822
 20
-198.1291855514276
 30
0.3644860130863208
 41
0.8535533905932736
 10
-3.862354964251779
 20
-168.1291855514276
 30
0.3644860130863208
 41
0.8535533905932736
 10
-28.86235496425178
 20
-138.1291855514276
 30
0.3644860130863208
 41
0.8535533905932736
 10
-53.86235496425179
 20
-168.1291855514276
 30
0.3644860130863208
 41
0.8535533905932736
 10
-78.8623549642518
 20
-198.1291855514276
 30
0.3644860130863208
 41
0.8535533905932736
 10
-103.862354964252
 20
-168.1291855514276
 30
0.3644860130863208
 41
0.8535533905932736
 10
-128.8623549642522
 20
-138.1291855514276
 30
0.3644860130863208
 41
0.8535533905932736
 10
-153.8623549642522
 20
-168.1291855514276
 30
0.3644860130863208
 41
0.8535533905932736
 10
-178.8623549642522
 20
-198.1291855514276
 30
0.3644860130863208
 41
0.8535533905932736
 10
-203.8623549642523
 20
-168.1291855514276
 30
0.3644860130863208
 41
0.8535533905932736
 10
-228.8623549642522
 20
-138.1291855514276
 30
0.3644860130863208
 41
0.8535533905932736
 10
-253.8623549642522
 20
-168.1291855514276
 30
0.3644860130863208
 41
0.8535533905932736
 10
-278.8623549642522
 20
-198.1291855514276
 30
0.3644860130863208
 41
0.8535533905932736
 10
-303.8623549642522
 20
-168.1291855514276
 30
0.3644860130863208
 41
0.8535533905932736
 10
-328.8623549642521
 20
-138.1291855514276
 30
0.3644860130863208
 41
0.8535533905932736
 10
-353.8623549642522
 20
-168.1291855514276
 30
0.3644860130863208
 41
0.8535533905932736
 10
-378.8623549642523
 20
-198.1291855514276
 30
0.3644860130863208
 41
0.8535533905932736
 10
-403.8623549642521
 20
-168.1291855514276
 30
0.3644860130863208
 41
0.8535533905932736
 10
-428.8623549642522
 20
-138.1291855514276
 30
0.3644860130863208
 41
0.8535533905932736
 10
-453.8623549642523
 20
-168.1291855514276
 30
0.3644860130863208
 41
0.8535533905932736
 10
-478.8623549642522
 20
-198.1291855514276
 30
0.3644860130863208
 41
0.8535533905932736
 10
-503.8623549642523
 20
-168.1291855514276
 30
0.3644860130863208
 41
0.8535533905932736
 10
-528.8623549642523
 20
-138.1291855514276
 30
0.3644860130863208
 41
0.8535533905932736
 10
-553.8623549642523
 20
-168.1291855514276
 30
0.3644860130863208
 41
0.8535533905932736
 10
-578.8623549642523
 20
-198.1291855514276
 30
0.3644860130863208
 41
0.8535533905932736
 10
-603.8623549642523
 20
-168.1291855514276
 30
0.3644860130863208
 41
0.8535533905932736
 10
-628.8623549642525
 20
-138.1291855514276
 30
0.3644860130863208
 41
0.8535533905932736
 10
-653.8623549642524
 20
-168.1291855514276
 30
0.3644860130863208
 41
0.8535533905932736
 10
-678.8623549642523
 20
-198.1291855514276
 30
0.3644860130863208
 41
0.8535533905932736
 10
-703.8623549642523
 20
-168.1291855514276
 30
0.3644860130863208
 41
0.8535533905932736
 10
-728.8623549642523
 20
-138.1291855514276
 30
0.3644860130863208
 41
0.8535533905932736
 10
-753.8623549642523
 20
-168.1291855514276
 30
0.3644860130863208
 41
0.8535533905932736
 10
-778.8623549642525
 20
-198.1291855514276
 30
0.3644860130863208
 41
0.8535533905932736
 10
-803.8623549642524
 20
-168.1291855514276
 30
0.3644860130863208
 41
0.8535533905932736
 10
-828.8623549642523
 20
-138.1291855514276
 30
0.3644860130863208
 41
0.8535533905932736
 10
-853.8623549642523
 20
-168.1291855514276
 30
0.3644860130863208
 41
0.8535533905932736
 10
-878.8623549642523
 20
-198.1291855514276
 30
0.3644860130863208
 41
0.8535533905932736
 10
-903.8623549642523
 20
-168.1291855514276
 30
0.3644860130863208
 41
0.8535533905932736
 10
-928.8623549642524
 20
-138.1291855514276
 30
0.3644860130863208
 41
0.8535533905932736
 10
-953.8623549642523
 20
-168.1291855514276
 30
0.3644860130863208
 41
0.8535533905932736
 10
-978.8623549642522
 20
-198.1291855514276
 30
0.3644860130863208
 41
0.8535533905932736
 10
-1003.862354964252
 20
-168.1291855514276
 30
0.3644860130863208
 41
0.8535533905932736
 10
-1028.862354964252
 20
-138.1291855514276
 30
0.3644860130863208
 41
0.8535533905932736
 10
-1053.862354964252
 20
-168.1291855514276
 30
0.3644860130863208
 41
0.8535533905932736
 10
-1078.862354964252
 20
-198.1291855514276
 30
0.3644860130863208
 41
0.8535533905932736
 10
-1103.862354964252
 20
-168.1291855514276
 30
0.3644860130863208
 41
0.8535533905932736
 10
-1128.862354964252
 20
-138.1291855514276
 30
0.3644860130863208
 41
0.8535533905932736
 10
-1128.862354964252
 20
-186.3014073237118
 30
0.3644860130863208
 41
0.8535533905932736
 10
-1128.862354964252
 20
-234.473629095996
 30
0.3644860130863208
 41
0.8535533905932736
 10
-1127.363476874531
 20
-234.4736290959957
 30
0.3644860130863207
 41
0.8535533905932625
 10
-1126.303610013117
 20
-235.5334959574098
 30
0.3644860130863208
 41
0.9999999999999999
 10
-1123.744865061981
 20
-238.0922409085453
 30
0.3644860130863208
 41
0.7071067811865475
 10
-1126.303610013116
 20
-240.6509858596808
 30
0.3644860130863208
 41
0.9999999999999999
  0
POLYLINE
  5
71
330
1F
100
AcDbEntity
  8
Default
100
AcDb2dPolyline
 66
     1
 10
0.0
 20
0.0
 30
0.3644860130863208
  0
VERTEX
  5
72
330
71
100
AcDbEntity
  8
Default
100
AcDbVertex
100
AcDb2dVertex
 10
171.1466604690752
 20
-487.5631627513897
 30
0.3644860130863208
  0
VERTEX
  5
73
330
71
100
AcDbEntity
  8
Default
100
AcDbVertex
100
AcDb2dVertex
 10
171.1466604690752
 20
-487.5671867490558
 30
0.3644860130863208
  0
VERTEX
  5
74
330
71
100
AcDbEntity
  8
Default
100
AcDbVertex
100
AcDb2dVertex
 10
171.1506844667414
 20
-487.5671867490558
 30
0.3644860130863208
  0
SEQEND
  5
75
330
71
100
AcDbEntity
  8
Default
  0
SPLINE
  5
77
330
1F
100
AcDbEntity
  8
INSIEDE
100
AcDbSpline
210
0.0
220
0.0
230
1.0
 70
    15
 71
     2
 72
    44
 73
    41
 74
     0
 42
0.000000001
 43
0.0000000001
 40
453.3356382355915
 40
453.3356382355915
 40
453.3356382355915
 40
456.9230842427962
 40
456.9230842427962
 40
462.5779510192938
 40
462.5779510192938
 40
468.2328177957915
 40
468.2328177957915
 40
471.8407248689404
 40
471.8407248689404
 40
475.6359372958082
 40
475.6359372958082
 40
479.2438443689579
 40
479.2438443689579
 40
484.8987111454555
 40
484.8987111454555
 40
490.5535779219532
 40
490.5535779219532
 40
494.1501970739872
 40
494.1501970739872
 40
683.9765984338045
 40
683.9765984338045
 40
687.5732175858685
 40
687.5732175858685
 40
693.2280843623302
 40
693.2280843623302
 40
698.8829511387918
 40
698.8829511387918
 40
702.4806411946533
 40
702.4806411946533
 40
706.2903026659359
 40
706.2903026659359
 40
709.8879927217982
 40
709.8879927217982
 40
715.5428594982959
 40
715.5428594982959
 40
721.1977262747936
 40
721.1977262747936
 40
724.7851722819682
 40
724.7851722819682
 40
914.6245464276551
 40
914.6245464276551
 40
914.6245464276551
 10
515.1466604690535
 20
-292.6438874151186
 30
0.3644860130863208
 41
1.0
 10
516.4150141684711
 20
-291.375533715701
 30
0.3644860130863208
 41
1.0
 10
517.6833678678886
 20
-290.1071800162834
 30
0.3644860130863208
 41
1.0
 10
520.228952280211
 20
-287.5615956040119
 30
0.3644860130863207
 41
0.7071067811830107
 10
517.683367867914
 20
-285.0160111917148
 30
0.3644860130863208
 41
1.0
 10
515.1377834556168
 20
-282.4704267794178
 30
0.3644860130863207
 41
0.7071067811830107
 10
512.5921990433453
 20
-285.0160111917403
 30
0.3644860130863208
 41
1.0
 10
511.316611264688
 20
-286.2915989703976
 30
0.3644860130863208
 41
1.0
 10
510.0410234860308
 20
-287.5671867490548
 30
0.3644860130863208
 41
1.0
 10
508.1434172725969
 20
-287.5671867490551
 30
0.3644860130863208
 41
1.0
 10
506.245811059163
 20
-287.5671867490553
 30
0.3644860130863208
 41
1.0
 10
504.9702232805055
 20
-286.2915989703978
 30
0.3644860130863208
 41
1.0
 10
503.6946355018479
 20
-285.0160111917403
 30
0.3644860130863208
 41
1.0
 10
501.1490510895762
 20
-282.4704267794178
 30
0.3644860130863208
 41
0.7071067811830091
 10
498.6034666772793
 20
-285.0160111917148
 30
0.3644860130863208
 41
1.0
 10
496.0578822649823
 20
-287.5615956040119
 30
0.3644860130863208
 41
0.7071067811830091
 10
498.6034666773048
 20
-290.1071800162835
 30
0.3644860130863208
 41
1.0
 10
499.8750635731792
 20
-291.3787769121578
 30
0.3644860130863208
 41
1.0
 10
501.1466604690535
 20
-292.6503738080321
 30
0.3644860130863208
 41
1.0
 10
501.1466604690641
 20
-387.5635744879407
 30
0.3644860130863208
 41
1.0
 10
501.1466604690747
 20
-482.4767751678494
 30
0.3644860130863208
 41
1.0
 10
499.875063573177
 20
-483.7483720637471
 30
0.3644860130863208
 41
1.0
 10
498.6034666772793
 20
-485.0199689596448
 30
0.3644860130863208
 41
1.0
 10
496.0578822650079
 20
-487.5655533719165
 30
0.3644860130863208
 41
0.7071067811865477
 10
498.6034666772794
 20
-490.111137784188
 30
0.3644860130863208
 41
1.0
 10
501.1490510895511
 20
-492.6567221964594
 30
0.3644860130863208
 41
0.7071067811865477
 10
503.6946355018225
 20
-490.1111377841879
 30
0.3644860130863208
 41
1.0
 10
504.9666110193888
 20
-488.8391622666216
 30
0.3644860130863208
 41
1.0
 10
506.2385865369551
 20
-487.5671867490553
 30
0.3644860130863208
 41
1.0
 10
508.1434172725964
 20
-487.5671867490551
 30
0.3644860130863208
 41
1.0
 10
510.0482480082376
 20
-487.5671867490548
 30
0.3644860130863208
 41
1.0
 10
511.3202235257914
 20
-488.8391622666086
 30
0.3644860130863208
 41
1.0
 10
512.5921990433453
 20
-490.1111377841625
 30
0.3644860130863208
 41
1.0
 10
515.1377834556168
 20
-492.6567221964851
 30
0.3644860130863208
 41
0.7071067811830097
 10
517.6833678679141
 20
-490.111137784188
 30
0.3644860130863208
 41
1.0
 10
520.228952280211
 20
-487.565553371891
 30
0.3644860130863208
 41
0.7071067811830097
 10
517.6833678678885
 20
-485.0199689596193
 30
0.3644860130863208
 41
1.0
 10
516.4150141684815
 20
-483.7516152602124
 30
0.3644860130863208
 41
1.0
 10
515.1466604690747
 20
-482.4832615608055
 30
0.3644860130863208
 41
1.0
 10
515.146660469064
 20
-387.563574487962
 30
0.3644860130863208
 41
1.0
 10
515.1466604690535
 20
-292.6438874151186
 30
0.3644860130863208
 41
1.0
  0
SPLINE
  5
78
330
1F
100
AcDbEntity
  8
INSIEDE
100
AcDbSpline
210
0.0
220
0.0
230
1.0
 70
    15
 71
     2
 72
    44
 73
    41
 74
     0
 42
0.000000001
 43
0.0000000001
 40
453.3356382355915
 40
453.3356382355915
 40
453.3356382355915
 40
456.9230842427962
 40
456.9230842427962
 40
462.5779510192938
 40
462.5779510192938
 40
468.2328177957915
 40
468.2328177957915
 40
471.8407248689404
 40
471.8407248689404
 40
475.6359372958082
 40
475.6359372958082
 40
479.2438443689579
 40
479.2438443689579
 40
484.8987111454555
 40
484.8987111454555
 40
490.5535779219532
 40
490.5535779219532
 40
494.1501970739872
 40
494.1501970739872
 40
683.9765984338045
 40
683.9765984338045
 40
687.5732175858685
 40
687.5732175858685
 40
693.2280843623302
 40
693.2280843623302
 40
698.8829511387918
 40
698.8829511387918
 40
702.4806411946533
 40
702.4806411946533
 40
706.2903026659359
 40
706.2903026659359
 40
709.8879927217982
 40
709.8879927217982
 40
715.5428594982959
 40
715.5428594982959
 40
721.1977262747936
 40
721.1977262747936
 40
724.7851722819682
 40
724.7851722819682
 40
914.6245464276551
 40
914.6245464276551
 40
914.6245464276551
 10
515.1466604690535
 20
-817.6438874151186
 30
0.3644860130863208
 41
1.0
 10
516.4150141684711
 20
-816.375533715701
 30
0.3644860130863208
 41
1.0
 10
517.6833678678886
 20
-815.1071800162833
 30
0.3644860130863208
 41
1.0
 10
520.228952280211
 20
-812.5615956040118
 30
0.3644860130863207
 41
0.7071067811830107
 10
517.683367867914
 20
-810.0160111917149
 30
0.3644860130863208
 41
1.0
 10
515.1377834556168
 20
-807.4704267794177
 30
0.3644860130863207
 41
0.7071067811830107
 10
512.5921990433453
 20
-810.0160111917404
 30
0.3644860130863208
 41
1.0
 10
511.316611264688
 20
-811.2915989703976
 30
0.3644860130863208
 41
1.0
 10
510.0410234860308
 20
-812.5671867490548
 30
0.3644860130863208
 41
1.0
 10
508.1434172725969
 20
-812.567186749055
 30
0.3644860130863208
 41
1.0
 10
506.245811059163
 20
-812.5671867490553
 30
0.3644860130863208
 41
1.0
 10
504.9702232805055
 20
-811.2915989703978
 30
0.3644860130863208
 41
1.0
 10
503.6946355018479
 20
-810.0160111917403
 30
0.3644860130863208
 41
1.0
 10
501.1490510895762
 20
-807.4704267794177
 30
0.3644860130863208
 41
0.7071067811830091
 10
498.6034666772793
 20
-810.0160111917149
 30
0.3644860130863208
 41
1.0
 10
496.0578822649823
 20
-812.5615956040119
 30
0.3644860130863208
 41
0.7071067811830091
 10
498.6034666773048
 20
-815.1071800162836
 30
0.3644860130863208
 41
1.0
 10
499.8750635731792
 20
-816.3787769121577
 30
0.3644860130863208
 41
1.0
 10
501.1466604690535
 20
-817.6503738080321
 30
0.3644860130863208
 41
1.0
 10
501.1466604690641
 20
-912.5635744879407
 30
0.3644860130863208
 41
1.0
 10
501.1466604690747
 20
-1007.476775167849
 30
0.3644860130863208
 41
1.0
 10
499.875063573177
 20
-1008.748372063747
 30
0.3644860130863208
 41
1.0
 10
498.6034666772793
 20
-1010.019968959645
 30
0.3644860130863208
 41
1.0
 10
496.0578822650079
 20
-1012.565553371917
 30
0.3644860130863208
 41
0.7071067811865477
 10
498.6034666772794
 20
-1015.111137784188
 30
0.3644860130863208
 41
1.0
 10
501.1490510895511
 20
-1017.65672219646
 30
0.3644860130863208
 41
0.7071067811865477
 10
503.6946355018225
 20
-1015.111137784188
 30
0.3644860130863208
 41
1.0
 10
504.9666110193888
 20
-1013.839162266622
 30
0.3644860130863208
 41
1.0
 10
506.2385865369551
 20
-1012.567186749055
 30
0.3644860130863208
 41
1.0
 10
508.1434172725964
 20
-1012.567186749055
 30
0.3644860130863208
 41
1.0
 10
510.0482480082376
 20
-1012.567186749055
 30
0.3644860130863208
 41
1.0
 10
511.3202235257914
 20
-1013.839162266609
 30
0.3644860130863208
 41
1.0
 10
512.5921990433453
 20
-1015.111137784162
 30
0.3644860130863208
 41
1.0
 10
515.1377834556168
 20
-1017.656722196485
 30
0.3644860130863208
 41
0.7071067811830097
 10
517.6833678679141
 20
-1015.111137784188
 30
0.3644860130863208
 41
1.0
 10
520.228952280211
 20
-1012.565553371891
 30
0.3644860130863208
 41
0.7071067811830097
 10
517.6833678678885
 20
-1010.019968959619
 30
0.3644860130863208
 41
1.0
 10
516.4150141684815
 20
-1008.751615260212
 30
0.3644860130863208
 41
1.0
 10
515.1466604690747
 20
-1007.483261560806
 30
0.3644860130863208
 41
1.0
 10
515.146660469064
 20
-912.563574487962
 30
0.3644860130863208
 41
1.0
 10
515.1466604690535
 20
-817.6438874151186
 30
0.3644860130863208
 41
1.0
  0
SPLINE
  5
79
330
1F
100
AcDbEntity
  8
cutoutline
100
AcDbSpline
210
0.0
220
0.0
230
1.0
 70
    15
 71
     2
 72
    14
 73
    11
 74
     0
 42
0.000000001
 43
0.0000000001
 40
785.3981633974473
 40
785.3981633974473
 40
785.3981633974473
 40
1035.398163398007
 40
1035.398163398007
 40
1535.398163398008
 40
1535.398163398008
 40
1785.398163398568
 40
1785.398163398568
 40
2178.097245097005
 40
2178.097245097005
 40
2570.796326795443
 40
2570.796326795443
 40
2570.796326795443
 10
379.2116926651818
 20
-662.6041313919669
 30
0.3644860130863208
 41
1.0
 10
254.2116926649012
 20
-662.6041313919585
 30
0.3644860130863208
 41
1.0
 10
129.2116926646207
 20
-662.6041313919501
 30
0.3644860130863208
 41
1.0
 10
129.2116926646041
 20
-912.6041313919502
 30
0.3644860130863208
 41
1.0
 10
129.2116926645875
 20
-1162.60413139195
 30
0.3644860130863208
 41
1.0
 10
254.2116926645813
 20
-1162.604131391959
 30
0.3644860130863208
 41
1.0
 10
379.2116926645752
 20
-1162.604131391967
 30
0.3644860130863208
 41
1.0
 10
629.2116926642859
 20
-1162.604131391981
 30
0.3644860130863208
 41
0.7071067811869565
 10
629.2116926645892
 20
-912.6041313922701
 30
0.3644860130863208
 41
1.0
 10
629.2116926648928
 20
-662.6041313925596
 30
0.3644860130863208
 41
0.7071067811869565
 10
379.2116926651819
 20
-662.6041313919668
 30
0.3644860130863208
 41
1.0
  0
SPLINE
  5
7A
330
1F
100
AcDbEntity
  8
INSIEDE
100
AcDbSpline
210
0.0
220
0.0
230
1.0
 70
    15
 71
     2
 72
    44
 73
    41
 74
     0
 42
0.000000001
 43
0.0000000001
 40
453.3356382355915
 40
453.3356382355915
 40
453.3356382355915
 40
456.9230842427962
 40
456.9230842427962
 40
462.5779510192938
 40
462.5779510192938
 40
468.2328177957915
 40
468.2328177957915
 40
471.8407248689404
 40
471.8407248689404
 40
475.6359372958082
 40
475.6359372958082
 40
479.2438443689579
 40
479.2438443689579
 40
484.8987111454555
 40
484.8987111454555
 40
490.5535779219532
 40
490.5535779219532
 40
494.1501970739872
 40
494.1501970739872
 40
683.9765984338045
 40
683.9765984338045
 40
687.5732175858685
 40
687.5732175858685
 40
693.2280843623302
 40
693.2280843623302
 40
698.8829511387918
 40
698.8829511387918
 40
702.4806411946533
 40
702.4806411946533
 40
706.2903026659359
 40
706.2903026659359
 40
709.8879927217982
 40
709.8879927217982
 40
715.5428594982959
 40
715.5428594982959
 40
721.1977262747936
 40
721.1977262747936
 40
724.7851722819682
 40
724.7851722819682
 40
914.6245464276551
 40
914.6245464276551
 40
914.6245464276551
 10
185.1466604690535
 20
-292.6438874151186
 30
0.3644860130863208
 41
1.0
 10
186.415014168471
 20
-291.375533715701
 30
0.3644860130863208
 41
1.0
 10
187.6833678678885
 20
-290.1071800162834
 30
0.3644860130863208
 41
1.0
 10
190.228952280211
 20
-287.5615956040119
 30
0.3644860130863207
 41
0.7071067811830107
 10
187.6833678679139
 20
-285.0160111917148
 30
0.3644860130863208
 41
1.0
 10
185.1377834556168
 20
-282.4704267794178
 30
0.3644860130863207
 41
0.7071067811830107
 10
182.5921990433453
 20
-285.0160111917403
 30
0.3644860130863208
 41
1.0
 10
181.3166112646881
 20
-286.2915989703976
 30
0.3644860130863208
 41
1.0
 10
180.0410234860309
 20
-287.5671867490548
 30
0.3644860130863208
 41
1.0
 10
178.1434172725969
 20
-287.5671867490551
 30
0.3644860130863208
 41
1.0
 10
176.245811059163
 20
-287.5671867490553
 30
0.3644860130863208
 41
1.0
 10
174.9702232805055
 20
-286.2915989703978
 30
0.3644860130863208
 41
1.0
 10
173.6946355018479
 20
-285.0160111917403
 30
0.3644860130863208
 41
1.0
 10
171.1490510895763
 20
-282.4704267794178
 30
0.3644860130863208
 41
0.7071067811830091
 10
168.6034666772793
 20
-285.0160111917148
 30
0.3644860130863208
 41
1.0
 10
166.0578822649823
 20
-287.5615956040119
 30
0.3644860130863208
 41
0.7071067811830091
 10
168.6034666773049
 20
-290.1071800162835
 30
0.3644860130863208
 41
1.0
 10
169.8750635731791
 20
-291.3787769121578
 30
0.3644860130863208
 41
1.0
 10
171.1466604690535
 20
-292.6503738080321
 30
0.3644860130863208
 41
1.0
 10
171.1466604690641
 20
-387.5635744879407
 30
0.3644860130863208
 41
1.0
 10
171.1466604690746
 20
-482.4767751678494
 30
0.3644860130863208
 41
1.0
 10
169.875063573177
 20
-483.7483720637471
 30
0.3644860130863208
 41
1.0
 10
168.6034666772793
 20
-485.0199689596448
 30
0.3644860130863208
 41
1.0
 10
166.0578822650078
 20
-487.5655533719165
 30
0.3644860130863208
 41
0.7071067811865477
 10
168.6034666772794
 20
-490.111137784188
 30
0.3644860130863208
 41
1.0
 10
171.149051089551
 20
-492.6567221964594
 30
0.3644860130863208
 41
0.7071067811865477
 10
173.6946355018225
 20
-490.1111377841879
 30
0.3644860130863208
 41
1.0
 10
174.9666110193888
 20
-488.8391622666216
 30
0.3644860130863208
 41
1.0
 10
176.2385865369551
 20
-487.5671867490553
 30
0.3644860130863208
 41
1.0
 10
178.1434172725964
 20
-487.5671867490551
 30
0.3644860130863208
 41
1.0
 10
180.0482480082376
 20
-487.5671867490548
 30
0.3644860130863208
 41
1.0
 10
181.3202235257915
 20
-488.8391622666086
 30
0.3644860130863208
 41
1.0
 10
182.5921990433453
 20
-490.1111377841625
 30
0.3644860130863208
 41
1.0
 10
185.137783455617
 20
-492.6567221964851
 30
0.3644860130863208
 41
0.7071067811830097
 10
187.6833678679139
 20
-490.111137784188
 30
0.3644860130863208
 41
1.0
 10
190.2289522802109
 20
-487.565553371891
 30
0.3644860130863208
 41
0.7071067811830097
 10
187.6833678678884
 20
-485.0199689596193
 30
0.3644860130863208
 41
1.0
 10
186.4150141684815
 20
-483.7516152602124
 30
0.3644860130863208
 41
1.0
 10
185.1466604690746
 20
-482.4832615608055
 30
0.3644860130863208
 41
1.0
 10
185.146660469064
 20
-387.563574487962
 30
0.3644860130863208
 41
1.0
 10
185.1466604690535
 20
-292.6438874151186
 30
0.3644860130863208
 41
1.0
  0
POLYLINE
  5
7B
330
1F
100
AcDbEntity
  8
cutoutline
100
AcDb2dPolyline
 66
     1
 10
0.0
 20
0.0
 30
0.3644860130863208
  0
VERTEX
  5
7C
330
7B
100
AcDbEntity
  8
cutoutline
100
AcDbVertex
100
AcDb2dVertex
 10
185.1361500784535
 20
-487.5671867490543
 30
0.3644860130863208
  0
VERTEX
  5
7D
330
7B
100
AcDbEntity
  8
cutoutline
100
AcDbVertex
100
AcDb2dVertex
 10
185.1466604690752
 20
-487.5671867490543
 30
0.3644860130863208
  0
VERTEX
  5
7E
330
7B
100
AcDbEntity
  8
cutoutline
100
AcDbVertex
100
AcDb2dVertex
 10
185.1466604690752
 20
-487.5566763584326
 30
0.3644860130863208
  0
SEQEND
  5
7F
330
7B
100
AcDbEntity
  8
cutoutline
  0
SPLINE
  5
80
330
1F
100
AcDbEntity
  8
INSIEDE
100
AcDbSpline
210
0.0
220
0.0
230
1.0
 70
    15
 71
     2
 72
    44
 73
    41
 74
     0
 42
0.000000001
 43
0.0000000001
 40
453.3356382355915
 40
453.3356382355915
 40
453.3356382355915
 40
456.9230842427962
 40
456.9230842427962
 40
462.5779510192938
 40
462.5779510192938
 40
468.2328177957915
 40
468.2328177957915
 40
471.8407248689404
 40
471.8407248689404
 40
475.6359372958082
 40
475.6359372958082
 40
479.2438443689579
 40
479.2438443689579
 40
484.8987111454555
 40
484.8987111454555
 40
490.5535779219532
 40
490.5535779219532
 40
494.1501970739872
 40
494.1501970739872
 40
683.9765984338045
 40
683.9765984338045
 40
687.5732175858685
 40
687.5732175858685
 40
693.2280843623302
 40
693.2280843623302
 40
698.8829511387918
 40
698.8829511387918
 40
702.4806411946533
 40
702.4806411946533
 40
706.2903026659359
 40
706.2903026659359
 40
709.8879927217982
 40
709.8879927217982
 40
715.5428594982959
 40
715.5428594982959
 40
721.1977262747936
 40
721.1977262747936
 40
724.7851722819682
 40
724.7851722819682
 40
914.6245464276551
 40
914.6245464276551
 40
914.6245464276551
 10
185.1466604690535
 20
-817.6438874151186
 30
0.3644860130863208
 41
1.0
 10
186.415014168471
 20
-816.375533715701
 30
0.3644860130863208
 41
1.0
 10
187.6833678678885
 20
-815.1071800162833
 30
0.3644860130863208
 41
1.0
 10
190.228952280211
 20
-812.5615956040118
 30
0.3644860130863207
 41
0.7071067811830107
 10
187.6833678679139
 20
-810.0160111917149
 30
0.3644860130863208
 41
1.0
 10
185.1377834556168
 20
-807.4704267794177
 30
0.3644860130863207
 41
0.7071067811830107
 10
182.5921990433453
 20
-810.0160111917404
 30
0.3644860130863208
 41
1.0
 10
181.3166112646881
 20
-811.2915989703976
 30
0.3644860130863208
 41
1.0
 10
180.0410234860309
 20
-812.5671867490548
 30
0.3644860130863208
 41
1.0
 10
178.1434172725969
 20
-812.567186749055
 30
0.3644860130863208
 41
1.0
 10
176.245811059163
 20
-812.5671867490553
 30
0.3644860130863208
 41
1.0
 10
174.9702232805055
 20
-811.2915989703978
 30
0.3644860130863208
 41
1.0
 10
173.6946355018479
 20
-810.0160111917403
 30
0.3644860130863208
 41
1.0
 10
171.1490510895763
 20
-807.4704267794177
 30
0.3644860130863208
 41
0.7071067811830091
 10
168.6034666772793
 20
-810.0160111917149
 30
0.3644860130863208
 41
1.0
 10
166.0578822649823
 20
-812.5615956040119
 30
0.3644860130863208
 41
0.7071067811830091
 10
168.6034666773049
 20
-815.1071800162836
 30
0.3644860130863208
 41
1.0
 10
169.8750635731791
 20
-816.3787769121577
 30
0.3644860130863208
 41
1.0
 10
171.1466604690535
 20
-817.6503738080321
 30
0.3644860130863208
 41
1.0
 10
171.1466604690641
 20
-912.5635744879407
 30
0.3644860130863208
 41
1.0
 10
171.1466604690746
 20
-1007.476775167849
 30
0.3644860130863208
 41
1.0
 10
169.875063573177
 20
-1008.748372063747
 30
0.3644860130863208
 41
1.0
 10
168.6034666772793
 20
-1010.019968959645
 30
0.3644860130863208
 41
1.0
 10
166.0578822650078
 20
-1012.565553371917
 30
0.3644860130863208
 41
0.7071067811865477
 10
168.6034666772794
 20
-1015.111137784188
 30
0.3644860130863208
 41
1.0
 10
171.149051089551
 20
-1017.65672219646
 30
0.3644860130863208
 41
0.7071067811865477
 10
173.6946355018225
 20
-1015.111137784188
 30
0.3644860130863208
 41
1.0
 10
174.9666110193888
 20
-1013.839162266622
 30
0.3644860130863208
 41
1.0
 10
176.2385865369551
 20
-1012.567186749055
 30
0.3644860130863208
 41
1.0
 10
178.1434172725964
 20
-1012.567186749055
 30
0.3644860130863208
 41
1.0
 10
180.0482480082376
 20
-1012.567186749055
 30
0.3644860130863208
 41
1.0
 10
181.3202235257915
 20
-1013.839162266609
 30
0.3644860130863208
 41
1.0
 10
182.5921990433453
 20
-1015.111137784162
 30
0.3644860130863208
 41
1.0
 10
185.137783455617
 20
-1017.656722196485
 30
0.3644860130863208
 41
0.7071067811830097
 10
187.6833678679139
 20
-1015.111137784188
 30
0.3644860130863208
 41
1.0
 10
190.2289522802109
 20
-1012.565553371891
 30
0.3644860130863208
 41
0.7071067811830097
 10
187.6833678678884
 20
-1010.019968959619
 30
0.3644860130863208
 41
1.0
 10
186.4150141684815
 20
-1008.751615260212
 30
0.3644860130863208
 41
1.0
 10
185.1466604690746
 20
-1007.483261560806
 30
0.3644860130863208
 41
1.0
 10
185.146660469064
 20
-912.563574487962
 30
0.3644860130863208
 41
1.0
 10
185.1466604690535
 20
-817.6438874151186
 30
0.3644860130863208
 41
1.0
  0
SPLINE
  5
82
330
1F
100
AcDbEntity
  8
7mm cut
100
AcDbSpline
210
0.0
220
0.0
230
1.0
 70
    15
 71
     2
 72
    44
 73
    41
 74
     0
 42
0.000000001
 43
0.0000000001
 40
453.3356382355915
 40
453.3356382355915
 40
453.3356382355915
 40
456.9230842427962
 40
456.9230842427962
 40
462.5779510192938
 40
462.5779510192938
 40
468.2328177957915
 40
468.2328177957915
 40
471.8407248689404
 40
471.8407248689404
 40
475.6359372958082
 40
475.6359372958082
 40
479.2438443689579
 40
479.2438443689579
 40
484.8987111454555
 40
484.8987111454555
 40
490.5535779219532
 40
490.5535779219532
 40
494.1501970739872
 40
494.1501970739872
 40
683.9765984338045
 40
683.9765984338045
 40
687.5732175858685
 40
687.5732175858685
 40
693.2280843623302
 40
693.2280843623302
 40
698.8829511387918
 40
698.8829511387918
 40
702.4806411946533
 40
702.4806411946533
 40
706.2903026659359
 40
706.2903026659359
 40
709.8879927217982
 40
709.8879927217982
 40
715.5428594982959
 40
715.5428594982959
 40
721.1977262747936
 40
721.1977262747936
 40
724.7851722819682
 40
724.7851722819682
 40
914.6245464276551
 40
914.6245464276551
 40
914.6245464276551
 10
1035.146660469053
 20
-292.6438874151186
 30
0.3644860130863208
 41
1.0
 10
1036.415014168471
 20
-291.375533715701
 30
0.3644860130863208
 41
1.0
 10
1037.683367867889
 20
-290.1071800162834
 30
0.3644860130863208
 41
1.0
 10
1040.228952280211
 20
-287.5615956040119
 30
0.3644860130863207
 41
0.7071067811830107
 10
1037.683367867914
 20
-285.0160111917148
 30
0.3644860130863208
 41
1.0
 10
1035.137783455617
 20
-282.4704267794178
 30
0.3644860130863207
 41
0.7071067811830107
 10
1032.592199043346
 20
-285.0160111917403
 30
0.3644860130863208
 41
1.0
 10
1031.316611264688
 20
-286.2915989703976
 30
0.3644860130863208
 41
1.0
 10
1030.041023486031
 20
-287.5671867490548
 30
0.3644860130863208
 41
1.0
 10
1028.143417272597
 20
-287.5671867490551
 30
0.3644860130863208
 41
1.0
 10
1026.245811059163
 20
-287.5671867490553
 30
0.3644860130863208
 41
1.0
 10
1024.970223280505
 20
-286.2915989703978
 30
0.3644860130863208
 41
1.0
 10
1023.694635501848
 20
-285.0160111917403
 30
0.3644860130863208
 41
1.0
 10
1021.149051089576
 20
-282.4704267794178
 30
0.3644860130863208
 41
0.7071067811830091
 10
1018.603466677279
 20
-285.0160111917148
 30
0.3644860130863208
 41
1.0
 10
1016.057882264982
 20
-287.5615956040119
 30
0.3644860130863208
 41
0.7071067811830091
 10
1018.603466677305
 20
-290.1071800162835
 30
0.3644860130863208
 41
1.0
 10
1019.875063573179
 20
-291.3787769121578
 30
0.3644860130863208
 41
1.0
 10
1021.146660469054
 20
-292.6503738080321
 30
0.3644860130863208
 41
1.0
 10
1021.146660469064
 20
-387.5635744879407
 30
0.3644860130863208
 41
1.0
 10
1021.146660469075
 20
-482.4767751678494
 30
0.3644860130863208
 41
1.0
 10
1019.875063573177
 20
-483.7483720637471
 30
0.3644860130863208
 41
1.0
 10
1018.603466677279
 20
-485.0199689596448
 30
0.3644860130863208
 41
1.0
 10
1016.057882265008
 20
-487.5655533719165
 30
0.3644860130863208
 41
0.7071067811865477
 10
1018.603466677279
 20
-490.111137784188
 30
0.3644860130863208
 41
1.0
 10
1021.149051089551
 20
-492.6567221964594
 30
0.3644860130863208
 41
0.7071067811865477
 10
1023.694635501823
 20
-490.1111377841879
 30
0.3644860130863208
 41
1.0
 10
1024.966611019389
 20
-488.8391622666216
 30
0.3644860130863208
 41
1.0
 10
1026.238586536955
 20
-487.5671867490553
 30
0.3644860130863208
 41
1.0
 10
1028.143417272596
 20
-487.5671867490551
 30
0.3644860130863208
 41
1.0
 10
1030.048248008238
 20
-487.5671867490548
 30
0.3644860130863208
 41
1.0
 10
1031.320223525791
 20
-488.8391622666086
 30
0.3644860130863208
 41
1.0
 10
1032.592199043345
 20
-490.1111377841625
 30
0.3644860130863208
 41
1.0
 10
1035.137783455617
 20
-492.6567221964851
 30
0.3644860130863208
 41
0.7071067811830097
 10
1037.683367867914
 20
-490.111137784188
 30
0.3644860130863208
 41
1.0
 10
1040.228952280211
 20
-487.565553371891
 30
0.3644860130863208
 41
0.7071067811830097
 10
1037.683367867888
 20
-485.0199689596193
 30
0.3644860130863208
 41
1.0
 10
1036.415014168482
 20
-483.7516152602124
 30
0.3644860130863208
 41
1.0
 10
1035.146660469075
 20
-482.4832615608055
 30
0.3644860130863208
 41
1.0
 10
1035.146660469064
 20
-387.563574487962
 30
0.3644860130863208
 41
1.0
 10
1035.146660469053
 20
-292.6438874151186
 30
0.3644860130863208
 41
1.0
  0
SPLINE
  5
83
330
1F
100
AcDbEntity
  8
7mm cut
100
AcDbSpline
210
0.0
220
0.0
230
1.0
 70
    15
 71
     2
 72
    44
 73
    41
 74
     0
 42
0.000000001
 43
0.0000000001
 40
453.3356382355915
 40
453.3356382355915
 40
453.3356382355915
 40
456.9230842427962
 40
456.9230842427962
 40
462.5779510192938
 40
462.5779510192938
 40
468.2328177957915
 40
468.2328177957915
 40
471.8407248689404
 40
471.8407248689404
 40
475.6359372958082
 40
475.6359372958082
 40
479.2438443689579
 40
479.2438443689579
 40
484.8987111454555
 40
484.8987111454555
 40
490.5535779219532
 40
490.5535779219532
 40
494.1501970739872
 40
494.1501970739872
 40
683.9765984338045
 40
683.9765984338045
 40
687.5732175858685
 40
687.5732175858685
 40
693.2280843623302
 40
693.2280843623302
 40
698.8829511387918
 40
698.8829511387918
 40
702.4806411946533
 40
702.4806411946533
 40
706.2903026659359
 40
706.2903026659359
 40
709.8879927217982
 40
709.8879927217982
 40
715.5428594982959
 40
715.5428594982959
 40
721.1977262747936
 40
721.1977262747936
 40
724.7851722819682
 40
724.7851722819682
 40
914.6245464276551
 40
914.6245464276551
 40
914.6245464276551
 10
705.1466604690534
 20
-292.6438874151186
 30
0.3644860130863208
 41
1.0
 10
706.415014168471
 20
-291.375533715701
 30
0.3644860130863208
 41
1.0
 10
707.6833678678886
 20
-290.1071800162834
 30
0.3644860130863208
 41
1.0
 10
710.228952280211
 20
-287.5615956040119
 30
0.3644860130863207
 41
0.7071067811830107
 10
707.683367867914
 20
-285.0160111917148
 30
0.3644860130863208
 41
1.0
 10
705.1377834556168
 20
-282.4704267794178
 30
0.3644860130863207
 41
0.7071067811830107
 10
702.5921990433453
 20
-285.0160111917403
 30
0.3644860130863208
 41
1.0
 10
701.316611264688
 20
-286.2915989703976
 30
0.3644860130863208
 41
1.0
 10
700.0410234860308
 20
-287.5671867490548
 30
0.3644860130863208
 41
1.0
 10
698.1434172725969
 20
-287.5671867490551
 30
0.3644860130863208
 41
1.0
 10
696.2458110591631
 20
-287.5671867490553
 30
0.3644860130863208
 41
1.0
 10
694.9702232805055
 20
-286.2915989703978
 30
0.3644860130863208
 41
1.0
 10
693.6946355018479
 20
-285.0160111917403
 30
0.3644860130863208
 41
1.0
 10
691.1490510895765
 20
-282.4704267794178
 30
0.3644860130863208
 41
0.7071067811830091
 10
688.6034666772795
 20
-285.0160111917148
 30
0.3644860130863208
 41
1.0
 10
686.0578822649824
 20
-287.5615956040119
 30
0.3644860130863208
 41
0.7071067811830091
 10
688.6034666773049
 20
-290.1071800162835
 30
0.3644860130863208
 41
1.0
 10
689.8750635731792
 20
-291.3787769121578
 30
0.3644860130863208
 41
1.0
 10
691.1466604690536
 20
-292.6503738080321
 30
0.3644860130863208
 41
1.0
 10
691.1466604690642
 20
-387.5635744879407
 30
0.3644860130863208
 41
1.0
 10
691.1466604690747
 20
-482.4767751678494
 30
0.3644860130863208
 41
1.0
 10
689.875063573177
 20
-483.7483720637471
 30
0.3644860130863208
 41
1.0
 10
688.6034666772794
 20
-485.0199689596448
 30
0.3644860130863208
 41
1.0
 10
686.0578822650078
 20
-487.5655533719165
 30
0.3644860130863208
 41
0.7071067811865477
 10
688.6034666772795
 20
-490.111137784188
 30
0.3644860130863208
 41
1.0
 10
691.1490510895511
 20
-492.6567221964594
 30
0.3644860130863208
 41
0.7071067811865477
 10
693.6946355018226
 20
-490.1111377841879
 30
0.3644860130863208
 41
1.0
 10
694.9666110193889
 20
-488.8391622666216
 30
0.3644860130863208
 41
1.0
 10
696.2385865369552
 20
-487.5671867490553
 30
0.3644860130863208
 41
1.0
 10
698.1434172725964
 20
-487.5671867490551
 30
0.3644860130863208
 41
1.0
 10
700.0482480082376
 20
-487.5671867490548
 30
0.3644860130863208
 41
1.0
 10
701.3202235257914
 20
-488.8391622666086
 30
0.3644860130863208
 41
1.0
 10
702.5921990433453
 20
-490.1111377841625
 30
0.3644860130863208
 41
1.0
 10
705.1377834556168
 20
-492.6567221964851
 30
0.3644860130863208
 41
0.7071067811830097
 10
707.6833678679141
 20
-490.111137784188
 30
0.3644860130863208
 41
1.0
 10
710.228952280211
 20
-487.565553371891
 30
0.3644860130863208
 41
0.7071067811830097
 10
707.6833678678885
 20
-485.0199689596193
 30
0.3644860130863208
 41
1.0
 10
706.4150141684815
 20
-483.7516152602124
 30
0.3644860130863208
 41
1.0
 10
705.1466604690747
 20
-482.4832615608055
 30
0.3644860130863208
 41
1.0
 10
705.146660469064
 20
-387.563574487962
 30
0.3644860130863208
 41
1.0
 10
705.1466604690534
 20
-292.6438874151186
 30
0.3644860130863208
 41
1.0
  0
POLYLINE
  5
84
330
1F
100
AcDbEntity
  8
Default
100
AcDb2dPolyline
 66
     1
 10
0.0
 20
0.0
 30
0.3644860130863208
  0
VERTEX
  5
85
330
84
100
AcDbEntity
  8
Default
100
AcDbVertex
100
AcDb2dVertex
 10
691.1466604690752
 20
-487.5631627513897
 30
0.3644860130863208
  0
VERTEX
  5
86
330
84
100
AcDbEntity
  8
Default
100
AcDbVertex
100
AcDb2dVertex
 10
691.1466604690752
 20
-487.5671867490558
 30
0.3644860130863208
  0
VERTEX
  5
87
330
84
100
AcDbEntity
  8
Default
100
AcDbVertex
100
AcDb2dVertex
 10
691.1506844667413
 20
-487.5671867490558
 30
0.3644860130863208
  0
SEQEND
  5
88
330
84
100
AcDbEntity
  8
Default
  0
POLYLINE
  5
89
330
1F
100
AcDbEntity
  8
Default
100
AcDb2dPolyline
 66
     1
 10
0.0
 20
0.0
 30
0.3644860130863208
  0
VERTEX
  5
8A
330
89
100
AcDbEntity
  8
Default
100
AcDbVertex
100
AcDb2dVertex
 10
705.1361500784535
 20
-487.5671867490543
 30
0.3644860130863208
  0
VERTEX
  5
8B
330
89
100
AcDbEntity
  8
Default
100
AcDbVertex
100
AcDb2dVertex
 10
705.1466604690752
 20
-487.5671867490543
 30
0.3644860130863208
  0
VERTEX
  5
8C
330
89
100
AcDbEntity
  8
Default
100
AcDbVertex
100
AcDb2dVertex
 10
705.1466604690752
 20
-487.5566763584326
 30
0.3644860130863208
  0
SEQEND
  5
8D
330
89
100
AcDbEntity
  8
Default
  0
SPLINE
  5
8E
330
1F
100
AcDbEntity
  8
cutoutline
100
AcDbSpline
210
0.0
220
0.0
230
1.0
 70
    15
 71
     2
 72
    14
 73
    11
 74
     0
 42
0.000000001
 43
0.0000000001
 40
785.3981633974473
 40
785.3981633974473
 40
785.3981633974473
 40
1035.398163398007
 40
1035.398163398007
 40
1535.398163398008
 40
1535.398163398008
 40
1785.398163398568
 40
1785.398163398568
 40
2178.097245097005
 40
2178.097245097005
 40
2570.796326795443
 40
2570.796326795443
 40
2570.796326795443
 10
899.2116926651818
 20
-662.6041313919669
 30
0.3644860130863208
 41
1.0
 10
774.2116926649012
 20
-662.6041313919585
 30
0.3644860130863208
 41
1.0
 10
649.2116926646206
 20
-662.6041313919501
 30
0.3644860130863208
 41
1.0
 10
649.211692664604
 20
-912.6041313919502
 30
0.3644860130863208
 41
1.0
 10
649.2116926645874
 20
-1162.60413139195
 30
0.3644860130863208
 41
1.0
 10
774.2116926645813
 20
-1162.604131391959
 30
0.3644860130863208
 41
1.0
 10
899.2116926645751
 20
-1162.604131391967
 30
0.3644860130863208
 41
1.0
 10
1149.211692664286
 20
-1162.604131391981
 30
0.3644860130863208
 41
0.7071067811869565
 10
1149.211692664589
 20
-912.6041313922701
 30
0.3644860130863208
 41
1.0
 10
1149.211692664893
 20
-662.6041313925596
 30
0.3644860130863208
 41
0.7071067811869565
 10
899.2116926651818
 20
-662.6041313919668
 30
0.3644860130863208
 41
1.0
  0
SPLINE
  5
8F
330
1F
100
AcDbEntity
  8
7mm cut
100
AcDbSpline
210
0.0
220
0.0
230
1.0
 70
    15
 71
     2
 72
    44
 73
    41
 74
     0
 42
0.000000001
 43
0.0000000001
 40
453.3356382355915
 40
453.3356382355915
 40
453.3356382355915
 40
456.9230842427962
 40
456.9230842427962
 40
462.5779510192938
 40
462.5779510192938
 40
468.2328177957915
 40
468.2328177957915
 40
471.8407248689404
 40
471.8407248689404
 40
475.6359372958082
 40
475.6359372958082
 40
479.2438443689579
 40
479.2438443689579
 40
484.8987111454555
 40
484.8987111454555
 40
490.5535779219532
 40
490.5535779219532
 40
494.1501970739872
 40
494.1501970739872
 40
683.9765984338045
 40
683.9765984338045
 40
687.5732175858685
 40
687.5732175858685
 40
693.2280843623302
 40
693.2280843623302
 40
698.8829511387918
 40
698.8829511387918
 40
702.4806411946533
 40
702.4806411946533
 40
706.2903026659359
 40
706.2903026659359
 40
709.8879927217982
 40
709.8879927217982
 40
715.5428594982959
 40
715.5428594982959
 40
721.1977262747936
 40
721.1977262747936
 40
724.7851722819682
 40
724.7851722819682
 40
914.6245464276551
 40
914.6245464276551
 40
914.6245464276551
 10
1035.146660469053
 20
-817.6438874151186
 30
0.3644860130863208
 41
1.0
 10
1036.415014168471
 20
-816.375533715701
 30
0.3644860130863208
 41
1.0
 10
1037.683367867889
 20
-815.1071800162833
 30
0.3644860130863208
 41
1.0
 10
1040.228952280211
 20
-812.5615956040118
 30
0.3644860130863207
 41
0.7071067811830107
 10
1037.683367867914
 20
-810.0160111917149
 30
0.3644860130863208
 41
1.0
 10
1035.137783455617
 20
-807.4704267794177
 30
0.3644860130863207
 41
0.7071067811830107
 10
1032.592199043346
 20
-810.0160111917404
 30
0.3644860130863208
 41
1.0
 10
1031.316611264688
 20
-811.2915989703976
 30
0.3644860130863208
 41
1.0
 10
1030.041023486031
 20
-812.5671867490548
 30
0.3644860130863208
 41
1.0
 10
1028.143417272597
 20
-812.567186749055
 30
0.3644860130863208
 41
1.0
 10
1026.245811059163
 20
-812.5671867490553
 30
0.3644860130863208
 41
1.0
 10
1024.970223280505
 20
-811.2915989703978
 30
0.3644860130863208
 41
1.0
 10
1023.694635501848
 20
-810.0160111917403
 30
0.3644860130863208
 41
1.0
 10
1021.149051089576
 20
-807.4704267794177
 30
0.3644860130863208
 41
0.7071067811830091
 10
1018.603466677279
 20
-810.0160111917149
 30
0.3644860130863208
 41
1.0
 10
1016.057882264982
 20
-812.5615956040119
 30
0.3644860130863208
 41
0.7071067811830091
 10
1018.603466677305
 20
-815.1071800162836
 30
0.3644860130863208
 41
1.0
 10
1019.875063573179
 20
-816.3787769121577
 30
0.3644860130863208
 41
1.0
 10
1021.146660469054
 20
-817.6503738080321
 30
0.3644860130863208
 41
1.0
 10
1021.146660469064
 20
-912.5635744879407
 30
0.3644860130863208
 41
1.0
 10
1021.146660469075
 20
-1007.476775167849
 30
0.3644860130863208
 41
1.0
 10
1019.875063573177
 20
-1008.748372063747
 30
0.3644860130863208
 41
1.0
 10
1018.603466677279
 20
-1010.019968959645
 30
0.3644860130863208
 41
1.0
 10
1016.057882265008
 20
-1012.565553371917
 30
0.3644860130863208
 41
0.7071067811865477
 10
1018.603466677279
 20
-1015.111137784188
 30
0.3644860130863208
 41
1.0
 10
1021.149051089551
 20
-1017.65672219646
 30
0.3644860130863208
 41
0.7071067811865477
 10
1023.694635501823
 20
-1015.111137784188
 30
0.3644860130863208
 41
1.0
 10
1024.966611019389
 20
-1013.839162266622
 30
0.3644860130863208
 41
1.0
 10
1026.238586536955
 20
-1012.567186749055
 30
0.3644860130863208
 41
1.0
 10
1028.143417272596
 20
-1012.567186749055
 30
0.3644860130863208
 41
1.0
 10
1030.048248008238
 20
-1012.567186749055
 30
0.3644860130863208
 41
1.0
 10
1031.320223525791
 20
-1013.839162266609
 30
0.3644860130863208
 41
1.0
 10
1032.592199043345
 20
-1015.111137784162
 30
0.3644860130863208
 41
1.0
 10
1035.137783455617
 20
-1017.656722196485
 30
0.3644860130863208
 41
0.7071067811830097
 10
1037.683367867914
 20
-1015.111137784188
 30
0.3644860130863208
 41
1.0
 10
1040.228952280211
 20
-1012.565553371891
 30
0.3644860130863208
 41
0.7071067811830097
 10
1037.683367867888
 20
-1010.019968959619
 30
0.3644860130863208
 41
1.0
 10
1036.415014168482
 20
-1008.751615260212
 30
0.3644860130863208
 41
1.0
 10
1035.146660469075
 20
-1007.483261560806
 30
0.3644860130863208
 41
1.0
 10
1035.146660469064
 20
-912.563574487962
 30
0.3644860130863208
 41
1.0
 10
1035.146660469053
 20
-817.6438874151186
 30
0.3644860130863208
 41
1.0
  0
SPLINE
  5
90
330
1F
100
AcDbEntity
  8
7mm cut
100
AcDbSpline
210
0.0
220
0.0
230
1.0
 70
    15
 71
     2
 72
    44
 73
    41
 74
     0
 42
0.000000001
 43
0.0000000001
 40
453.3356382355915
 40
453.3356382355915
 40
453.3356382355915
 40
456.9230842427962
 40
456.9230842427962
 40
462.5779510192938
 40
462.5779510192938
 40
468.2328177957915
 40
468.2328177957915
 40
471.8407248689404
 40
471.8407248689404
 40
475.6359372958082
 40
475.6359372958082
 40
479.2438443689579
 40
479.2438443689579
 40
484.8987111454555
 40
484.8987111454555
 40
490.5535779219532
 40
490.5535779219532
 40
494.1501970739872
 40
494.1501970739872
 40
683.9765984338045
 40
683.9765984338045
 40
687.5732175858685
 40
687.5732175858685
 40
693.2280843623302
 40
693.2280843623302
 40
698.8829511387918
 40
698.8829511387918
 40
702.4806411946533
 40
702.4806411946533
 40
706.2903026659359
 40
706.2903026659359
 40
709.8879927217982
 40
709.8879927217982
 40
715.5428594982959
 40
715.5428594982959
 40
721.1977262747936
 40
721.1977262747936
 40
724.7851722819682
 40
724.7851722819682
 40
914.6245464276551
 40
914.6245464276551
 40
914.6245464276551
 10
705.1466604690534
 20
-817.6438874151186
 30
0.3644860130863208
 41
1.0
 10
706.415014168471
 20
-816.375533715701
 30
0.3644860130863208
 41
1.0
 10
707.6833678678886
 20
-815.1071800162833
 30
0.3644860130863208
 41
1.0
 10
710.228952280211
 20
-812.5615956040118
 30
0.3644860130863207
 41
0.7071067811830107
 10
707.683367867914
 20
-810.0160111917149
 30
0.3644860130863208
 41
1.0
 10
705.1377834556168
 20
-807.4704267794177
 30
0.3644860130863207
 41
0.7071067811830107
 10
702.5921990433453
 20
-810.0160111917404
 30
0.3644860130863208
 41
1.0
 10
701.316611264688
 20
-811.2915989703976
 30
0.3644860130863208
 41
1.0
 10
700.0410234860308
 20
-812.5671867490548
 30
0.3644860130863208
 41
1.0
 10
698.1434172725969
 20
-812.567186749055
 30
0.3644860130863208
 41
1.0
 10
696.2458110591631
 20
-812.5671867490553
 30
0.3644860130863208
 41
1.0
 10
694.9702232805055
 20
-811.2915989703978
 30
0.3644860130863208
 41
1.0
 10
693.6946355018479
 20
-810.0160111917403
 30
0.3644860130863208
 41
1.0
 10
691.1490510895765
 20
-807.4704267794177
 30
0.3644860130863208
 41
0.7071067811830091
 10
688.6034666772795
 20
-810.0160111917149
 30
0.3644860130863208
 41
1.0
 10
686.0578822649824
 20
-812.5615956040119
 30
0.3644860130863208
 41
0.7071067811830091
 10
688.6034666773049
 20
-815.1071800162836
 30
0.3644860130863208
 41
1.0
 10
689.8750635731792
 20
-816.3787769121577
 30
0.3644860130863208
 41
1.0
 10
691.1466604690536
 20
-817.6503738080321
 30
0.3644860130863208
 41
1.0
 10
691.1466604690642
 20
-912.5635744879407
 30
0.3644860130863208
 41
1.0
 10
691.1466604690747
 20
-1007.476775167849
 30
0.3644860130863208
 41
1.0
 10
689.875063573177
 20
-1008.748372063747
 30
0.3644860130863208
 41
1.0
 10
688.6034666772794
 20
-1010.019968959645
 30
0.3644860130863208
 41
1.0
 10
686.0578822650078
 20
-1012.565553371917
 30
0.3644860130863208
 41
0.7071067811865477
 10
688.6034666772795
 20
-1015.111137784188
 30
0.3644860130863208
 41
1.0
 10
691.1490510895511
 20
-1017.65672219646
 30
0.3644860130863208
 41
0.7071067811865477
 10
693.6946355018226
 20
-1015.111137784188
 30
0.3644860130863208
 41
1.0
 10
694.9666110193889
 20
-1013.839162266622
 30
0.3644860130863208
 41
1.0
 10
696.2385865369552
 20
-1012.567186749055
 30
0.3644860130863208
 41
1.0
 10
698.1434172725964
 20
-1012.567186749055
 30
0.3644860130863208
 41
1.0
 10
700.0482480082376
 20
-1012.567186749055
 30
0.3644860130863208
 41
1.0
 10
701.3202235257914
 20
-1013.839162266609
 30
0.3644860130863208
 41
1.0
 10
702.5921990433453
 20
-1015.111137784162
 30
0.3644860130863208
 41
1.0
 10
705.1377834556168
 20
-1017.656722196485
 30
0.3644860130863208
 41
0.7071067811830097
 10
707.6833678679141
 20
-1015.111137784188
 30
0.3644860130863208
 41
1.0
 10
710.228952280211
 20
-1012.565553371891
 30
0.3644860130863208
 41
0.7071067811830097
 10
707.6833678678885
 20
-1010.019968959619
 30
0.3644860130863208
 41
1.0
 10
706.4150141684815
 20
-1008.751615260212
 30
0.3644860130863208
 41
1.0
 10
705.1466604690747
 20
-1007.483261560806
 30
0.3644860130863208
 41
1.0
 10
705.146660469064
 20
-912.563574487962
 30
0.3644860130863208
 41
1.0
 10
705.1466604690534
 20
-817.6438874151186
 30
0.3644860130863208
 41
1.0
  0
SPLINE
  5
91
330
1F
100
AcDbEntity
  8
cutoutline
100
AcDbSpline
210
0.0
220
0.0
230
1.0
 70
    15
 71
     2
 72
    14
 73
    11
 74
     0
 42
0.000000001
 43
0.0000000001
 40
785.3981633974473
 40
785.3981633974473
 40
785.3981633974473
 40
1035.398163398007
 40
1035.398163398007
 40
1535.398163398008
 40
1535.398163398008
 40
1785.398163398568
 40
1785.398163398568
 40
2178.097245097005
 40
2178.097245097005
 40
2570.796326795443
 40
2570.796326795443
 40
2570.796326795443
 10
899.2116926651818
 20
-137.6041313919669
 30
0.3644860130863208
 41
1.0
 10
774.2116926649012
 20
-137.6041313919585
 30
0.3644860130863208
 41
1.0
 10
649.2116926646206
 20
-137.6041313919501
 30
0.3644860130863208
 41
1.0
 10
649.211692664604
 20
-387.6041313919503
 30
0.3644860130863208
 41
1.0
 10
649.2116926645874
 20
-637.6041313919504
 30
0.3644860130863208
 41
1.0
 10
774.2116926645813
 20
-637.6041313919586
 30
0.3644860130863208
 41
1.0
 10
899.2116926645751
 20
-637.6041313919668
 30
0.3644860130863208
 41
1.0
 10
1149.211692664286
 20
-637.6041313919809
 30
0.3644860130863208
 41
0.7071067811869565
 10
1149.211692664589
 20
-387.6041313922702
 30
0.3644860130863208
 41
1.0
 10
1149.211692664893
 20
-137.6041313925595
 30
0.3644860130863208
 41
0.7071067811869565
 10
899.2116926651818
 20
-137.6041313919669
 30
0.3644860130863208
 41
1.0
  0
SPLINE
  5
92
330
1F
100
AcDbEntity
  8
cutoutline
100
AcDbSpline
210
0.0
220
0.0
230
1.0
 70
    15
 71
     2
 72
    14
 73
    11
 74
     0
 42
0.000000001
 43
0.0000000001
 40
785.3981633974473
 40
785.3981633974473
 40
785.3981633974473
 40
1035.398163398007
 40
1035.398163398007
 40
1535.398163398008
 40
1535.398163398008
 40
1785.398163398568
 40
1785.398163398568
 40
2178.097245097005
 40
2178.097245097005
 40
2570.796326795443
 40
2570.796326795443
 40
2570.796326795443
 10
379.2116926651818
 20
-137.6041313919669
 30
0.3644860130863208
 41
1.0
 10
254.2116926649012
 20
-137.6041313919585
 30
0.3644860130863208
 41
1.0
 10
129.2116926646207
 20
-137.6041313919501
 30
0.3644860130863208
 41
1.0
 10
129.2116926646041
 20
-387.6041313919503
 30
0.3644860130863208
 41
1.0
 10
129.2116926645875
 20
-637.6041313919504
 30
0.3644860130863208
 41
1.0
 10
254.2116926645813
 20
-637.6041313919586
 30
0.3644860130863208
 41
1.0
 10
379.2116926645752
 20
-637.6041313919668
 30
0.3644860130863208
 41
1.0
 10
629.2116926642859
 20
-637.6041313919809
 30
0.3644860130863208
 41
0.7071067811869565
 10
629.2116926645892
 20
-387.6041313922702
 30
0.3644860130863208
 41
1.0
 10
629.2116926648928
 20
-137.6041313925595
 30
0.3644860130863208
 41
0.7071067811869565
 10
379.2116926651819
 20
-137.6041313919669
 30
0.3644860130863208
 41
1.0
  0
POLYLINE
  5
94
330
1F
100
AcDbEntity
  8
14mmbrd
100
AcDb2dPolyline
 66
     1
 10
0.0
 20
0.0
 30
0.3644860130863208
 70
     1
  0
VERTEX
  5
95
330
94
100
AcDbEntity
  8
14mmbrd
100
AcDbVertex
100
AcDb2dVertex
 10
-1220.0
 20
-1286.014445213667
 30
0.3644860130863208
  0
VERTEX
  5
96
330
94
100
AcDbEntity
  8
14mmbrd
100
AcDbVertex
100
AcDb2dVertex
 10
1220.0
 20
-1286.014445213667
 30
0.3644860130863208
  0
VERTEX
  5
97
330
94
100
AcDbEntity
  8
14mmbrd
100
AcDbVertex
100
AcDb2dVertex
 10
1220.0
 20
-66.0144452136667
 30
0.3644860130863208
  0
VERTEX
  5
98
330
94
100
AcDbEntity
  8
14mmbrd
100
AcDbVertex
100
AcDb2dVertex
 10
-1220.0
 20
-66.0144452136667
 30
0.3644860130863208
  0
SEQEND
  5
99
330
94
100
AcDbEntity
  8
14mmbrd
  0
SPLINE
  5
9A
330
1F
100
AcDbEntity
  8
cutoutline
100
AcDbSpline
210
0.0
220
0.0
230
1.0
 70
    15
 71
     2
 72
    12
 73
     9
 74
     0
 42
0.000000001
 43
0.0000000001
 40
0.0
 40
0.0
 40
0.0
 40
64.63228052684856
 40
64.63228052684856
 40
129.2645610536971
 40
129.2645610536971
 40
193.8968415805457
 40
193.8968415805457
 40
258.5291221073942
 40
258.5291221073942
 40
258.5291221073942
 10
-766.7076245668
 20
-1142.129185551428
 30
0.3644860130863208
 41
1.0
 10
-766.7076245668001
 20
-1100.982997834828
 30
0.3644860130863208
 41
0.7071067811865476
 10
-807.8538122834
 20
-1100.982997834828
 30
0.3644860130863208
 41
1.0
 10
-848.9999999999999
 20
-1100.982997834828
 30
0.3644860130863208
 41
0.7071067811865476
 10
-849.0
 20
-1142.129185551428
 30
0.3644860130863208
 41
1.0
 10
-848.9999999999999
 20
-1183.275373268028
 30
0.3644860130863208
 41
0.7071067811865476
 10
-807.8538122834
 20
-1183.275373268028
 30
0.3644860130863208
 41
1.0
 10
-766.7076245668001
 20
-1183.275373268028
 30
0.3644860130863208
 41
0.7071067811865476
 10
-766.7076245668
 20
-1142.129185551428
 30
0.3644860130863208
 41
1.0
  0
SPLINE
  5
9B
330
1F
100
AcDbEntity
  8
cutoutline
100
AcDbSpline
210
0.0
220
0.0
230
1.0
 70
    15
 71
     2
 72
    12
 73
     9
 74
     0
 42
0.000000001
 43
0.0000000001
 40
0.0
 40
0.0
 40
0.0
 40
102.1017612416683
 40
102.1017612416683
 40
204.2035224833365
 40
204.2035224833365
 40
306.3052837250048
 40
306.3052837250048
 40
408.4070449666731
 40
408.4070449666731
 40
408.4070449666731
 10
-904.8538122834
 20
-1026.129185551428
 30
0.3644860130863208
 41
1.0
 10
-904.8538122834
 20
-961.1291855514281
 30
0.3644860130863208
 41
0.7071067811865476
 10
-969.8538122834
 20
-961.129185551428
 30
0.3644860130863208
 41
1.0
 10
-1034.8538122834
 20
-961.1291855514281
 30
0.3644860130863208
 41
0.7071067811865476
 10
-1034.8538122834
 20
-1026.129185551428
 30
0.3644860130863208
 41
1.0
 10
-1034.8538122834
 20
-1091.129185551428
 30
0.3644860130863208
 41
0.7071067811865476
 10
-969.8538122834
 20
-1091.129185551428
 30
0.3644860130863208
 41
1.0
 10
-904.8538122834
 20
-1091.129185551428
 30
0.3644860130863208
 41
0.7071067811865476
 10
-904.8538122834
 20
-1026.129185551428
 30
0.3644860130863208
 41
1.0
  0
SPLINE
  5
9C
330
1F
100
AcDbEntity
  8
cutoutline
100
AcDbSpline
210
0.0
220
0.0
230
1.0
 70
    15
 71
     2
 72
    12
 73
     9
 74
     0
 42
0.000000001
 43
0.0000000001
 40
0.0
 40
0.0
 40
0.0
 40
87.76167011085684
 40
87.76167011085684
 40
175.5233402217137
 40
175.5233402217137
 40
263.2850103325706
 40
263.2850103325706
 40
351.0466804434274
 40
351.0466804434274
 40
351.0466804434274
 10
-374.9829978348275
 20
-1081.129185551428
 30
0.3644860130863208
 41
1.0
 10
-374.9829978348275
 20
-1025.258371102856
 30
0.3644860130863208
 41
0.7071067811865476
 10
-430.8538122834
 20
-1025.258371102856
 30
0.3644860130863208
 41
1.0
 10
-486.7246267319724
 20
-1025.258371102856
 30
0.3644860130863208
 41
0.7071067811865476
 10
-486.7246267319724
 20
-1081.129185551428
 30
0.3644860130863208
 41
1.0
 10
-486.7246267319725
 20
-1137.0
 30
0.3644860130863208
 41
0.7071067811865476
 10
-430.8538122834
 20
-1137.0
 30
0.3644860130863208
 41
1.0
 10
-374.9829978348276
 20
-1137.0
 30
0.3644860130863208
 41
0.7071067811865476
 10
-374.9829978348275
 20
-1081.129185551428
 30
0.3644860130863208
 41
1.0
  0
SPLINE
  5
9D
330
1F
100
AcDbEntity
  8
cutoutline
100
AcDbSpline
210
0.0
220
0.0
230
1.0
 70
    15
 71
     2
 72
    84
 73
    81
 74
     0
 42
0.000000001
 43
0.0000000001
 40
-408.4070449666731
 40
-408.4070449666731
 40
-408.4070449666731
 40
-306.3052837250048
 40
-306.3052837250048
 40
-204.2035224833365
 40
-204.2035224833365
 40
-165.1244606493608
 40
-165.1244606493608
 40
241.4232705490486
 40
241.4232705490486
 40
297.7618902063823
 40
297.7618902063823
 40
300.6039412780071
 40
300.6039412780071
 40
306.2880434212566
 40
306.2880434212566
 40
311.972145564506
 40
311.972145564506
 40
314.905415330742
 40
314.905415330742
 40
332.2835572871168
 40
332.2835572871168
 40
532.2835572871168
 40
532.2835572871168
 40
549.6616992434697
 40
549.6616992434697
 40
553.9019711772539
 40
553.9019711772539
 40
558.1422431110382
 40
558.1422431110382
 40
562.3825150448224
 40
562.3825150448224
 40
566.6227869786067
 40
566.6227869786067
 40
623.0469436961735
 40
623.0469436961735
 40
1488.26966114404
 40
1488.26966114404
 40
1532.80364224339
 40
1532.80364224339
 40
1634.905403485058
 40
1634.905403485058
 40
1737.007164726726
 40
1737.007164726726
 40
1781.541145826075
 40
1781.541145826075
 40
2024.746777912246
 40
2024.746777912246
 40
2095.276973809205
 40
2095.276973809205
 40
2099.517245742958
 40
2099.517245742958
 40
2103.757517676711
 40
2103.757517676711
 40
2107.997789610464
 40
2107.997789610464
 40
2112.238061544217
 40
2112.238061544217
 40
2129.643797516853
 40
2129.643797516853
 40
2329.643797516853
 40
2329.643797516853
 40
2335.954335236387
 40
2335.954335236387
 40
2343.8942646297
 40
2343.8942646297
 40
2346.827534396064
 40
2346.827534396064
 40
2350.380098235595
 40
2350.380098235595
 40
2353.932662075126
 40
2353.932662075126
 40
2357.485225914657
 40
2357.485225914657
 40
2361.037789754188
 40
2361.037789754188
 40
2431.461064325856
 40
2431.461064325856
 40
3093.991710162563
 40
3093.991710162563
 40
3133.070771996539
 40
3133.070771996539
 40
3133.070771996539
 10
-577.9829978348275
 20
-951.1291855514276
 30
0.3644860130863208
 41
1.0
 10
-577.9829978348276
 20
-1030.0
 30
0.3644860130863208
 41
0.7071067811865476
 10
-656.8538122834
 20
-1030.0
 30
0.3644860130863208
 41
1.0
 10
-735.7246267319725
 20
-1030.0
 30
0.3644860130863208
 41
0.7071067811865476
 10
-735.7246267319724
 20
-951.1291855514276
 30
0.3644860130863208
 41
1.0
 10
-735.7246267319726
 20
-927.0883249387558
 30
0.3644860130863208
 41
0.8878962314697866
 10
-722.3146237658435
 20
-907.135009438661
 30
0.3644860130863208
 41
0.861607047309858
 10
-925.5884893650474
 20
-907.1350094386611
 30
0.3644860130863208
 41
0.861607047309858
 10
-1128.862354964252
 20
-907.1350094386613
 30
0.3644860130863208
 41
0.861607047309858
 10
-1128.862354964252
 20
-935.3043192673284
 30
0.3644860130863208
 41
0.861607047309858
 10
-1128.862354964252
 20
-963.473629095996
 30
0.3644860130863208
 41
0.861607047309858
 10
-1127.363476874531
 20
-963.4736290959959
 30
0.3644860130863208
 41
0.861607047309847
 10
-1126.303610013117
 20
-964.5334959574096
 30
0.3644860130863208
 41
1.009435445755756
 10
-1123.744865061981
 20
-967.0922409085456
 30
0.3644860130863208
 41
0.7137786488639604
 10
-1126.303610013116
 20
-969.6509858596806
 30
0.3644860130863208
 41
1.009435445755756
 10
-1128.862354964252
 20
-972.2097308108164
 30
0.3644860130863208
 41
0.7137786488639604
 10
-1131.421099915387
 20
-969.6509858596806
 30
0.3644860130863208
 41
1.009435445755756
 10
-1132.52104152349
 20
-968.5510442515783
 30
0.3644860130863208
 41
0.8568623354124039
 10
-1132.479687843729
 20
-966.9960416934969
 30
0.3644860130863208
 41
0.8617593339559053
 10
-1141.168758821917
 20
-966.9960416934978
 30
0.3644860130863208
 41
0.8617593339559053
 10
-1149.857829800105
 20
-966.9960416934988
 30
0.3644860130863208
 41
0.8617593339559053
 10
-1149.857829800093
 20
-1066.996041693499
 30
0.3644860130863208
 41
0.8617593339559053
 10
-1149.857829800082
 20
-1166.996041693499
 30
0.3644860130863208
 41
0.8617593339559053
 10
-1141.168758821906
 20
-1166.996041693498
 30
0.3644860130863208
 41
0.8617593339559053
 10
-1132.47968784373
 20
-1166.996041693497
 30
0.3644860130863208
 41
0.8617593339559053
 10
-1132.415871015261
 20
-1164.596368143492
 30
0.3644860130863207
 41
0.7181139059037018
 10
-1130.180201643123
 20
-1163.722132367131
 30
0.3644860130863208
 41
0.8617593339559053
 10
-1127.944532270985
 20
-1162.84789659077
 30
0.3644860130863207
 41
0.7181139059037018
 10
-1126.269821544424
 20
-1164.567736617204
 30
0.3644860130863208
 41
0.8617593339559053
 10
-1124.595110817863
 20
-1166.28757664364
 30
0.3644860130863207
 41
0.7181139059037018
 10
-1125.52847190546
 20
-1168.499214682367
 30
0.3644860130863208
 41
0.8617593339559053
 10
-1126.461832993058
 20
-1170.710852721095
 30
0.3644860130863207
 41
0.7181139059037018
 10
-1128.862354964252
 20
-1170.710852721095
 30
0.3644860130863208
 41
0.8617593339559053
 10
-1128.862354964252
 20
-1198.922931079878
 30
0.3644860130863208
 41
0.8617593339559053
 10
-1128.862354964252
 20
-1227.135009438662
 30
0.3644860130863208
 41
0.8617593339559053
 10
-696.250996240319
 20
-1227.13500943866
 30
0.3644860130863208
 41
0.8617593339559053
 10
-263.6396375163854
 20
-1227.135009438658
 30
0.3644860130863208
 41
0.8617593339559053
 10
-276.7246267319724
 20
-1210.945475833731
 30
0.3644860130863208
 41
0.8781783882154416
 10
-276.7246267319724
 20
-1190.129185551428
 30
0.3644860130863207
 41
1.006798934864534
 10
-276.7246267319724
 20
-1131.258371102855
 30
0.3644860130863208
 41
0.7119143541341051
 10
-217.8538122834
 20
-1131.258371102855
 30
0.3644860130863207
 41
1.006798934864534
 10
-158.9829978348276
 20
-1131.258371102855
 30
0.3644860130863208
 41
0.7119143541341051
 10
-158.9829978348275
 20
-1190.129185551428
 30
0.3644860130863207
 41
1.006798934864534
 10
-158.9829978348275
 20
-1210.94547583373
 30
0.3644860130863207
 41
0.8781783882154423
 10
-172.0679870504141
 20
-1227.135009438658
 30
0.3644860130863208
 41
0.8617593339559058
 10
-50.46517100732878
 20
-1227.135009438658
 30
0.3644860130863208
 41
0.8617593339559056
 10
71.13764503575679
 20
-1227.135009438657
 30
0.3644860130863208
 41
0.8617593339559056
 10
71.13764503575256
 20
-1198.922931079876
 30
0.3644860130863208
 41
0.8617593339559056
 10
71.13764503574832
 20
-1170.710852721095
 30
0.3644860130863208
 41
0.8617593339559056
 10
68.73712306457749
 20
-1170.710852721095
 30
0.3644860130863207
 41
0.7181139059058546
 10
67.80376197696883
 20
-1168.499214682399
 30
0.3644860130863208
 41
0.8617593339559056
 10
66.87040088936017
 20
-1166.287576643701
 30
0.3644860130863207
 41
0.7181139059058546
 10
68.54511161587338
 20
-1164.567736617253
 30
0.3644860130863208
 41
0.8617593339559056
 10
70.21982234238658
 20
-1162.847896590803
 30
0.3644860130863207
 41
0.7181139059058546
 10
72.45549171452667
 20
-1163.722132367095
 30
0.3644860130863208
 41
0.8617593339559056
 10
74.69116108666678
 20
-1164.596368143387
 30
0.3644860130863207
 41
0.7181139059058546
 10
74.7549779152216
 20
-1166.996041693365
 30
0.3644860130863208
 41
0.8617593339559056
 10
83.45784590153968
 20
-1166.996041693362
 30
0.3644860130863208
 41
0.8617593339559056
 10
92.16071388785777
 20
-1166.99604169336
 30
0.3644860130863208
 41
0.8617593339559056
 10
92.16071388784651
 20
-1066.99604169336
 30
0.3644860130863208
 41
0.8617593339559056
 10
92.16071388783527
 20
-966.9960416933596
 30
0.3644860130863208
 41
0.8617593339559056
 10
87.42781059818482
 20
-966.9960416933603
 30
0.3644860130863208
 41
0.8617593339559056
 10
82.69490730853433
 20
-966.996041693361
 30
0.3644860130863208
 41
0.8617593339559056
 10
78.72494261187798
 20
-966.9960416933617
 30
0.3644860130863208
 41
0.8617593339559056
 10
74.7549779152216
 20
-966.9960416933621
 30
0.3644860130863208
 41
0.8617593339559056
 10
74.79633159504262
 20
-968.5510442515221
 30
0.3644860130863208
 41
0.7917075306381743
 10
73.69638998688356
 20
-969.650985859681
 30
0.3644860130863208
 41
0.8617593339559056
 10
72.32871231644374
 20
-971.018663530121
 30
0.3644860130863207
 41
0.7600038813663834
 10
70.43168889198627
 20
-970.6413221097874
 30
0.3644860130863208
 41
0.8617593339559056
 10
68.5346654675288
 20
-970.263980689454
 30
0.3644860130863207
 41
0.7600038813663834
 10
67.79448364602975
 20
-968.4770236973688
 30
0.3644860130863208
 41
0.8617593339559056
 10
67.05430182453068
 20
-966.6900667052836
 30
0.3644860130863207
 41
0.7600038813663834
 10
68.12887927489398
 20
-965.0818479006397
 30
0.3644860130863208
 41
0.8617593339559056
 10
69.20345672525727
 20
-963.4736290959956
 30
0.3644860130863207
 41
0.7600038813663834
 10
71.13764503574816
 20
-963.4736290959959
 30
0.3644860130863208
 41
0.8617593339559056
 10
71.13764503574974
 20
-935.3043192673277
 30
0.3644860130863208
 41
0.8617593339559056
 10
71.13764503575112
 20
-907.1350094386595
 30
0.3644860130863208
 41
0.8617593339559056
 10
-260.1276778826028
 20
-907.1350094386601
 30
0.3644860130863208
 41
0.8617593339559056
 10
-591.3930008009567
 20
-907.1350094386609
 30
0.3644860130863208
 41
0.8617593339559056
 10
-577.9829978348275
 20
-927.0883249387556
 30
0.3644860130863208
 41
0.8880531646559188
 10
-577.9829978348274
 20
-951.1291855514274
 30
0.3644860130863208
 41
1.000176747215014
  0
SPLINE
  5
9E
330
1F
100
AcDbEntity
  8
cutoutline
100
AcDbSpline
210
0.0
220
0.0
230
1.0
 70
    15
 71
     2
 72
    12
 73
     9
 74
     0
 42
0.000000001
 43
0.0000000001
 40
0.0
 40
0.0
 40
0.0
 40
68.91211418931809
 40
68.91211418931809
 40
137.8242283786362
 40
137.8242283786362
 40
206.7363425679543
 40
206.7363425679543
 40
275.6484567572724
 40
275.6484567572724
 40
275.6484567572724
 10
-58.98299783482755
 20
-1036.129185551428
 30
0.3644860130863208
 41
1.0
 10
-58.98299783482756
 20
-992.2583711028557
 30
0.3644860130863208
 41
0.7071067811865476
 10
-102.8538122834
 20
-992.2583711028556
 30
0.3644860130863208
 41
1.0
 10
-146.7246267319724
 20
-992.2583711028557
 30
0.3644860130863208
 41
0.7071067811865476
 10
-146.7246267319724
 20
-1036.129185551428
 30
0.3644860130863208
 41
1.0
 10
-146.7246267319724
 20
-1080.0
 30
0.3644860130863208
 41
0.7071067811865476
 10
-102.8538122834
 20
-1080.0
 30
0.3644860130863208
 41
1.0
 10
-58.98299783482756
 20
-1080.0
 30
0.3644860130863208
 41
0.7071067811865476
 10
-58.98299783482755
 20
-1036.129185551428
 30
0.3644860130863208
 41
1.0
  0
SPLINE
  5
9F
330
1F
100
AcDbEntity
  8
cutoutline
100
AcDbSpline
210
0.0
220
0.0
230
1.0
 70
    15
 71
     2
 72
    12
 73
     9
 74
     0
 42
0.000000001
 43
0.0000000001
 40
0.0
 40
0.0
 40
0.0
 40
102.1017612416683
 40
102.1017612416683
 40
204.2035224833365
 40
204.2035224833365
 40
306.3052837250048
 40
306.3052837250048
 40
408.4070449666731
 40
408.4070449666731
 40
408.4070449666731
 10
-918.8538122834
 20
-720.1291855514276
 30
0.3644860130863208
 41
1.0
 10
-918.8538122833999
 20
-655.1291855514276
 30
0.3644860130863208
 41
0.7071067811865476
 10
-983.8538122834
 20
-655.1291855514276
 30
0.3644860130863208
 41
1.0
 10
-1048.8538122834
 20
-655.1291855514276
 30
0.3644860130863208
 41
0.7071067811865476
 10
-1048.8538122834
 20
-720.1291855514276
 30
0.3644860130863208
 41
1.0
 10
-1048.8538122834
 20
-785.1291855514277
 30
0.3644860130863208
 41
0.7071067811865476
 10
-983.8538122834
 20
-785.1291855514276
 30
0.3644860130863208
 41
1.0
 10
-918.8538122833999
 20
-785.1291855514277
 30
0.3644860130863208
 41
0.7071067811865476
 10
-918.8538122834
 20
-720.1291855514276
 30
0.3644860130863208
 41
1.0
  0
SPLINE
  5
A0
330
1F
100
AcDbEntity
  8
cutoutline
100
AcDbSpline
210
0.0
220
0.0
230
1.0
 70
    15
 71
     2
 72
    74
 73
    71
 74
     0
 42
0.000000001
 43
0.0000000001
 40
8.52615321487395
 40
8.52615321487395
 40
8.52615321487395
 40
11.36820428649888
 40
11.36820428649888
 40
17.05230642974832
 40
17.05230642974832
 40
22.73640857299776
 40
22.73640857299776
 40
25.66967833936153
 40
25.66967833936153
 40
33.60960773267445
 40
33.60960773267445
 40
39.9201454522083
 40
39.9201454522083
 40
239.9201454522083
 40
239.9201454522083
 40
257.3258814248445
 40
257.3258814248445
 40
260.0767138017334
 40
260.0767138017334
 40
265.7608159449828
 40
265.7608159449828
 40
271.4449180882322
 40
271.4449180882322
 40
274.2869691598573
 40
274.2869691598573
 40
344.8171650568153
 40
344.8171650568153
 40
977.8433704282058
 40
977.8433704282058
 40
1259.417512489195
 40
1259.417512489195
 40
1384.187460191419
 40
1384.187460191419
 40
2029.600136141438
 40
2029.600136141438
 40
2086.024292859005
 40
2086.024292859005
 40
2088.86634393063
 40
2088.86634393063
 40
2094.550446073879
 40
2094.550446073879
 40
2100.234548217129
 40
2100.234548217129
 40
2102.985380594142
 40
2102.985380594142
 40
2120.363522550495
 40
2120.363522550495
 40
2320.363522550495
 40
2320.363522550495
 40
2337.74166450687
 40
2337.74166450687
 40
2340.674934273105
 40
2340.674934273105
 40
2346.359036416355
 40
2346.359036416355
 40
2352.043138559604
 40
2352.043138559604
 40
2354.885189631229
 40
2354.885189631229
 40
2411.223809288563
 40
2411.223809288563
 40
3056.63648523851
 40
3056.63648523851
 40
3259.884677480803
 40
3259.884677480803
 40
3463.132869723095
 40
3463.132869723095
 40
4096.159075094556
 40
4096.159075094556
 40
4166.582349666223
 40
4166.582349666223
 40
4166.582349666223
 10
71.13764503574816
 20
-616.4736290959959
 30
0.3644860130863208
 41
0.8535533905932737
 10
69.63876694602652
 20
-616.4736290959958
 30
0.3644860130863208
 41
0.8535533905932631
 10
68.57890008461243
 20
-617.5334959574099
 30
0.3644860130863208
 41
1.0
 10
66.0201551334769
 20
-620.0922409085455
 30
0.3644860130863208
 41
0.7071067811865476
 10
68.57890008461246
 20
-622.6509858596809
 30
0.3644860130863208
 41
1.0
 10
71.13764503574798
 20
-625.2097308108164
 30
0.3644860130863208
 41
0.7071067811865476
 10
73.6963899868835
 20
-622.6509858596809
 30
0.3644860130863208
 41
1.0
 10
74.79633159504245
 20
-621.5510442515221
 30
0.3644860130863208
 41
0.8488530286988604
 10
74.75497791522162
 20
-619.996041693362
 30
0.3644860130863208
 41
0.8537042537783482
 10
78.72494261187798
 20
-619.9960416933617
 30
0.3644860130863208
 41
0.8537042537783482
 10
82.69490730853434
 20
-619.9960416933611
 30
0.3644860130863208
 41
0.8537042537783482
 10
87.42781059818482
 20
-619.9960416933604
 30
0.3644860130863208
 41
0.8537042537783482
 10
92.16071388783527
 20
-619.9960416933601
 30
0.3644860130863208
 41
0.8537042537783482
 10
92.16071388784653
 20
-719.9960416933599
 30
0.3644860130863208
 41
0.8537042537783482
 10
92.16071388785778
 20
-819.9960416933599
 30
0.3644860130863208
 41
0.8537042537783482
 10
83.4578459015397
 20
-819.9960416933627
 30
0.3644860130863208
 41
0.8537042537783482
 10
74.7549779152216
 20
-819.9960416933658
 30
0.3644860130863208
 41
0.8537042537783482
 10
74.71662105288269
 20
-818.5537270234091
 30
0.3644860130863208
 41
0.8582537524875331
 10
73.69638998688346
 20
-817.5334959574099
 30
0.3644860130863208
 41
1.000000000000012
 10
71.13764503574794
 20
-814.9747510062745
 30
0.3644860130863208
 41
0.7071067811865563
 10
68.57890008461241
 20
-817.5334959574099
 30
0.3644860130863208
 41
1.000000000000012
 10
66.0201551334769
 20
-820.0922409085454
 30
0.3644860130863208
 41
0.7071067811865563
 10
68.57890008461244
 20
-822.6509858596809
 30
0.3644860130863208
 41
1.000000000000012
 10
69.6387669460266
 20
-823.7108527210951
 30
0.3644860130863207
 41
0.8535533905932677
 10
71.1376450357483
 20
-823.7108527210949
 30
0.3644860130863208
 41
0.8535533905932844
 10
71.13764503574868
 20
-851.9229310798781
 30
0.3644860130863208
 41
0.8535533905932844
 10
71.13764503575678
 20
-880.1350094386571
 30
0.3644860130863208
 41
0.8535533905932844
 10
-160.7710162031376
 20
-845.9364971822376
 30
0.3644860130863208
 41
0.8535533905932844
 10
-392.6796774420322
 20
-811.7379849258182
 30
0.3644860130863208
 41
0.8535533905932844
 10
-466.0414668357575
 20
-916.7978468932901
 30
0.3644860130863208
 41
0.6925253238172437
 10
-584.5913719652632
 20
-868.1619883786211
 30
0.3644860130863208
 41
0.9222566970843722
 10
-628.9315219395328
 20
-849.9711576199464
 30
0.3644860130863208
 41
0.8204590987030149
 10
-655.9694846340415
 20
-810.399655288575
 30
0.3644860130863208
 41
0.7953877420354535
 10
-892.4159197991469
 20
-845.2673323636184
 30
0.3644860130863208
 41
0.7953877420354535
 10
-1128.862354964252
 20
-880.1350094386615
 30
0.3644860130863208
 41
0.7953877420354535
 10
-1128.862354964252
 20
-851.9229310798783
 30
0.3644860130863208
 41
0.7953877420354535
 10
-1128.862354964252
 20
-823.7108527210949
 30
0.3644860130863208
 41
0.7953877420354535
 10
-1127.363476874531
 20
-823.7108527210949
 30
0.3644860130863208
 41
0.7953877420354533
 10
-1126.303610013116
 20
-822.6509858596809
 30
0.3644860130863208
 41
0.9318547038781119
 10
-1123.744865061981
 20
-820.0922409085453
 30
0.3644860130863208
 41
0.6589207801927952
 10
-1126.303610013117
 20
-817.5334959574099
 30
0.3644860130863208
 41
0.9318547038781119
 10
-1128.862354964252
 20
-814.9747510062743
 30
0.3644860130863208
 41
0.6589207801927952
 10
-1131.421099915388
 20
-817.5334959574099
 30
0.3644860130863208
 41
0.9318547038781119
 10
-1132.441330981441
 20
-818.5537270234627
 30
0.3644860130863208
 41
0.7997677963705665
 10
-1132.47968784373
 20
-819.996041693497
 30
0.3644860130863207
 41
0.795528324603714
 10
-1141.168758821906
 20
-819.9960416934978
 30
0.3644860130863207
 41
0.795528324603714
 10
-1149.857829800082
 20
-819.9960416934988
 30
0.3644860130863207
 41
0.795528324603714
 10
-1149.857829800094
 20
-719.9960416934988
 30
0.3644860130863207
 41
0.795528324603714
 10
-1149.857829800105
 20
-619.9960416934988
 30
0.3644860130863207
 41
0.795528324603714
 10
-1141.168758821917
 20
-619.996041693498
 30
0.3644860130863207
 41
0.795528324603714
 10
-1132.479687843729
 20
-619.9960416934969
 30
0.3644860130863207
 41
0.795528324603714
 10
-1132.52104152349
 20
-621.5510442515782
 30
0.3644860130863208
 41
0.7910076877003511
 10
-1131.421099915387
 20
-622.6509858596811
 30
0.3644860130863208
 41
0.9318547038781126
 10
-1128.862354964252
 20
-625.2097308108165
 30
0.3644860130863208
 41
0.6589207801927957
 10
-1126.303610013117
 20
-622.6509858596811
 30
0.3644860130863208
 41
0.9318547038781126
 10
-1123.744865061981
 20
-620.0922409085455
 30
0.3644860130863208
 41
0.6589207801927957
 10
-1126.303610013117
 20
-617.5334959574101
 30
0.3644860130863208
 41
0.9318547038781126
 10
-1127.363476874531
 20
-616.4736290959959
 30
0.3644860130863208
 41
0.7953877420354439
 10
-1128.862354964252
 20
-616.4736290959958
 30
0.3644860130863208
 41
0.7953877420354541
 10
-1128.862354964252
 20
-588.3043192673292
 30
0.3644860130863208
 41
0.7953877420354541
 10
-1128.862354964252
 20
-560.1350094386617
 30
0.3644860130863208
 41
0.7953877420354541
 10
-892.4159197991405
 20
-595.0026865136958
 30
0.3644860130863208
 41
0.7953877420354541
 10
-655.9694846340285
 20
-629.8703635887302
 30
0.3644860130863208
 41
0.7953877420354541
 10
-608.6144532333136
 20
-560.5637461986697
 30
0.3644860130863207
 41
0.7043435014728439
 10
-524.6756411978341
 20
-560.1370764348183
 30
0.3644860130863208
 41
0.7953877420354541
 10
-440.7368291623546
 20
-559.7104066709669
 30
0.3644860130863207
 41
0.7043435014728439
 10
-392.6796774420202
 20
-628.5320339515226
 30
0.3644860130863208
 41
0.7953877420354541
 10
-160.7710162031346
 20
-594.3335216950909
 30
0.3644860130863208
 41
0.7953877420354541
 10
71.13764503575112
 20
-560.1350094386595
 30
0.3644860130863208
 41
0.7953877420354541
 10
71.13764503574974
 20
-588.3043192673276
 30
0.3644860130863208
 41
0.7953877420354541
 10
71.13764503574833
 20
-616.4736290959959
 30
0.3644860130863208
 41
0.7953877420354541
  0
SPLINE
  5
A1
330
1F
100
AcDbEntity
  8
cutoutline
100
AcDbSpline
210
0.0
220
0.0
230
1.0
 70
    15
 71
     2
 72
    12
 73
     9
 74
     0
 42
0.000000001
 43
0.0000000001
 40
0.0
 40
0.0
 40
0.0
 40
157.0796326794897
 40
157.0796326794897
 40
314.1592653589793
 40
314.1592653589793
 40
471.238898038469
 40
471.238898038469
 40
628.3185307179587
 40
628.3185307179587
 40
628.3185307179587
 10
-423.8538122834
 20
-720.1291855514276
 30
0.3644860130863208
 41
1.0
 10
-423.8538122833999
 20
-620.1291855514276
 30
0.3644860130863208
 41
0.7071067811865476
 10
-523.8538122834
 20
-620.1291855514276
 30
0.3644860130863208
 41
1.0
 10
-623.8538122834
 20
-620.1291855514276
 30
0.3644860130863208
 41
0.7071067811865476
 10
-623.8538122834
 20
-720.1291855514276
 30
0.3644860130863208
 41
1.0
 10
-623.8538122834
 20
-820.1291855514276
 30
0.3644860130863208
 41
0.7071067811865476
 10
-523.8538122834
 20
-820.1291855514276
 30
0.3644860130863208
 41
1.0
 10
-423.8538122833999
 20
-820.1291855514276
 30
0.3644860130863208
 41
0.7071067811865476
 10
-423.8538122834
 20
-720.1291855514276
 30
0.3644860130863208
 41
1.0
  0
SPLINE
  5
A2
330
1F
100
AcDbEntity
  8
cutoutline
100
AcDbSpline
210
0.0
220
0.0
230
1.0
 70
    15
 71
     2
 72
    12
 73
     9
 74
     0
 42
0.000000001
 43
0.0000000001
 40
0.0
 40
0.0
 40
0.0
 40
102.1017612416683
 40
102.1017612416683
 40
204.2035224833365
 40
204.2035224833365
 40
306.3052837250048
 40
306.3052837250048
 40
408.4070449666731
 40
408.4070449666731
 40
408.4070449666731
 10
-8.853812283399918
 20
-720.1291855514276
 30
0.3644860130863208
 41
1.0
 10
-8.853812283399922
 20
-655.1291855514276
 30
0.3644860130863208
 41
0.7071067811865476
 10
-73.85381228339992
 20
-655.1291855514276
 30
0.3644860130863208
 41
1.0
 10
-138.8538122833999
 20
-655.1291855514276
 30
0.3644860130863208
 41
0.7071067811865476
 10
-138.8538122833999
 20
-720.1291855514276
 30
0.3644860130863208
 41
1.0
 10
-138.8538122833999
 20
-785.1291855514277
 30
0.3644860130863208
 41
0.7071067811865476
 10
-73.85381228339993
 20
-785.1291855514276
 30
0.3644860130863208
 41
1.0
 10
-8.853812283399941
 20
-785.1291855514277
 30
0.3644860130863208
 41
0.7071067811865476
 10
-8.853812283399918
 20
-720.1291855514276
 30
0.3644860130863208
 41
1.0
  0
ENDSEC
  0
SECTION
  2
OBJECTS
  0
DICTIONARY
  5
C
330
0
100
AcDbDictionary
281
     1
  3
ACAD_DETAILVIEWSTYLE
350
E8
  3
ACAD_GROUP
350
D
  3
ACAD_LAYOUT
350
1A
  3
ACAD_MATERIAL
350
43
  3
ACAD_MLEADERSTYLE
350
6B
  3
ACAD_MLINESTYLE
350
17
  3
ACAD_PLOTSETTINGS
350
19
  3
ACAD_PLOTSTYLENAME
350
E
  3
ACAD_SCALELIST
350
47
  3
ACAD_SECTIONVIEWSTYLE
350
E9
  3
ACAD_TABLESTYLE
350
69
  3
ACAD_VISUALSTYLE
350
2A
  3
ACDB_RECOMPOSE_DATA
350
E5
  3
AcDbVariableDictionary
350
A5
  0
DICTIONARY
  5
A3
330
8
100
AcDbDictionary
280
     1
281
     1
  3
ACAD_XREC_ROUNDTRIP
360
A4
  0
DICTIONARY
  5
E8
102
{ACAD_REACTORS
330
C
102
}
330
C
100
AcDbDictionary
281
     1
  0
DICTIONARY
  5
D
102
{ACAD_REACTORS
330
C
102
}
330
C
100
AcDbDictionary
281
     1
  0
DICTIONARY
  5
1A
102
{ACAD_REACTORS
330
C
102
}
330
C
100
AcDbDictionary
281
     1
  3
Layout1
350
1E
  3
Layout2
350
26
  3
Model
350
22
  0
DICTIONARY
  5
43
102
{ACAD_REACTORS
330
C
102
}
330
C
100
AcDbDictionary
281
     1
  3
ByBlock
350
45
  3
ByLayer
350
44
  3
Global
350
46
  0
DICTIONARY
  5
6B
102
{ACAD_REACTORS
330
C
102
}
330
C
100
AcDbDictionary
281
     1
  3
Standard
350
6C
  0
DICTIONARY
  5
17
102
{ACAD_REACTORS
330
C
102
}
330
C
100
AcDbDictionary
281
     1
  3
Standard
350
18
  0
DICTIONARY
  5
19
102
{ACAD_REACTORS
330
C
102
}
330
C
100
AcDbDictionary
281
     1
  0
ACDBDICTIONARYWDFLT
  5
E
102
{ACAD_REACTORS
330
C
102
}
330
C
100
AcDbDictionary
281
     1
  3
Normal
350
F
100
AcDbDictionaryWithDefault
340
F
  0
DICTIONARY
  5
47
102
{ACAD_REACTORS
330
C
102
}
330
C
100
AcDbDictionary
281
     1
  3
A0
350
48
  3
A1
350
49
  3
A2
350
4A
  3
A3
350
4B
  3
A4
350
4C
  3
A5
350
4D
  3
A6
350
4E
  3
A7
350
4F
  3
A8
350
50
  3
A9
350
51
  3
B0
350
52
  3
B1
350
53
  3
B2
350
54
  3
B3
350
55
  3
B4
350
56
  3
B5
350
57
  3
B6
350
58
  3
B7
350
59
  3
B8
350
5A
  3
B9
350
5B
  3
C0
350
5C
  3
C1
350
5D
  3
C2
350
5E
  3
C3
350
5F
  3
C4
350
60
  3
C5
350
61
  3
C6
350
62
  3
C7
350
63
  3
C8
350
64
  3
C9
350
65
  3
D0
350
66
  3
D1
350
67
  3
D2
350
68
  0
DICTIONARY
  5
E9
102
{ACAD_REACTORS
330
C
102
}
330
C
100
AcDbDictionary
281
     1
  0
DICTIONARY
  5
69
102
{ACAD_REACTORS
330
C
102
}
330
C
100
AcDbDictionary
281
     1
  3
Standard
350
6A
  0
DICTIONARY
  5
2A
102
{ACAD_REACTORS
330
C
102
}
330
C
100
AcDbDictionary
281
     1
  3
2dWireframe
350
2F
  3
Basic
350
32
  3
Brighten
350
36
  3
ColorChange
350
3A
  3
Conceptual
350
34
  3
Dim
350
35
  3
EdgeColorOff
350
3D
  3
Facepattern
350
39
  3
Flat
350
2B
  3
FlatWithEdges
350
2C
  3
Gouraud
350
2D
  3
GouraudWithEdges
350
2E
  3
Hidden
350
31
  3
JitterOff
350
3B
  3
Linepattern
350
38
  3
OverhangOff
350
3C
  3
Realistic
350
33
  3
Shaded
350
42
  3
Shaded with edges
350
41
  3
Shades of Gray
350
3E
  3
Sketchy
350
3F
  3
Thicken
350
37
  3
Wireframe
350
30
  3
X-Ray
350
40
  0
XRECORD
  5
E5
102
{ACAD_REACTORS
330
C
102
}
330
C
100
AcDbXrecord
280
     1
 90
        1
330
6A
  0
DICTIONARY
  5
A5
102
{ACAD_REACTORS
330
C
102
}
330
C
100
AcDbDictionary
281
     1
  3
CANNOSCALE
350
A6
  3
CMLEADERSTYLE
350
E7
  3
CTABLESTYLE
350
E6
  3
MSLTSCALE
350
A7
  3
XCLIPFRAME
350
A8
  0
XRECORD
  5
A4
102
{ACAD_REACTORS
330
A3
102
}
330
A3
100
AcDbXrecord
280
     1
102
VTR_0.000_0.000_1.000_1.000_GRIDDISPLAY
 70
     3
102
VTR_0.000_0.000_1.000_1.000_GRIDMAJOR
 70
     5
102
VTR_0.000_0.000_1.000_1.000_DEFAULTLIGHTING
280
     1
102
VTR_0.000_0.000_1.000_1.000_DEFAULTLIGHTINGTYPE
 70
     1
102
VTR_0.000_0.000_1.000_1.000_BRIGHTNESS
141
0.0
102
VTR_0.000_0.000_1.000_1.000_CONTRAST
142
0.0
  0
LAYOUT
  5
1E
102
{ACAD_REACTORS
330
1A
102
}
330
1A
100
AcDbPlotSettings
  1

  2
none_device
  4

  6

 40
0.0
 41
0.0
 42
0.0
 43
0.0
 44
0.0
 45
0.0
 46
0.0
 47
0.0
 48
0.0
 49
0.0
140
0.0
141
0.0
142
1.0
143
1.0
 70
   688
 72
     0
 73
     0
 74
     5
  7

 75
    16
 76
     0
 77
     2
 78
   300
147
1.0
148
0.0
149
0.0
100
AcDbLayout
  1
Layout1
 70
     1
 71
     1
 10
0.0
 20
0.0
 11
12.0
 21
9.0
 12
0.0
 22
0.0
 32
0.0
 14
1.000000000000000E+20
 24
1.000000000000000E+20
 34
1.000000000000000E+20
 15
-1.000000000000000E+20
 25
-1.000000000000000E+20
 35
-1.000000000000000E+20
146
0.0
 13
0.0
 23
0.0
 33
0.0
 16
1.0
 26
0.0
 36
0.0
 17
0.0
 27
1.0
 37
0.0
 76
     0
330
1B
  0
LAYOUT
  5
26
102
{ACAD_REACTORS
330
1A
102
}
330
1A
100
AcDbPlotSettings
  1

  2
none_device
  4

  6

 40
0.0
 41
0.0
 42
0.0
 43
0.0
 44
0.0
 45
0.0
 46
0.0
 47
0.0
 48
0.0
 49
0.0
140
0.0
141
0.0
142
1.0
143
1.0
 70
   688
 72
     0
 73
     0
 74
     5
  7

 75
    16
 76
     0
 77
     2
 78
   300
147
1.0
148
0.0
149
0.0
100
AcDbLayout
  1
Layout2
 70
     1
 71
     2
 10
0.0
 20
0.0
 11
0.0
 21
0.0
 12
0.0
 22
0.0
 32
0.0
 14
0.0
 24
0.0
 34
0.0
 15
0.0
 25
0.0
 35
0.0
146
0.0
 13
0.0
 23
0.0
 33
0.0
 16
1.0
 26
0.0
 36
0.0
 17
0.0
 27
1.0
 37
0.0
 76
     0
330
23
  0
LAYOUT
  5
22
102
{ACAD_REACTORS
330
1A
102
}
330
1A
100
AcDbPlotSettings
  1

  2
none_device
  4
Letter_(8.50_x_11.00_Inches)
  6

 40
6.35
 41
6.35
 42
6.35000508
 43
6.35000508
 44
215.9
 45
279.4
 46
0.0
 47
0.0
 48
0.0
 49
0.0
140
0.0
141
0.0
142
1.0
143
1.0
 70
  1712
 72
     0
 73
     0
 74
     0
  7

 75
     0
 76
     0
 77
     2
 78
   300
147
1.0
148
0.0
149
0.0
100
AcDbLayout
  1
Model
 70
     1
 71
     0
 10
0.0
 20
0.0
 11
12.0
 21
9.0
 12
0.0
 22
0.0
 32
0.0
 14
-1220.0
 24
-1286.014445213667
 34
0.3644860130863207
 15
1220.0
 25
-66.0144452136667
 35
0.3644860130863209
146
0.0
 13
0.0
 23
0.0
 33
0.0
 16
1.0
 26
0.0
 36
0.0
 17
0.0
 27
1.0
 37
0.0
 76
     0
330
1F
331
29
  0
MATERIAL
  5
45
102
{ACAD_REACTORS
330
43
102
}
102
{ACAD_XDICTIONARY
360
DB
102
}
330
43
100
AcDbMaterial
  1
ByBlock
  0
MATERIAL
  5
44
102
{ACAD_REACTORS
330
43
102
}
102
{ACAD_XDICTIONARY
360
D9
102
}
330
43
100
AcDbMaterial
  1
ByLayer
  0
MATERIAL
  5
46
102
{ACAD_REACTORS
330
43
102
}
102
{ACAD_XDICTIONARY
360
DD
102
}
330
43
100
AcDbMaterial
  1
Global
  0
MLEADERSTYLE
  5
6C
102
{ACAD_REACTORS
330
6B
102
}
102
{ACAD_XDICTIONARY
360
E3
102
}
330
6B
100
AcDbMLeaderStyle
170
     2
171
     1
172
     0
 90
        2
 40
0.0
 41
0.0
173
     1
 91
-1056964608
340
14
 92
       -2
290
     1
 42
0.09
291
     1
 43
0.36
  3
Standard
341
0
 44
0.18
300

342
11
174
     1
178
     6
175
     1
176
     0
 93
-1056964608
 45
0.18
292
     0
297
     0
 46
0.18
343
0
 94
-1056964608
 47
1.0
 49
1.0
140
1.0
293
     1
141
0.0
294
     1
177
     0
142
1.0
295
     0
296
     0
143
0.125
1001
ACAD_MLEADERVER
1070
     2
  0
MLINESTYLE
  5
18
102
{ACAD_REACTORS
330
17
102
}
330
17
100
AcDbMlineStyle
  2
Standard
 70
     0
  3

 62
   256
 51
90.0
 52
90.0
 71
     2
 49
0.5
 62
   256
  6
BYLAYER
 49
-0.5
 62
   256
  6
BYLAYER
  0
ACDBPLACEHOLDER
  5
F
102
{ACAD_REACTORS
330
E
102
}
330
E
  0
SCALE
  5
48
102
{ACAD_REACTORS
330
47
102
}
330
47
100
AcDbScale
 70
     0
300
1:1
140
1.0
141
1.0
290
     1
  0
SCALE
  5
49
102
{ACAD_REACTORS
330
47
102
}
330
47
100
AcDbScale
 70
     0
300
1:2
140
1.0
141
2.0
290
     0
  0
SCALE
  5
4A
102
{ACAD_REACTORS
330
47
102
}
330
47
100
AcDbScale
 70
     0
300
1:4
140
1.0
141
4.0
290
     0
  0
SCALE
  5
4B
102
{ACAD_REACTORS
330
47
102
}
330
47
100
AcDbScale
 70
     0
300
1:5
140
1.0
141
5.0
290
     0
  0
SCALE
  5
4C
102
{ACAD_REACTORS
330
47
102
}
330
47
100
AcDbScale
 70
     0
300
1:8
140
1.0
141
8.0
290
     0
  0
SCALE
  5
4D
102
{ACAD_REACTORS
330
47
102
}
330
47
100
AcDbScale
 70
     0
300
1:10
140
1.0
141
10.0
290
     0
  0
SCALE
  5
4E
102
{ACAD_REACTORS
330
47
102
}
330
47
100
AcDbScale
 70
     0
300
1:16
140
1.0
141
16.0
290
     0
  0
SCALE
  5
4F
102
{ACAD_REACTORS
330
47
102
}
330
47
100
AcDbScale
 70
     0
300
1:20
140
1.0
141
20.0
290
     0
  0
SCALE
  5
50
102
{ACAD_REACTORS
330
47
102
}
330
47
100
AcDbScale
 70
     0
300
1:30
140
1.0
141
30.0
290
     0
  0
SCALE
  5
51
102
{ACAD_REACTORS
330
47
102
}
330
47
100
AcDbScale
 70
     0
300
1:40
140
1.0
141
40.0
290
     0
  0
SCALE
  5
52
102
{ACAD_REACTORS
330
47
102
}
330
47
100
AcDbScale
 70
     0
300
1:50
140
1.0
141
50.0
290
     0
  0
SCALE
  5
53
102
{ACAD_REACTORS
330
47
102
}
330
47
100
AcDbScale
 70
     0
300
1:100
140
1.0
141
100.0
290
     0
  0
SCALE
  5
54
102
{ACAD_REACTORS
330
47
102
}
330
47
100
AcDbScale
 70
     0
300
2:1
140
2.0
141
1.0
290
     0
  0
SCALE
  5
55
102
{ACAD_REACTORS
330
47
102
}
330
47
100
AcDbScale
 70
     0
300
4:1
140
4.0
141
1.0
290
     0
  0
SCALE
  5
56
102
{ACAD_REACTORS
330
47
102
}
330
47
100
AcDbScale
 70
     0
300
8:1
140
8.0
141
1.0
290
     0
  0
SCALE
  5
57
102
{ACAD_REACTORS
330
47
102
}
330
47
100
AcDbScale
 70
     0
300
10:1
140
10.0
141
1.0
290
     0
  0
SCALE
  5
58
102
{ACAD_REACTORS
330
47
102
}
330
47
100
AcDbScale
 70
     0
300
100:1
140
100.0
141
1.0
290
     0
  0
SCALE
  5
59
102
{ACAD_REACTORS
330
47
102
}
330
47
100
AcDbScale
 70
     0
300
1/128" = 1'-0"
140
0.0078125
141
12.0
290
     0
  0
SCALE
  5
5A
102
{ACAD_REACTORS
330
47
102
}
330
47
100
AcDbScale
 70
     0
300
1/64" = 1'-0"
140
0.015625
141
12.0
290
     0
  0
SCALE
  5
5B
102
{ACAD_REACTORS
330
47
102
}
330
47
100
AcDbScale
 70
     0
300
1/32" = 1'-0"
140
0.03125
141
12.0
290
     0
  0
SCALE
  5
5C
102
{ACAD_REACTORS
330
47
102
}
330
47
100
AcDbScale
 70
     0
300
1/16" = 1'-0"
140
0.0625
141
12.0
290
     0
  0
SCALE
  5
5D
102
{ACAD_REACTORS
330
47
102
}
330
47
100
AcDbScale
 70
     0
300
3/32" = 1'-0"
140
0.09375
141
12.0
290
     0
  0
SCALE
  5
5E
102
{ACAD_REACTORS
330
47
102
}
330
47
100
AcDbScale
 70
     0
300
1/8" = 1'-0"
140
0.125
141
12.0
290
     0
  0
SCALE
  5
5F
102
{ACAD_REACTORS
330
47
102
}
330
47
100
AcDbScale
 70
     0
300
3/16" = 1'-0"
140
0.1875
141
12.0
290
     0
  0
SCALE
  5
60
102
{ACAD_REACTORS
330
47
102
}
330
47
100
AcDbScale
 70
     0
300
1/4" = 1'-0"
140
0.25
141
12.0
290
     0
  0
SCALE
  5
61
102
{ACAD_REACTORS
330
47
102
}
330
47
100
AcDbScale
 70
     0
300
3/8" = 1'-0"
140
0.375
141
12.0
290
     0
  0
SCALE
  5
62
102
{ACAD_REACTORS
330
47
102
}
330
47
100
AcDbScale
 70
     0
300
1/2" = 1'-0"
140
0.5
141
12.0
290
     0
  0
SCALE
  5
63
102
{ACAD_REACTORS
330
47
102
}
330
47
100
AcDbScale
 70
     0
300
3/4" = 1'-0"
140
0.75
141
12.0
290
     0
  0
SCALE
  5
64
102
{ACAD_REACTORS
330
47
102
}
330
47
100
AcDbScale
 70
     0
300
1" = 1'-0"
140
1.0
141
12.0
290
     0
  0
SCALE
  5
65
102
{ACAD_REACTORS
330
47
102
}
330
47
100
AcDbScale
 70
     0
300
1-1/2" = 1'-0"
140
1.5
141
12.0
290
     0
  0
SCALE
  5
66
102
{ACAD_REACTORS
330
47
102
}
330
47
100
AcDbScale
 70
     0
300
3" = 1'-0"
140
3.0
141
12.0
290
     0
  0
SCALE
  5
67
102
{ACAD_REACTORS
330
47
102
}
330
47
100
AcDbScale
 70
     0
300
6" = 1'-0"
140
6.0
141
12.0
290
     0
  0
SCALE
  5
68
102
{ACAD_REACTORS
330
47
102
}
330
47
100
AcDbScale
 70
     0
300
1'-0" = 1'-0"
140
12.0
141
12.0
290
     0
  0
TABLESTYLE
  5
6A
102
{ACAD_REACTORS
330
69
102
}
102
{ACAD_XDICTIONARY
360
DF
102
}
330
69
100
AcDbTableStyle
  3
Standard
 70
     0
 71
     0
 40
0.06
 41
0.06
280
     0
281
     0
  7
Standard
140
0.18
170
     2
 62
     0
 63
   257
283
     0
274
    -2
284
     1
 64
     0
275
    -2
285
     1
 65
     0
276
    -2
286
     1
 66
     0
277
    -2
287
     1
 67
     0
278
    -2
288
     1
 68
     0
279
    -2
289
     1
 69
     0
  7
Standard
140
0.25
170
     5
 62
     0
 63
   257
283
     0
274
    -2
284
     1
 64
     0
275
    -2
285
     1
 65
     0
276
    -2
286
     1
 66
     0
277
    -2
287
     1
 67
     0
278
    -2
288
     1
 68
     0
279
    -2
289
     1
 69
     0
  7
Standard
140
0.18
170
     5
 62
     0
 63
   257
283
     0
274
    -2
284
     1
 64
     0
275
    -2
285
     1
 65
     0
276
    -2
286
     1
 66
     0
277
    -2
287
     1
 67
     0
278
    -2
288
     1
 68
     0
279
    -2
289
     1
 69
     0
  0
VISUALSTYLE
  5
2F
102
{ACAD_REACTORS
330
2A
102
}
102
{ACAD_XDICTIONARY
360
B1
102
}
330
2A
100
AcDbVisualStyle
  2
2dWireframe
 70
     4
 71
     0
 72
     2
 73
     0
 90
        0
 40
0.6
 41
30.0
 62
     5
 63
     7
421
 16777215
 74
     1
 91
        4
 64
     7
 65
   257
 75
     1
175
     1
 42
1.0
 92
        0
 66
   257
 43
1.0
 76
     1
 77
     6
 78
     2
 67
     7
 79
     5
170
     0
171
     0
290
     0
174
     0
 93
        1
 44
0.0
173
     0
291
     0
 45
0.0
1001
ACAD
1000
AcDbSavedByObjectVersion
1070
     0
  0
VISUALSTYLE
  5
32
102
{ACAD_REACTORS
330
2A
102
}
102
{ACAD_XDICTIONARY
360
B7
102
}
330
2A
100
AcDbVisualStyle
  2
Basic
 70
     7
 71
     1
 72
     0
 73
     1
 90
        0
 40
0.6
 41
30.0
 62
     5
 63
     7
421
 16777215
 74
     0
 91
        4
 64
     7
 65
   257
 75
     1
175
     1
 42
1.0
 92
        8
 66
     7
 43
1.0
 76
     1
 77
     6
 78
     2
 67
     7
 79
     5
170
     0
171
     0
290
     0
174
     0
 93
        1
 44
0.0
173
     0
291
     1
 45
0.0
1001
ACAD
1000
AcDbSavedByObjectVersion
1070
     0
  0
VISUALSTYLE
  5
36
102
{ACAD_REACTORS
330
2A
102
}
102
{ACAD_XDICTIONARY
360
BF
102
}
330
2A
100
AcDbVisualStyle
  2
Brighten
 70
    12
 71
     2
 72
     2
 73
     0
 90
        0
 40
0.6
 41
30.0
 62
     5
 63
     7
421
 16777215
 74
     1
 91
        4
 64
     7
 65
   257
 75
     1
175
     1
 42
1.0
 92
        8
 66
     7
 43
1.0
 76
     1
 77
     6
 78
     2
 67
     7
 79
     5
170
     0
171
     0
290
     0
174
     0
 93
        1
 44
50.0
173
     0
291
     1
 45
0.0
1001
ACAD
1000
AcDbSavedByObjectVersion
1070
     0
  0
VISUALSTYLE
  5
3A
102
{ACAD_REACTORS
330
2A
102
}
102
{ACAD_XDICTIONARY
360
C7
102
}
330
2A
100
AcDbVisualStyle
  2
ColorChange
 70
    16
 71
     2
 72
     2
 73
     3
 90
        0
 40
0.6
 41
30.0
 62
     5
 63
     8
421
  8421504
 74
     1
 91
        4
 64
     7
 65
   257
 75
     1
175
     1
 42
1.0
 92
        8
 66
     8
424
  8421504
 43
1.0
 76
     1
 77
     6
 78
     2
 67
     7
 79
     5
170
     0
171
     0
290
     0
174
     0
 93
        1
 44
0.0
173
     0
291
     1
 45
0.0
1001
ACAD
1000
AcDbSavedByObjectVersion
1070
     0
  0
VISUALSTYLE
  5
34
102
{ACAD_REACTORS
330
2A
102
}
102
{ACAD_XDICTIONARY
360
BB
102
}
330
2A
100
AcDbVisualStyle
  2
Conceptual
 70
     9
 71
     3
 72
     2
 73
     0
 90
        0
 40
0.6
 41
30.0
 62
     5
 63
     7
421
 16777215
 74
     2
 91
        2
 64
     7
 65
   257
 75
     1
175
     1
 42
179.0
 92
        8
 66
     7
 43
1.0
 76
     1
 77
     6
 78
     2
 67
     7
 79
     3
170
     0
171
     0
290
     0
174
     0
 93
        1
 44
0.0
173
     0
291
     0
 45
0.0
1001
ACAD
1000
AcDbSavedByObjectVersion
1070
     0
  0
VISUALSTYLE
  5
35
102
{ACAD_REACTORS
330
2A
102
}
102
{ACAD_XDICTIONARY
360
BD
102
}
330
2A
100
AcDbVisualStyle
  2
Dim
 70
    11
 71
     2
 72
     2
 73
     0
 90
        0
 40
0.6
 41
30.0
 62
     5
 63
     7
421
 16777215
 74
     1
 91
        4
 64
     7
 65
   257
 75
     1
175
     1
 42
1.0
 92
        8
 66
     7
 43
1.0
 76
     1
 77
     6
 78
     2
 67
     7
 79
     5
170
     0
171
     0
290
     0
174
     0
 93
        1
 44
-50.0
173
     0
291
     1
 45
0.0
1001
ACAD
1000
AcDbSavedByObjectVersion
1070
     0
  0
VISUALSTYLE
  5
3D
102
{ACAD_REACTORS
330
2A
102
}
102
{ACAD_XDICTIONARY
360
CD
102
}
330
2A
100
AcDbVisualStyle
  2
EdgeColorOff
 70
    22
 71
     2
 72
     2
 73
     0
 90
        0
 40
0.6
 41
30.0
 62
     5
 63
     7
421
 16777215
 74
     1
 91
        4
 64
     7
 65
   257
 75
     1
175
     1
 42
1.0
 92
        8
 66
     7
 43
1.0
 76
     1
 77
     6
 78
     2
 67
     7
 79
     5
170
     0
171
     0
290
     0
174
     0
 93
        1
 44
0.0
173
     0
291
     1
 45
0.0
1001
ACAD
1000
AcDbSavedByObjectVersion
1070
     0
  0
VISUALSTYLE
  5
39
102
{ACAD_REACTORS
330
2A
102
}
102
{ACAD_XDICTIONARY
360
C5
102
}
330
2A
100
AcDbVisualStyle
  2
Facepattern
 70
    15
 71
     2
 72
     2
 73
     0
 90
        0
 40
0.6
 41
30.0
 62
     5
 63
     7
421
 16777215
 74
     1
 91
        4
 64
     7
 65
   257
 75
     1
175
     1
 42
1.0
 92
        8
 66
     7
 43
1.0
 76
     1
 77
     6
 78
     2
 67
     7
 79
     5
170
     0
171
     0
290
     0
174
     0
 93
        1
 44
0.0
173
     0
291
     1
 45
0.0
1001
ACAD
1000
AcDbSavedByObjectVersion
1070
     0
  0
VISUALSTYLE
  5
2B
102
{ACAD_REACTORS
330
2A
102
}
102
{ACAD_XDICTIONARY
360
A9
102
}
330
2A
100
AcDbVisualStyle
  2
Flat
 70
     0
 71
     2
 72
     1
 73
     1
 90
        2
 40
0.6
 41
30.0
 62
     5
 63
     7
421
 16777215
 74
     0
 91
        0
 64
     7
 65
   257
 75
     1
175
     1
 42
1.0
 92
        8
 66
     7
 43
1.0
 76
     1
 77
     6
 78
     2
 67
     7
 79
     5
170
     0
171
     0
290
     0
174
     0
 93
       13
 44
0.0
173
     0
291
     1
 45
0.0
1001
ACAD
1000
AcDbSavedByObjectVersion
1070
     0
  0
VISUALSTYLE
  5
2C
102
{ACAD_REACTORS
330
2A
102
}
102
{ACAD_XDICTIONARY
360
AB
102
}
330
2A
100
AcDbVisualStyle
  2
FlatWithEdges
 70
     1
 71
     2
 72
     1
 73
     1
 90
        2
 40
0.6
 41
30.0
 62
     5
 63
     7
421
 16777215
 74
     1
 91
        0
 64
     7
 65
   257
 75
     1
175
     1
 42
1.0
 92
        0
 66
   257
 43
1.0
 76
     1
 77
     6
 78
     2
 67
     7
 79
     5
170
     0
171
     0
290
     0
174
     0
 93
       13
 44
0.0
173
     0
291
     1
 45
0.0
1001
ACAD
1000
AcDbSavedByObjectVersion
1070
     0
  0
VISUALSTYLE
  5
2D
102
{ACAD_REACTORS
330
2A
102
}
102
{ACAD_XDICTIONARY
360
AD
102
}
330
2A
100
AcDbVisualStyle
  2
Gouraud
 70
     2
 71
     2
 72
     2
 73
     1
 90
        2
 40
0.6
 41
30.0
 62
     5
 63
     7
421
 16777215
 74
     0
 91
        0
 64
     7
 65
   257
 75
     1
175
     1
 42
1.0
 92
        0
 66
     7
 43
1.0
 76
     1
 77
     6
 78
     2
 67
     7
 79
     5
170
     0
171
     0
290
     0
174
     0
 93
       13
 44
0.0
173
     0
291
     1
 45
0.0
1001
ACAD
1000
AcDbSavedByObjectVersion
1070
     0
  0
VISUALSTYLE
  5
2E
102
{ACAD_REACTORS
330
2A
102
}
102
{ACAD_XDICTIONARY
360
AF
102
}
330
2A
100
AcDbVisualStyle
  2
GouraudWithEdges
 70
     3
 71
     2
 72
     2
 73
     1
 90
        2
 40
0.6
 41
30.0
 62
     5
 63
     7
421
 16777215
 74
     1
 91
        0
 64
     7
 65
   257
 75
     1
175
     1
 42
1.0
 92
        0
 66
   257
 43
1.0
 76
     1
 77
     6
 78
     2
 67
     7
 79
     5
170
     0
171
     0
290
     0
174
     0
 93
       13
 44
0.0
173
     0
291
     1
 45
0.0
1001
ACAD
1000
AcDbSavedByObjectVersion
1070
     0
  0
VISUALSTYLE
  5
31
102
{ACAD_REACTORS
330
2A
102
}
102
{ACAD_XDICTIONARY
360
B5
102
}
330
2A
100
AcDbVisualStyle
  2
Hidden
 70
     6
 71
     1
 72
     2
 73
     2
 90
        0
 40
0.6
 41
30.0
 62
     5
 63
     7
421
 16777215
 74
     2
 91
        2
 64
     7
 65
   257
 75
     2
175
     1
 42
40.0
 92
        0
 66
   257
 43
1.0
 76
     1
 77
     6
 78
     2
 67
     7
 79
     3
170
     0
171
     0
290
     0
174
     0
 93
        1
 44
0.0
173
     0
291
     0
 45
0.0
1001
ACAD
1000
AcDbSavedByObjectVersion
1070
     0
  0
VISUALSTYLE
  5
3B
102
{ACAD_REACTORS
330
2A
102
}
102
{ACAD_XDICTIONARY
360
C9
102
}
330
2A
100
AcDbVisualStyle
  2
JitterOff
 70
    20
 71
     2
 72
     2
 73
     0
 90
        0
 40
0.6
 41
30.0
 62
     5
 63
     7
421
 16777215
 74
     1
 91
        4
 64
     7
 65
   257
 75
     1
175
     1
 42
1.0
 92
       10
 66
     7
 43
1.0
 76
     1
 77
     6
 78
     2
 67
     7
 79
     5
170
     0
171
     0
290
     0
174
     0
 93
        1
 44
0.0
173
     0
291
     1
 45
0.0
1001
ACAD
1000
AcDbSavedByObjectVersion
1070
     0
  0
VISUALSTYLE
  5
38
102
{ACAD_REACTORS
330
2A
102
}
102
{ACAD_XDICTIONARY
360
C3
102
}
330
2A
100
AcDbVisualStyle
  2
Linepattern
 70
    14
 71
     2
 72
     2
 73
     0
 90
        0
 40
0.6
 41
30.0
 62
     5
 63
     7
421
 16777215
 74
     1
 91
        4
 64
     7
 65
   257
 75
     7
175
     7
 42
1.0
 92
        8
 66
     7
 43
1.0
 76
     1
 77
     6
 78
     2
 67
     7
 79
     5
170
     0
171
     0
290
     0
174
     0
 93
        1
 44
0.0
173
     0
291
     1
 45
0.0
1001
ACAD
1000
AcDbSavedByObjectVersion
1070
     0
  0
VISUALSTYLE
  5
3C
102
{ACAD_REACTORS
330
2A
102
}
102
{ACAD_XDICTIONARY
360
CB
102
}
330
2A
100
AcDbVisualStyle
  2
OverhangOff
 70
    21
 71
     2
 72
     2
 73
     0
 90
        0
 40
0.6
 41
30.0
 62
     5
 63
     7
421
 16777215
 74
     1
 91
        4
 64
     7
 65
   257
 75
     1
175
     1
 42
1.0
 92
        9
 66
     7
 43
1.0
 76
     1
 77
     6
 78
     2
 67
     7
 79
     5
170
     0
171
     0
290
     0
174
     0
 93
        1
 44
0.0
173
     0
291
     1
 45
0.0
1001
ACAD
1000
AcDbSavedByObjectVersion
1070
     0
  0
VISUALSTYLE
  5
33
102
{ACAD_REACTORS
330
2A
102
}
102
{ACAD_XDICTIONARY
360
B9
102
}
330
2A
100
AcDbVisualStyle
  2
Realistic
 70
     8
 71
     2
 72
     3
 73
     0
 90
        2
 40
0.6
 41
30.0
 62
     5
 63
     7
421
 16777215
 74
     0
 91
        0
 64
     7
 65
   257
 75
     1
175
     1
 42
1.0
 92
        8
 66
   257
 43
1.0
 76
     1
 77
     6
 78
     2
 67
     7
 79
     3
170
     0
171
     0
290
     0
174
     0
 93
       13
 44
0.0
173
     0
291
     0
 45
0.0
1001
ACAD
1000
AcDbSavedByObjectVersion
1070
     0
  0
VISUALSTYLE
  5
42
102
{ACAD_REACTORS
330
2A
102
}
102
{ACAD_XDICTIONARY
360
D7
102
}
330
2A
100
AcDbVisualStyle
  2
Shaded
 70
    27
 71
     2
 72
     2
 73
     1
 90
        2
 40
0.6
 41
30.0
 62
     5
 63
     7
421
 16777215
 74
     0
 91
        4
 64
     7
 65
   257
 75
     1
175
     1
 42
1.0
 92
        8
 66
   257
 43
1.0
 76
     1
 77
     6
 78
     2
 67
     8
425
  7895160
 79
     3
170
     0
171
     0
290
     0
174
     0
 93
        5
 44
0.0
173
     0
291
     0
 45
0.0
1001
ACAD
1000
AcDbSavedByObjectVersion
1070
     0
  0
VISUALSTYLE
  5
41
102
{ACAD_REACTORS
330
2A
102
}
102
{ACAD_XDICTIONARY
360
D5
102
}
330
2A
100
AcDbVisualStyle
  2
Shaded with edges
 70
    26
 71
     2
 72
     2
 73
     1
 90
        2
 40
0.6
 41
30.0
 62
     5
 63
     7
421
 16777215
 74
     1
 91
       10
 64
     7
 65
   257
 75
     2
175
     1
 42
1.0
 92
        8
 66
   257
 43
1.0
 76
     1
 77
     6
 78
     2
 67
     7
 79
     3
170
     0
171
     0
290
     0
174
     0
 93
        5
 44
0.0
173
     0
291
     0
 45
0.0
1001
ACAD
1000
AcDbSavedByObjectVersion
1070
     0
  0
VISUALSTYLE
  5
3E
102
{ACAD_REACTORS
330
2A
102
}
102
{ACAD_XDICTIONARY
360
CF
102
}
330
2A
100
AcDbVisualStyle
  2
Shades of Gray
 70
    23
 71
     2
 72
     2
 73
     3
 90
        0
 40
0.6
 41
30.0
 62
     5
 63
     7
421
 16777215
 74
     2
 91
        2
 64
     7
 65
     7
 75
     1
175
     1
 42
40.0
 92
        8
 66
     7
 43
1.0
 76
     1
 77
     6
 78
     2
 67
     7
 79
     3
170
     0
171
     0
290
     0
174
     0
 93
        1
 44
0.0
173
     0
291
     0
 45
0.0
1001
ACAD
1000
AcDbSavedByObjectVersion
1070
     0
  0
VISUALSTYLE
  5
3F
102
{ACAD_REACTORS
330
2A
102
}
102
{ACAD_XDICTIONARY
360
D1
102
}
330
2A
100
AcDbVisualStyle
  2
Sketchy
 70
    24
 71
     1
 72
     2
 73
     2
 90
        0
 40
0.6
 41
30.0
 62
     5
 63
     7
421
 16777215
 74
     2
 91
        2
 64
     7
 65
     7
 75
     1
175
     1
 42
40.0
 92
       11
 66
     7
 43
1.0
 76
     1
 77
     6
 78
     2
 67
     7
 79
     6
170
     0
171
     0
290
     0
174
     0
 93
        1
 44
0.0
173
     0
291
     0
 45
0.0
1001
ACAD
1000
AcDbSavedByObjectVersion
1070
     0
  0
VISUALSTYLE
  5
37
102
{ACAD_REACTORS
330
2A
102
}
102
{ACAD_XDICTIONARY
360
C1
102
}
330
2A
100
AcDbVisualStyle
  2
Thicken
 70
    13
 71
     2
 72
     2
 73
     0
 90
        0
 40
0.6
 41
30.0
 62
     5
 63
     7
421
 16777215
 74
     1
 91
        4
 64
     7
 65
   257
 75
     1
175
     1
 42
1.0
 92
       12
 66
     7
 43
1.0
 76
     1
 77
     6
 78
     2
 67
     7
 79
     5
170
     0
171
     0
290
     0
174
     0
 93
        1
 44
0.0
173
     0
291
     1
 45
0.0
1001
ACAD
1000
AcDbSavedByObjectVersion
1070
     0
  0
VISUALSTYLE
  5
30
102
{ACAD_REACTORS
330
2A
102
}
102
{ACAD_XDICTIONARY
360
B3
102
}
330
2A
100
AcDbVisualStyle
  2
Wireframe
 70
     5
 71
     0
 72
     2
 73
     0
 90
        0
 40
0.6
 41
30.0
 62
     5
 63
     7
421
 16777215
 74
     1
 91
        4
 64
     7
 65
   257
 75
     1
175
     1
 42
1.0
 92
        0
 66
   257
 43
1.0
 76
     1
 77
     6
 78
     2
 67
     7
 79
     3
170
     0
171
     0
290
     0
174
     0
 93
        1
 44
0.0
173
     0
291
     0
 45
0.0
1001
ACAD
1000
AcDbSavedByObjectVersion
1070
     0
  0
VISUALSTYLE
  5
40
102
{ACAD_REACTORS
330
2A
102
}
102
{ACAD_XDICTIONARY
360
D3
102
}
330
2A
100
AcDbVisualStyle
  2
X-Ray
 70
    25
 71
     2
 72
     2
 73
     1
 90
        1
 40
0.5
 41
30.0
 62
     5
 63
     7
421
 16777215
 74
     1
 91
        0
 64
     7
 65
   257
 75
     1
175
     1
 42
1.0
 92
        8
 66
     7
 43
1.0
 76
     1
 77
     6
 78
     2
 67
     7
 79
     3
170
     0
171
     0
290
     0
174
     0
 93
       13
 44
0.0
173
     0
291
     0
 45
0.0
1001
ACAD
1000
AcDbSavedByObjectVersion
1070
     0
  0
DICTIONARYVAR
  5
A6
102
{ACAD_REACTORS
330
A5
102
}
330
A5
100
DictionaryVariables
280
     0
  1
1:1
  0
DICTIONARYVAR
  5
E7
102
{ACAD_REACTORS
330
A5
102
}
330
A5
100
DictionaryVariables
280
     0
  1
Standard
  0
DICTIONARYVAR
  5
E6
102
{ACAD_REACTORS
330
A5
102
}
330
A5
100
DictionaryVariables
280
     0
  1
Standard
  0
DICTIONARYVAR
  5
A7
102
{ACAD_REACTORS
330
A5
102
}
330
A5
100
DictionaryVariables
280
     0
  1
1
  0
DICTIONARYVAR
  5
A8
102
{ACAD_REACTORS
330
A5
102
}
330
A5
100
DictionaryVariables
280
     0
  1
2
  0
DICTIONARY
  5
DB
330
45
100
AcDbDictionary
280
     1
281
     1
  3
ACAD_XREC_ROUNDTRIP
360
DC
  0
DICTIONARY
  5
D9
330
44
100
AcDbDictionary
280
     1
281
     1
  3
ACAD_XREC_ROUNDTRIP
360
DA
  0
DICTIONARY
  5
DD
330
46
100
AcDbDictionary
280
     1
281
     1
  3
ACAD_XREC_ROUNDTRIP
360
DE
  0
DICTIONARY
  5
E3
330
6C
100
AcDbDictionary
280
     1
281
     1
  3
ACAD_XREC_ROUNDTRIP
360
E4
  0
DICTIONARY
  5
DF
330
6A
100
AcDbDictionary
280
     1
281
     1
  3
ACAD_ROUNDTRIP_2008_TABLESTYLE_CELLSTYLEMAP
360
E1
  3
ACAD_XREC_ROUNDTRIP
360
E0
  0
DICTIONARY
  5
B1
330
2F
100
AcDbDictionary
280
     1
281
     1
  3
ACAD_XREC_ROUNDTRIP
360
B2
  0
DICTIONARY
  5
B7
330
32
100
AcDbDictionary
280
     1
281
     1
  3
ACAD_XREC_ROUNDTRIP
360
B8
  0
DICTIONARY
  5
BF
330
36
100
AcDbDictionary
280
     1
281
     1
  3
ACAD_XREC_ROUNDTRIP
360
C0
  0
DICTIONARY
  5
C7
330
3A
100
AcDbDictionary
280
     1
281
     1
  3
ACAD_XREC_ROUNDTRIP
360
C8
  0
DICTIONARY
  5
BB
330
34
100
AcDbDictionary
280
     1
281
     1
  3
ACAD_XREC_ROUNDTRIP
360
BC
  0
DICTIONARY
  5
BD
330
35
100
AcDbDictionary
280
     1
281
     1
  3
ACAD_XREC_ROUNDTRIP
360
BE
  0
DICTIONARY
  5
CD
330
3D
100
AcDbDictionary
280
     1
281
     1
  3
ACAD_XREC_ROUNDTRIP
360
CE
  0
DICTIONARY
  5
C5
330
39
100
AcDbDictionary
280
     1
281
     1
  3
ACAD_XREC_ROUNDTRIP
360
C6
  0
DICTIONARY
  5
A9
330
2B
100
AcDbDictionary
280
     1
281
     1
  3
ACAD_XREC_ROUNDTRIP
360
AA
  0
DICTIONARY
  5
AB
330
2C
100
AcDbDictionary
280
     1
281
     1
  3
ACAD_XREC_ROUNDTRIP
360
AC
  0
DICTIONARY
  5
AD
330
2D
100
AcDbDictionary
280
     1
281
     1
  3
ACAD_XREC_ROUNDTRIP
360
AE
  0
DICTIONARY
  5
AF
330
2E
100
AcDbDictionary
280
     1
281
     1
  3
ACAD_XREC_ROUNDTRIP
360
B0
  0
DICTIONARY
  5
B5
330
31
100
AcDbDictionary
280
     1
281
     1
  3
ACAD_XREC_ROUNDTRIP
360
B6
  0
DICTIONARY
  5
C9
330
3B
100
AcDbDictionary
280
     1
281
     1
  3
ACAD_XREC_ROUNDTRIP
360
CA
  0
DICTIONARY
  5
C3
330
38
100
AcDbDictionary
280
     1
281
     1
  3
ACAD_XREC_ROUNDTRIP
360
C4
  0
DICTIONARY
  5
CB
330
3C
100
AcDbDictionary
280
     1
281
     1
  3
ACAD_XREC_ROUNDTRIP
360
CC
  0
DICTIONARY
  5
B9
330
33
100
AcDbDictionary
280
     1
281
     1
  3
ACAD_XREC_ROUNDTRIP
360
BA
  0
DICTIONARY
  5
D7
330
42
100
AcDbDictionary
280
     1
281
     1
  3
ACAD_XREC_ROUNDTRIP
360
D8
  0
DICTIONARY
  5
D5
330
41
100
AcDbDictionary
280
     1
281
     1
  3
ACAD_XREC_ROUNDTRIP
360
D6
  0
DICTIONARY
  5
CF
330
3E
100
AcDbDictionary
280
     1
281
     1
  3
ACAD_XREC_ROUNDTRIP
360
D0
  0
DICTIONARY
  5
D1
330
3F
100
AcDbDictionary
280
     1
281
     1
  3
ACAD_XREC_ROUNDTRIP
360
D2
  0
DICTIONARY
  5
C1
330
37
100
AcDbDictionary
280
     1
281
     1
  3
ACAD_XREC_ROUNDTRIP
360
C2
  0
DICTIONARY
  5
B3
330
30
100
AcDbDictionary
280
     1
281
     1
  3
ACAD_XREC_ROUNDTRIP
360
B4
  0
DICTIONARY
  5
D3
330
40
100
AcDbDictionary
280
     1
281
     1
  3
ACAD_XREC_ROUNDTRIP
360
D4
  0
XRECORD
  5
DC
102
{ACAD_REACTORS
330
DB
102
}
330
DB
100
AcDbXrecord
280
     1
102
MATERIAL
148
0.0
149
0.0
149
0.0
 93
        0
 94
      127
282
     0
 72
     1
 77
     1
171
     1
175
     1
179
     1
273
     0
  0
XRECORD
  5
DA
102
{ACAD_REACTORS
330
D9
102
}
330
D9
100
AcDbXrecord
280
     1
102
MATERIAL
148
0.0
149
0.0
149
0.0
 93
        0
 94
      127
282
     0
 72
     1
 77
     1
171
     1
175
     1
179
     1
273
     0
  0
XRECORD
  5
DE
102
{ACAD_REACTORS
330
DD
102
}
330
DD
100
AcDbXrecord
280
     1
102
MATERIAL
148
0.0
149
0.0
149
0.0
 93
        0
 94
      127
282
     0
 72
     1
 77
     1
171
     1
175
     1
179
     1
273
     0
  0
XRECORD
  5
E4
102
{ACAD_REACTORS
330
E3
102
}
330
E3
100
AcDbXrecord
280
     1
102
ACAD_ROUNDTRIP_2010_MLEADER_STYLE
  0
CELLSTYLEMAP
  5
E1
102
{ACAD_REACTORS
330
DF
102
}
330
DF
100
AcDbCellStyleMap
 90
        3
300
CELLSTYLE
  1
TABLEFORMAT_BEGIN
 90
        5
170
     1
 91
        0
 92
    32768
 62
   257
 93
        1
300
CONTENTFORMAT
  1
CONTENTFORMAT_BEGIN
 90
        0
 91
        0
 92
        4
 93
        0
300

 40
0.0
140
1.0
 94
        5
 62
     0
340
11
144
0.25
309
CONTENTFORMAT_END
171
     1
301
MARGIN
  1
CELLMARGIN_BEGIN
 40
0.06
 40
0.06
 40
0.06
 40
0.06
 40
0.06
 40
0.06
309
CELLMARGIN_END
 94
        6
 95
        1
302
GRIDFORMAT
  1
GRIDFORMAT_BEGIN
 90
        0
 91
        1
 62
     0
 92
       -2
340
14
 93
        0
 40
0.045
309
GRIDFORMAT_END
 95
        2
302
GRIDFORMAT
  1
GRIDFORMAT_BEGIN
 90
        0
 91
        1
 62
     0
 92
       -2
340
14
 93
        0
 40
0.045
309
GRIDFORMAT_END
 95
        4
302
GRIDFORMAT
  1
GRIDFORMAT_BEGIN
 90
        0
 91
        1
 62
     0
 92
       -2
340
14
 93
        0
 40
0.045
309
GRIDFORMAT_END
 95
        8
302
GRIDFORMAT
  1
GRIDFORMAT_BEGIN
 90
        0
 91
        1
 62
     0
 92
       -2
340
14
 93
        0
 40
0.045
309
GRIDFORMAT_END
 95
       16
302
GRIDFORMAT
  1
GRIDFORMAT_BEGIN
 90
        0
 91
        1
 62
     0
 92
       -2
340
14
 93
        0
 40
0.045
309
GRIDFORMAT_END
 95
       32
302
GRIDFORMAT
  1
GRIDFORMAT_BEGIN
 90
        0
 91
        1
 62
     0
 92
       -2
340
14
 93
        0
 40
0.045
309
GRIDFORMAT_END
309
TABLEFORMAT_END
  1
CELLSTYLE_BEGIN
 90
        1
 91
        1
300
_TITLE
309
CELLSTYLE_END
300
CELLSTYLE
  1
TABLEFORMAT_BEGIN
 90
        5
170
     1
 91
        0
 92
        0
 62
   257
 93
        1
300
CONTENTFORMAT
  1
CONTENTFORMAT_BEGIN
 90
        0
 91
        0
 92
        4
 93
        0
300

 40
0.0
140
1.0
 94
        5
 62
     0
340
11
144
0.18
309
CONTENTFORMAT_END
171
     1
301
MARGIN
  1
CELLMARGIN_BEGIN
 40
0.06
 40
0.06
 40
0.06
 40
0.06
 40
0.06
 40
0.06
309
CELLMARGIN_END
 94
        6
 95
        1
302
GRIDFORMAT
  1
GRIDFORMAT_BEGIN
 90
        0
 91
        1
 62
     0
 92
       -2
340
14
 93
        0
 40
0.045
309
GRIDFORMAT_END
 95
        2
302
GRIDFORMAT
  1
GRIDFORMAT_BEGIN
 90
        0
 91
        1
 62
     0
 92
       -2
340
14
 93
        0
 40
0.045
309
GRIDFORMAT_END
 95
        4
302
GRIDFORMAT
  1
GRIDFORMAT_BEGIN
 90
        0
 91
        1
 62
     0
 92
       -2
340
14
 93
        0
 40
0.045
309
GRIDFORMAT_END
 95
        8
302
GRIDFORMAT
  1
GRIDFORMAT_BEGIN
 90
        0
 91
        1
 62
     0
 92
       -2
340
14
 93
        0
 40
0.045
309
GRIDFORMAT_END
 95
       16
302
GRIDFORMAT
  1
GRIDFORMAT_BEGIN
 90
        0
 91
        1
 62
     0
 92
       -2
340
14
 93
        0
 40
0.045
309
GRIDFORMAT_END
 95
       32
302
GRIDFORMAT
  1
GRIDFORMAT_BEGIN
 90
        0
 91
        1
 62
     0
 92
       -2
340
14
 93
        0
 40
0.045
309
GRIDFORMAT_END
309
TABLEFORMAT_END
  1
CELLSTYLE_BEGIN
 90
        2
 91
        1
300
_HEADER
309
CELLSTYLE_END
300
CELLSTYLE
  1
TABLEFORMAT_BEGIN
 90
        5
170
     1
 91
        0
 92
        0
 62
   257
 93
        1
300
CONTENTFORMAT
  1
CONTENTFORMAT_BEGIN
 90
        0
 91
        0
 92
        4
 93
        0
300

 40
0.0
140
1.0
 94
        2
 62
     0
340
11
144
0.18
309
CONTENTFORMAT_END
171
     1
301
MARGIN
  1
CELLMARGIN_BEGIN
 40
0.06
 40
0.06
 40
0.06
 40
0.06
 40
0.06
 40
0.06
309
CELLMARGIN_END
 94
        6
 95
        1
302
GRIDFORMAT
  1
GRIDFORMAT_BEGIN
 90
        0
 91
        1
 62
     0
 92
       -2
340
14
 93
        0
 40
0.045
309
GRIDFORMAT_END
 95
        2
302
GRIDFORMAT
  1
GRIDFORMAT_BEGIN
 90
        0
 91
        1
 62
     0
 92
       -2
340
14
 93
        0
 40
0.045
309
GRIDFORMAT_END
 95
        4
302
GRIDFORMAT
  1
GRIDFORMAT_BEGIN
 90
        0
 91
        1
 62
     0
 92
       -2
340
14
 93
        0
 40
0.045
309
GRIDFORMAT_END
 95
        8
302
GRIDFORMAT
  1
GRIDFORMAT_BEGIN
 90
        0
 91
        1
 62
     0
 92
       -2
340
14
 93
        0
 40
0.045
309
GRIDFORMAT_END
 95
       16
302
GRIDFORMAT
  1
GRIDFORMAT_BEGIN
 90
        0
 91
        1
 62
     0
 92
       -2
340
14
 93
        0
 40
0.045
309
GRIDFORMAT_END
 95
       32
302
GRIDFORMAT
  1
GRIDFORMAT_BEGIN
 90
        0
 91
        1
 62
     0
 92
       -2
340
14
 93
        0
 40
0.045
309
GRIDFORMAT_END
309
TABLEFORMAT_END
  1
CELLSTYLE_BEGIN
 90
        3
 91
        2
300
_DATA
309
CELLSTYLE_END
  0
XRECORD
  5
E0
102
{ACAD_REACTORS
330
DF
102
}
330
DF
100
AcDbXrecord
280
     1
102
ACAD_ROUNDTRIP_PRE2007_TABLESTYLE
 90
        4
 91
        0
  1

 92
        4
 93
        0
  2

 94
        4
 95
        0
  3

  0
XRECORD
  5
B2
102
{ACAD_REACTORS
330
B1
102
}
330
B1
100
AcDbXrecord
280
     1
102
RTVSPropertyOp0
 70
     1
102
RTVSPropertyOp1
 70
     1
102
RTVSPropertyOp2
 70
     1
102
RTVSPropertyOp3
 70
     1
102
RTVSPropertyOp4
 70
     1
102
RTVSPropertyOp5
 70
     1
102
RTVSPropertyOp6
 70
     1
102
RTVSPropertyOp7
 70
     1
102
RTVSPropertyOp8
 70
     1
102
RTVSPropertyOp9
 70
     1
102
RTVSPropertyOp10
 70
     1
102
RTVSPropertyOp11
 70
     1
102
RTVSPropertyOp12
 70
     1
102
RTVSPropertyOp13
 70
     1
102
RTVSPropertyOp14
 70
     1
102
RTVSPropertyOp15
 70
     1
102
RTVSPropertyOp16
 70
     1
102
RTVSPropertyOp17
 70
     1
102
RTVSPropertyOp18
 70
     1
102
RTVSPropertyOp19
 70
     1
102
RTVSPropertyOp20
 70
     1
102
RTVSPropertyOp21
 70
     1
102
RTVSPropertyOp22
 70
     1
102
RTVSPropertyOp23
 70
     1
102
RTVSPropertyOp24
 70
     1
102
RTVSPropertyOp25
 70
     1
102
RTVSPropertyOp26
 70
     1
102
RTVSPropertyOp27
 70
     1
102
RTVSPropertyOp28
 70
     1
102
RTVSPropertyOp29
 70
     1
102
RTVSPropertyOp30
 70
     1
102
RTVSPropertyOp31
 70
     1
102
RTVSPropertyOp32
 70
     1
102
RTVSPropertyOp33
 70
     1
102
RTVSPropertyOp34
 70
     1
102
RTVSPropertyOp35
 70
     1
102
RTVSPropertyOp36
 70
     1
102
RTVSPropertyOp37
 70
     1
102
RTVSPropertyOp38
 70
     1
102
RTVSPropertyOp39
 70
     1
102
RTVSPropertyOp40
 70
     1
102
RTVSPropertyOp41
 70
     1
102
RTVSPropertyOp42
 70
     1
102
RTVSPropertyOp43
 70
     1
102
RTVSPropertyOp44
 70
     1
102
RTVSPropertyOp45
 70
     1
102
RTVSPropertyOp46
 70
     1
102
RTVSPropertyOp47
 70
     1
102
RTVSPropertyOp48
 70
     1
102
RTVSPropertyOp49
 70
     1
102
RTVSPropertyOp50
 70
     1
102
RTVSPropertyOp51
 70
     0
102
RTVSPropertyOp52
 70
     0
102
RTVSPropertyOp53
 70
     1
102
RTVSPropertyOp54
 70
     1
102
RTVSPropertyOp55
 70
     1
102
RTVSPropertyOp56
 70
     1
102
RTVSPropertyOp57
 70
     1
102
RTVSPost2010Prop28
280
     1
102
RTVSPost2010PropOp28
 70
     1
102
RTVSPost2010Prop29
280
     1
102
RTVSPost2010PropOp29
 70
     1
102
RTVSPost2010Prop30
280
     0
102
RTVSPost2010PropOp30
 70
     1
102
RTVSPost2010Prop31
280
     0
102
RTVSPost2010PropOp31
 70
     1
102
RTVSPost2010Prop32
280
     0
102
RTVSPost2010PropOp32
 70
     1
102
RTVSPost2010Prop33
280
     0
102
RTVSPost2010PropOp33
 70
     1
102
RTVSPost2010Prop34
280
     0
102
RTVSPost2010PropOp34
 70
     1
102
RTVSPost2010Prop35
280
     0
102
RTVSPost2010PropOp35
 70
     1
102
RTVSPost2010Prop36
280
     0
102
RTVSPost2010PropOp36
 70
     1
102
RTVSPost2010Prop37
 90
       50
102
RTVSPost2010PropOp37
 70
     1
102
RTVSPost2010Prop38
140
0.0
102
RTVSPost2010PropOp38
 70
     1
102
RTVSPost2010Prop39
140
1.0
102
RTVSPost2010PropOp39
 70
     1
102
RTVSPost2010Prop40
 90
        0
102
RTVSPost2010PropOp40
 70
     1
102
RTVSPost2010Prop41ColorIndex
 90
       18
102
RTVSPost2010Prop41ColorRGB
 90
        0
102
RTVSPost2010PropOp41
 70
     1
102
RTVSPost2010Prop42
 90
       50
102
RTVSPost2010PropOp42
 70
     1
102
RTVSPost2010Prop43
 90
        3
102
RTVSPost2010PropOp43
 70
     1
102
RTVSPost2010Prop44ColorIndex
 90
        5
102
RTVSPost2010Prop44ColorRGB
 90
      255
102
RTVSPost2010PropOp44
 70
     1
102
RTVSPost2010Prop45
280
     0
102
RTVSPost2010PropOp45
 70
     1
102
RTVSPost2010Prop46
 90
       50
102
RTVSPost2010PropOp46
 70
     1
102
RTVSPost2010Prop47
 90
       50
102
RTVSPost2010PropOp47
 70
     1
102
RTVSPost2010Prop48
 90
       50
102
RTVSPost2010PropOp48
 70
     1
102
RTVSPost2010Prop49
280
     0
102
RTVSPost2010PropOp49
 70
     1
102
RTVSPost2010Prop50
 90
       50
102
RTVSPost2010PropOp50
 70
     1
102
RTVSPost2010Prop51ColorIndex
 90
      256
102
RTVSPost2010Prop51ColorRGB
 90
-16777216
102
RTVSPost2010PropOp51
 70
     0
102
RTVSPost2010Prop52
140
1.0
102
RTVSPost2010PropOp52
 70
     0
102
RTVSPost2010Prop53
 90
        2
102
RTVSPost2010PropOp53
 70
     1
102
RTVSPost2010Prop54
  1
strokes_ogs.tif
102
RTVSPost2010PropOp54
 70
     1
102
RTVSPost2010Prop55
280
     0
102
RTVSPost2010PropOp55
 70
     1
102
RTVSPost2010Prop56
140
1.0
102
RTVSPost2010PropOp56
 70
     1
102
RTVSPost2010Prop57
140
1.0
102
RTVSPost2010PropOp57
 70
     1
  0
XRECORD
  5
B8
102
{ACAD_REACTORS
330
B7
102
}
330
B7
100
AcDbXrecord
280
     1
102
RTVSPropertyOp0
 70
     1
102
RTVSPropertyOp1
 70
     1
102
RTVSPropertyOp2
 70
     1
102
RTVSPropertyOp3
 70
     1
102
RTVSPropertyOp4
 70
     1
102
RTVSPropertyOp5
 70
     1
102
RTVSPropertyOp6
 70
     1
102
RTVSPropertyOp7
 70
     1
102
RTVSPropertyOp8
 70
     1
102
RTVSPropertyOp9
 70
     1
102
RTVSPropertyOp10
 70
     1
102
RTVSPropertyOp11
 70
     1
102
RTVSPropertyOp12
 70
     1
102
RTVSPropertyOp13
 70
     1
102
RTVSPropertyOp14
 70
     1
102
RTVSPropertyOp15
 70
     1
102
RTVSPropertyOp16
 70
     1
102
RTVSPropertyOp17
 70
     1
102
RTVSPropertyOp18
 70
     1
102
RTVSPropertyOp19
 70
     1
102
RTVSPropertyOp20
 70
     1
102
RTVSPropertyOp21
 70
     1
102
RTVSPropertyOp22
 70
     1
102
RTVSPropertyOp23
 70
     1
102
RTVSPropertyOp24
 70
     1
102
RTVSPropertyOp25
 70
     1
102
RTVSPropertyOp26
 70
     1
102
RTVSPropertyOp27
 70
     1
102
RTVSPropertyOp28
 70
     1
102
RTVSPropertyOp29
 70
     1
102
RTVSPropertyOp30
 70
     1
102
RTVSPropertyOp31
 70
     1
102
RTVSPropertyOp32
 70
     1
102
RTVSPropertyOp33
 70
     1
102
RTVSPropertyOp34
 70
     1
102
RTVSPropertyOp35
 70
     1
102
RTVSPropertyOp36
 70
     1
102
RTVSPropertyOp37
 70
     1
102
RTVSPropertyOp38
 70
     1
102
RTVSPropertyOp39
 70
     1
102
RTVSPropertyOp40
 70
     1
102
RTVSPropertyOp41
 70
     1
102
RTVSPropertyOp42
 70
     1
102
RTVSPropertyOp43
 70
     1
102
RTVSPropertyOp44
 70
     1
102
RTVSPropertyOp45
 70
     1
102
RTVSPropertyOp46
 70
     1
102
RTVSPropertyOp47
 70
     1
102
RTVSPropertyOp48
 70
     1
102
RTVSPropertyOp49
 70
     1
102
RTVSPropertyOp50
 70
     1
102
RTVSPropertyOp51
 70
     0
102
RTVSPropertyOp52
 70
     0
102
RTVSPropertyOp53
 70
     1
102
RTVSPropertyOp54
 70
     1
102
RTVSPropertyOp55
 70
     1
102
RTVSPropertyOp56
 70
     1
102
RTVSPropertyOp57
 70
     1
102
RTVSPost2010Prop28
280
     0
102
RTVSPost2010PropOp28
 70
     1
102
RTVSPost2010Prop29
280
     1
102
RTVSPost2010PropOp29
 70
     1
102
RTVSPost2010Prop30
280
     1
102
RTVSPost2010PropOp30
 70
     1
102
RTVSPost2010Prop31
280
     0
102
RTVSPost2010PropOp31
 70
     1
102
RTVSPost2010Prop32
280
     0
102
RTVSPost2010PropOp32
 70
     1
102
RTVSPost2010Prop33
280
     0
102
RTVSPost2010PropOp33
 70
     1
102
RTVSPost2010Prop34
280
     0
102
RTVSPost2010PropOp34
 70
     1
102
RTVSPost2010Prop35
280
     0
102
RTVSPost2010PropOp35
 70
     1
102
RTVSPost2010Prop36
280
     0
102
RTVSPost2010PropOp36
 70
     1
102
RTVSPost2010Prop37
 90
       50
102
RTVSPost2010PropOp37
 70
     1
102
RTVSPost2010Prop38
140
0.0
102
RTVSPost2010PropOp38
 70
     1
102
RTVSPost2010Prop39
140
1.0
102
RTVSPost2010PropOp39
 70
     1
102
RTVSPost2010Prop40
 90
        0
102
RTVSPost2010PropOp40
 70
     1
102
RTVSPost2010Prop41ColorIndex
 90
       18
102
RTVSPost2010Prop41ColorRGB
 90
        0
102
RTVSPost2010PropOp41
 70
     1
102
RTVSPost2010Prop42
 90
       50
102
RTVSPost2010PropOp42
 70
     1
102
RTVSPost2010Prop43
 90
        3
102
RTVSPost2010PropOp43
 70
     1
102
RTVSPost2010Prop44ColorIndex
 90
        5
102
RTVSPost2010Prop44ColorRGB
 90
      255
102
RTVSPost2010PropOp44
 70
     1
102
RTVSPost2010Prop45
280
     0
102
RTVSPost2010PropOp45
 70
     1
102
RTVSPost2010Prop46
 90
       50
102
RTVSPost2010PropOp46
 70
     1
102
RTVSPost2010Prop47
 90
       50
102
RTVSPost2010PropOp47
 70
     1
102
RTVSPost2010Prop48
 90
       50
102
RTVSPost2010PropOp48
 70
     1
102
RTVSPost2010Prop49
280
     0
102
RTVSPost2010PropOp49
 70
     1
102
RTVSPost2010Prop50
 90
       50
102
RTVSPost2010PropOp50
 70
     1
102
RTVSPost2010Prop51ColorIndex
 90
      256
102
RTVSPost2010Prop51ColorRGB
 90
-16777216
102
RTVSPost2010PropOp51
 70
     0
102
RTVSPost2010Prop52
140
1.0
102
RTVSPost2010PropOp52
 70
     0
102
RTVSPost2010Prop53
 90
        2
102
RTVSPost2010PropOp53
 70
     1
102
RTVSPost2010Prop54
  1
strokes_ogs.tif
102
RTVSPost2010PropOp54
 70
     1
102
RTVSPost2010Prop55
280
     0
102
RTVSPost2010PropOp55
 70
     1
102
RTVSPost2010Prop56
140
1.0
102
RTVSPost2010PropOp56
 70
     1
102
RTVSPost2010Prop57
140
1.0
102
RTVSPost2010PropOp57
 70
     1
  0
XRECORD
  5
C0
102
{ACAD_REACTORS
330
BF
102
}
330
BF
100
AcDbXrecord
280
     1
102
RTVSPropertyOp0
 70
     1
102
RTVSPropertyOp1
 70
     1
102
RTVSPropertyOp2
 70
     1
102
RTVSPropertyOp3
 70
     1
102
RTVSPropertyOp4
 70
     1
102
RTVSPropertyOp5
 70
     1
102
RTVSPropertyOp6
 70
     1
102
RTVSPropertyOp7
 70
     1
102
RTVSPropertyOp8
 70
     1
102
RTVSPropertyOp9
 70
     1
102
RTVSPropertyOp10
 70
     1
102
RTVSPropertyOp11
 70
     1
102
RTVSPropertyOp12
 70
     1
102
RTVSPropertyOp13
 70
     1
102
RTVSPropertyOp14
 70
     1
102
RTVSPropertyOp15
 70
     1
102
RTVSPropertyOp16
 70
     1
102
RTVSPropertyOp17
 70
     1
102
RTVSPropertyOp18
 70
     1
102
RTVSPropertyOp19
 70
     1
102
RTVSPropertyOp20
 70
     1
102
RTVSPropertyOp21
 70
     1
102
RTVSPropertyOp22
 70
     1
102
RTVSPropertyOp23
 70
     1
102
RTVSPropertyOp24
 70
     1
102
RTVSPropertyOp25
 70
     1
102
RTVSPropertyOp26
 70
     1
102
RTVSPropertyOp27
 70
     1
102
RTVSPropertyOp28
 70
     1
102
RTVSPropertyOp29
 70
     1
102
RTVSPropertyOp30
 70
     1
102
RTVSPropertyOp31
 70
     1
102
RTVSPropertyOp32
 70
     1
102
RTVSPropertyOp33
 70
     1
102
RTVSPropertyOp34
 70
     1
102
RTVSPropertyOp35
 70
     1
102
RTVSPropertyOp36
 70
     1
102
RTVSPropertyOp37
 70
     1
102
RTVSPropertyOp38
 70
     1
102
RTVSPropertyOp39
 70
     1
102
RTVSPropertyOp40
 70
     1
102
RTVSPropertyOp41
 70
     1
102
RTVSPropertyOp42
 70
     1
102
RTVSPropertyOp43
 70
     1
102
RTVSPropertyOp44
 70
     1
102
RTVSPropertyOp45
 70
     1
102
RTVSPropertyOp46
 70
     1
102
RTVSPropertyOp47
 70
     1
102
RTVSPropertyOp48
 70
     1
102
RTVSPropertyOp49
 70
     1
102
RTVSPropertyOp50
 70
     1
102
RTVSPropertyOp51
 70
     0
102
RTVSPropertyOp52
 70
     0
102
RTVSPropertyOp53
 70
     1
102
RTVSPropertyOp54
 70
     1
102
RTVSPropertyOp55
 70
     1
102
RTVSPropertyOp56
 70
     1
102
RTVSPropertyOp57
 70
     1
102
RTVSPost2010Prop28
280
     0
102
RTVSPost2010PropOp28
 70
     1
102
RTVSPost2010Prop29
280
     1
102
RTVSPost2010PropOp29
 70
     1
102
RTVSPost2010Prop30
280
     1
102
RTVSPost2010PropOp30
 70
     1
102
RTVSPost2010Prop31
280
     0
102
RTVSPost2010PropOp31
 70
     1
102
RTVSPost2010Prop32
280
     0
102
RTVSPost2010PropOp32
 70
     1
102
RTVSPost2010Prop33
280
     0
102
RTVSPost2010PropOp33
 70
     1
102
RTVSPost2010Prop34
280
     0
102
RTVSPost2010PropOp34
 70
     1
102
RTVSPost2010Prop35
280
     0
102
RTVSPost2010PropOp35
 70
     1
102
RTVSPost2010Prop36
280
     0
102
RTVSPost2010PropOp36
 70
     1
102
RTVSPost2010Prop37
 90
       50
102
RTVSPost2010PropOp37
 70
     1
102
RTVSPost2010Prop38
140
0.0
102
RTVSPost2010PropOp38
 70
     1
102
RTVSPost2010Prop39
140
1.0
102
RTVSPost2010PropOp39
 70
     1
102
RTVSPost2010Prop40
 90
        0
102
RTVSPost2010PropOp40
 70
     1
102
RTVSPost2010Prop41ColorIndex
 90
       18
102
RTVSPost2010Prop41ColorRGB
 90
        0
102
RTVSPost2010PropOp41
 70
     1
102
RTVSPost2010Prop42
 90
       50
102
RTVSPost2010PropOp42
 70
     1
102
RTVSPost2010Prop43
 90
        3
102
RTVSPost2010PropOp43
 70
     1
102
RTVSPost2010Prop44ColorIndex
 90
        5
102
RTVSPost2010Prop44ColorRGB
 90
      255
102
RTVSPost2010PropOp44
 70
     1
102
RTVSPost2010Prop45
280
     0
102
RTVSPost2010PropOp45
 70
     1
102
RTVSPost2010Prop46
 90
       50
102
RTVSPost2010PropOp46
 70
     1
102
RTVSPost2010Prop47
 90
       50
102
RTVSPost2010PropOp47
 70
     1
102
RTVSPost2010Prop48
 90
       50
102
RTVSPost2010PropOp48
 70
     1
102
RTVSPost2010Prop49
280
     0
102
RTVSPost2010PropOp49
 70
     1
102
RTVSPost2010Prop50
 90
       50
102
RTVSPost2010PropOp50
 70
     1
102
RTVSPost2010Prop51ColorIndex
 90
      256
102
RTVSPost2010Prop51ColorRGB
 90
-16777216
102
RTVSPost2010PropOp51
 70
     0
102
RTVSPost2010Prop52
140
1.0
102
RTVSPost2010PropOp52
 70
     0
102
RTVSPost2010Prop53
 90
        2
102
RTVSPost2010PropOp53
 70
     1
102
RTVSPost2010Prop54
  1
strokes_ogs.tif
102
RTVSPost2010PropOp54
 70
     1
102
RTVSPost2010Prop55
280
     0
102
RTVSPost2010PropOp55
 70
     1
102
RTVSPost2010Prop56
140
1.0
102
RTVSPost2010PropOp56
 70
     1
102
RTVSPost2010Prop57
140
1.0
102
RTVSPost2010PropOp57
 70
     1
  0
XRECORD
  5
C8
102
{ACAD_REACTORS
330
C7
102
}
330
C7
100
AcDbXrecord
280
     1
102
RTVSPropertyOp0
 70
     1
102
RTVSPropertyOp1
 70
     1
102
RTVSPropertyOp2
 70
     1
102
RTVSPropertyOp3
 70
     1
102
RTVSPropertyOp4
 70
     1
102
RTVSPropertyOp5
 70
     1
102
RTVSPropertyOp6
 70
     1
102
RTVSPropertyOp7
 70
     1
102
RTVSPropertyOp8
 70
     1
102
RTVSPropertyOp9
 70
     1
102
RTVSPropertyOp10
 70
     1
102
RTVSPropertyOp11
 70
     1
102
RTVSPropertyOp12
 70
     1
102
RTVSPropertyOp13
 70
     1
102
RTVSPropertyOp14
 70
     1
102
RTVSPropertyOp15
 70
     1
102
RTVSPropertyOp16
 70
     1
102
RTVSPropertyOp17
 70
     1
102
RTVSPropertyOp18
 70
     1
102
RTVSPropertyOp19
 70
     1
102
RTVSPropertyOp20
 70
     1
102
RTVSPropertyOp21
 70
     1
102
RTVSPropertyOp22
 70
     1
102
RTVSPropertyOp23
 70
     1
102
RTVSPropertyOp24
 70
     1
102
RTVSPropertyOp25
 70
     1
102
RTVSPropertyOp26
 70
     1
102
RTVSPropertyOp27
 70
     1
102
RTVSPropertyOp28
 70
     1
102
RTVSPropertyOp29
 70
     1
102
RTVSPropertyOp30
 70
     1
102
RTVSPropertyOp31
 70
     1
102
RTVSPropertyOp32
 70
     1
102
RTVSPropertyOp33
 70
     1
102
RTVSPropertyOp34
 70
     1
102
RTVSPropertyOp35
 70
     1
102
RTVSPropertyOp36
 70
     1
102
RTVSPropertyOp37
 70
     1
102
RTVSPropertyOp38
 70
     1
102
RTVSPropertyOp39
 70
     1
102
RTVSPropertyOp40
 70
     1
102
RTVSPropertyOp41
 70
     1
102
RTVSPropertyOp42
 70
     1
102
RTVSPropertyOp43
 70
     1
102
RTVSPropertyOp44
 70
     1
102
RTVSPropertyOp45
 70
     1
102
RTVSPropertyOp46
 70
     1
102
RTVSPropertyOp47
 70
     1
102
RTVSPropertyOp48
 70
     1
102
RTVSPropertyOp49
 70
     1
102
RTVSPropertyOp50
 70
     1
102
RTVSPropertyOp51
 70
     0
102
RTVSPropertyOp52
 70
     0
102
RTVSPropertyOp53
 70
     1
102
RTVSPropertyOp54
 70
     1
102
RTVSPropertyOp55
 70
     1
102
RTVSPropertyOp56
 70
     1
102
RTVSPropertyOp57
 70
     1
102
RTVSPost2010Prop28
280
     0
102
RTVSPost2010PropOp28
 70
     1
102
RTVSPost2010Prop29
280
     1
102
RTVSPost2010PropOp29
 70
     1
102
RTVSPost2010Prop30
280
     1
102
RTVSPost2010PropOp30
 70
     1
102
RTVSPost2010Prop31
280
     0
102
RTVSPost2010PropOp31
 70
     1
102
RTVSPost2010Prop32
280
     0
102
RTVSPost2010PropOp32
 70
     1
102
RTVSPost2010Prop33
280
     0
102
RTVSPost2010PropOp33
 70
     1
102
RTVSPost2010Prop34
280
     0
102
RTVSPost2010PropOp34
 70
     1
102
RTVSPost2010Prop35
280
     0
102
RTVSPost2010PropOp35
 70
     1
102
RTVSPost2010Prop36
280
     0
102
RTVSPost2010PropOp36
 70
     1
102
RTVSPost2010Prop37
 90
       50
102
RTVSPost2010PropOp37
 70
     1
102
RTVSPost2010Prop38
140
0.0
102
RTVSPost2010PropOp38
 70
     1
102
RTVSPost2010Prop39
140
1.0
102
RTVSPost2010PropOp39
 70
     1
102
RTVSPost2010Prop40
 90
        0
102
RTVSPost2010PropOp40
 70
     1
102
RTVSPost2010Prop41ColorIndex
 90
       18
102
RTVSPost2010Prop41ColorRGB
 90
        0
102
RTVSPost2010PropOp41
 70
     1
102
RTVSPost2010Prop42
 90
       50
102
RTVSPost2010PropOp42
 70
     1
102
RTVSPost2010Prop43
 90
        3
102
RTVSPost2010PropOp43
 70
     1
102
RTVSPost2010Prop44ColorIndex
 90
        5
102
RTVSPost2010Prop44ColorRGB
 90
      255
102
RTVSPost2010PropOp44
 70
     1
102
RTVSPost2010Prop45
280
     0
102
RTVSPost2010PropOp45
 70
     1
102
RTVSPost2010Prop46
 90
       50
102
RTVSPost2010PropOp46
 70
     1
102
RTVSPost2010Prop47
 90
       50
102
RTVSPost2010PropOp47
 70
     1
102
RTVSPost2010Prop48
 90
       50
102
RTVSPost2010PropOp48
 70
     1
102
RTVSPost2010Prop49
280
     0
102
RTVSPost2010PropOp49
 70
     1
102
RTVSPost2010Prop50
 90
       50
102
RTVSPost2010PropOp50
 70
     1
102
RTVSPost2010Prop51ColorIndex
 90
      256
102
RTVSPost2010Prop51ColorRGB
 90
-16777216
102
RTVSPost2010PropOp51
 70
     0
102
RTVSPost2010Prop52
140
1.0
102
RTVSPost2010PropOp52
 70
     0
102
RTVSPost2010Prop53
 90
        2
102
RTVSPost2010PropOp53
 70
     1
102
RTVSPost2010Prop54
  1
strokes_ogs.tif
102
RTVSPost2010PropOp54
 70
     1
102
RTVSPost2010Prop55
280
     0
102
RTVSPost2010PropOp55
 70
     1
102
RTVSPost2010Prop56
140
1.0
102
RTVSPost2010PropOp56
 70
     1
102
RTVSPost2010Prop57
140
1.0
102
RTVSPost2010PropOp57
 70
     1
  0
XRECORD
  5
BC
102
{ACAD_REACTORS
330
BB
102
}
330
BB
100
AcDbXrecord
280
     1
102
RTVSPropertyOp0
 70
     1
102
RTVSPropertyOp1
 70
     1
102
RTVSPropertyOp2
 70
     1
102
RTVSPropertyOp3
 70
     1
102
RTVSPropertyOp4
 70
     1
102
RTVSPropertyOp5
 70
     1
102
RTVSPropertyOp6
 70
     1
102
RTVSPropertyOp7
 70
     1
102
RTVSPropertyOp8
 70
     1
102
RTVSPropertyOp9
 70
     1
102
RTVSPropertyOp10
 70
     1
102
RTVSPropertyOp11
 70
     1
102
RTVSPropertyOp12
 70
     1
102
RTVSPropertyOp13
 70
     1
102
RTVSPropertyOp14
 70
     1
102
RTVSPropertyOp15
 70
     1
102
RTVSPropertyOp16
 70
     1
102
RTVSPropertyOp17
 70
     1
102
RTVSPropertyOp18
 70
     1
102
RTVSPropertyOp19
 70
     1
102
RTVSPropertyOp20
 70
     1
102
RTVSPropertyOp21
 70
     1
102
RTVSPropertyOp22
 70
     1
102
RTVSPropertyOp23
 70
     1
102
RTVSPropertyOp24
 70
     1
102
RTVSPropertyOp25
 70
     1
102
RTVSPropertyOp26
 70
     1
102
RTVSPropertyOp27
 70
     1
102
RTVSPropertyOp28
 70
     1
102
RTVSPropertyOp29
 70
     1
102
RTVSPropertyOp30
 70
     1
102
RTVSPropertyOp31
 70
     1
102
RTVSPropertyOp32
 70
     1
102
RTVSPropertyOp33
 70
     1
102
RTVSPropertyOp34
 70
     1
102
RTVSPropertyOp35
 70
     1
102
RTVSPropertyOp36
 70
     1
102
RTVSPropertyOp37
 70
     1
102
RTVSPropertyOp38
 70
     1
102
RTVSPropertyOp39
 70
     1
102
RTVSPropertyOp40
 70
     1
102
RTVSPropertyOp41
 70
     1
102
RTVSPropertyOp42
 70
     1
102
RTVSPropertyOp43
 70
     1
102
RTVSPropertyOp44
 70
     1
102
RTVSPropertyOp45
 70
     1
102
RTVSPropertyOp46
 70
     1
102
RTVSPropertyOp47
 70
     1
102
RTVSPropertyOp48
 70
     1
102
RTVSPropertyOp49
 70
     1
102
RTVSPropertyOp50
 70
     1
102
RTVSPropertyOp51
 70
     0
102
RTVSPropertyOp52
 70
     0
102
RTVSPropertyOp53
 70
     1
102
RTVSPropertyOp54
 70
     1
102
RTVSPropertyOp55
 70
     1
102
RTVSPropertyOp56
 70
     1
102
RTVSPropertyOp57
 70
     1
102
RTVSPost2010Prop28
280
     0
102
RTVSPost2010PropOp28
 70
     1
102
RTVSPost2010Prop29
280
     1
102
RTVSPost2010PropOp29
 70
     1
102
RTVSPost2010Prop30
280
     1
102
RTVSPost2010PropOp30
 70
     1
102
RTVSPost2010Prop31
280
     0
102
RTVSPost2010PropOp31
 70
     1
102
RTVSPost2010Prop32
280
     0
102
RTVSPost2010PropOp32
 70
     1
102
RTVSPost2010Prop33
280
     0
102
RTVSPost2010PropOp33
 70
     1
102
RTVSPost2010Prop34
280
     0
102
RTVSPost2010PropOp34
 70
     1
102
RTVSPost2010Prop35
280
     0
102
RTVSPost2010PropOp35
 70
     1
102
RTVSPost2010Prop36
280
     0
102
RTVSPost2010PropOp36
 70
     1
102
RTVSPost2010Prop37
 90
       50
102
RTVSPost2010PropOp37
 70
     1
102
RTVSPost2010Prop38
140
0.0
102
RTVSPost2010PropOp38
 70
     1
102
RTVSPost2010Prop39
140
1.0
102
RTVSPost2010PropOp39
 70
     1
102
RTVSPost2010Prop40
 90
        0
102
RTVSPost2010PropOp40
 70
     1
102
RTVSPost2010Prop41ColorIndex
 90
       18
102
RTVSPost2010Prop41ColorRGB
 90
        0
102
RTVSPost2010PropOp41
 70
     1
102
RTVSPost2010Prop42
 90
       50
102
RTVSPost2010PropOp42
 70
     1
102
RTVSPost2010Prop43
 90
        3
102
RTVSPost2010PropOp43
 70
     1
102
RTVSPost2010Prop44ColorIndex
 90
        5
102
RTVSPost2010Prop44ColorRGB
 90
      255
102
RTVSPost2010PropOp44
 70
     1
102
RTVSPost2010Prop45
280
     0
102
RTVSPost2010PropOp45
 70
     1
102
RTVSPost2010Prop46
 90
       50
102
RTVSPost2010PropOp46
 70
     1
102
RTVSPost2010Prop47
 90
       50
102
RTVSPost2010PropOp47
 70
     1
102
RTVSPost2010Prop48
 90
       50
102
RTVSPost2010PropOp48
 70
     1
102
RTVSPost2010Prop49
280
     0
102
RTVSPost2010PropOp49
 70
     1
102
RTVSPost2010Prop50
 90
       50
102
RTVSPost2010PropOp50
 70
     1
102
RTVSPost2010Prop51ColorIndex
 90
      256
102
RTVSPost2010Prop51ColorRGB
 90
-16777216
102
RTVSPost2010PropOp51
 70
     0
102
RTVSPost2010Prop52
140
1.0
102
RTVSPost2010PropOp52
 70
     0
102
RTVSPost2010Prop53
 90
        2
102
RTVSPost2010PropOp53
 70
     1
102
RTVSPost2010Prop54
  1
strokes_ogs.tif
102
RTVSPost2010PropOp54
 70
     1
102
RTVSPost2010Prop55
280
     0
102
RTVSPost2010PropOp55
 70
     1
102
RTVSPost2010Prop56
140
1.0
102
RTVSPost2010PropOp56
 70
     1
102
RTVSPost2010Prop57
140
1.0
102
RTVSPost2010PropOp57
 70
     1
  0
XRECORD
  5
BE
102
{ACAD_REACTORS
330
BD
102
}
330
BD
100
AcDbXrecord
280
     1
102
RTVSPropertyOp0
 70
     1
102
RTVSPropertyOp1
 70
     1
102
RTVSPropertyOp2
 70
     1
102
RTVSPropertyOp3
 70
     1
102
RTVSPropertyOp4
 70
     1
102
RTVSPropertyOp5
 70
     1
102
RTVSPropertyOp6
 70
     1
102
RTVSPropertyOp7
 70
     1
102
RTVSPropertyOp8
 70
     1
102
RTVSPropertyOp9
 70
     1
102
RTVSPropertyOp10
 70
     1
102
RTVSPropertyOp11
 70
     1
102
RTVSPropertyOp12
 70
     1
102
RTVSPropertyOp13
 70
     1
102
RTVSPropertyOp14
 70
     1
102
RTVSPropertyOp15
 70
     1
102
RTVSPropertyOp16
 70
     1
102
RTVSPropertyOp17
 70
     1
102
RTVSPropertyOp18
 70
     1
102
RTVSPropertyOp19
 70
     1
102
RTVSPropertyOp20
 70
     1
102
RTVSPropertyOp21
 70
     1
102
RTVSPropertyOp22
 70
     1
102
RTVSPropertyOp23
 70
     1
102
RTVSPropertyOp24
 70
     1
102
RTVSPropertyOp25
 70
     1
102
RTVSPropertyOp26
 70
     1
102
RTVSPropertyOp27
 70
     1
102
RTVSPropertyOp28
 70
     1
102
RTVSPropertyOp29
 70
     1
102
RTVSPropertyOp30
 70
     1
102
RTVSPropertyOp31
 70
     1
102
RTVSPropertyOp32
 70
     1
102
RTVSPropertyOp33
 70
     1
102
RTVSPropertyOp34
 70
     1
102
RTVSPropertyOp35
 70
     1
102
RTVSPropertyOp36
 70
     1
102
RTVSPropertyOp37
 70
     1
102
RTVSPropertyOp38
 70
     1
102
RTVSPropertyOp39
 70
     1
102
RTVSPropertyOp40
 70
     1
102
RTVSPropertyOp41
 70
     1
102
RTVSPropertyOp42
 70
     1
102
RTVSPropertyOp43
 70
     1
102
RTVSPropertyOp44
 70
     1
102
RTVSPropertyOp45
 70
     1
102
RTVSPropertyOp46
 70
     1
102
RTVSPropertyOp47
 70
     1
102
RTVSPropertyOp48
 70
     1
102
RTVSPropertyOp49
 70
     1
102
RTVSPropertyOp50
 70
     1
102
RTVSPropertyOp51
 70
     0
102
RTVSPropertyOp52
 70
     0
102
RTVSPropertyOp53
 70
     1
102
RTVSPropertyOp54
 70
     1
102
RTVSPropertyOp55
 70
     1
102
RTVSPropertyOp56
 70
     1
102
RTVSPropertyOp57
 70
     1
102
RTVSPost2010Prop28
280
     0
102
RTVSPost2010PropOp28
 70
     1
102
RTVSPost2010Prop29
280
     1
102
RTVSPost2010PropOp29
 70
     1
102
RTVSPost2010Prop30
280
     1
102
RTVSPost2010PropOp30
 70
     1
102
RTVSPost2010Prop31
280
     0
102
RTVSPost2010PropOp31
 70
     1
102
RTVSPost2010Prop32
280
     0
102
RTVSPost2010PropOp32
 70
     1
102
RTVSPost2010Prop33
280
     0
102
RTVSPost2010PropOp33
 70
     1
102
RTVSPost2010Prop34
280
     0
102
RTVSPost2010PropOp34
 70
     1
102
RTVSPost2010Prop35
280
     0
102
RTVSPost2010PropOp35
 70
     1
102
RTVSPost2010Prop36
280
     0
102
RTVSPost2010PropOp36
 70
     1
102
RTVSPost2010Prop37
 90
       50
102
RTVSPost2010PropOp37
 70
     1
102
RTVSPost2010Prop38
140
0.0
102
RTVSPost2010PropOp38
 70
     1
102
RTVSPost2010Prop39
140
1.0
102
RTVSPost2010PropOp39
 70
     1
102
RTVSPost2010Prop40
 90
        0
102
RTVSPost2010PropOp40
 70
     1
102
RTVSPost2010Prop41ColorIndex
 90
       18
102
RTVSPost2010Prop41ColorRGB
 90
        0
102
RTVSPost2010PropOp41
 70
     1
102
RTVSPost2010Prop42
 90
       50
102
RTVSPost2010PropOp42
 70
     1
102
RTVSPost2010Prop43
 90
        3
102
RTVSPost2010PropOp43
 70
     1
102
RTVSPost2010Prop44ColorIndex
 90
        5
102
RTVSPost2010Prop44ColorRGB
 90
      255
102
RTVSPost2010PropOp44
 70
     1
102
RTVSPost2010Prop45
280
     0
102
RTVSPost2010PropOp45
 70
     1
102
RTVSPost2010Prop46
 90
       50
102
RTVSPost2010PropOp46
 70
     1
102
RTVSPost2010Prop47
 90
       50
102
RTVSPost2010PropOp47
 70
     1
102
RTVSPost2010Prop48
 90
       50
102
RTVSPost2010PropOp48
 70
     1
102
RTVSPost2010Prop49
280
     0
102
RTVSPost2010PropOp49
 70
     1
102
RTVSPost2010Prop50
 90
       50
102
RTVSPost2010PropOp50
 70
     1
102
RTVSPost2010Prop51ColorIndex
 90
      256
102
RTVSPost2010Prop51ColorRGB
 90
-16777216
102
RTVSPost2010PropOp51
 70
     0
102
RTVSPost2010Prop52
140
1.0
102
RTVSPost2010PropOp52
 70
     0
102
RTVSPost2010Prop53
 90
        2
102
RTVSPost2010PropOp53
 70
     1
102
RTVSPost2010Prop54
  1
strokes_ogs.tif
102
RTVSPost2010PropOp54
 70
     1
102
RTVSPost2010Prop55
280
     0
102
RTVSPost2010PropOp55
 70
     1
102
RTVSPost2010Prop56
140
1.0
102
RTVSPost2010PropOp56
 70
     1
102
RTVSPost2010Prop57
140
1.0
102
RTVSPost2010PropOp57
 70
     1
  0
XRECORD
  5
CE
102
{ACAD_REACTORS
330
CD
102
}
330
CD
100
AcDbXrecord
280
     1
102
RTVSPropertyOp0
 70
     0
102
RTVSPropertyOp1
 70
     0
102
RTVSPropertyOp2
 70
     0
102
RTVSPropertyOp3
 70
     0
102
RTVSPropertyOp4
 70
     0
102
RTVSPropertyOp5
 70
     0
102
RTVSPropertyOp6
 70
     0
102
RTVSPropertyOp7
 70
     0
102
RTVSPropertyOp8
 70
     0
102
RTVSPropertyOp9
 70
     0
102
RTVSPropertyOp10
 70
     0
102
RTVSPropertyOp11
 70
     0
102
RTVSPropertyOp12
 70
     0
102
RTVSPropertyOp13
 70
     0
102
RTVSPropertyOp14
 70
     2
102
RTVSPropertyOp15
 70
     0
102
RTVSPropertyOp16
 70
     0
102
RTVSPropertyOp17
 70
     0
102
RTVSPropertyOp18
 70
     0
102
RTVSPropertyOp19
 70
     0
102
RTVSPropertyOp20
 70
     0
102
RTVSPropertyOp21
 70
     0
102
RTVSPropertyOp22
 70
     0
102
RTVSPropertyOp23
 70
     0
102
RTVSPropertyOp24
 70
     0
102
RTVSPropertyOp25
 70
     0
102
RTVSPropertyOp26
 70
     0
102
RTVSPropertyOp27
 70
     0
102
RTVSPropertyOp28
 70
     0
102
RTVSPropertyOp29
 70
     0
102
RTVSPropertyOp30
 70
     0
102
RTVSPropertyOp31
 70
     0
102
RTVSPropertyOp32
 70
     0
102
RTVSPropertyOp33
 70
     0
102
RTVSPropertyOp34
 70
     0
102
RTVSPropertyOp35
 70
     0
102
RTVSPropertyOp36
 70
     0
102
RTVSPropertyOp37
 70
     0
102
RTVSPropertyOp38
 70
     0
102
RTVSPropertyOp39
 70
     0
102
RTVSPropertyOp40
 70
     0
102
RTVSPropertyOp41
 70
     0
102
RTVSPropertyOp42
 70
     0
102
RTVSPropertyOp43
 70
     0
102
RTVSPropertyOp44
 70
     0
102
RTVSPropertyOp45
 70
     0
102
RTVSPropertyOp46
 70
     0
102
RTVSPropertyOp47
 70
     0
102
RTVSPropertyOp48
 70
     0
102
RTVSPropertyOp49
 70
     0
102
RTVSPropertyOp50
 70
     0
102
RTVSPropertyOp51
 70
     0
102
RTVSPropertyOp52
 70
     0
102
RTVSPropertyOp53
 70
     0
102
RTVSPropertyOp54
 70
     0
102
RTVSPropertyOp55
 70
     0
102
RTVSPropertyOp56
 70
     0
102
RTVSPropertyOp57
 70
     0
102
RTVSPost2010Prop28
280
     0
102
RTVSPost2010PropOp28
 70
     0
102
RTVSPost2010Prop29
280
     1
102
RTVSPost2010PropOp29
 70
     0
102
RTVSPost2010Prop30
280
     1
102
RTVSPost2010PropOp30
 70
     0
102
RTVSPost2010Prop31
280
     0
102
RTVSPost2010PropOp31
 70
     0
102
RTVSPost2010Prop32
280
     0
102
RTVSPost2010PropOp32
 70
     0
102
RTVSPost2010Prop33
280
     0
102
RTVSPost2010PropOp33
 70
     0
102
RTVSPost2010Prop34
280
     0
102
RTVSPost2010PropOp34
 70
     0
102
RTVSPost2010Prop35
280
     0
102
RTVSPost2010PropOp35
 70
     0
102
RTVSPost2010Prop36
280
     0
102
RTVSPost2010PropOp36
 70
     0
102
RTVSPost2010Prop37
 90
       50
102
RTVSPost2010PropOp37
 70
     0
102
RTVSPost2010Prop38
140
0.0
102
RTVSPost2010PropOp38
 70
     0
102
RTVSPost2010Prop39
140
1.0
102
RTVSPost2010PropOp39
 70
     0
102
RTVSPost2010Prop40
 90
        0
102
RTVSPost2010PropOp40
 70
     0
102
RTVSPost2010Prop41ColorIndex
 90
       18
102
RTVSPost2010Prop41ColorRGB
 90
        0
102
RTVSPost2010PropOp41
 70
     0
102
RTVSPost2010Prop42
 90
       50
102
RTVSPost2010PropOp42
 70
     0
102
RTVSPost2010Prop43
 90
        3
102
RTVSPost2010PropOp43
 70
     0
102
RTVSPost2010Prop44ColorIndex
 90
        5
102
RTVSPost2010Prop44ColorRGB
 90
      255
102
RTVSPost2010PropOp44
 70
     0
102
RTVSPost2010Prop45
280
     0
102
RTVSPost2010PropOp45
 70
     0
102
RTVSPost2010Prop46
 90
       50
102
RTVSPost2010PropOp46
 70
     0
102
RTVSPost2010Prop47
 90
       50
102
RTVSPost2010PropOp47
 70
     0
102
RTVSPost2010Prop48
 90
       50
102
RTVSPost2010PropOp48
 70
     0
102
RTVSPost2010Prop49
280
     0
102
RTVSPost2010PropOp49
 70
     0
102
RTVSPost2010Prop50
 90
       50
102
RTVSPost2010PropOp50
 70
     0
102
RTVSPost2010Prop51ColorIndex
 90
      256
102
RTVSPost2010Prop51ColorRGB
 90
-16777216
102
RTVSPost2010PropOp51
 70
     0
102
RTVSPost2010Prop52
140
1.0
102
RTVSPost2010PropOp52
 70
     0
102
RTVSPost2010Prop53
 90
        2
102
RTVSPost2010PropOp53
 70
     0
102
RTVSPost2010Prop54
  1
strokes_ogs.tif
102
RTVSPost2010PropOp54
 70
     0
102
RTVSPost2010Prop55
280
     0
102
RTVSPost2010PropOp55
 70
     0
102
RTVSPost2010Prop56
140
1.0
102
RTVSPost2010PropOp56
 70
     0
102
RTVSPost2010Prop57
140
1.0
102
RTVSPost2010PropOp57
 70
     0
  0
XRECORD
  5
C6
102
{ACAD_REACTORS
330
C5
102
}
330
C5
100
AcDbXrecord
280
     1
102
RTVSPropertyOp0
 70
     1
102
RTVSPropertyOp1
 70
     1
102
RTVSPropertyOp2
 70
     1
102
RTVSPropertyOp3
 70
     1
102
RTVSPropertyOp4
 70
     1
102
RTVSPropertyOp5
 70
     1
102
RTVSPropertyOp6
 70
     1
102
RTVSPropertyOp7
 70
     1
102
RTVSPropertyOp8
 70
     1
102
RTVSPropertyOp9
 70
     1
102
RTVSPropertyOp10
 70
     1
102
RTVSPropertyOp11
 70
     1
102
RTVSPropertyOp12
 70
     1
102
RTVSPropertyOp13
 70
     1
102
RTVSPropertyOp14
 70
     1
102
RTVSPropertyOp15
 70
     1
102
RTVSPropertyOp16
 70
     1
102
RTVSPropertyOp17
 70
     1
102
RTVSPropertyOp18
 70
     1
102
RTVSPropertyOp19
 70
     1
102
RTVSPropertyOp20
 70
     1
102
RTVSPropertyOp21
 70
     1
102
RTVSPropertyOp22
 70
     1
102
RTVSPropertyOp23
 70
     1
102
RTVSPropertyOp24
 70
     1
102
RTVSPropertyOp25
 70
     1
102
RTVSPropertyOp26
 70
     1
102
RTVSPropertyOp27
 70
     1
102
RTVSPropertyOp28
 70
     1
102
RTVSPropertyOp29
 70
     1
102
RTVSPropertyOp30
 70
     1
102
RTVSPropertyOp31
 70
     1
102
RTVSPropertyOp32
 70
     1
102
RTVSPropertyOp33
 70
     1
102
RTVSPropertyOp34
 70
     1
102
RTVSPropertyOp35
 70
     1
102
RTVSPropertyOp36
 70
     1
102
RTVSPropertyOp37
 70
     1
102
RTVSPropertyOp38
 70
     1
102
RTVSPropertyOp39
 70
     1
102
RTVSPropertyOp40
 70
     1
102
RTVSPropertyOp41
 70
     1
102
RTVSPropertyOp42
 70
     1
102
RTVSPropertyOp43
 70
     1
102
RTVSPropertyOp44
 70
     1
102
RTVSPropertyOp45
 70
     1
102
RTVSPropertyOp46
 70
     1
102
RTVSPropertyOp47
 70
     1
102
RTVSPropertyOp48
 70
     1
102
RTVSPropertyOp49
 70
     1
102
RTVSPropertyOp50
 70
     1
102
RTVSPropertyOp51
 70
     0
102
RTVSPropertyOp52
 70
     0
102
RTVSPropertyOp53
 70
     1
102
RTVSPropertyOp54
 70
     1
102
RTVSPropertyOp55
 70
     1
102
RTVSPropertyOp56
 70
     1
102
RTVSPropertyOp57
 70
     1
102
RTVSPost2010Prop28
280
     0
102
RTVSPost2010PropOp28
 70
     1
102
RTVSPost2010Prop29
280
     1
102
RTVSPost2010PropOp29
 70
     1
102
RTVSPost2010Prop30
280
     1
102
RTVSPost2010PropOp30
 70
     1
102
RTVSPost2010Prop31
280
     0
102
RTVSPost2010PropOp31
 70
     1
102
RTVSPost2010Prop32
280
     0
102
RTVSPost2010PropOp32
 70
     1
102
RTVSPost2010Prop33
280
     0
102
RTVSPost2010PropOp33
 70
     1
102
RTVSPost2010Prop34
280
     0
102
RTVSPost2010PropOp34
 70
     1
102
RTVSPost2010Prop35
280
     0
102
RTVSPost2010PropOp35
 70
     1
102
RTVSPost2010Prop36
280
     0
102
RTVSPost2010PropOp36
 70
     1
102
RTVSPost2010Prop37
 90
       50
102
RTVSPost2010PropOp37
 70
     1
102
RTVSPost2010Prop38
140
0.0
102
RTVSPost2010PropOp38
 70
     1
102
RTVSPost2010Prop39
140
1.0
102
RTVSPost2010PropOp39
 70
     1
102
RTVSPost2010Prop40
 90
        0
102
RTVSPost2010PropOp40
 70
     1
102
RTVSPost2010Prop41ColorIndex
 90
       18
102
RTVSPost2010Prop41ColorRGB
 90
        0
102
RTVSPost2010PropOp41
 70
     1
102
RTVSPost2010Prop42
 90
       50
102
RTVSPost2010PropOp42
 70
     1
102
RTVSPost2010Prop43
 90
        3
102
RTVSPost2010PropOp43
 70
     1
102
RTVSPost2010Prop44ColorIndex
 90
        5
102
RTVSPost2010Prop44ColorRGB
 90
      255
102
RTVSPost2010PropOp44
 70
     1
102
RTVSPost2010Prop45
280
     0
102
RTVSPost2010PropOp45
 70
     1
102
RTVSPost2010Prop46
 90
       50
102
RTVSPost2010PropOp46
 70
     1
102
RTVSPost2010Prop47
 90
       50
102
RTVSPost2010PropOp47
 70
     1
102
RTVSPost2010Prop48
 90
       50
102
RTVSPost2010PropOp48
 70
     1
102
RTVSPost2010Prop49
280
     0
102
RTVSPost2010PropOp49
 70
     1
102
RTVSPost2010Prop50
 90
       50
102
RTVSPost2010PropOp50
 70
     1
102
RTVSPost2010Prop51ColorIndex
 90
      256
102
RTVSPost2010Prop51ColorRGB
 90
-16777216
102
RTVSPost2010PropOp51
 70
     0
102
RTVSPost2010Prop52
140
1.0
102
RTVSPost2010PropOp52
 70
     0
102
RTVSPost2010Prop53
 90
        2
102
RTVSPost2010PropOp53
 70
     1
102
RTVSPost2010Prop54
  1
strokes_ogs.tif
102
RTVSPost2010PropOp54
 70
     1
102
RTVSPost2010Prop55
280
     0
102
RTVSPost2010PropOp55
 70
     1
102
RTVSPost2010Prop56
140
1.0
102
RTVSPost2010PropOp56
 70
     1
102
RTVSPost2010Prop57
140
1.0
102
RTVSPost2010PropOp57
 70
     1
  0
XRECORD
  5
AA
102
{ACAD_REACTORS
330
A9
102
}
330
A9
100
AcDbXrecord
280
     1
102
RTVSPropertyOp0
 70
     1
102
RTVSPropertyOp1
 70
     1
102
RTVSPropertyOp2
 70
     1
102
RTVSPropertyOp3
 70
     1
102
RTVSPropertyOp4
 70
     1
102
RTVSPropertyOp5
 70
     1
102
RTVSPropertyOp6
 70
     1
102
RTVSPropertyOp7
 70
     1
102
RTVSPropertyOp8
 70
     1
102
RTVSPropertyOp9
 70
     1
102
RTVSPropertyOp10
 70
     1
102
RTVSPropertyOp11
 70
     1
102
RTVSPropertyOp12
 70
     1
102
RTVSPropertyOp13
 70
     1
102
RTVSPropertyOp14
 70
     1
102
RTVSPropertyOp15
 70
     1
102
RTVSPropertyOp16
 70
     1
102
RTVSPropertyOp17
 70
     1
102
RTVSPropertyOp18
 70
     1
102
RTVSPropertyOp19
 70
     1
102
RTVSPropertyOp20
 70
     1
102
RTVSPropertyOp21
 70
     1
102
RTVSPropertyOp22
 70
     1
102
RTVSPropertyOp23
 70
     1
102
RTVSPropertyOp24
 70
     1
102
RTVSPropertyOp25
 70
     1
102
RTVSPropertyOp26
 70
     1
102
RTVSPropertyOp27
 70
     1
102
RTVSPropertyOp28
 70
     1
102
RTVSPropertyOp29
 70
     1
102
RTVSPropertyOp30
 70
     1
102
RTVSPropertyOp31
 70
     1
102
RTVSPropertyOp32
 70
     1
102
RTVSPropertyOp33
 70
     1
102
RTVSPropertyOp34
 70
     1
102
RTVSPropertyOp35
 70
     1
102
RTVSPropertyOp36
 70
     1
102
RTVSPropertyOp37
 70
     1
102
RTVSPropertyOp38
 70
     1
102
RTVSPropertyOp39
 70
     1
102
RTVSPropertyOp40
 70
     1
102
RTVSPropertyOp41
 70
     1
102
RTVSPropertyOp42
 70
     1
102
RTVSPropertyOp43
 70
     1
102
RTVSPropertyOp44
 70
     1
102
RTVSPropertyOp45
 70
     1
102
RTVSPropertyOp46
 70
     1
102
RTVSPropertyOp47
 70
     1
102
RTVSPropertyOp48
 70
     1
102
RTVSPropertyOp49
 70
     1
102
RTVSPropertyOp50
 70
     1
102
RTVSPropertyOp51
 70
     0
102
RTVSPropertyOp52
 70
     0
102
RTVSPropertyOp53
 70
     1
102
RTVSPropertyOp54
 70
     1
102
RTVSPropertyOp55
 70
     1
102
RTVSPropertyOp56
 70
     1
102
RTVSPropertyOp57
 70
     1
102
RTVSPost2010Prop28
280
     0
102
RTVSPost2010PropOp28
 70
     1
102
RTVSPost2010Prop29
280
     1
102
RTVSPost2010PropOp29
 70
     1
102
RTVSPost2010Prop30
280
     1
102
RTVSPost2010PropOp30
 70
     1
102
RTVSPost2010Prop31
280
     0
102
RTVSPost2010PropOp31
 70
     1
102
RTVSPost2010Prop32
280
     0
102
RTVSPost2010PropOp32
 70
     1
102
RTVSPost2010Prop33
280
     0
102
RTVSPost2010PropOp33
 70
     1
102
RTVSPost2010Prop34
280
     0
102
RTVSPost2010PropOp34
 70
     1
102
RTVSPost2010Prop35
280
     0
102
RTVSPost2010PropOp35
 70
     1
102
RTVSPost2010Prop36
280
     0
102
RTVSPost2010PropOp36
 70
     1
102
RTVSPost2010Prop37
 90
       50
102
RTVSPost2010PropOp37
 70
     1
102
RTVSPost2010Prop38
140
0.0
102
RTVSPost2010PropOp38
 70
     1
102
RTVSPost2010Prop39
140
1.0
102
RTVSPost2010PropOp39
 70
     1
102
RTVSPost2010Prop40
 90
        0
102
RTVSPost2010PropOp40
 70
     1
102
RTVSPost2010Prop41ColorIndex
 90
       18
102
RTVSPost2010Prop41ColorRGB
 90
        0
102
RTVSPost2010PropOp41
 70
     1
102
RTVSPost2010Prop42
 90
       50
102
RTVSPost2010PropOp42
 70
     1
102
RTVSPost2010Prop43
 90
        3
102
RTVSPost2010PropOp43
 70
     1
102
RTVSPost2010Prop44ColorIndex
 90
        5
102
RTVSPost2010Prop44ColorRGB
 90
      255
102
RTVSPost2010PropOp44
 70
     1
102
RTVSPost2010Prop45
280
     0
102
RTVSPost2010PropOp45
 70
     1
102
RTVSPost2010Prop46
 90
       50
102
RTVSPost2010PropOp46
 70
     1
102
RTVSPost2010Prop47
 90
       50
102
RTVSPost2010PropOp47
 70
     1
102
RTVSPost2010Prop48
 90
       50
102
RTVSPost2010PropOp48
 70
     1
102
RTVSPost2010Prop49
280
     0
102
RTVSPost2010PropOp49
 70
     1
102
RTVSPost2010Prop50
 90
       50
102
RTVSPost2010PropOp50
 70
     1
102
RTVSPost2010Prop51ColorIndex
 90
      256
102
RTVSPost2010Prop51ColorRGB
 90
-16777216
102
RTVSPost2010PropOp51
 70
     0
102
RTVSPost2010Prop52
140
1.0
102
RTVSPost2010PropOp52
 70
     0
102
RTVSPost2010Prop53
 90
        2
102
RTVSPost2010PropOp53
 70
     1
102
RTVSPost2010Prop54
  1
strokes_ogs.tif
102
RTVSPost2010PropOp54
 70
     1
102
RTVSPost2010Prop55
280
     0
102
RTVSPost2010PropOp55
 70
     1
102
RTVSPost2010Prop56
140
1.0
102
RTVSPost2010PropOp56
 70
     1
102
RTVSPost2010Prop57
140
1.0
102
RTVSPost2010PropOp57
 70
     1
  0
XRECORD
  5
AC
102
{ACAD_REACTORS
330
AB
102
}
330
AB
100
AcDbXrecord
280
     1
102
RTVSPropertyOp0
 70
     1
102
RTVSPropertyOp1
 70
     1
102
RTVSPropertyOp2
 70
     1
102
RTVSPropertyOp3
 70
     1
102
RTVSPropertyOp4
 70
     1
102
RTVSPropertyOp5
 70
     1
102
RTVSPropertyOp6
 70
     1
102
RTVSPropertyOp7
 70
     1
102
RTVSPropertyOp8
 70
     1
102
RTVSPropertyOp9
 70
     1
102
RTVSPropertyOp10
 70
     1
102
RTVSPropertyOp11
 70
     1
102
RTVSPropertyOp12
 70
     1
102
RTVSPropertyOp13
 70
     1
102
RTVSPropertyOp14
 70
     1
102
RTVSPropertyOp15
 70
     1
102
RTVSPropertyOp16
 70
     1
102
RTVSPropertyOp17
 70
     1
102
RTVSPropertyOp18
 70
     1
102
RTVSPropertyOp19
 70
     1
102
RTVSPropertyOp20
 70
     1
102
RTVSPropertyOp21
 70
     1
102
RTVSPropertyOp22
 70
     1
102
RTVSPropertyOp23
 70
     1
102
RTVSPropertyOp24
 70
     1
102
RTVSPropertyOp25
 70
     1
102
RTVSPropertyOp26
 70
     1
102
RTVSPropertyOp27
 70
     1
102
RTVSPropertyOp28
 70
     1
102
RTVSPropertyOp29
 70
     1
102
RTVSPropertyOp30
 70
     1
102
RTVSPropertyOp31
 70
     1
102
RTVSPropertyOp32
 70
     1
102
RTVSPropertyOp33
 70
     1
102
RTVSPropertyOp34
 70
     1
102
RTVSPropertyOp35
 70
     1
102
RTVSPropertyOp36
 70
     1
102
RTVSPropertyOp37
 70
     1
102
RTVSPropertyOp38
 70
     1
102
RTVSPropertyOp39
 70
     1
102
RTVSPropertyOp40
 70
     1
102
RTVSPropertyOp41
 70
     1
102
RTVSPropertyOp42
 70
     1
102
RTVSPropertyOp43
 70
     1
102
RTVSPropertyOp44
 70
     1
102
RTVSPropertyOp45
 70
     1
102
RTVSPropertyOp46
 70
     1
102
RTVSPropertyOp47
 70
     1
102
RTVSPropertyOp48
 70
     1
102
RTVSPropertyOp49
 70
     1
102
RTVSPropertyOp50
 70
     1
102
RTVSPropertyOp51
 70
     0
102
RTVSPropertyOp52
 70
     0
102
RTVSPropertyOp53
 70
     1
102
RTVSPropertyOp54
 70
     1
102
RTVSPropertyOp55
 70
     1
102
RTVSPropertyOp56
 70
     1
102
RTVSPropertyOp57
 70
     1
102
RTVSPost2010Prop28
280
     0
102
RTVSPost2010PropOp28
 70
     1
102
RTVSPost2010Prop29
280
     1
102
RTVSPost2010PropOp29
 70
     1
102
RTVSPost2010Prop30
280
     1
102
RTVSPost2010PropOp30
 70
     1
102
RTVSPost2010Prop31
280
     0
102
RTVSPost2010PropOp31
 70
     1
102
RTVSPost2010Prop32
280
     0
102
RTVSPost2010PropOp32
 70
     1
102
RTVSPost2010Prop33
280
     0
102
RTVSPost2010PropOp33
 70
     1
102
RTVSPost2010Prop34
280
     0
102
RTVSPost2010PropOp34
 70
     1
102
RTVSPost2010Prop35
280
     0
102
RTVSPost2010PropOp35
 70
     1
102
RTVSPost2010Prop36
280
     0
102
RTVSPost2010PropOp36
 70
     1
102
RTVSPost2010Prop37
 90
       50
102
RTVSPost2010PropOp37
 70
     1
102
RTVSPost2010Prop38
140
0.0
102
RTVSPost2010PropOp38
 70
     1
102
RTVSPost2010Prop39
140
1.0
102
RTVSPost2010PropOp39
 70
     1
102
RTVSPost2010Prop40
 90
        0
102
RTVSPost2010PropOp40
 70
     1
102
RTVSPost2010Prop41ColorIndex
 90
       18
102
RTVSPost2010Prop41ColorRGB
 90
        0
102
RTVSPost2010PropOp41
 70
     1
102
RTVSPost2010Prop42
 90
       50
102
RTVSPost2010PropOp42
 70
     1
102
RTVSPost2010Prop43
 90
        3
102
RTVSPost2010PropOp43
 70
     1
102
RTVSPost2010Prop44ColorIndex
 90
        5
102
RTVSPost2010Prop44ColorRGB
 90
      255
102
RTVSPost2010PropOp44
 70
     1
102
RTVSPost2010Prop45
280
     0
102
RTVSPost2010PropOp45
 70
     1
102
RTVSPost2010Prop46
 90
       50
102
RTVSPost2010PropOp46
 70
     1
102
RTVSPost2010Prop47
 90
       50
102
RTVSPost2010PropOp47
 70
     1
102
RTVSPost2010Prop48
 90
       50
102
RTVSPost2010PropOp48
 70
     1
102
RTVSPost2010Prop49
280
     0
102
RTVSPost2010PropOp49
 70
     1
102
RTVSPost2010Prop50
 90
       50
102
RTVSPost2010PropOp50
 70
     1
102
RTVSPost2010Prop51ColorIndex
 90
      256
102
RTVSPost2010Prop51ColorRGB
 90
-16777216
102
RTVSPost2010PropOp51
 70
     0
102
RTVSPost2010Prop52
140
1.0
102
RTVSPost2010PropOp52
 70
     0
102
RTVSPost2010Prop53
 90
        2
102
RTVSPost2010PropOp53
 70
     1
102
RTVSPost2010Prop54
  1
strokes_ogs.tif
102
RTVSPost2010PropOp54
 70
     1
102
RTVSPost2010Prop55
280
     0
102
RTVSPost2010PropOp55
 70
     1
102
RTVSPost2010Prop56
140
1.0
102
RTVSPost2010PropOp56
 70
     1
102
RTVSPost2010Prop57
140
1.0
102
RTVSPost2010PropOp57
 70
     1
  0
XRECORD
  5
AE
102
{ACAD_REACTORS
330
AD
102
}
330
AD
100
AcDbXrecord
280
     1
102
RTVSPropertyOp0
 70
     1
102
RTVSPropertyOp1
 70
     1
102
RTVSPropertyOp2
 70
     1
102
RTVSPropertyOp3
 70
     1
102
RTVSPropertyOp4
 70
     1
102
RTVSPropertyOp5
 70
     1
102
RTVSPropertyOp6
 70
     1
102
RTVSPropertyOp7
 70
     1
102
RTVSPropertyOp8
 70
     1
102
RTVSPropertyOp9
 70
     1
102
RTVSPropertyOp10
 70
     1
102
RTVSPropertyOp11
 70
     1
102
RTVSPropertyOp12
 70
     1
102
RTVSPropertyOp13
 70
     1
102
RTVSPropertyOp14
 70
     1
102
RTVSPropertyOp15
 70
     1
102
RTVSPropertyOp16
 70
     1
102
RTVSPropertyOp17
 70
     1
102
RTVSPropertyOp18
 70
     1
102
RTVSPropertyOp19
 70
     1
102
RTVSPropertyOp20
 70
     1
102
RTVSPropertyOp21
 70
     1
102
RTVSPropertyOp22
 70
     1
102
RTVSPropertyOp23
 70
     1
102
RTVSPropertyOp24
 70
     1
102
RTVSPropertyOp25
 70
     1
102
RTVSPropertyOp26
 70
     1
102
RTVSPropertyOp27
 70
     1
102
RTVSPropertyOp28
 70
     1
102
RTVSPropertyOp29
 70
     1
102
RTVSPropertyOp30
 70
     1
102
RTVSPropertyOp31
 70
     1
102
RTVSPropertyOp32
 70
     1
102
RTVSPropertyOp33
 70
     1
102
RTVSPropertyOp34
 70
     1
102
RTVSPropertyOp35
 70
     1
102
RTVSPropertyOp36
 70
     1
102
RTVSPropertyOp37
 70
     1
102
RTVSPropertyOp38
 70
     1
102
RTVSPropertyOp39
 70
     1
102
RTVSPropertyOp40
 70
     1
102
RTVSPropertyOp41
 70
     1
102
RTVSPropertyOp42
 70
     1
102
RTVSPropertyOp43
 70
     1
102
RTVSPropertyOp44
 70
     1
102
RTVSPropertyOp45
 70
     1
102
RTVSPropertyOp46
 70
     1
102
RTVSPropertyOp47
 70
     1
102
RTVSPropertyOp48
 70
     1
102
RTVSPropertyOp49
 70
     1
102
RTVSPropertyOp50
 70
     1
102
RTVSPropertyOp51
 70
     0
102
RTVSPropertyOp52
 70
     0
102
RTVSPropertyOp53
 70
     1
102
RTVSPropertyOp54
 70
     1
102
RTVSPropertyOp55
 70
     1
102
RTVSPropertyOp56
 70
     1
102
RTVSPropertyOp57
 70
     1
102
RTVSPost2010Prop28
280
     0
102
RTVSPost2010PropOp28
 70
     1
102
RTVSPost2010Prop29
280
     1
102
RTVSPost2010PropOp29
 70
     1
102
RTVSPost2010Prop30
280
     1
102
RTVSPost2010PropOp30
 70
     1
102
RTVSPost2010Prop31
280
     0
102
RTVSPost2010PropOp31
 70
     1
102
RTVSPost2010Prop32
280
     0
102
RTVSPost2010PropOp32
 70
     1
102
RTVSPost2010Prop33
280
     0
102
RTVSPost2010PropOp33
 70
     1
102
RTVSPost2010Prop34
280
     0
102
RTVSPost2010PropOp34
 70
     1
102
RTVSPost2010Prop35
280
     0
102
RTVSPost2010PropOp35
 70
     1
102
RTVSPost2010Prop36
280
     0
102
RTVSPost2010PropOp36
 70
     1
102
RTVSPost2010Prop37
 90
       50
102
RTVSPost2010PropOp37
 70
     1
102
RTVSPost2010Prop38
140
0.0
102
RTVSPost2010PropOp38
 70
     1
102
RTVSPost2010Prop39
140
1.0
102
RTVSPost2010PropOp39
 70
     1
102
RTVSPost2010Prop40
 90
        0
102
RTVSPost2010PropOp40
 70
     1
102
RTVSPost2010Prop41ColorIndex
 90
       18
102
RTVSPost2010Prop41ColorRGB
 90
        0
102
RTVSPost2010PropOp41
 70
     1
102
RTVSPost2010Prop42
 90
       50
102
RTVSPost2010PropOp42
 70
     1
102
RTVSPost2010Prop43
 90
        3
102
RTVSPost2010PropOp43
 70
     1
102
RTVSPost2010Prop44ColorIndex
 90
        5
102
RTVSPost2010Prop44ColorRGB
 90
      255
102
RTVSPost2010PropOp44
 70
     1
102
RTVSPost2010Prop45
280
     0
102
RTVSPost2010PropOp45
 70
     1
102
RTVSPost2010Prop46
 90
       50
102
RTVSPost2010PropOp46
 70
     1
102
RTVSPost2010Prop47
 90
       50
102
RTVSPost2010PropOp47
 70
     1
102
RTVSPost2010Prop48
 90
       50
102
RTVSPost2010PropOp48
 70
     1
102
RTVSPost2010Prop49
280
     0
102
RTVSPost2010PropOp49
 70
     1
102
RTVSPost2010Prop50
 90
       50
102
RTVSPost2010PropOp50
 70
     1
102
RTVSPost2010Prop51ColorIndex
 90
      256
102
RTVSPost2010Prop51ColorRGB
 90
-16777216
102
RTVSPost2010PropOp51
 70
     0
102
RTVSPost2010Prop52
140
1.0
102
RTVSPost2010PropOp52
 70
     0
102
RTVSPost2010Prop53
 90
        2
102
RTVSPost2010PropOp53
 70
     1
102
RTVSPost2010Prop54
  1
strokes_ogs.tif
102
RTVSPost2010PropOp54
 70
     1
102
RTVSPost2010Prop55
280
     0
102
RTVSPost2010PropOp55
 70
     1
102
RTVSPost2010Prop56
140
1.0
102
RTVSPost2010PropOp56
 70
     1
102
RTVSPost2010Prop57
140
1.0
102
RTVSPost2010PropOp57
 70
     1
  0
XRECORD
  5
B0
102
{ACAD_REACTORS
330
AF
102
}
330
AF
100
AcDbXrecord
280
     1
102
RTVSPropertyOp0
 70
     1
102
RTVSPropertyOp1
 70
     1
102
RTVSPropertyOp2
 70
     1
102
RTVSPropertyOp3
 70
     1
102
RTVSPropertyOp4
 70
     1
102
RTVSPropertyOp5
 70
     1
102
RTVSPropertyOp6
 70
     1
102
RTVSPropertyOp7
 70
     1
102
RTVSPropertyOp8
 70
     1
102
RTVSPropertyOp9
 70
     1
102
RTVSPropertyOp10
 70
     1
102
RTVSPropertyOp11
 70
     1
102
RTVSPropertyOp12
 70
     1
102
RTVSPropertyOp13
 70
     1
102
RTVSPropertyOp14
 70
     1
102
RTVSPropertyOp15
 70
     1
102
RTVSPropertyOp16
 70
     1
102
RTVSPropertyOp17
 70
     1
102
RTVSPropertyOp18
 70
     1
102
RTVSPropertyOp19
 70
     1
102
RTVSPropertyOp20
 70
     1
102
RTVSPropertyOp21
 70
     1
102
RTVSPropertyOp22
 70
     1
102
RTVSPropertyOp23
 70
     1
102
RTVSPropertyOp24
 70
     1
102
RTVSPropertyOp25
 70
     1
102
RTVSPropertyOp26
 70
     1
102
RTVSPropertyOp27
 70
     1
102
RTVSPropertyOp28
 70
     1
102
RTVSPropertyOp29
 70
     1
102
RTVSPropertyOp30
 70
     1
102
RTVSPropertyOp31
 70
     1
102
RTVSPropertyOp32
 70
     1
102
RTVSPropertyOp33
 70
     1
102
RTVSPropertyOp34
 70
     1
102
RTVSPropertyOp35
 70
     1
102
RTVSPropertyOp36
 70
     1
102
RTVSPropertyOp37
 70
     1
102
RTVSPropertyOp38
 70
     1
102
RTVSPropertyOp39
 70
     1
102
RTVSPropertyOp40
 70
     1
102
RTVSPropertyOp41
 70
     1
102
RTVSPropertyOp42
 70
     1
102
RTVSPropertyOp43
 70
     1
102
RTVSPropertyOp44
 70
     1
102
RTVSPropertyOp45
 70
     1
102
RTVSPropertyOp46
 70
     1
102
RTVSPropertyOp47
 70
     1
102
RTVSPropertyOp48
 70
     1
102
RTVSPropertyOp49
 70
     1
102
RTVSPropertyOp50
 70
     1
102
RTVSPropertyOp51
 70
     0
102
RTVSPropertyOp52
 70
     0
102
RTVSPropertyOp53
 70
     1
102
RTVSPropertyOp54
 70
     1
102
RTVSPropertyOp55
 70
     1
102
RTVSPropertyOp56
 70
     1
102
RTVSPropertyOp57
 70
     1
102
RTVSPost2010Prop28
280
     0
102
RTVSPost2010PropOp28
 70
     1
102
RTVSPost2010Prop29
280
     1
102
RTVSPost2010PropOp29
 70
     1
102
RTVSPost2010Prop30
280
     1
102
RTVSPost2010PropOp30
 70
     1
102
RTVSPost2010Prop31
280
     0
102
RTVSPost2010PropOp31
 70
     1
102
RTVSPost2010Prop32
280
     0
102
RTVSPost2010PropOp32
 70
     1
102
RTVSPost2010Prop33
280
     0
102
RTVSPost2010PropOp33
 70
     1
102
RTVSPost2010Prop34
280
     0
102
RTVSPost2010PropOp34
 70
     1
102
RTVSPost2010Prop35
280
     0
102
RTVSPost2010PropOp35
 70
     1
102
RTVSPost2010Prop36
280
     0
102
RTVSPost2010PropOp36
 70
     1
102
RTVSPost2010Prop37
 90
       50
102
RTVSPost2010PropOp37
 70
     1
102
RTVSPost2010Prop38
140
0.0
102
RTVSPost2010PropOp38
 70
     1
102
RTVSPost2010Prop39
140
1.0
102
RTVSPost2010PropOp39
 70
     1
102
RTVSPost2010Prop40
 90
        0
102
RTVSPost2010PropOp40
 70
     1
102
RTVSPost2010Prop41ColorIndex
 90
       18
102
RTVSPost2010Prop41ColorRGB
 90
        0
102
RTVSPost2010PropOp41
 70
     1
102
RTVSPost2010Prop42
 90
       50
102
RTVSPost2010PropOp42
 70
     1
102
RTVSPost2010Prop43
 90
        3
102
RTVSPost2010PropOp43
 70
     1
102
RTVSPost2010Prop44ColorIndex
 90
        5
102
RTVSPost2010Prop44ColorRGB
 90
      255
102
RTVSPost2010PropOp44
 70
     1
102
RTVSPost2010Prop45
280
     0
102
RTVSPost2010PropOp45
 70
     1
102
RTVSPost2010Prop46
 90
       50
102
RTVSPost2010PropOp46
 70
     1
102
RTVSPost2010Prop47
 90
       50
102
RTVSPost2010PropOp47
 70
     1
102
RTVSPost2010Prop48
 90
       50
102
RTVSPost2010PropOp48
 70
     1
102
RTVSPost2010Prop49
280
     0
102
RTVSPost2010PropOp49
 70
     1
102
RTVSPost2010Prop50
 90
       50
102
RTVSPost2010PropOp50
 70
     1
102
RTVSPost2010Prop51ColorIndex
 90
      256
102
RTVSPost2010Prop51ColorRGB
 90
-16777216
102
RTVSPost2010PropOp51
 70
     0
102
RTVSPost2010Prop52
140
1.0
102
RTVSPost2010PropOp52
 70
     0
102
RTVSPost2010Prop53
 90
        2
102
RTVSPost2010PropOp53
 70
     1
102
RTVSPost2010Prop54
  1
strokes_ogs.tif
102
RTVSPost2010PropOp54
 70
     1
102
RTVSPost2010Prop55
280
     0
102
RTVSPost2010PropOp55
 70
     1
102
RTVSPost2010Prop56
140
1.0
102
RTVSPost2010PropOp56
 70
     1
102
RTVSPost2010Prop57
140
1.0
102
RTVSPost2010PropOp57
 70
     1
  0
XRECORD
  5
B6
102
{ACAD_REACTORS
330
B5
102
}
330
B5
100
AcDbXrecord
280
     1
102
RTVSPropertyOp0
 70
     1
102
RTVSPropertyOp1
 70
     1
102
RTVSPropertyOp2
 70
     1
102
RTVSPropertyOp3
 70
     1
102
RTVSPropertyOp4
 70
     1
102
RTVSPropertyOp5
 70
     1
102
RTVSPropertyOp6
 70
     1
102
RTVSPropertyOp7
 70
     1
102
RTVSPropertyOp8
 70
     1
102
RTVSPropertyOp9
 70
     1
102
RTVSPropertyOp10
 70
     1
102
RTVSPropertyOp11
 70
     1
102
RTVSPropertyOp12
 70
     1
102
RTVSPropertyOp13
 70
     1
102
RTVSPropertyOp14
 70
     1
102
RTVSPropertyOp15
 70
     1
102
RTVSPropertyOp16
 70
     1
102
RTVSPropertyOp17
 70
     1
102
RTVSPropertyOp18
 70
     1
102
RTVSPropertyOp19
 70
     1
102
RTVSPropertyOp20
 70
     1
102
RTVSPropertyOp21
 70
     1
102
RTVSPropertyOp22
 70
     1
102
RTVSPropertyOp23
 70
     1
102
RTVSPropertyOp24
 70
     1
102
RTVSPropertyOp25
 70
     1
102
RTVSPropertyOp26
 70
     1
102
RTVSPropertyOp27
 70
     1
102
RTVSPropertyOp28
 70
     1
102
RTVSPropertyOp29
 70
     1
102
RTVSPropertyOp30
 70
     1
102
RTVSPropertyOp31
 70
     1
102
RTVSPropertyOp32
 70
     1
102
RTVSPropertyOp33
 70
     1
102
RTVSPropertyOp34
 70
     1
102
RTVSPropertyOp35
 70
     1
102
RTVSPropertyOp36
 70
     1
102
RTVSPropertyOp37
 70
     1
102
RTVSPropertyOp38
 70
     1
102
RTVSPropertyOp39
 70
     1
102
RTVSPropertyOp40
 70
     1
102
RTVSPropertyOp41
 70
     1
102
RTVSPropertyOp42
 70
     1
102
RTVSPropertyOp43
 70
     1
102
RTVSPropertyOp44
 70
     1
102
RTVSPropertyOp45
 70
     1
102
RTVSPropertyOp46
 70
     1
102
RTVSPropertyOp47
 70
     1
102
RTVSPropertyOp48
 70
     1
102
RTVSPropertyOp49
 70
     1
102
RTVSPropertyOp50
 70
     1
102
RTVSPropertyOp51
 70
     0
102
RTVSPropertyOp52
 70
     0
102
RTVSPropertyOp53
 70
     1
102
RTVSPropertyOp54
 70
     1
102
RTVSPropertyOp55
 70
     1
102
RTVSPropertyOp56
 70
     1
102
RTVSPropertyOp57
 70
     1
102
RTVSPost2010Prop28
280
     0
102
RTVSPost2010PropOp28
 70
     1
102
RTVSPost2010Prop29
280
     1
102
RTVSPost2010PropOp29
 70
     1
102
RTVSPost2010Prop30
280
     1
102
RTVSPost2010PropOp30
 70
     1
102
RTVSPost2010Prop31
280
     0
102
RTVSPost2010PropOp31
 70
     1
102
RTVSPost2010Prop32
280
     0
102
RTVSPost2010PropOp32
 70
     1
102
RTVSPost2010Prop33
280
     0
102
RTVSPost2010PropOp33
 70
     1
102
RTVSPost2010Prop34
280
     0
102
RTVSPost2010PropOp34
 70
     1
102
RTVSPost2010Prop35
280
     0
102
RTVSPost2010PropOp35
 70
     1
102
RTVSPost2010Prop36
280
     0
102
RTVSPost2010PropOp36
 70
     1
102
RTVSPost2010Prop37
 90
       50
102
RTVSPost2010PropOp37
 70
     1
102
RTVSPost2010Prop38
140
0.0
102
RTVSPost2010PropOp38
 70
     1
102
RTVSPost2010Prop39
140
1.0
102
RTVSPost2010PropOp39
 70
     1
102
RTVSPost2010Prop40
 90
        0
102
RTVSPost2010PropOp40
 70
     1
102
RTVSPost2010Prop41ColorIndex
 90
       18
102
RTVSPost2010Prop41ColorRGB
 90
        0
102
RTVSPost2010PropOp41
 70
     1
102
RTVSPost2010Prop42
 90
       50
102
RTVSPost2010PropOp42
 70
     1
102
RTVSPost2010Prop43
 90
        3
102
RTVSPost2010PropOp43
 70
     1
102
RTVSPost2010Prop44ColorIndex
 90
        5
102
RTVSPost2010Prop44ColorRGB
 90
      255
102
RTVSPost2010PropOp44
 70
     1
102
RTVSPost2010Prop45
280
     0
102
RTVSPost2010PropOp45
 70
     1
102
RTVSPost2010Prop46
 90
       50
102
RTVSPost2010PropOp46
 70
     1
102
RTVSPost2010Prop47
 90
       50
102
RTVSPost2010PropOp47
 70
     1
102
RTVSPost2010Prop48
 90
       50
102
RTVSPost2010PropOp48
 70
     1
102
RTVSPost2010Prop49
280
     0
102
RTVSPost2010PropOp49
 70
     1
102
RTVSPost2010Prop50
 90
       50
102
RTVSPost2010PropOp50
 70
     1
102
RTVSPost2010Prop51ColorIndex
 90
      256
102
RTVSPost2010Prop51ColorRGB
 90
-16777216
102
RTVSPost2010PropOp51
 70
     0
102
RTVSPost2010Prop52
140
1.0
102
RTVSPost2010PropOp52
 70
     0
102
RTVSPost2010Prop53
 90
        2
102
RTVSPost2010PropOp53
 70
     1
102
RTVSPost2010Prop54
  1
strokes_ogs.tif
102
RTVSPost2010PropOp54
 70
     1
102
RTVSPost2010Prop55
280
     0
102
RTVSPost2010PropOp55
 70
     1
102
RTVSPost2010Prop56
140
1.0
102
RTVSPost2010PropOp56
 70
     1
102
RTVSPost2010Prop57
140
1.0
102
RTVSPost2010PropOp57
 70
     1
  0
XRECORD
  5
CA
102
{ACAD_REACTORS
330
C9
102
}
330
C9
100
AcDbXrecord
280
     1
102
RTVSPropertyOp0
 70
     0
102
RTVSPropertyOp1
 70
     0
102
RTVSPropertyOp2
 70
     0
102
RTVSPropertyOp3
 70
     0
102
RTVSPropertyOp4
 70
     0
102
RTVSPropertyOp5
 70
     0
102
RTVSPropertyOp6
 70
     0
102
RTVSPropertyOp7
 70
     0
102
RTVSPropertyOp8
 70
     0
102
RTVSPropertyOp9
 70
     0
102
RTVSPropertyOp10
 70
     0
102
RTVSPropertyOp11
 70
     0
102
RTVSPropertyOp12
 70
     0
102
RTVSPropertyOp13
 70
     0
102
RTVSPropertyOp14
 70
     2
102
RTVSPropertyOp15
 70
     0
102
RTVSPropertyOp16
 70
     0
102
RTVSPropertyOp17
 70
     0
102
RTVSPropertyOp18
 70
     0
102
RTVSPropertyOp19
 70
     0
102
RTVSPropertyOp20
 70
     0
102
RTVSPropertyOp21
 70
     0
102
RTVSPropertyOp22
 70
     0
102
RTVSPropertyOp23
 70
     0
102
RTVSPropertyOp24
 70
     0
102
RTVSPropertyOp25
 70
     0
102
RTVSPropertyOp26
 70
     0
102
RTVSPropertyOp27
 70
     0
102
RTVSPropertyOp28
 70
     0
102
RTVSPropertyOp29
 70
     0
102
RTVSPropertyOp30
 70
     0
102
RTVSPropertyOp31
 70
     0
102
RTVSPropertyOp32
 70
     0
102
RTVSPropertyOp33
 70
     0
102
RTVSPropertyOp34
 70
     0
102
RTVSPropertyOp35
 70
     0
102
RTVSPropertyOp36
 70
     0
102
RTVSPropertyOp37
 70
     0
102
RTVSPropertyOp38
 70
     0
102
RTVSPropertyOp39
 70
     0
102
RTVSPropertyOp40
 70
     0
102
RTVSPropertyOp41
 70
     0
102
RTVSPropertyOp42
 70
     0
102
RTVSPropertyOp43
 70
     0
102
RTVSPropertyOp44
 70
     0
102
RTVSPropertyOp45
 70
     0
102
RTVSPropertyOp46
 70
     0
102
RTVSPropertyOp47
 70
     0
102
RTVSPropertyOp48
 70
     0
102
RTVSPropertyOp49
 70
     0
102
RTVSPropertyOp50
 70
     0
102
RTVSPropertyOp51
 70
     0
102
RTVSPropertyOp52
 70
     0
102
RTVSPropertyOp53
 70
     0
102
RTVSPropertyOp54
 70
     0
102
RTVSPropertyOp55
 70
     0
102
RTVSPropertyOp56
 70
     0
102
RTVSPropertyOp57
 70
     0
102
RTVSPost2010Prop28
280
     0
102
RTVSPost2010PropOp28
 70
     0
102
RTVSPost2010Prop29
280
     1
102
RTVSPost2010PropOp29
 70
     0
102
RTVSPost2010Prop30
280
     1
102
RTVSPost2010PropOp30
 70
     0
102
RTVSPost2010Prop31
280
     0
102
RTVSPost2010PropOp31
 70
     0
102
RTVSPost2010Prop32
280
     0
102
RTVSPost2010PropOp32
 70
     0
102
RTVSPost2010Prop33
280
     0
102
RTVSPost2010PropOp33
 70
     0
102
RTVSPost2010Prop34
280
     0
102
RTVSPost2010PropOp34
 70
     0
102
RTVSPost2010Prop35
280
     0
102
RTVSPost2010PropOp35
 70
     0
102
RTVSPost2010Prop36
280
     0
102
RTVSPost2010PropOp36
 70
     0
102
RTVSPost2010Prop37
 90
       50
102
RTVSPost2010PropOp37
 70
     0
102
RTVSPost2010Prop38
140
0.0
102
RTVSPost2010PropOp38
 70
     0
102
RTVSPost2010Prop39
140
1.0
102
RTVSPost2010PropOp39
 70
     0
102
RTVSPost2010Prop40
 90
        0
102
RTVSPost2010PropOp40
 70
     0
102
RTVSPost2010Prop41ColorIndex
 90
       18
102
RTVSPost2010Prop41ColorRGB
 90
        0
102
RTVSPost2010PropOp41
 70
     0
102
RTVSPost2010Prop42
 90
       50
102
RTVSPost2010PropOp42
 70
     0
102
RTVSPost2010Prop43
 90
        3
102
RTVSPost2010PropOp43
 70
     0
102
RTVSPost2010Prop44ColorIndex
 90
        5
102
RTVSPost2010Prop44ColorRGB
 90
      255
102
RTVSPost2010PropOp44
 70
     0
102
RTVSPost2010Prop45
280
     0
102
RTVSPost2010PropOp45
 70
     0
102
RTVSPost2010Prop46
 90
       50
102
RTVSPost2010PropOp46
 70
     0
102
RTVSPost2010Prop47
 90
       50
102
RTVSPost2010PropOp47
 70
     0
102
RTVSPost2010Prop48
 90
       50
102
RTVSPost2010PropOp48
 70
     0
102
RTVSPost2010Prop49
280
     0
102
RTVSPost2010PropOp49
 70
     0
102
RTVSPost2010Prop50
 90
       50
102
RTVSPost2010PropOp50
 70
     0
102
RTVSPost2010Prop51ColorIndex
 90
      256
102
RTVSPost2010Prop51ColorRGB
 90
-16777216
102
RTVSPost2010PropOp51
 70
     0
102
RTVSPost2010Prop52
140
1.0
102
RTVSPost2010PropOp52
 70
     0
102
RTVSPost2010Prop53
 90
        2
102
RTVSPost2010PropOp53
 70
     0
102
RTVSPost2010Prop54
  1
strokes_ogs.tif
102
RTVSPost2010PropOp54
 70
     0
102
RTVSPost2010Prop55
280
     0
102
RTVSPost2010PropOp55
 70
     0
102
RTVSPost2010Prop56
140
1.0
102
RTVSPost2010PropOp56
 70
     0
102
RTVSPost2010Prop57
140
1.0
102
RTVSPost2010PropOp57
 70
     0
  0
XRECORD
  5
C4
102
{ACAD_REACTORS
330
C3
102
}
330
C3
100
AcDbXrecord
280
     1
102
RTVSPropertyOp0
 70
     1
102
RTVSPropertyOp1
 70
     1
102
RTVSPropertyOp2
 70
     1
102
RTVSPropertyOp3
 70
     1
102
RTVSPropertyOp4
 70
     1
102
RTVSPropertyOp5
 70
     1
102
RTVSPropertyOp6
 70
     1
102
RTVSPropertyOp7
 70
     1
102
RTVSPropertyOp8
 70
     1
102
RTVSPropertyOp9
 70
     1
102
RTVSPropertyOp10
 70
     1
102
RTVSPropertyOp11
 70
     1
102
RTVSPropertyOp12
 70
     1
102
RTVSPropertyOp13
 70
     1
102
RTVSPropertyOp14
 70
     1
102
RTVSPropertyOp15
 70
     1
102
RTVSPropertyOp16
 70
     1
102
RTVSPropertyOp17
 70
     1
102
RTVSPropertyOp18
 70
     1
102
RTVSPropertyOp19
 70
     1
102
RTVSPropertyOp20
 70
     1
102
RTVSPropertyOp21
 70
     1
102
RTVSPropertyOp22
 70
     1
102
RTVSPropertyOp23
 70
     1
102
RTVSPropertyOp24
 70
     1
102
RTVSPropertyOp25
 70
     1
102
RTVSPropertyOp26
 70
     1
102
RTVSPropertyOp27
 70
     1
102
RTVSPropertyOp28
 70
     1
102
RTVSPropertyOp29
 70
     1
102
RTVSPropertyOp30
 70
     1
102
RTVSPropertyOp31
 70
     1
102
RTVSPropertyOp32
 70
     1
102
RTVSPropertyOp33
 70
     1
102
RTVSPropertyOp34
 70
     1
102
RTVSPropertyOp35
 70
     1
102
RTVSPropertyOp36
 70
     1
102
RTVSPropertyOp37
 70
     1
102
RTVSPropertyOp38
 70
     1
102
RTVSPropertyOp39
 70
     1
102
RTVSPropertyOp40
 70
     1
102
RTVSPropertyOp41
 70
     1
102
RTVSPropertyOp42
 70
     1
102
RTVSPropertyOp43
 70
     1
102
RTVSPropertyOp44
 70
     1
102
RTVSPropertyOp45
 70
     1
102
RTVSPropertyOp46
 70
     1
102
RTVSPropertyOp47
 70
     1
102
RTVSPropertyOp48
 70
     1
102
RTVSPropertyOp49
 70
     1
102
RTVSPropertyOp50
 70
     1
102
RTVSPropertyOp51
 70
     0
102
RTVSPropertyOp52
 70
     0
102
RTVSPropertyOp53
 70
     1
102
RTVSPropertyOp54
 70
     1
102
RTVSPropertyOp55
 70
     1
102
RTVSPropertyOp56
 70
     1
102
RTVSPropertyOp57
 70
     1
102
RTVSPost2010Prop28
280
     0
102
RTVSPost2010PropOp28
 70
     1
102
RTVSPost2010Prop29
280
     1
102
RTVSPost2010PropOp29
 70
     1
102
RTVSPost2010Prop30
280
     1
102
RTVSPost2010PropOp30
 70
     1
102
RTVSPost2010Prop31
280
     0
102
RTVSPost2010PropOp31
 70
     1
102
RTVSPost2010Prop32
280
     0
102
RTVSPost2010PropOp32
 70
     1
102
RTVSPost2010Prop33
280
     0
102
RTVSPost2010PropOp33
 70
     1
102
RTVSPost2010Prop34
280
     0
102
RTVSPost2010PropOp34
 70
     1
102
RTVSPost2010Prop35
280
     0
102
RTVSPost2010PropOp35
 70
     1
102
RTVSPost2010Prop36
280
     0
102
RTVSPost2010PropOp36
 70
     1
102
RTVSPost2010Prop37
 90
       50
102
RTVSPost2010PropOp37
 70
     1
102
RTVSPost2010Prop38
140
0.0
102
RTVSPost2010PropOp38
 70
     1
102
RTVSPost2010Prop39
140
1.0
102
RTVSPost2010PropOp39
 70
     1
102
RTVSPost2010Prop40
 90
        0
102
RTVSPost2010PropOp40
 70
     1
102
RTVSPost2010Prop41ColorIndex
 90
       18
102
RTVSPost2010Prop41ColorRGB
 90
        0
102
RTVSPost2010PropOp41
 70
     1
102
RTVSPost2010Prop42
 90
       50
102
RTVSPost2010PropOp42
 70
     1
102
RTVSPost2010Prop43
 90
        3
102
RTVSPost2010PropOp43
 70
     1
102
RTVSPost2010Prop44ColorIndex
 90
        5
102
RTVSPost2010Prop44ColorRGB
 90
      255
102
RTVSPost2010PropOp44
 70
     1
102
RTVSPost2010Prop45
280
     0
102
RTVSPost2010PropOp45
 70
     1
102
RTVSPost2010Prop46
 90
       50
102
RTVSPost2010PropOp46
 70
     1
102
RTVSPost2010Prop47
 90
       50
102
RTVSPost2010PropOp47
 70
     1
102
RTVSPost2010Prop48
 90
       50
102
RTVSPost2010PropOp48
 70
     1
102
RTVSPost2010Prop49
280
     0
102
RTVSPost2010PropOp49
 70
     1
102
RTVSPost2010Prop50
 90
       50
102
RTVSPost2010PropOp50
 70
     1
102
RTVSPost2010Prop51ColorIndex
 90
      256
102
RTVSPost2010Prop51ColorRGB
 90
-16777216
102
RTVSPost2010PropOp51
 70
     0
102
RTVSPost2010Prop52
140
1.0
102
RTVSPost2010PropOp52
 70
     0
102
RTVSPost2010Prop53
 90
        2
102
RTVSPost2010PropOp53
 70
     1
102
RTVSPost2010Prop54
  1
strokes_ogs.tif
102
RTVSPost2010PropOp54
 70
     1
102
RTVSPost2010Prop55
280
     0
102
RTVSPost2010PropOp55
 70
     1
102
RTVSPost2010Prop56
140
1.0
102
RTVSPost2010PropOp56
 70
     1
102
RTVSPost2010Prop57
140
1.0
102
RTVSPost2010PropOp57
 70
     1
  0
XRECORD
  5
CC
102
{ACAD_REACTORS
330
CB
102
}
330
CB
100
AcDbXrecord
280
     1
102
RTVSPropertyOp0
 70
     0
102
RTVSPropertyOp1
 70
     0
102
RTVSPropertyOp2
 70
     0
102
RTVSPropertyOp3
 70
     0
102
RTVSPropertyOp4
 70
     0
102
RTVSPropertyOp5
 70
     0
102
RTVSPropertyOp6
 70
     0
102
RTVSPropertyOp7
 70
     0
102
RTVSPropertyOp8
 70
     0
102
RTVSPropertyOp9
 70
     0
102
RTVSPropertyOp10
 70
     0
102
RTVSPropertyOp11
 70
     0
102
RTVSPropertyOp12
 70
     0
102
RTVSPropertyOp13
 70
     0
102
RTVSPropertyOp14
 70
     2
102
RTVSPropertyOp15
 70
     0
102
RTVSPropertyOp16
 70
     0
102
RTVSPropertyOp17
 70
     0
102
RTVSPropertyOp18
 70
     0
102
RTVSPropertyOp19
 70
     0
102
RTVSPropertyOp20
 70
     0
102
RTVSPropertyOp21
 70
     0
102
RTVSPropertyOp22
 70
     0
102
RTVSPropertyOp23
 70
     0
102
RTVSPropertyOp24
 70
     0
102
RTVSPropertyOp25
 70
     0
102
RTVSPropertyOp26
 70
     0
102
RTVSPropertyOp27
 70
     0
102
RTVSPropertyOp28
 70
     0
102
RTVSPropertyOp29
 70
     0
102
RTVSPropertyOp30
 70
     0
102
RTVSPropertyOp31
 70
     0
102
RTVSPropertyOp32
 70
     0
102
RTVSPropertyOp33
 70
     0
102
RTVSPropertyOp34
 70
     0
102
RTVSPropertyOp35
 70
     0
102
RTVSPropertyOp36
 70
     0
102
RTVSPropertyOp37
 70
     0
102
RTVSPropertyOp38
 70
     0
102
RTVSPropertyOp39
 70
     0
102
RTVSPropertyOp40
 70
     0
102
RTVSPropertyOp41
 70
     0
102
RTVSPropertyOp42
 70
     0
102
RTVSPropertyOp43
 70
     0
102
RTVSPropertyOp44
 70
     0
102
RTVSPropertyOp45
 70
     0
102
RTVSPropertyOp46
 70
     0
102
RTVSPropertyOp47
 70
     0
102
RTVSPropertyOp48
 70
     0
102
RTVSPropertyOp49
 70
     0
102
RTVSPropertyOp50
 70
     0
102
RTVSPropertyOp51
 70
     0
102
RTVSPropertyOp52
 70
     0
102
RTVSPropertyOp53
 70
     0
102
RTVSPropertyOp54
 70
     0
102
RTVSPropertyOp55
 70
     0
102
RTVSPropertyOp56
 70
     0
102
RTVSPropertyOp57
 70
     0
102
RTVSPost2010Prop28
280
     0
102
RTVSPost2010PropOp28
 70
     0
102
RTVSPost2010Prop29
280
     1
102
RTVSPost2010PropOp29
 70
     0
102
RTVSPost2010Prop30
280
     1
102
RTVSPost2010PropOp30
 70
     0
102
RTVSPost2010Prop31
280
     0
102
RTVSPost2010PropOp31
 70
     0
102
RTVSPost2010Prop32
280
     0
102
RTVSPost2010PropOp32
 70
     0
102
RTVSPost2010Prop33
280
     0
102
RTVSPost2010PropOp33
 70
     0
102
RTVSPost2010Prop34
280
     0
102
RTVSPost2010PropOp34
 70
     0
102
RTVSPost2010Prop35
280
     0
102
RTVSPost2010PropOp35
 70
     0
102
RTVSPost2010Prop36
280
     0
102
RTVSPost2010PropOp36
 70
     0
102
RTVSPost2010Prop37
 90
       50
102
RTVSPost2010PropOp37
 70
     0
102
RTVSPost2010Prop38
140
0.0
102
RTVSPost2010PropOp38
 70
     0
102
RTVSPost2010Prop39
140
1.0
102
RTVSPost2010PropOp39
 70
     0
102
RTVSPost2010Prop40
 90
        0
102
RTVSPost2010PropOp40
 70
     0
102
RTVSPost2010Prop41ColorIndex
 90
       18
102
RTVSPost2010Prop41ColorRGB
 90
        0
102
RTVSPost2010PropOp41
 70
     0
102
RTVSPost2010Prop42
 90
       50
102
RTVSPost2010PropOp42
 70
     0
102
RTVSPost2010Prop43
 90
        3
102
RTVSPost2010PropOp43
 70
     0
102
RTVSPost2010Prop44ColorIndex
 90
        5
102
RTVSPost2010Prop44ColorRGB
 90
      255
102
RTVSPost2010PropOp44
 70
     0
102
RTVSPost2010Prop45
280
     0
102
RTVSPost2010PropOp45
 70
     0
102
RTVSPost2010Prop46
 90
       50
102
RTVSPost2010PropOp46
 70
     0
102
RTVSPost2010Prop47
 90
       50
102
RTVSPost2010PropOp47
 70
     0
102
RTVSPost2010Prop48
 90
       50
102
RTVSPost2010PropOp48
 70
     0
102
RTVSPost2010Prop49
280
     0
102
RTVSPost2010PropOp49
 70
     0
102
RTVSPost2010Prop50
 90
       50
102
RTVSPost2010PropOp50
 70
     0
102
RTVSPost2010Prop51ColorIndex
 90
      256
102
RTVSPost2010Prop51ColorRGB
 90
-16777216
102
RTVSPost2010PropOp51
 70
     0
102
RTVSPost2010Prop52
140
1.0
102
RTVSPost2010PropOp52
 70
     0
102
RTVSPost2010Prop53
 90
        2
102
RTVSPost2010PropOp53
 70
     0
102
RTVSPost2010Prop54
  1
strokes_ogs.tif
102
RTVSPost2010PropOp54
 70
     0
102
RTVSPost2010Prop55
280
     0
102
RTVSPost2010PropOp55
 70
     0
102
RTVSPost2010Prop56
140
1.0
102
RTVSPost2010PropOp56
 70
     0
102
RTVSPost2010Prop57
140
1.0
102
RTVSPost2010PropOp57
 70
     0
  0
XRECORD
  5
BA
102
{ACAD_REACTORS
330
B9
102
}
330
B9
100
AcDbXrecord
280
     1
102
RTVSPropertyOp0
 70
     1
102
RTVSPropertyOp1
 70
     1
102
RTVSPropertyOp2
 70
     1
102
RTVSPropertyOp3
 70
     1
102
RTVSPropertyOp4
 70
     1
102
RTVSPropertyOp5
 70
     1
102
RTVSPropertyOp6
 70
     1
102
RTVSPropertyOp7
 70
     1
102
RTVSPropertyOp8
 70
     1
102
RTVSPropertyOp9
 70
     1
102
RTVSPropertyOp10
 70
     1
102
RTVSPropertyOp11
 70
     1
102
RTVSPropertyOp12
 70
     1
102
RTVSPropertyOp13
 70
     1
102
RTVSPropertyOp14
 70
     1
102
RTVSPropertyOp15
 70
     1
102
RTVSPropertyOp16
 70
     1
102
RTVSPropertyOp17
 70
     1
102
RTVSPropertyOp18
 70
     1
102
RTVSPropertyOp19
 70
     1
102
RTVSPropertyOp20
 70
     1
102
RTVSPropertyOp21
 70
     1
102
RTVSPropertyOp22
 70
     1
102
RTVSPropertyOp23
 70
     1
102
RTVSPropertyOp24
 70
     1
102
RTVSPropertyOp25
 70
     1
102
RTVSPropertyOp26
 70
     1
102
RTVSPropertyOp27
 70
     1
102
RTVSPropertyOp28
 70
     1
102
RTVSPropertyOp29
 70
     1
102
RTVSPropertyOp30
 70
     1
102
RTVSPropertyOp31
 70
     1
102
RTVSPropertyOp32
 70
     1
102
RTVSPropertyOp33
 70
     1
102
RTVSPropertyOp34
 70
     1
102
RTVSPropertyOp35
 70
     1
102
RTVSPropertyOp36
 70
     1
102
RTVSPropertyOp37
 70
     1
102
RTVSPropertyOp38
 70
     1
102
RTVSPropertyOp39
 70
     1
102
RTVSPropertyOp40
 70
     1
102
RTVSPropertyOp41
 70
     1
102
RTVSPropertyOp42
 70
     1
102
RTVSPropertyOp43
 70
     1
102
RTVSPropertyOp44
 70
     1
102
RTVSPropertyOp45
 70
     1
102
RTVSPropertyOp46
 70
     1
102
RTVSPropertyOp47
 70
     1
102
RTVSPropertyOp48
 70
     1
102
RTVSPropertyOp49
 70
     1
102
RTVSPropertyOp50
 70
     1
102
RTVSPropertyOp51
 70
     0
102
RTVSPropertyOp52
 70
     0
102
RTVSPropertyOp53
 70
     1
102
RTVSPropertyOp54
 70
     1
102
RTVSPropertyOp55
 70
     1
102
RTVSPropertyOp56
 70
     1
102
RTVSPropertyOp57
 70
     1
102
RTVSPost2010Prop28
280
     0
102
RTVSPost2010PropOp28
 70
     1
102
RTVSPost2010Prop29
280
     1
102
RTVSPost2010PropOp29
 70
     1
102
RTVSPost2010Prop30
280
     1
102
RTVSPost2010PropOp30
 70
     1
102
RTVSPost2010Prop31
280
     0
102
RTVSPost2010PropOp31
 70
     1
102
RTVSPost2010Prop32
280
     0
102
RTVSPost2010PropOp32
 70
     1
102
RTVSPost2010Prop33
280
     0
102
RTVSPost2010PropOp33
 70
     1
102
RTVSPost2010Prop34
280
     0
102
RTVSPost2010PropOp34
 70
     1
102
RTVSPost2010Prop35
280
     0
102
RTVSPost2010PropOp35
 70
     1
102
RTVSPost2010Prop36
280
     0
102
RTVSPost2010PropOp36
 70
     1
102
RTVSPost2010Prop37
 90
       50
102
RTVSPost2010PropOp37
 70
     1
102
RTVSPost2010Prop38
140
0.0
102
RTVSPost2010PropOp38
 70
     1
102
RTVSPost2010Prop39
140
1.0
102
RTVSPost2010PropOp39
 70
     1
102
RTVSPost2010Prop40
 90
        0
102
RTVSPost2010PropOp40
 70
     1
102
RTVSPost2010Prop41ColorIndex
 90
       18
102
RTVSPost2010Prop41ColorRGB
 90
        0
102
RTVSPost2010PropOp41
 70
     1
102
RTVSPost2010Prop42
 90
       50
102
RTVSPost2010PropOp42
 70
     1
102
RTVSPost2010Prop43
 90
        3
102
RTVSPost2010PropOp43
 70
     1
102
RTVSPost2010Prop44ColorIndex
 90
        5
102
RTVSPost2010Prop44ColorRGB
 90
      255
102
RTVSPost2010PropOp44
 70
     1
102
RTVSPost2010Prop45
280
     0
102
RTVSPost2010PropOp45
 70
     1
102
RTVSPost2010Prop46
 90
       50
102
RTVSPost2010PropOp46
 70
     1
102
RTVSPost2010Prop47
 90
       50
102
RTVSPost2010PropOp47
 70
     1
102
RTVSPost2010Prop48
 90
       50
102
RTVSPost2010PropOp48
 70
     1
102
RTVSPost2010Prop49
280
     0
102
RTVSPost2010PropOp49
 70
     1
102
RTVSPost2010Prop50
 90
       50
102
RTVSPost2010PropOp50
 70
     1
102
RTVSPost2010Prop51ColorIndex
 90
      256
102
RTVSPost2010Prop51ColorRGB
 90
-16777216
102
RTVSPost2010PropOp51
 70
     0
102
RTVSPost2010Prop52
140
1.0
102
RTVSPost2010PropOp52
 70
     0
102
RTVSPost2010Prop53
 90
        2
102
RTVSPost2010PropOp53
 70
     1
102
RTVSPost2010Prop54
  1
strokes_ogs.tif
102
RTVSPost2010PropOp54
 70
     1
102
RTVSPost2010Prop55
280
     0
102
RTVSPost2010PropOp55
 70
     1
102
RTVSPost2010Prop56
140
1.0
102
RTVSPost2010PropOp56
 70
     1
102
RTVSPost2010Prop57
140
1.0
102
RTVSPost2010PropOp57
 70
     1
  0
XRECORD
  5
D8
102
{ACAD_REACTORS
330
D7
102
}
330
D7
100
AcDbXrecord
280
     1
102
RTVSPropertyOp0
 70
     1
102
RTVSPropertyOp1
 70
     1
102
RTVSPropertyOp2
 70
     1
102
RTVSPropertyOp3
 70
     1
102
RTVSPropertyOp4
 70
     1
102
RTVSPropertyOp5
 70
     1
102
RTVSPropertyOp6
 70
     1
102
RTVSPropertyOp7
 70
     1
102
RTVSPropertyOp8
 70
     1
102
RTVSPropertyOp9
 70
     1
102
RTVSPropertyOp10
 70
     1
102
RTVSPropertyOp11
 70
     1
102
RTVSPropertyOp12
 70
     1
102
RTVSPropertyOp13
 70
     1
102
RTVSPropertyOp14
 70
     1
102
RTVSPropertyOp15
 70
     1
102
RTVSPropertyOp16
 70
     1
102
RTVSPropertyOp17
 70
     1
102
RTVSPropertyOp18
 70
     1
102
RTVSPropertyOp19
 70
     1
102
RTVSPropertyOp20
 70
     1
102
RTVSPropertyOp21
 70
     1
102
RTVSPropertyOp22
 70
     1
102
RTVSPropertyOp23
 70
     1
102
RTVSPropertyOp24
 70
     1
102
RTVSPropertyOp25
 70
     1
102
RTVSPropertyOp26
 70
     1
102
RTVSPropertyOp27
 70
     1
102
RTVSPropertyOp28
 70
     1
102
RTVSPropertyOp29
 70
     1
102
RTVSPropertyOp30
 70
     1
102
RTVSPropertyOp31
 70
     1
102
RTVSPropertyOp32
 70
     1
102
RTVSPropertyOp33
 70
     1
102
RTVSPropertyOp34
 70
     1
102
RTVSPropertyOp35
 70
     1
102
RTVSPropertyOp36
 70
     1
102
RTVSPropertyOp37
 70
     1
102
RTVSPropertyOp38
 70
     1
102
RTVSPropertyOp39
 70
     1
102
RTVSPropertyOp40
 70
     1
102
RTVSPropertyOp41
 70
     1
102
RTVSPropertyOp42
 70
     1
102
RTVSPropertyOp43
 70
     1
102
RTVSPropertyOp44
 70
     1
102
RTVSPropertyOp45
 70
     1
102
RTVSPropertyOp46
 70
     1
102
RTVSPropertyOp47
 70
     1
102
RTVSPropertyOp48
 70
     1
102
RTVSPropertyOp49
 70
     1
102
RTVSPropertyOp50
 70
     1
102
RTVSPropertyOp51
 70
     0
102
RTVSPropertyOp52
 70
     0
102
RTVSPropertyOp53
 70
     1
102
RTVSPropertyOp54
 70
     1
102
RTVSPropertyOp55
 70
     1
102
RTVSPropertyOp56
 70
     1
102
RTVSPropertyOp57
 70
     1
102
RTVSPost2010Prop28
280
     0
102
RTVSPost2010PropOp28
 70
     1
102
RTVSPost2010Prop29
280
     1
102
RTVSPost2010PropOp29
 70
     1
102
RTVSPost2010Prop30
280
     1
102
RTVSPost2010PropOp30
 70
     1
102
RTVSPost2010Prop31
280
     0
102
RTVSPost2010PropOp31
 70
     1
102
RTVSPost2010Prop32
280
     0
102
RTVSPost2010PropOp32
 70
     1
102
RTVSPost2010Prop33
280
     0
102
RTVSPost2010PropOp33
 70
     1
102
RTVSPost2010Prop34
280
     0
102
RTVSPost2010PropOp34
 70
     1
102
RTVSPost2010Prop35
280
     0
102
RTVSPost2010PropOp35
 70
     1
102
RTVSPost2010Prop36
280
     0
102
RTVSPost2010PropOp36
 70
     1
102
RTVSPost2010Prop37
 90
       50
102
RTVSPost2010PropOp37
 70
     1
102
RTVSPost2010Prop38
140
0.0
102
RTVSPost2010PropOp38
 70
     1
102
RTVSPost2010Prop39
140
1.0
102
RTVSPost2010PropOp39
 70
     1
102
RTVSPost2010Prop40
 90
        0
102
RTVSPost2010PropOp40
 70
     1
102
RTVSPost2010Prop41ColorIndex
 90
       18
102
RTVSPost2010Prop41ColorRGB
 90
        0
102
RTVSPost2010PropOp41
 70
     1
102
RTVSPost2010Prop42
 90
       50
102
RTVSPost2010PropOp42
 70
     1
102
RTVSPost2010Prop43
 90
        3
102
RTVSPost2010PropOp43
 70
     1
102
RTVSPost2010Prop44ColorIndex
 90
        5
102
RTVSPost2010Prop44ColorRGB
 90
      255
102
RTVSPost2010PropOp44
 70
     1
102
RTVSPost2010Prop45
280
     0
102
RTVSPost2010PropOp45
 70
     1
102
RTVSPost2010Prop46
 90
       50
102
RTVSPost2010PropOp46
 70
     1
102
RTVSPost2010Prop47
 90
       50
102
RTVSPost2010PropOp47
 70
     1
102
RTVSPost2010Prop48
 90
       50
102
RTVSPost2010PropOp48
 70
     1
102
RTVSPost2010Prop49
280
     0
102
RTVSPost2010PropOp49
 70
     1
102
RTVSPost2010Prop50
 90
       50
102
RTVSPost2010PropOp50
 70
     1
102
RTVSPost2010Prop51ColorIndex
 90
      256
102
RTVSPost2010Prop51ColorRGB
 90
-16777216
102
RTVSPost2010PropOp51
 70
     0
102
RTVSPost2010Prop52
140
1.0
102
RTVSPost2010PropOp52
 70
     0
102
RTVSPost2010Prop53
 90
        2
102
RTVSPost2010PropOp53
 70
     1
102
RTVSPost2010Prop54
  1
strokes_ogs.tif
102
RTVSPost2010PropOp54
 70
     1
102
RTVSPost2010Prop55
280
     0
102
RTVSPost2010PropOp55
 70
     1
102
RTVSPost2010Prop56
140
1.0
102
RTVSPost2010PropOp56
 70
     1
102
RTVSPost2010Prop57
140
1.0
102
RTVSPost2010PropOp57
 70
     1
  0
XRECORD
  5
D6
102
{ACAD_REACTORS
330
D5
102
}
330
D5
100
AcDbXrecord
280
     1
102
RTVSPropertyOp0
 70
     1
102
RTVSPropertyOp1
 70
     1
102
RTVSPropertyOp2
 70
     1
102
RTVSPropertyOp3
 70
     1
102
RTVSPropertyOp4
 70
     1
102
RTVSPropertyOp5
 70
     1
102
RTVSPropertyOp6
 70
     1
102
RTVSPropertyOp7
 70
     1
102
RTVSPropertyOp8
 70
     1
102
RTVSPropertyOp9
 70
     1
102
RTVSPropertyOp10
 70
     1
102
RTVSPropertyOp11
 70
     1
102
RTVSPropertyOp12
 70
     1
102
RTVSPropertyOp13
 70
     1
102
RTVSPropertyOp14
 70
     1
102
RTVSPropertyOp15
 70
     1
102
RTVSPropertyOp16
 70
     1
102
RTVSPropertyOp17
 70
     1
102
RTVSPropertyOp18
 70
     1
102
RTVSPropertyOp19
 70
     1
102
RTVSPropertyOp20
 70
     1
102
RTVSPropertyOp21
 70
     1
102
RTVSPropertyOp22
 70
     1
102
RTVSPropertyOp23
 70
     1
102
RTVSPropertyOp24
 70
     1
102
RTVSPropertyOp25
 70
     1
102
RTVSPropertyOp26
 70
     1
102
RTVSPropertyOp27
 70
     1
102
RTVSPropertyOp28
 70
     1
102
RTVSPropertyOp29
 70
     1
102
RTVSPropertyOp30
 70
     1
102
RTVSPropertyOp31
 70
     1
102
RTVSPropertyOp32
 70
     1
102
RTVSPropertyOp33
 70
     1
102
RTVSPropertyOp34
 70
     1
102
RTVSPropertyOp35
 70
     1
102
RTVSPropertyOp36
 70
     1
102
RTVSPropertyOp37
 70
     1
102
RTVSPropertyOp38
 70
     1
102
RTVSPropertyOp39
 70
     1
102
RTVSPropertyOp40
 70
     1
102
RTVSPropertyOp41
 70
     1
102
RTVSPropertyOp42
 70
     1
102
RTVSPropertyOp43
 70
     1
102
RTVSPropertyOp44
 70
     1
102
RTVSPropertyOp45
 70
     1
102
RTVSPropertyOp46
 70
     1
102
RTVSPropertyOp47
 70
     1
102
RTVSPropertyOp48
 70
     1
102
RTVSPropertyOp49
 70
     1
102
RTVSPropertyOp50
 70
     1
102
RTVSPropertyOp51
 70
     0
102
RTVSPropertyOp52
 70
     0
102
RTVSPropertyOp53
 70
     1
102
RTVSPropertyOp54
 70
     1
102
RTVSPropertyOp55
 70
     1
102
RTVSPropertyOp56
 70
     1
102
RTVSPropertyOp57
 70
     1
102
RTVSPost2010Prop28
280
     0
102
RTVSPost2010PropOp28
 70
     1
102
RTVSPost2010Prop29
280
     1
102
RTVSPost2010PropOp29
 70
     1
102
RTVSPost2010Prop30
280
     1
102
RTVSPost2010PropOp30
 70
     1
102
RTVSPost2010Prop31
280
     0
102
RTVSPost2010PropOp31
 70
     1
102
RTVSPost2010Prop32
280
     0
102
RTVSPost2010PropOp32
 70
     1
102
RTVSPost2010Prop33
280
     0
102
RTVSPost2010PropOp33
 70
     1
102
RTVSPost2010Prop34
280
     0
102
RTVSPost2010PropOp34
 70
     1
102
RTVSPost2010Prop35
280
     0
102
RTVSPost2010PropOp35
 70
     1
102
RTVSPost2010Prop36
280
     0
102
RTVSPost2010PropOp36
 70
     1
102
RTVSPost2010Prop37
 90
       50
102
RTVSPost2010PropOp37
 70
     1
102
RTVSPost2010Prop38
140
0.0
102
RTVSPost2010PropOp38
 70
     1
102
RTVSPost2010Prop39
140
1.0
102
RTVSPost2010PropOp39
 70
     1
102
RTVSPost2010Prop40
 90
        0
102
RTVSPost2010PropOp40
 70
     1
102
RTVSPost2010Prop41ColorIndex
 90
       18
102
RTVSPost2010Prop41ColorRGB
 90
        0
102
RTVSPost2010PropOp41
 70
     1
102
RTVSPost2010Prop42
 90
       50
102
RTVSPost2010PropOp42
 70
     1
102
RTVSPost2010Prop43
 90
        3
102
RTVSPost2010PropOp43
 70
     1
102
RTVSPost2010Prop44ColorIndex
 90
        5
102
RTVSPost2010Prop44ColorRGB
 90
      255
102
RTVSPost2010PropOp44
 70
     1
102
RTVSPost2010Prop45
280
     0
102
RTVSPost2010PropOp45
 70
     1
102
RTVSPost2010Prop46
 90
       50
102
RTVSPost2010PropOp46
 70
     1
102
RTVSPost2010Prop47
 90
       50
102
RTVSPost2010PropOp47
 70
     1
102
RTVSPost2010Prop48
 90
       50
102
RTVSPost2010PropOp48
 70
     1
102
RTVSPost2010Prop49
280
     0
102
RTVSPost2010PropOp49
 70
     1
102
RTVSPost2010Prop50
 90
       50
102
RTVSPost2010PropOp50
 70
     1
102
RTVSPost2010Prop51ColorIndex
 90
      256
102
RTVSPost2010Prop51ColorRGB
 90
-16777216
102
RTVSPost2010PropOp51
 70
     0
102
RTVSPost2010Prop52
140
1.0
102
RTVSPost2010PropOp52
 70
     0
102
RTVSPost2010Prop53
 90
        2
102
RTVSPost2010PropOp53
 70
     1
102
RTVSPost2010Prop54
  1
strokes_ogs.tif
102
RTVSPost2010PropOp54
 70
     1
102
RTVSPost2010Prop55
280
     0
102
RTVSPost2010PropOp55
 70
     1
102
RTVSPost2010Prop56
140
1.0
102
RTVSPost2010PropOp56
 70
     1
102
RTVSPost2010Prop57
140
1.0
102
RTVSPost2010PropOp57
 70
     1
  0
XRECORD
  5
D0
102
{ACAD_REACTORS
330
CF
102
}
330
CF
100
AcDbXrecord
280
     1
102
RTVSPropertyOp0
 70
     1
102
RTVSPropertyOp1
 70
     1
102
RTVSPropertyOp2
 70
     1
102
RTVSPropertyOp3
 70
     1
102
RTVSPropertyOp4
 70
     1
102
RTVSPropertyOp5
 70
     1
102
RTVSPropertyOp6
 70
     1
102
RTVSPropertyOp7
 70
     1
102
RTVSPropertyOp8
 70
     1
102
RTVSPropertyOp9
 70
     1
102
RTVSPropertyOp10
 70
     1
102
RTVSPropertyOp11
 70
     1
102
RTVSPropertyOp12
 70
     1
102
RTVSPropertyOp13
 70
     1
102
RTVSPropertyOp14
 70
     1
102
RTVSPropertyOp15
 70
     1
102
RTVSPropertyOp16
 70
     1
102
RTVSPropertyOp17
 70
     1
102
RTVSPropertyOp18
 70
     1
102
RTVSPropertyOp19
 70
     1
102
RTVSPropertyOp20
 70
     1
102
RTVSPropertyOp21
 70
     1
102
RTVSPropertyOp22
 70
     1
102
RTVSPropertyOp23
 70
     1
102
RTVSPropertyOp24
 70
     1
102
RTVSPropertyOp25
 70
     1
102
RTVSPropertyOp26
 70
     1
102
RTVSPropertyOp27
 70
     1
102
RTVSPropertyOp28
 70
     1
102
RTVSPropertyOp29
 70
     1
102
RTVSPropertyOp30
 70
     1
102
RTVSPropertyOp31
 70
     1
102
RTVSPropertyOp32
 70
     1
102
RTVSPropertyOp33
 70
     1
102
RTVSPropertyOp34
 70
     1
102
RTVSPropertyOp35
 70
     1
102
RTVSPropertyOp36
 70
     1
102
RTVSPropertyOp37
 70
     1
102
RTVSPropertyOp38
 70
     1
102
RTVSPropertyOp39
 70
     1
102
RTVSPropertyOp40
 70
     1
102
RTVSPropertyOp41
 70
     1
102
RTVSPropertyOp42
 70
     1
102
RTVSPropertyOp43
 70
     1
102
RTVSPropertyOp44
 70
     1
102
RTVSPropertyOp45
 70
     1
102
RTVSPropertyOp46
 70
     1
102
RTVSPropertyOp47
 70
     1
102
RTVSPropertyOp48
 70
     1
102
RTVSPropertyOp49
 70
     1
102
RTVSPropertyOp50
 70
     1
102
RTVSPropertyOp51
 70
     0
102
RTVSPropertyOp52
 70
     0
102
RTVSPropertyOp53
 70
     1
102
RTVSPropertyOp54
 70
     1
102
RTVSPropertyOp55
 70
     1
102
RTVSPropertyOp56
 70
     1
102
RTVSPropertyOp57
 70
     1
102
RTVSPost2010Prop28
280
     0
102
RTVSPost2010PropOp28
 70
     1
102
RTVSPost2010Prop29
280
     1
102
RTVSPost2010PropOp29
 70
     1
102
RTVSPost2010Prop30
280
     1
102
RTVSPost2010PropOp30
 70
     1
102
RTVSPost2010Prop31
280
     0
102
RTVSPost2010PropOp31
 70
     1
102
RTVSPost2010Prop32
280
     0
102
RTVSPost2010PropOp32
 70
     1
102
RTVSPost2010Prop33
280
     0
102
RTVSPost2010PropOp33
 70
     1
102
RTVSPost2010Prop34
280
     0
102
RTVSPost2010PropOp34
 70
     1
102
RTVSPost2010Prop35
280
     0
102
RTVSPost2010PropOp35
 70
     1
102
RTVSPost2010Prop36
280
     0
102
RTVSPost2010PropOp36
 70
     1
102
RTVSPost2010Prop37
 90
       50
102
RTVSPost2010PropOp37
 70
     1
102
RTVSPost2010Prop38
140
0.0
102
RTVSPost2010PropOp38
 70
     1
102
RTVSPost2010Prop39
140
1.0
102
RTVSPost2010PropOp39
 70
     1
102
RTVSPost2010Prop40
 90
        0
102
RTVSPost2010PropOp40
 70
     1
102
RTVSPost2010Prop41ColorIndex
 90
       18
102
RTVSPost2010Prop41ColorRGB
 90
        0
102
RTVSPost2010PropOp41
 70
     1
102
RTVSPost2010Prop42
 90
       50
102
RTVSPost2010PropOp42
 70
     1
102
RTVSPost2010Prop43
 90
        3
102
RTVSPost2010PropOp43
 70
     1
102
RTVSPost2010Prop44ColorIndex
 90
        5
102
RTVSPost2010Prop44ColorRGB
 90
      255
102
RTVSPost2010PropOp44
 70
     1
102
RTVSPost2010Prop45
280
     0
102
RTVSPost2010PropOp45
 70
     1
102
RTVSPost2010Prop46
 90
       50
102
RTVSPost2010PropOp46
 70
     1
102
RTVSPost2010Prop47
 90
       50
102
RTVSPost2010PropOp47
 70
     1
102
RTVSPost2010Prop48
 90
       50
102
RTVSPost2010PropOp48
 70
     1
102
RTVSPost2010Prop49
280
     0
102
RTVSPost2010PropOp49
 70
     1
102
RTVSPost2010Prop50
 90
       50
102
RTVSPost2010PropOp50
 70
     1
102
RTVSPost2010Prop51ColorIndex
 90
      256
102
RTVSPost2010Prop51ColorRGB
 90
-16777216
102
RTVSPost2010PropOp51
 70
     0
102
RTVSPost2010Prop52
140
1.0
102
RTVSPost2010PropOp52
 70
     0
102
RTVSPost2010Prop53
 90
        2
102
RTVSPost2010PropOp53
 70
     1
102
RTVSPost2010Prop54
  1
strokes_ogs.tif
102
RTVSPost2010PropOp54
 70
     1
102
RTVSPost2010Prop55
280
     0
102
RTVSPost2010PropOp55
 70
     1
102
RTVSPost2010Prop56
140
1.0
102
RTVSPost2010PropOp56
 70
     1
102
RTVSPost2010Prop57
140
1.0
102
RTVSPost2010PropOp57
 70
     1
  0
XRECORD
  5
D2
102
{ACAD_REACTORS
330
D1
102
}
330
D1
100
AcDbXrecord
280
     1
102
RTVSPropertyOp0
 70
     1
102
RTVSPropertyOp1
 70
     1
102
RTVSPropertyOp2
 70
     1
102
RTVSPropertyOp3
 70
     1
102
RTVSPropertyOp4
 70
     1
102
RTVSPropertyOp5
 70
     1
102
RTVSPropertyOp6
 70
     1
102
RTVSPropertyOp7
 70
     1
102
RTVSPropertyOp8
 70
     1
102
RTVSPropertyOp9
 70
     1
102
RTVSPropertyOp10
 70
     1
102
RTVSPropertyOp11
 70
     1
102
RTVSPropertyOp12
 70
     1
102
RTVSPropertyOp13
 70
     1
102
RTVSPropertyOp14
 70
     1
102
RTVSPropertyOp15
 70
     1
102
RTVSPropertyOp16
 70
     1
102
RTVSPropertyOp17
 70
     1
102
RTVSPropertyOp18
 70
     1
102
RTVSPropertyOp19
 70
     1
102
RTVSPropertyOp20
 70
     1
102
RTVSPropertyOp21
 70
     1
102
RTVSPropertyOp22
 70
     1
102
RTVSPropertyOp23
 70
     1
102
RTVSPropertyOp24
 70
     1
102
RTVSPropertyOp25
 70
     1
102
RTVSPropertyOp26
 70
     1
102
RTVSPropertyOp27
 70
     1
102
RTVSPropertyOp28
 70
     1
102
RTVSPropertyOp29
 70
     1
102
RTVSPropertyOp30
 70
     1
102
RTVSPropertyOp31
 70
     1
102
RTVSPropertyOp32
 70
     1
102
RTVSPropertyOp33
 70
     1
102
RTVSPropertyOp34
 70
     1
102
RTVSPropertyOp35
 70
     1
102
RTVSPropertyOp36
 70
     1
102
RTVSPropertyOp37
 70
     1
102
RTVSPropertyOp38
 70
     1
102
RTVSPropertyOp39
 70
     1
102
RTVSPropertyOp40
 70
     1
102
RTVSPropertyOp41
 70
     1
102
RTVSPropertyOp42
 70
     1
102
RTVSPropertyOp43
 70
     1
102
RTVSPropertyOp44
 70
     1
102
RTVSPropertyOp45
 70
     1
102
RTVSPropertyOp46
 70
     1
102
RTVSPropertyOp47
 70
     1
102
RTVSPropertyOp48
 70
     1
102
RTVSPropertyOp49
 70
     1
102
RTVSPropertyOp50
 70
     1
102
RTVSPropertyOp51
 70
     0
102
RTVSPropertyOp52
 70
     0
102
RTVSPropertyOp53
 70
     1
102
RTVSPropertyOp54
 70
     1
102
RTVSPropertyOp55
 70
     1
102
RTVSPropertyOp56
 70
     1
102
RTVSPropertyOp57
 70
     1
102
RTVSPost2010Prop28
280
     0
102
RTVSPost2010PropOp28
 70
     1
102
RTVSPost2010Prop29
280
     1
102
RTVSPost2010PropOp29
 70
     1
102
RTVSPost2010Prop30
280
     1
102
RTVSPost2010PropOp30
 70
     1
102
RTVSPost2010Prop31
280
     0
102
RTVSPost2010PropOp31
 70
     1
102
RTVSPost2010Prop32
280
     0
102
RTVSPost2010PropOp32
 70
     1
102
RTVSPost2010Prop33
280
     0
102
RTVSPost2010PropOp33
 70
     1
102
RTVSPost2010Prop34
280
     0
102
RTVSPost2010PropOp34
 70
     1
102
RTVSPost2010Prop35
280
     0
102
RTVSPost2010PropOp35
 70
     1
102
RTVSPost2010Prop36
280
     0
102
RTVSPost2010PropOp36
 70
     1
102
RTVSPost2010Prop37
 90
       50
102
RTVSPost2010PropOp37
 70
     1
102
RTVSPost2010Prop38
140
0.0
102
RTVSPost2010PropOp38
 70
     1
102
RTVSPost2010Prop39
140
1.0
102
RTVSPost2010PropOp39
 70
     1
102
RTVSPost2010Prop40
 90
        0
102
RTVSPost2010PropOp40
 70
     1
102
RTVSPost2010Prop41ColorIndex
 90
       18
102
RTVSPost2010Prop41ColorRGB
 90
        0
102
RTVSPost2010PropOp41
 70
     1
102
RTVSPost2010Prop42
 90
       50
102
RTVSPost2010PropOp42
 70
     1
102
RTVSPost2010Prop43
 90
        3
102
RTVSPost2010PropOp43
 70
     1
102
RTVSPost2010Prop44ColorIndex
 90
        5
102
RTVSPost2010Prop44ColorRGB
 90
      255
102
RTVSPost2010PropOp44
 70
     1
102
RTVSPost2010Prop45
280
     0
102
RTVSPost2010PropOp45
 70
     1
102
RTVSPost2010Prop46
 90
       50
102
RTVSPost2010PropOp46
 70
     1
102
RTVSPost2010Prop47
 90
       50
102
RTVSPost2010PropOp47
 70
     1
102
RTVSPost2010Prop48
 90
       50
102
RTVSPost2010PropOp48
 70
     1
102
RTVSPost2010Prop49
280
     0
102
RTVSPost2010PropOp49
 70
     1
102
RTVSPost2010Prop50
 90
       50
102
RTVSPost2010PropOp50
 70
     1
102
RTVSPost2010Prop51ColorIndex
 90
      256
102
RTVSPost2010Prop51ColorRGB
 90
-16777216
102
RTVSPost2010PropOp51
 70
     0
102
RTVSPost2010Prop52
140
1.0
102
RTVSPost2010PropOp52
 70
     0
102
RTVSPost2010Prop53
 90
        2
102
RTVSPost2010PropOp53
 70
     1
102
RTVSPost2010Prop54
  1
strokes_ogs.tif
102
RTVSPost2010PropOp54
 70
     1
102
RTVSPost2010Prop55
280
     0
102
RTVSPost2010PropOp55
 70
     1
102
RTVSPost2010Prop56
140
1.0
102
RTVSPost2010PropOp56
 70
     1
102
RTVSPost2010Prop57
140
1.0
102
RTVSPost2010PropOp57
 70
     1
  0
XRECORD
  5
C2
102
{ACAD_REACTORS
330
C1
102
}
330
C1
100
AcDbXrecord
280
     1
102
RTVSPropertyOp0
 70
     1
102
RTVSPropertyOp1
 70
     1
102
RTVSPropertyOp2
 70
     1
102
RTVSPropertyOp3
 70
     1
102
RTVSPropertyOp4
 70
     1
102
RTVSPropertyOp5
 70
     1
102
RTVSPropertyOp6
 70
     1
102
RTVSPropertyOp7
 70
     1
102
RTVSPropertyOp8
 70
     1
102
RTVSPropertyOp9
 70
     1
102
RTVSPropertyOp10
 70
     1
102
RTVSPropertyOp11
 70
     1
102
RTVSPropertyOp12
 70
     1
102
RTVSPropertyOp13
 70
     1
102
RTVSPropertyOp14
 70
     1
102
RTVSPropertyOp15
 70
     1
102
RTVSPropertyOp16
 70
     1
102
RTVSPropertyOp17
 70
     1
102
RTVSPropertyOp18
 70
     1
102
RTVSPropertyOp19
 70
     1
102
RTVSPropertyOp20
 70
     1
102
RTVSPropertyOp21
 70
     1
102
RTVSPropertyOp22
 70
     1
102
RTVSPropertyOp23
 70
     1
102
RTVSPropertyOp24
 70
     1
102
RTVSPropertyOp25
 70
     1
102
RTVSPropertyOp26
 70
     1
102
RTVSPropertyOp27
 70
     1
102
RTVSPropertyOp28
 70
     1
102
RTVSPropertyOp29
 70
     1
102
RTVSPropertyOp30
 70
     1
102
RTVSPropertyOp31
 70
     1
102
RTVSPropertyOp32
 70
     1
102
RTVSPropertyOp33
 70
     1
102
RTVSPropertyOp34
 70
     1
102
RTVSPropertyOp35
 70
     1
102
RTVSPropertyOp36
 70
     1
102
RTVSPropertyOp37
 70
     1
102
RTVSPropertyOp38
 70
     1
102
RTVSPropertyOp39
 70
     1
102
RTVSPropertyOp40
 70
     1
102
RTVSPropertyOp41
 70
     1
102
RTVSPropertyOp42
 70
     1
102
RTVSPropertyOp43
 70
     1
102
RTVSPropertyOp44
 70
     1
102
RTVSPropertyOp45
 70
     1
102
RTVSPropertyOp46
 70
     1
102
RTVSPropertyOp47
 70
     1
102
RTVSPropertyOp48
 70
     1
102
RTVSPropertyOp49
 70
     1
102
RTVSPropertyOp50
 70
     1
102
RTVSPropertyOp51
 70
     0
102
RTVSPropertyOp52
 70
     0
102
RTVSPropertyOp53
 70
     1
102
RTVSPropertyOp54
 70
     1
102
RTVSPropertyOp55
 70
     1
102
RTVSPropertyOp56
 70
     1
102
RTVSPropertyOp57
 70
     1
102
RTVSPost2010Prop28
280
     0
102
RTVSPost2010PropOp28
 70
     1
102
RTVSPost2010Prop29
280
     1
102
RTVSPost2010PropOp29
 70
     1
102
RTVSPost2010Prop30
280
     1
102
RTVSPost2010PropOp30
 70
     1
102
RTVSPost2010Prop31
280
     0
102
RTVSPost2010PropOp31
 70
     1
102
RTVSPost2010Prop32
280
     0
102
RTVSPost2010PropOp32
 70
     1
102
RTVSPost2010Prop33
280
     0
102
RTVSPost2010PropOp33
 70
     1
102
RTVSPost2010Prop34
280
     0
102
RTVSPost2010PropOp34
 70
     1
102
RTVSPost2010Prop35
280
     0
102
RTVSPost2010PropOp35
 70
     1
102
RTVSPost2010Prop36
280
     0
102
RTVSPost2010PropOp36
 70
     1
102
RTVSPost2010Prop37
 90
       50
102
RTVSPost2010PropOp37
 70
     1
102
RTVSPost2010Prop38
140
0.0
102
RTVSPost2010PropOp38
 70
     1
102
RTVSPost2010Prop39
140
1.0
102
RTVSPost2010PropOp39
 70
     1
102
RTVSPost2010Prop40
 90
        0
102
RTVSPost2010PropOp40
 70
     1
102
RTVSPost2010Prop41ColorIndex
 90
       18
102
RTVSPost2010Prop41ColorRGB
 90
        0
102
RTVSPost2010PropOp41
 70
     1
102
RTVSPost2010Prop42
 90
       50
102
RTVSPost2010PropOp42
 70
     1
102
RTVSPost2010Prop43
 90
        3
102
RTVSPost2010PropOp43
 70
     1
102
RTVSPost2010Prop44ColorIndex
 90
        5
102
RTVSPost2010Prop44ColorRGB
 90
      255
102
RTVSPost2010PropOp44
 70
     1
102
RTVSPost2010Prop45
280
     0
102
RTVSPost2010PropOp45
 70
     1
102
RTVSPost2010Prop46
 90
       50
102
RTVSPost2010PropOp46
 70
     1
102
RTVSPost2010Prop47
 90
       50
102
RTVSPost2010PropOp47
 70
     1
102
RTVSPost2010Prop48
 90
       50
102
RTVSPost2010PropOp48
 70
     1
102
RTVSPost2010Prop49
280
     0
102
RTVSPost2010PropOp49
 70
     1
102
RTVSPost2010Prop50
 90
       50
102
RTVSPost2010PropOp50
 70
     1
102
RTVSPost2010Prop51ColorIndex
 90
      256
102
RTVSPost2010Prop51ColorRGB
 90
-16777216
102
RTVSPost2010PropOp51
 70
     0
102
RTVSPost2010Prop52
140
1.0
102
RTVSPost2010PropOp52
 70
     0
102
RTVSPost2010Prop53
 90
        2
102
RTVSPost2010PropOp53
 70
     1
102
RTVSPost2010Prop54
  1
strokes_ogs.tif
102
RTVSPost2010PropOp54
 70
     1
102
RTVSPost2010Prop55
280
     0
102
RTVSPost2010PropOp55
 70
     1
102
RTVSPost2010Prop56
140
1.0
102
RTVSPost2010PropOp56
 70
     1
102
RTVSPost2010Prop57
140
1.0
102
RTVSPost2010PropOp57
 70
     1
  0
XRECORD
  5
B4
102
{ACAD_REACTORS
330
B3
102
}
330
B3
100
AcDbXrecord
280
     1
102
RTVSPropertyOp0
 70
     1
102
RTVSPropertyOp1
 70
     1
102
RTVSPropertyOp2
 70
     1
102
RTVSPropertyOp3
 70
     1
102
RTVSPropertyOp4
 70
     1
102
RTVSPropertyOp5
 70
     1
102
RTVSPropertyOp6
 70
     1
102
RTVSPropertyOp7
 70
     1
102
RTVSPropertyOp8
 70
     1
102
RTVSPropertyOp9
 70
     1
102
RTVSPropertyOp10
 70
     1
102
RTVSPropertyOp11
 70
     1
102
RTVSPropertyOp12
 70
     1
102
RTVSPropertyOp13
 70
     1
102
RTVSPropertyOp14
 70
     1
102
RTVSPropertyOp15
 70
     1
102
RTVSPropertyOp16
 70
     1
102
RTVSPropertyOp17
 70
     1
102
RTVSPropertyOp18
 70
     1
102
RTVSPropertyOp19
 70
     1
102
RTVSPropertyOp20
 70
     1
102
RTVSPropertyOp21
 70
     1
102
RTVSPropertyOp22
 70
     1
102
RTVSPropertyOp23
 70
     1
102
RTVSPropertyOp24
 70
     1
102
RTVSPropertyOp25
 70
     1
102
RTVSPropertyOp26
 70
     1
102
RTVSPropertyOp27
 70
     1
102
RTVSPropertyOp28
 70
     1
102
RTVSPropertyOp29
 70
     1
102
RTVSPropertyOp30
 70
     1
102
RTVSPropertyOp31
 70
     1
102
RTVSPropertyOp32
 70
     1
102
RTVSPropertyOp33
 70
     1
102
RTVSPropertyOp34
 70
     1
102
RTVSPropertyOp35
 70
     1
102
RTVSPropertyOp36
 70
     1
102
RTVSPropertyOp37
 70
     1
102
RTVSPropertyOp38
 70
     1
102
RTVSPropertyOp39
 70
     1
102
RTVSPropertyOp40
 70
     1
102
RTVSPropertyOp41
 70
     1
102
RTVSPropertyOp42
 70
     1
102
RTVSPropertyOp43
 70
     1
102
RTVSPropertyOp44
 70
     1
102
RTVSPropertyOp45
 70
     1
102
RTVSPropertyOp46
 70
     1
102
RTVSPropertyOp47
 70
     1
102
RTVSPropertyOp48
 70
     1
102
RTVSPropertyOp49
 70
     1
102
RTVSPropertyOp50
 70
     1
102
RTVSPropertyOp51
 70
     0
102
RTVSPropertyOp52
 70
     0
102
RTVSPropertyOp53
 70
     1
102
RTVSPropertyOp54
 70
     1
102
RTVSPropertyOp55
 70
     1
102
RTVSPropertyOp56
 70
     1
102
RTVSPropertyOp57
 70
     1
102
RTVSPost2010Prop28
280
     0
102
RTVSPost2010PropOp28
 70
     1
102
RTVSPost2010Prop29
280
     1
102
RTVSPost2010PropOp29
 70
     1
102
RTVSPost2010Prop30
280
     1
102
RTVSPost2010PropOp30
 70
     1
102
RTVSPost2010Prop31
280
     0
102
RTVSPost2010PropOp31
 70
     1
102
RTVSPost2010Prop32
280
     0
102
RTVSPost2010PropOp32
 70
     1
102
RTVSPost2010Prop33
280
     0
102
RTVSPost2010PropOp33
 70
     1
102
RTVSPost2010Prop34
280
     0
102
RTVSPost2010PropOp34
 70
     1
102
RTVSPost2010Prop35
280
     0
102
RTVSPost2010PropOp35
 70
     1
102
RTVSPost2010Prop36
280
     0
102
RTVSPost2010PropOp36
 70
     1
102
RTVSPost2010Prop37
 90
       50
102
RTVSPost2010PropOp37
 70
     1
102
RTVSPost2010Prop38
140
0.0
102
RTVSPost2010PropOp38
 70
     1
102
RTVSPost2010Prop39
140
1.0
102
RTVSPost2010PropOp39
 70
     1
102
RTVSPost2010Prop40
 90
        0
102
RTVSPost2010PropOp40
 70
     1
102
RTVSPost2010Prop41ColorIndex
 90
       18
102
RTVSPost2010Prop41ColorRGB
 90
        0
102
RTVSPost2010PropOp41
 70
     1
102
RTVSPost2010Prop42
 90
       50
102
RTVSPost2010PropOp42
 70
     1
102
RTVSPost2010Prop43
 90
        3
102
RTVSPost2010PropOp43
 70
     1
102
RTVSPost2010Prop44ColorIndex
 90
        5
102
RTVSPost2010Prop44ColorRGB
 90
      255
102
RTVSPost2010PropOp44
 70
     1
102
RTVSPost2010Prop45
280
     0
102
RTVSPost2010PropOp45
 70
     1
102
RTVSPost2010Prop46
 90
       50
102
RTVSPost2010PropOp46
 70
     1
102
RTVSPost2010Prop47
 90
       50
102
RTVSPost2010PropOp47
 70
     1
102
RTVSPost2010Prop48
 90
       50
102
RTVSPost2010PropOp48
 70
     1
102
RTVSPost2010Prop49
280
     0
102
RTVSPost2010PropOp49
 70
     1
102
RTVSPost2010Prop50
 90
       50
102
RTVSPost2010PropOp50
 70
     1
102
RTVSPost2010Prop51ColorIndex
 90
      256
102
RTVSPost2010Prop51ColorRGB
 90
-16777216
102
RTVSPost2010PropOp51
 70
     0
102
RTVSPost2010Prop52
140
1.0
102
RTVSPost2010PropOp52
 70
     0
102
RTVSPost2010Prop53
 90
        2
102
RTVSPost2010PropOp53
 70
     1
102
RTVSPost2010Prop54
  1
strokes_ogs.tif
102
RTVSPost2010PropOp54
 70
     1
102
RTVSPost2010Prop55
280
     0
102
RTVSPost2010PropOp55
 70
     1
102
RTVSPost2010Prop56
140
1.0
102
RTVSPost2010PropOp56
 70
     1
102
RTVSPost2010Prop57
140
1.0
102
RTVSPost2010PropOp57
 70
     1
  0
XRECORD
  5
D4
102
{ACAD_REACTORS
330
D3
102
}
330
D3
100
AcDbXrecord
280
     1
102
RTVSPropertyOp0
 70
     1
102
RTVSPropertyOp1
 70
     1
102
RTVSPropertyOp2
 70
     1
102
RTVSPropertyOp3
 70
     1
102
RTVSPropertyOp4
 70
     1
102
RTVSPropertyOp5
 70
     1
102
RTVSPropertyOp6
 70
     1
102
RTVSPropertyOp7
 70
     1
102
RTVSPropertyOp8
 70
     1
102
RTVSPropertyOp9
 70
     1
102
RTVSPropertyOp10
 70
     1
102
RTVSPropertyOp11
 70
     1
102
RTVSPropertyOp12
 70
     1
102
RTVSPropertyOp13
 70
     1
102
RTVSPropertyOp14
 70
     1
102
RTVSPropertyOp15
 70
     1
102
RTVSPropertyOp16
 70
     1
102
RTVSPropertyOp17
 70
     1
102
RTVSPropertyOp18
 70
     1
102
RTVSPropertyOp19
 70
     1
102
RTVSPropertyOp20
 70
     1
102
RTVSPropertyOp21
 70
     1
102
RTVSPropertyOp22
 70
     1
102
RTVSPropertyOp23
 70
     1
102
RTVSPropertyOp24
 70
     1
102
RTVSPropertyOp25
 70
     1
102
RTVSPropertyOp26
 70
     1
102
RTVSPropertyOp27
 70
     1
102
RTVSPropertyOp28
 70
     1
102
RTVSPropertyOp29
 70
     1
102
RTVSPropertyOp30
 70
     1
102
RTVSPropertyOp31
 70
     1
102
RTVSPropertyOp32
 70
     1
102
RTVSPropertyOp33
 70
     1
102
RTVSPropertyOp34
 70
     1
102
RTVSPropertyOp35
 70
     1
102
RTVSPropertyOp36
 70
     1
102
RTVSPropertyOp37
 70
     1
102
RTVSPropertyOp38
 70
     1
102
RTVSPropertyOp39
 70
     1
102
RTVSPropertyOp40
 70
     1
102
RTVSPropertyOp41
 70
     1
102
RTVSPropertyOp42
 70
     1
102
RTVSPropertyOp43
 70
     1
102
RTVSPropertyOp44
 70
     1
102
RTVSPropertyOp45
 70
     1
102
RTVSPropertyOp46
 70
     1
102
RTVSPropertyOp47
 70
     1
102
RTVSPropertyOp48
 70
     1
102
RTVSPropertyOp49
 70
     1
102
RTVSPropertyOp50
 70
     1
102
RTVSPropertyOp51
 70
     0
102
RTVSPropertyOp52
 70
     0
102
RTVSPropertyOp53
 70
     1
102
RTVSPropertyOp54
 70
     1
102
RTVSPropertyOp55
 70
     1
102
RTVSPropertyOp56
 70
     1
102
RTVSPropertyOp57
 70
     1
102
RTVSPost2010Prop28
280
     0
102
RTVSPost2010PropOp28
 70
     1
102
RTVSPost2010Prop29
280
     1
102
RTVSPost2010PropOp29
 70
     1
102
RTVSPost2010Prop30
280
     1
102
RTVSPost2010PropOp30
 70
     1
102
RTVSPost2010Prop31
280
     0
102
RTVSPost2010PropOp31
 70
     1
102
RTVSPost2010Prop32
280
     0
102
RTVSPost2010PropOp32
 70
     1
102
RTVSPost2010Prop33
280
     0
102
RTVSPost2010PropOp33
 70
     1
102
RTVSPost2010Prop34
280
     0
102
RTVSPost2010PropOp34
 70
     1
102
RTVSPost2010Prop35
280
     0
102
RTVSPost2010PropOp35
 70
     1
102
RTVSPost2010Prop36
280
     0
102
RTVSPost2010PropOp36
 70
     1
102
RTVSPost2010Prop37
 90
       50
102
RTVSPost2010PropOp37
 70
     1
102
RTVSPost2010Prop38
140
0.0
102
RTVSPost2010PropOp38
 70
     1
102
RTVSPost2010Prop39
140
1.0
102
RTVSPost2010PropOp39
 70
     1
102
RTVSPost2010Prop40
 90
        0
102
RTVSPost2010PropOp40
 70
     1
102
RTVSPost2010Prop41ColorIndex
 90
       18
102
RTVSPost2010Prop41ColorRGB
 90
        0
102
RTVSPost2010PropOp41
 70
     1
102
RTVSPost2010Prop42
 90
       50
102
RTVSPost2010PropOp42
 70
     1
102
RTVSPost2010Prop43
 90
        3
102
RTVSPost2010PropOp43
 70
     1
102
RTVSPost2010Prop44ColorIndex
 90
        5
102
RTVSPost2010Prop44ColorRGB
 90
      255
102
RTVSPost2010PropOp44
 70
     1
102
RTVSPost2010Prop45
280
     0
102
RTVSPost2010PropOp45
 70
     1
102
RTVSPost2010Prop46
 90
       50
102
RTVSPost2010PropOp46
 70
     1
102
RTVSPost2010Prop47
 90
       50
102
RTVSPost2010PropOp47
 70
     1
102
RTVSPost2010Prop48
 90
       50
102
RTVSPost2010PropOp48
 70
     1
102
RTVSPost2010Prop49
280
     0
102
RTVSPost2010PropOp49
 70
     1
102
RTVSPost2010Prop50
 90
       50
102
RTVSPost2010PropOp50
 70
     1
102
RTVSPost2010Prop51ColorIndex
 90
      256
102
RTVSPost2010Prop51ColorRGB
 90
-16777216
102
RTVSPost2010PropOp51
 70
     0
102
RTVSPost2010Prop52
140
1.0
102
RTVSPost2010PropOp52
 70
     0
102
RTVSPost2010Prop53
 90
        2
102
RTVSPost2010PropOp53
 70
     1
102
RTVSPost2010Prop54
  1
strokes_ogs.tif
102
RTVSPost2010PropOp54
 70
     1
102
RTVSPost2010Prop55
280
     0
102
RTVSPost2010PropOp55
 70
     1
102
RTVSPost2010Prop56
140
1.0
102
RTVSPost2010PropOp56
 70
     1
102
RTVSPost2010Prop57
140
1.0
102
RTVSPost2010PropOp57
 70
     1
  0
ENDSEC
  0
EOF
