0
SECTION
2
HEADER
9
$INSUNITS
70
4
9
$ACADVER
1
AC1014
9
$HANDSEED
5
FFFF
0
ENDSEC
0
SECTION
2
TABLES
0
TABLE
2
VPORT
5
8
100
AcDbSymbolTable
0
ENDTAB
0
TABLE
2
LTYPE
5
5
100
AcDbSymbolTable
0
LTYPE
5
14
100
AcDbSymbolTableRecord
100
AcDbLinetypeTableRecord
2
BYBLOCK
70
0
0
LTYPE
5
15
100
AcDbSymbolTableRecord
100
AcDbLinetypeTableRecord
2
BYLAYER
70
0
0
ENDTAB
0
TABLE
2
LAYER
5
2
100
AcDbSymbolTable
70
2
0
LAYER
5
50
100
AcDbSymbolTableRecord
100
AcDbLayerTableRecord
2
0
70
0
6
CONTINUOUS
0
ENDTAB
0
TABLE
2
STYLE
5
3
100
AcDbSymbolTable
70
1
0
STYLE
5
11
100
AcDbSymbolTableRecord
100
AcDbTextStyleTableRecord
2
STANDARD
70
0
0
ENDTAB
0
TABLE
2
VIEW
5
6
100
AcDbSymbolTable
70
0
0
ENDTAB
0
TABLE
2
UCS
5
7
100
AcDbSymbolTable
70
0
0
ENDTAB
0
TABLE
2
APPID
5
9
100
AcDbSymbolTable
70
2
0
APPID
5
12
100
AcDbSymbolTableRecord
100
AcDbRegAppTableRecord
2
ACAD
70
0
0
ENDTAB
0
TABLE
2
DIMSTYLE
5
A
100
AcDbSymbolTable
70
1
0
ENDTAB
0
TABLE
2
BLOCK_RECORD
5
1
100
AcDbSymbolTable
70
1
0
BLOCK_RECORD
5
1F
100
AcDbSymbolTableRecord
100
AcDbBlockTableRecord
2
*MODEL_SPACE
0
BLOCK_RECORD
5
1B
100
AcDbSymbolTableRecord
100
AcDbBlockTableRecord
2
*PAPER_SPACE
0
ENDTAB
0
ENDSEC
0
SECTION
2
BLOCKS
0
BLOCK
5
20
100
AcDbEntity
100
AcDbBlockBegin
2
*MODEL_SPACE
0
ENDBLK
5
21
100
AcDbEntity
100
AcDbBlockEnd
0
BLOCK
5
1C
100
AcDbEntity
100
AcDbBlockBegin
2
*PAPER_SPACE
0
ENDBLK
5
1D
100
AcDbEntity
100
AcDbBlockEnd
0
ENDSEC
0
SECTION
2
ENTITIES
0
LWPOLYLINE
5
100
100
AcDbEntity
8
0
100
AcDbPolyline
90
27
70
1
43
0.0
10
-26.343531277895028
20
75.19554175754223
10
-25.093665968789075
20
73.030597510028571
10
-22.974576008636088
20
74.277444002599097
10
-17.903398823318508
20
65.658675995794681
10
-20.093692866567672
20
64.369933895706538
10
-17.593962248355808
20
60.040045400679283
10
-15.382674699685044
20
61.292423767438315
10
-10.454588156645208
20
52.591046691118137
10
-12.593989146134405
20
51.37938178635725
10
-11.344123837028455
20
49.214437538843583
10
-13.844123835077784
20
49.214494557497346
10
-13.844123835077784
20
46.714608594804957
10
-23.844123835077788
20
46.714608594804957
10
-23.844123835077788
20
49.214722632112576
10
-28.844123831176432
20
49.214836669420109
10
-28.844123831176432
20
46.714950706727755
10
-38.844123831176439
20
46.714950706727755
10
-38.844123831176439
20
49.215064744035345
10
-41.344123829225772
20
49.215121762689108
10
-40.094775831825388
20
51.378941997197842
10
-42.184859341183305
20
52.520589271954819
10
-37.391155493077051
20
61.296716174903032
10
-35.093175550960815
20
60.041511525606872
10
-32.594479556159989
20
64.36915199462446
10
-34.830446487493184
20
65.731760672113197
10
-29.626560042041
20
74.271056068270823
10
-27.592879275295413
20
73.031721523033482
0
LWPOLYLINE
5
101
100
AcDbEntity
8
0
100
AcDbPolyline
90
4
70
1
43
0.0
10
19.420906298215225
20
73.238672070300566
10
18.460799624305249
20
72.670083009193831
10
19.414104251947883
20
71.060354300225285
10
20.377443314777427
20
72.664098070155234
0
LWPOLYLINE
5
102
100
AcDbEntity
8
0
100
AcDbPolyline
90
23
70
1
43
0.0
10
28.132375436924729
20
60.966428496678937
10
30.380858363769004
20
62.213170030045021
10
35.230106263042515
20
53.467611453750948
10
31.23081826161539
20
51.250081404603634
10
31.239356677114536
20
52.61725828944634
10
22.48952731305431
20
52.671903507256303
10
22.47382907571015
20
50.158291089137002
10
16.223902205576874
20
50.177807200294993
10
16.223902205576874
20
52.691468637955019
10
7.4739022055768718
20
52.691468637955019
10
7.4739022055768718
20
51.324265090933771
10
3.4885410424128782
20
53.566728119920967
10
8.3923118556633813
20
62.281831780297708
10
10.632964824262983
20
61.021072406889772
10
13.145967091245819
20
65.342500317908744
10
10.942015787975503
20
66.666372885848418
10
16.091267735694281
20
75.238724044014646
10
18.173492011507115
20
73.987970638094879
10
19.429993144998559
20
76.148684593604429
10
20.672975754035651
20
73.98016571436213
10
22.762970588705276
20
75.217890889131766
10
27.858586348581014
20
66.613548960331769
10
25.64641021885059
20
65.303466255163457
0
LWPOLYLINE
5
103
100
AcDbEntity
8
0
100
AcDbPolyline
90
4
70
1
43
0.0
10
64.614539231532177
20
62.439243279845833
10
64.614539231532177
20
71.18924327984584
10
62.114539231532156
20
71.18924327984584
10
62.114539231532184
20
62.439243279845833
0
LWPOLYLINE
5
104
100
AcDbEntity
8
0
100
AcDbPolyline
90
4
70
1
43
0.0
10
64.63818662285577
20
51.458506629015481
10
64.638186622855756
20
60.208506629015488
10
62.13818662285577
20
60.208506629015488
10
62.138186622855784
20
51.458506629015488
0
LWPOLYLINE
5
105
100
AcDbEntity
8
0
100
AcDbPolyline
90
3
70
1
43
0.0
10
48.404372874195268
20
48.301221083083661
10
63.34838776289142
20
74.314225888496381
10
78.404303308797452
20
48.365826957646306
0
LWPOLYLINE
5
106
100
AcDbEntity
8
0
100
AcDbPolyline
90
4
70
1
43
0.0
10
-16.138080474545944
20
10.422973705448779
10
-16.138080353039541
20
1.6729737054487814
10
-13.638080353039561
20
1.6729737401648936
10
-13.638080474545959
20
10.422973740164906
0
LWPOLYLINE
5
107
100
AcDbEntity
8
0
100
AcDbPolyline
90
4
70
1
43
0.0
10
-28.638080507966272
20
16.672973841363188
10
-28.638080507966258
20
25.422973841363195
10
-31.138080507966272
20
25.422973841363195
10
-31.138080507966272
20
16.672973841363202
0
LWPOLYLINE
5
108
100
AcDbEntity
8
0
100
AcDbPolyline
90
4
70
1
43
0.0
10
-31.138080554363089
20
10.422973748569593
10
-31.138080684274207
20
1.6729737485695844
10
-28.63808068427419
20
1.6729737114521437
10
-28.638080554363103
20
10.422973711452117
0
LWPOLYLINE
5
109
100
AcDbEntity
8
0
100
AcDbPolyline
90
4
70
1
43
0.0
10
-13.638080514939405
20
16.67297383295849
10
-13.638080506534713
20
25.422973832958469
10
-16.138080506534706
20
25.422973835359812
10
-16.138080514939407
20
16.672973835359826
0
LWPOLYLINE
5
110
100
AcDbEntity
8
0
100
AcDbPolyline
90
36
70
1
43
0.0
10
-7.3880805148008557
20
16.672973834713336
10
-7.3880805166480448
20
10.422973616441841
10
-9.8880805179410807
20
10.422973616441837
10
-9.888080517941086
20
1.6729736164418334
10
-7.3880805192341104
20
1.6729736164418318
10
-7.3880805201577049
20
-1.452026604046297
10
-10.51308062929343
20
-1.4520265576494717
10
-10.513080629293427
20
1.0479735073061351
10
-19.263080629293434
20
1.0479735073060836
10
-19.26308062929343
20
-1.4520264277383639
10
-25.513080842023406
20
-1.452026334944712
10
-25.513080842023399
20
1.0479737300108332
10
-34.263080842023392
20
1.0479737300108378
10
-34.263080842023392
20
-1.4520262050336048
10
-37.3880805201577
20
-1.4520261586367857
10
-37.388080518079619
20
1.6729736336206866
10
-34.888080515170316
20
1.6729736336206824
10
-34.888080515170302
20
10.422973633620689
10
-37.388080512260984
20
10.422973633620689
10
-37.388080508104814
20
16.672973846350637
10
-34.888080505195489
20
16.672973846350637
10
-34.888080505195511
20
25.422973846350637
10
-37.388080502286179
20
25.422973846350637
10
-37.38808050020809
20
28.547973841363206
10
-34.26308084255313
20
28.547973841363206
10
-34.26308084255313
20
26.047973650170732
10
-25.513080842553158
20
26.047974414940569
10
-25.513080842553158
20
28.547973841363206
10
-19.263080517941084
20
28.547973841363206
10
-19.263080517941088
20
26.047973841363216
10
-10.513080517941084
20
26.047973841363223
10
-10.513080517941084
20
28.547973841363206
10
-7.3880805112911947
20
28.547973841363206
10
-7.3880805122147901
20
25.422973834713343
10
-9.8880805135078127
20
25.422973834713332
10
-9.8880805135078109
20
16.672973834713339
0
LWPOLYLINE
5
111
100
AcDbEntity
8
0
100
AcDbPolyline
90
4
70
1
43
0.0
10
6.2499999999999964
20
11.875000000000028
10
6.2500000000000089
20
3.1250000000000262
10
8.7499999999999982
20
3.1250000000000275
10
8.7499999999999982
20
11.875000000000028
0
LWPOLYLINE
5
112
100
AcDbEntity
8
0
100
AcDbPolyline
90
4
70
1
43
0.0
10
8.7499999999999982
20
18.124999999999968
10
8.7499999999999982
20
26.874999999999968
10
6.2499999999999947
20
26.874999999999968
10
6.2499999999999947
20
18.124999999999968
0
LWPOLYLINE
5
113
100
AcDbEntity
8
0
100
AcDbPolyline
90
4
70
1
43
0.0
10
21.25
20
3.1250000000000129
10
23.749999999999993
20
3.1250000000000133
10
23.750000000000004
20
11.875000000000021
10
21.250000000000004
20
11.875000000000016
0
LWPOLYLINE
5
114
100
AcDbEntity
8
0
100
AcDbPolyline
90
4
70
1
43
0.0
10
23.750000000000004
20
18.124999999999982
10
23.750000000000004
20
26.874999999999968
10
21.250000000000004
20
26.874999999999968
10
21.250000000000004
20
18.124999999999982
0
LWPOLYLINE
5
115
100
AcDbEntity
8
0
100
AcDbPolyline
90
36
70
1
43
0.0
10
17.499999999999993
20
0
10
12.500000000000002
20
0
10
12.500000000000002
20
-2.5000000000000004
10
2.5000000000000022
20
-2.5000000000000004
10
2.5000000000000022
20
0
10
0
20
0
10
0
20
2.4999999999999942
10
-2.5
20
2.4999999999999933
10
-2.5
20
12.499999999999996
10
0
20
12.499999999999996
10
0
20
17.499999999999996
10
-2.5000000000000009
20
17.499999999999996
10
-2.5000000000000022
20
27.499999999999996
10
0
20
27.499999999999996
10
0
20
30
10
2.5000000000000084
20
30
10
2.5000000000000089
20
32.500000000000007
10
12.500000000000011
20
32.500000000000007
10
12.500000000000011
20
30
10
17.500000000000004
20
30
10
17.500000000000004
20
32.5
10
27.500000000000004
20
32.5
10
27.500000000000004
20
30
10
30
20
30
10
30
20
27.500000000000007
10
32.499999999999993
20
27.500000000000007
10
32.499999999999993
20
17.500000000000007
10
30
20
17.500000000000007
10
30
20
12.500000000000009
10
32.5
20
12.500000000000009
10
32.5
20
2.5000000000000089
10
30
20
2.5000000000000089
10
30
20
0
10
27.499999999999993
20
0
10
27.499999999999993
20
-2.4999999999999982
10
17.499999999999993
20
-2.4999999999999982
0
LWPOLYLINE
5
116
100
AcDbEntity
8
0
100
AcDbPolyline
90
4
70
1
43
0.0
10
60.335784605632313
20
11.332667627947664
10
60.335784605632313
20
13.832667627947661
10
51.585784605632305
20
13.832667627947657
10
51.585784605632313
20
11.332667627947648
0
LWPOLYLINE
5
117
100
AcDbEntity
8
0
100
AcDbPolyline
90
4
70
1
43
0.0
10
49.710784605632369
20
15.70766762794765
10
49.710784605632348
20
24.457667627947647
10
47.210784605632355
20
24.457667627947647
10
47.210784605632369
20
15.70766762794765
0
LWPOLYLINE
5
118
100
AcDbEntity
8
0
100
AcDbPolyline
90
4
70
1
43
0.0
10
45.335784605632369
20
11.332667627947657
10
45.335784605632369
20
13.83266762794767
10
36.585784605632355
20
13.83266762794767
10
36.585784605632355
20
11.332667627947671
0
LWPOLYLINE
5
119
100
AcDbEntity
8
0
100
AcDbPolyline
90
4
70
1
43
0.0
10
49.710784605632348
20
0.70766762794767679
10
49.710784605632348
20
9.4576676279476768
10
47.210784605632348
20
9.4576676279476715
10
47.210784605632348
20
0.70766762794767013
0
LWPOLYLINE
5
120
100
AcDbEntity
8
0
100
AcDbPolyline
90
4
70
1
43
0.0
10
33.460784605632369
20
27.582667627947671
10
63.460784605632348
20
27.582667627947657
10
63.460784605632369
20
-2.4173323720523299
10
33.460784605632369
20
-2.4173323720523321
0
LWPOLYLINE
5
121
100
AcDbEntity
8
0
100
AcDbPolyline
90
4
70
1
43
0.0
10
85.668828525192794
20
7.474669742270371
10
76.918828525192822
20
7.4746697422703363
10
76.918828525192822
20
4.9746697422704189
10
85.668828525192836
20
4.9746697422703923
0
LWPOLYLINE
5
122
100
AcDbEntity
8
0
100
AcDbPolyline
90
4
70
1
43
0.0
10
91.918828525192765
20
19.974669742270351
10
100.66882852519277
20
19.974669742270311
10
100.66882852519272
20
22.474669742270358
10
91.918828525192723
20
22.474669742270418
0
LWPOLYLINE
5
123
100
AcDbEntity
8
0
100
AcDbPolyline
90
4
70
1
43
0.0
10
85.668828525192822
20
19.974669742270386
10
85.668828525192822
20
22.474669742270379
10
76.918828525192822
20
22.474669742270382
10
76.918828525192822
20
19.974669742270386
0
LWPOLYLINE
5
124
100
AcDbEntity
8
0
100
AcDbPolyline
90
4
70
1
43
0.0
10
91.918828525192737
20
7.47466974227045
10
91.918828525192765
20
4.9746697422703932
10
100.66882852519282
20
4.9746697422703825
10
100.66882852519282
20
7.4746697422703523
0
LWPOLYLINE
5
125
100
AcDbEntity
8
0
100
AcDbPolyline
90
36
70
1
43
0.0
10
86.293828525192822
20
-1.2753302577295822
10
86.293828525192865
20
-3.7753302577296322
10
76.293828525192851
20
-3.7753302577295167
10
76.293828525192851
20
-1.2753302577295822
10
73.793828525192765
20
-1.2753302577295811
10
73.793828525192765
20
2.386817547729092
10
76.293828525192836
20
2.3868175477290885
10
76.293828525192723
20
11.13681754772912
10
73.793828525192794
20
11.136817547729116
10
73.793828525192794
20
16.312521936811727
10
76.293828525192779
20
16.312521936811727
10
76.293828525192779
20
25.062521936811741
10
73.793828525192808
20
25.062521936811734
10
73.793828525192808
20
28.724669742270414
10
76.293828525192737
20
28.724669742270414
10
76.293828525192737
20
31.224669742270414
10
86.293828525192723
20
31.224669742270414
10
86.293828525192723
20
28.724669742270414
10
91.293828525192922
20
28.724669742270414
10
91.293828525192936
20
31.224669742270386
10
101.29382852519291
20
31.224669742270361
10
101.29382852519291
20
28.724669742270422
10
103.79382852519278
20
28.724669742270422
10
103.79382852519278
20
25.062521936811777
10
101.29382852519271
20
25.062521936811734
10
101.29382852519279
20
16.312521936811674
10
103.79382852519278
20
16.312521936811713
10
103.79382852519277
20
11.136817547729045
10
101.29382852519279
20
11.136817547729034
10
101.29382852519279
20
2.3868175477290352
10
103.79382852519277
20
2.3868175477290343
10
103.79382852519277
20
-1.2753302577295811
10
101.29382852519274
20
-1.2753302577295811
10
101.29382852519274
20
-3.7753302577296366
10
91.293828525192708
20
-3.7753302577295611
10
91.293828525192723
20
-1.2753302577295811
0
LWPOLYLINE
5
126
100
AcDbEntity
8
0
100
AcDbPolyline
90
4
70
1
43
0.0
10
146.87500178813931
20
5.6375000000000322
10
146.87500178813931
20
8.1375000000000313
10
138.12500178813931
20
8.1375000000000313
10
138.12500178813931
20
5.6375000000000322
0
LWPOLYLINE
5
127
100
AcDbEntity
8
0
100
AcDbPolyline
90
4
70
1
43
0.0
10
131.87500178813931
20
5.6375000000000197
10
131.87500178813931
20
8.1375000000000206
10
123.12500178813933
20
8.1375000000000206
10
123.12500178813933
20
5.6375000000000197
0
LWPOLYLINE
5
128
100
AcDbEntity
8
0
100
AcDbPolyline
90
4
70
1
43
0.0
10
146.87500178813937
20
20.637500000000028
10
146.87500178813937
20
23.137500000000028
10
138.12500178813937
20
23.137500000000028
10
138.12500178813937
20
20.637500000000028
0
LWPOLYLINE
5
129
100
AcDbEntity
8
0
100
AcDbPolyline
90
4
70
1
43
0.0
10
131.87500178813937
20
20.637500000000024
10
131.87500178813937
20
23.137500000000024
10
123.12500178813936
20
23.137500000000024
10
123.12500178813936
20
20.637500000000024
0
LWPOLYLINE
5
130
100
AcDbEntity
8
0
100
AcDbPolyline
90
36
70
1
43
0.0
10
131.87500178813934
20
-0.61249999999997695
10
131.87500178813934
20
1.887500000000023
10
123.12500178813934
20
1.887500000000023
10
123.12500178813934
20
-0.61249999999997695
10
120.00000178813934
20
-0.61249999999997584
10
120.00000178813934
20
1.8875000000000364
10
117.50000178813936
20
1.8875000000000375
10
117.50000178813936
20
11.887500000000038
10
120.00000178813934
20
11.887500000000038
10
120.00000178813934
20
16.88750000000007
10
117.50000178813934
20
16.88750000000007
10
117.50000178813934
20
26.887500000000067
10
120.00000178813934
20
26.887500000000067
10
120.00000178813934
20
29.387500000000024
10
122.50000178813931
20
29.387500000000024
10
122.50000178813931
20
31.887500000000017
10
132.50000178813931
20
31.887500000000017
10
132.50000178813931
20
29.387500000000024
10
137.50000178813931
20
29.387500000000024
10
137.50000178813931
20
31.887500000000003
10
147.50000178813931
20
31.887500000000003
10
147.50000178813931
20
29.387500000000024
10
150.00000178813934
20
29.387500000000024
10
150.00000178813934
20
26.262500000000006
10
147.50000178813934
20
26.262500000000006
10
147.50000178813934
20
17.512500000000006
10
150.00000178813934
20
17.512500000000006
10
150.00000178813934
20
11.262499999999978
10
147.50000178813931
20
11.262499999999978
10
147.50000178813931
20
2.5124999999999797
10
150.00000178813934
20
2.5124999999999797
10
150.00000178813934
20
-0.61249999999997695
10
146.87500178813931
20
-0.61249999999997695
10
146.87500178813931
20
1.8875000000000053
10
138.12500178813931
20
1.8875000000000053
10
138.12500178813931
20
-0.61249999999997695
0
LWPOLYLINE
5
131
100
AcDbEntity
8
0
100
AcDbPolyline
90
4
70
1
43
0.0
10
-33.111215589683262
20
-42.817748100186783
10
-33.111215589683226
20
-51.567748100186776
10
-30.611215589683201
20
-51.567748100186776
10
-30.611215589683212
20
-42.817748100186805
0
LWPOLYLINE
5
132
100
AcDbEntity
8
0
100
AcDbPolyline
90
4
70
1
43
0.0
10
11.888784410316774
20
-51.567748100186762
10
14.388784410316781
20
-51.567748100186783
10
14.388784410316799
20
-42.817748100186762
10
11.888784410316791
20
-42.81774810018679
0
LWPOLYLINE
5
133
100
AcDbEntity
8
0
100
AcDbPolyline
90
4
70
1
43
0.0
10
-18.111215589683262
20
-51.567748100186812
10
-15.611215589683242
20
-51.567748100186812
10
-15.611215589683178
20
-42.817748100186812
10
-18.11121558968323
20
-42.817748100186819
0
LWPOLYLINE
5
134
100
AcDbEntity
8
0
100
AcDbPolyline
90
4
70
1
43
0.0
10
14.388784410316799
20
-36.567748100186812
10
14.388784410316781
20
-27.817748100186812
10
11.888784410316781
20
-27.817748100186815
10
11.888784410316781
20
-36.567748100186819
0
LWPOLYLINE
5
135
100
AcDbEntity
8
0
100
AcDbPolyline
90
4
70
1
43
0.0
10
-3.1112155896832094
20
-36.567748100186826
10
-0.61121558968318279
20
-36.567748100186819
10
-0.61121558968320944
20
-27.817748100186819
10
-3.111215589683205
20
-27.817748100186815
0
LWPOLYLINE
5
136
100
AcDbEntity
8
0
100
AcDbPolyline
90
4
70
1
43
0.0
10
-15.611215589683205
20
-36.567748100186826
10
-15.611215589683189
20
-27.817748100186815
10
-18.11121558968318
20
-27.817748100186812
10
-18.111215589683201
20
-36.567748100186812
0
LWPOLYLINE
5
137
100
AcDbEntity
8
0
100
AcDbPolyline
90
4
70
1
43
0.0
10
-0.61121558968317835
20
-51.567748100186812
10
-0.611215589683205
20
-42.817748100186826
10
-3.1112155896831961
20
-42.817748100186776
10
-3.111215589683165
20
-51.567748100186819
0
LWPOLYLINE
5
138
100
AcDbEntity
8
0
100
AcDbPolyline
90
4
70
1
43
0.0
10
-30.611215589683205
20
-36.56774810018679
10
-30.611215589683212
20
-27.81774810018679
10
-33.111215589683205
20
-27.81774810018679
10
-33.111215589683212
20
-36.567748100186797
0
LWPOLYLINE
5
139
100
AcDbEntity
8
0
100
AcDbPolyline
90
52
70
1
43
0.0
10
18.138784410316781
20
-51.56774810018679
10
20.638784410316774
20
-51.56774810018679
10
20.638784410316774
20
-54.69274810018679
10
17.513784410316738
20
-54.69274810018679
10
17.513784410316756
20
-52.192748100186783
10
8.7637844103167204
20
-52.19274810018679
10
8.7637844103167204
20
-54.69274810018679
10
2.5137844103167772
20
-54.69274810018679
10
2.5137844103167684
20
-52.192748100186819
10
-6.2362155896832183
20
-52.192748100186819
10
-6.2362155896832094
20
-54.69274810018679
10
-12.486215589683244
20
-54.692748100186805
10
-12.486215589683237
20
-52.192748100186819
10
-21.236215589683233
20
-52.19274810018679
10
-21.236215589683241
20
-54.692748100186805
10
-27.486215589683233
20
-54.692748100186805
10
-27.486215589683233
20
-52.192748100186762
10
-36.236215589683233
20
-52.192748100186776
10
-36.236215589683233
20
-54.692748100186805
10
-39.361215589683233
20
-54.692748100186805
10
-39.361215589683233
20
-52.192748100186876
10
-41.861215589683226
20
-52.192748100186876
10
-41.861215589683233
20
-42.192748100186861
10
-39.361215589683233
20
-42.192748100186861
10
-39.361215589683233
20
-37.192748100186847
10
-41.861215589683233
20
-37.192748100186847
10
-41.861215589683233
20
-27.19274810018684
10
-39.361215589683233
20
-27.19274810018684
10
-39.361215589683233
20
-24.692748100186801
10
-36.861215589683226
20
-24.692748100186801
10
-36.861215589683233
20
-22.19274810018679
10
-26.861215589683223
20
-22.192748100186801
10
-26.861215589683223
20
-24.692748100186801
10
-21.861215589683223
20
-24.692748100186801
10
-21.861215589683237
20
-22.192748100186783
10
-11.861215589683226
20
-22.192748100186765
10
-11.861215589683219
20
-24.692748100186801
10
-6.8612155896832183
20
-24.692748100186801
10
-6.8612155896832139
20
-22.192748100186765
10
3.1387844103167906
20
-22.192748100186797
10
3.1387844103167772
20
-24.692748100186801
10
8.1387844103168092
20
-24.692748100186801
10
8.1387844103167986
20
-22.192748100186797
10
18.138784410316799
20
-22.192748100186805
10
18.138784410316799
20
-24.692748100186801
10
20.638784410316763
20
-24.692748100186801
10
20.638784410316763
20
-27.817748100186812
10
18.138784410316799
20
-27.817748100186812
10
18.138784410316799
20
-36.567748100186819
10
20.638784410316763
20
-36.567748100186812
10
20.638784410316774
20
-42.817748100186755
10
18.138784410316781
20
-42.817748100186741
0
LWPOLYLINE
5
140
100
AcDbEntity
8
0
100
AcDbPolyline
90
4
70
1
43
0.0
10
53.508115286602532
20
-33.488723407945329
10
53.508115286602553
20
-30.988723407945301
10
44.75811528660256
20
-30.988723407945258
10
44.758115286602546
20
-33.488723407945344
0
LWPOLYLINE
5
141
100
AcDbEntity
8
0
100
AcDbPolyline
90
4
70
1
43
0.0
10
44.758115286602475
20
-48.488723407945358
10
53.50811528660244
20
-48.488723407945415
10
53.508115286602454
20
-45.988723407945358
10
44.758115286602475
20
-45.988723407945315
0
LWPOLYLINE
5
142
100
AcDbEntity
8
0
100
AcDbPolyline
90
4
70
1
43
0.0
10
74.75811528660266
20
-48.488723407945287
10
83.508115286602617
20
-48.488723407945315
10
83.508115286602603
20
-45.988723407945287
10
74.758115286602589
20
-45.988723407945287
0
LWPOLYLINE
5
143
100
AcDbEntity
8
0
100
AcDbPolyline
90
4
70
1
43
0.0
10
29.758115286602631
20
-45.98872340794528
10
29.758115286602624
20
-48.488723407945287
10
38.508115286602582
20
-48.488723407945315
10
38.508115286602596
20
-45.988723407945272
0
LWPOLYLINE
5
144
100
AcDbEntity
8
0
100
AcDbPolyline
90
4
70
1
43
0.0
10
59.758115286602717
20
-33.488723407945351
10
68.508115286602646
20
-33.48872340794528
10
68.508115286602631
20
-30.988723407945301
10
59.758115286602695
20
-30.988723407945375
0
LWPOLYLINE
5
145
100
AcDbEntity
8
0
100
AcDbPolyline
90
4
70
1
43
0.0
10
38.508115286602639
20
-33.488723407945237
10
38.508115286602639
20
-30.988723407945244
10
29.758115286602628
20
-30.988723407945244
10
29.758115286602628
20
-33.488723407945237
0
LWPOLYLINE
5
146
100
AcDbEntity
8
0
100
AcDbPolyline
90
4
70
1
43
0.0
10
68.508115286602816
20
-48.488723407945301
10
68.50811528660283
20
-45.988723407945301
10
59.758115286602795
20
-45.988723407945358
10
59.758115286602809
20
-48.488723407945365
0
LWPOLYLINE
5
147
100
AcDbEntity
8
0
100
AcDbPolyline
90
4
70
1
43
0.0
10
74.758115286602589
20
-33.48872340794528
10
83.508115286602617
20
-33.48872340794528
10
83.508115286602646
20
-30.988723407945283
10
74.758115286602575
20
-30.988723407945283
0
LWPOLYLINE
5
148
100
AcDbEntity
8
0
100
AcDbPolyline
90
52
70
1
43
0.0
10
44.75811528660239
20
-52.238723407945301
10
44.758115286602369
20
-54.738723407945287
10
38.508115286602646
20
-54.738723407945287
10
38.508115286602646
20
-52.238723407945294
10
29.758115286602628
20
-52.238723407945294
10
29.758115286602631
20
-54.738723407945287
10
26.633115286602617
20
-54.738723407945287
10
26.633115286602617
20
-52.238723407945272
10
24.133115286602631
20
-52.238723407945272
10
24.133115286602628
20
-42.238723407945272
10
26.633115286602621
20
-42.238723407945272
10
26.633115286602621
20
-37.23872340794528
10
24.133115286602621
20
-37.238723407945272
10
24.133115286602639
20
-27.238723407945265
10
26.633115286602624
20
-27.238723407945269
10
26.633115286602624
20
-24.73872340794528
10
29.133115286602592
20
-24.73872340794528
10
29.133115286602592
20
-22.23872340794529
10
39.133115286602596
20
-22.23872340794529
10
39.133115286602596
20
-24.73872340794528
10
44.133115286602482
20
-24.73872340794528
10
44.133115286602454
20
-22.238723407945244
10
54.133115286602454
20
-22.238723407945141
10
54.133115286602482
20
-24.73872340794528
10
59.133115286602738
20
-24.73872340794528
10
59.133115286602774
20
-22.238723407945159
10
69.133115286602788
20
-22.238723407945258
10
69.133115286602745
20
-24.73872340794528
10
74.133115286602674
20
-24.73872340794528
10
74.13311528660266
20
-22.238723407945351
10
84.133115286602674
20
-22.238723407945361
10
84.133115286602674
20
-24.73872340794528
10
86.633115286602617
20
-24.73872340794528
10
86.633115286602617
20
-27.863723407945272
10
84.133115286602646
20
-27.863723407945272
10
84.133115286602646
20
-36.613723407945272
10
86.633115286602617
20
-36.613723407945272
10
86.633115286602603
20
-42.863723407945258
10
84.133115286602603
20
-42.863723407945287
10
84.133115286602575
20
-51.613723407945173
10
86.633115286602603
20
-51.613723407945152
10
86.633115286602603
20
-54.73872340794528
10
83.508115286602575
20
-54.73872340794528
10
83.508115286602617
20
-52.238723407945351
10
74.758115286602475
20
-52.238723407945315
10
74.758115286602475
20
-54.73872340794528
10
68.508115286602845
20
-54.73872340794528
10
68.508115286602845
20
-52.238723407945301
10
59.758115286602767
20
-52.238723407945415
10
59.758115286602788
20
-54.73872340794528
10
53.508115286602383
20
-54.738723407945287
10
53.508115286602411
20
-52.2387234079454
0
ENDSEC
0
SECTION
2
OBJECTS
0
DICTIONARY
5
C
100
AcDbDictionary
3
ACAD_GROUP
350
D
3
ACAD_MLINESTYLE
350
17
0
DICTIONARY
5
D
100
AcDbDictionary
0
DICTIONARY
5
1A
330
C
100
AcDbDictionary
0
DICTIONARY
5
17
100
AcDbDictionary
0
ENDSEC
0
EOF
