0
SECTION
2
HEADER
9
$ACADVER
1
AC1009
0
ENDSEC
0
SECTION
2
TABLES
0
TABLE
2
VPORT
70
1
0
VPORT
2
ACTIVE
70
0
10
0.0
20
0.0
11
0.0
21
0.0
12
0.0
22
0.0
13
0.0
23
0.0
14
0.0
24
0.0
15
0.0
25
0.0
16
0.0
26
0.0
36
0.0
17
0.0
27
0.0
37
0.0
40
0.0
41
0.0
42
0.0
43
0.0
44
0.0
50
0.0
51
0.0
71
0
72
1000
73
1
74
3
75
0
76
0
77
0
78
0
0
ENDTAB
0
ENDSEC
0
SECTION
2
ENTITIES
0
LINE
8
boundary
62
5
39
2
10
14.867177
20
311.375596
11
14.296237
21
311.650897
0
LINE
8
boundary
62
5
39
2
10
14.296237
20
311.650897
11
13.560249
21
311.843615
0
LINE
8
boundary
62
5
39
2
10
13.560249
20
311.843615
11
13.031496
21
311.912103
0
LINE
8
boundary
62
5
39
2
10
13.031496
20
311.912103
11
12.489097
21
311.892798
0
LINE
8
boundary
62
5
39
2
10
12.489097
20
311.892798
11
11.820981
21
311.776810
0
LINE
8
boundary
62
5
39
2
10
11.820981
20
311.776810
11
11.169971
21
311.492882
0
LINE
8
boundary
62
5
39
2
10
11.169971
20
311.492882
11
10.665695
21
311.184595
0
LINE
8
boundary
62
5
39
2
10
10.665695
20
311.184595
11
10.217942
21
310.814573
0
LINE
8
boundary
62
5
39
2
10
10.217942
20
310.814573
11
9.727660
21
310.289730
0
LINE
8
boundary
62
5
39
2
10
9.727660
20
310.289730
11
9.258160
21
309.681706
0
LINE
8
boundary
62
5
39
2
10
9.258160
20
309.681706
11
8.959359
21
309.204391
0
LINE
8
boundary
62
5
39
2
10
8.959359
20
309.204391
11
8.632803
21
308.597192
0
LINE
8
boundary
62
5
39
2
10
8.632803
20
308.597192
11
8.346809
21
307.968283
0
LINE
8
boundary
62
5
39
2
10
8.346809
20
307.968283
11
8.103182
21
307.317663
0
LINE
8
boundary
62
5
39
2
10
8.103182
20
307.317663
11
7.881800
21
306.670243
0
LINE
8
boundary
62
5
39
2
10
7.881800
20
306.670243
11
7.684888
21
305.989861
0
LINE
8
boundary
62
5
39
2
10
7.684888
20
305.989861
11
7.544773
21
305.431315
0
LINE
8
boundary
62
5
39
2
10
7.544773
20
305.431315
11
7.421933
21
304.877270
0
LINE
8
boundary
62
5
39
2
10
7.421933
20
304.877270
11
7.294438
21
304.235434
0
LINE
8
boundary
62
5
39
2
10
7.294438
20
304.235434
11
7.184631
21
303.600175
0
LINE
8
boundary
62
5
39
2
10
7.184631
20
303.600175
11
7.086348
21
302.944202
0
LINE
8
boundary
62
5
39
2
10
7.086348
20
302.944202
11
7.010537
21
302.364700
0
LINE
8
boundary
62
5
39
2
10
7.010537
20
302.364700
11
6.934977
21
301.709534
0
LINE
8
boundary
62
5
39
2
10
6.934977
20
301.709534
11
6.884902
21
301.203482
0
LINE
8
boundary
62
5
39
2
10
6.884902
20
301.203482
11
6.823984
21
300.475301
0
LINE
8
boundary
62
5
39
2
10
6.823984
20
300.475301
11
6.776320
21
299.787402
0
LINE
8
boundary
62
5
39
2
10
6.776320
20
299.787402
11
6.738632
21
299.115335
0
LINE
8
boundary
62
5
39
2
10
6.738632
20
299.115335
11
6.714945
21
298.574330
0
LINE
8
boundary
62
5
39
2
10
6.714945
20
298.574330
11
6.689943
21
297.789931
0
LINE
8
boundary
62
5
39
2
10
6.689943
20
297.789931
11
6.674860
21
297.028385
0
LINE
8
boundary
62
5
39
2
10
6.674860
20
297.028385
11
6.667738
21
296.306941
0
LINE
8
boundary
62
5
39
2
10
6.667738
20
296.306941
11
6.667820
21
295.747135
0
LINE
8
boundary
62
5
39
2
10
6.667820
20
295.747135
11
6.673307
21
295.080199
0
LINE
8
boundary
62
5
39
2
10
6.673307
20
295.080199
11
6.682141
21
294.538711
0
LINE
8
boundary
62
5
39
2
10
6.682141
20
294.538711
11
6.704230
21
293.767782
0
LINE
8
boundary
62
5
39
2
10
6.704230
20
293.767782
11
6.720980
21
293.131877
0
LINE
8
boundary
62
5
39
2
10
6.720980
20
293.131877
11
6.770649
21
291.911266
0
LINE
8
boundary
62
5
39
2
10
6.770649
20
291.911266
11
6.805546
21
291.190949
0
LINE
8
boundary
62
5
39
2
10
6.805546
20
291.190949
11
6.835889
21
290.664680
0
LINE
8
boundary
62
5
39
2
10
6.835889
20
290.664680
11
6.907950
21
289.512524
0
LINE
8
boundary
62
5
39
2
10
6.907950
20
289.512524
11
6.952234
21
288.918286
0
LINE
8
boundary
62
5
39
2
10
6.952234
20
288.918286
11
7.015300
21
288.054547
0
LINE
8
boundary
62
5
39
2
10
7.015300
20
288.054547
11
7.132626
21
286.662436
0
LINE
8
boundary
62
5
39
2
10
7.132626
20
286.662436
11
7.269844
21
285.211741
0
LINE
8
boundary
62
5
39
2
10
7.269844
20
285.211741
11
7.338372
21
284.529802
0
LINE
8
boundary
62
5
39
2
10
7.338372
20
284.529802
11
7.430113
21
283.681191
0
LINE
8
boundary
62
5
39
2
10
7.430113
20
283.681191
11
7.517189
21
282.895874
0
LINE
8
boundary
62
5
39
2
10
7.517189
20
282.895874
11
7.618789
21
282.036158
0
LINE
8
boundary
62
5
39
2
10
7.618789
20
282.036158
11
7.710633
21
281.273904
0
LINE
8
boundary
62
5
39
2
10
7.710633
20
281.273904
11
7.805527
21
280.524238
0
LINE
8
boundary
62
5
39
2
10
7.805527
20
280.524238
11
7.992186
21
279.108455
0
LINE
8
boundary
62
5
39
2
10
7.992186
20
279.108455
11
8.151291
21
277.958271
0
LINE
8
boundary
62
5
39
2
10
8.151291
20
277.958271
11
8.362718
21
276.443430
0
LINE
8
boundary
62
5
39
2
10
8.362718
20
276.443430
11
8.473220
21
275.668924
0
LINE
8
boundary
62
5
39
2
10
8.473220
20
275.668924
11
8.618249
21
274.667969
0
LINE
8
boundary
62
5
39
2
10
8.618249
20
274.667969
11
8.712859
21
273.997925
0
LINE
8
boundary
62
5
39
2
10
8.712859
20
273.997925
11
8.834717
21
273.149268
0
LINE
8
boundary
62
5
39
2
10
8.834717
20
273.149268
11
9.072476
21
271.476537
0
LINE
8
boundary
62
5
39
2
10
9.072476
20
271.476537
11
9.170487
21
270.820843
0
LINE
8
boundary
62
5
39
2
10
9.170487
20
270.820843
11
9.264502
21
270.165012
0
LINE
8
boundary
62
5
39
2
10
9.264502
20
270.165012
11
9.391118
21
269.314365
0
LINE
8
boundary
62
5
39
2
10
9.391118
20
269.314365
11
9.601759
21
267.906013
0
LINE
8
boundary
62
5
39
2
10
9.601759
20
267.906013
11
9.721850
21
267.087109
0
LINE
8
boundary
62
5
39
2
10
9.721850
20
267.087109
11
9.884461
21
265.984931
0
LINE
8
boundary
62
5
39
2
10
9.884461
20
265.984931
11
10.127147
21
264.470847
0
LINE
8
boundary
62
5
39
2
10
10.127147
20
264.470847
11
10.368211
21
262.917958
0
LINE
8
boundary
62
5
39
2
10
10.368211
20
262.917958
11
10.645307
21
261.296190
0
LINE
8
boundary
62
5
39
2
10
10.645307
20
261.296190
11
10.950834
21
259.556135
0
LINE
8
boundary
62
5
39
2
10
10.950834
20
259.556135
11
11.087549
21
258.831147
0
LINE
8
boundary
62
5
39
2
10
11.087549
20
258.831147
11
11.292934
21
257.748461
0
LINE
8
boundary
62
5
39
2
10
11.292934
20
257.748461
11
11.575655
21
256.352676
0
LINE
8
boundary
62
5
39
2
10
11.575655
20
256.352676
11
11.681104
21
255.840157
0
LINE
8
boundary
62
5
39
2
10
11.681104
20
255.840157
11
12.084313
21
253.990555
0
LINE
8
boundary
62
5
39
2
10
12.084313
20
253.990555
11
12.433729
21
252.457638
0
LINE
8
boundary
62
5
39
2
10
12.433729
20
252.457638
11
12.610717
21
251.707601
0
LINE
8
boundary
62
5
39
2
10
12.610717
20
251.707601
11
12.757234
21
251.100099
0
LINE
8
boundary
62
5
39
2
10
12.757234
20
251.100099
11
13.008110
21
250.087357
0
LINE
8
boundary
62
5
39
2
10
13.008110
20
250.087357
11
13.159329
21
249.475716
0
LINE
8
boundary
62
5
39
2
10
13.159329
20
249.475716
11
13.462161
21
248.290719
0
LINE
8
boundary
62
5
39
2
10
13.462161
20
248.290719
11
13.765109
21
247.133323
0
LINE
8
boundary
62
5
39
2
10
13.765109
20
247.133323
11
13.970984
21
246.367522
0
LINE
8
boundary
62
5
39
2
10
13.970984
20
246.367522
11
14.244254
21
245.349776
0
LINE
8
boundary
62
5
39
2
10
14.244254
20
245.349776
11
14.428044
21
244.680207
0
LINE
8
boundary
62
5
39
2
10
14.428044
20
244.680207
11
14.662503
21
243.833705
0
LINE
8
boundary
62
5
39
2
10
14.662503
20
243.833705
11
15.026187
21
242.547285
0
LINE
8
boundary
62
5
39
2
10
15.026187
20
242.547285
11
15.549124
21
240.719706
0
LINE
8
boundary
62
5
39
2
10
15.549124
20
240.719706
11
15.878000
21
239.602910
0
LINE
8
boundary
62
5
39
2
10
15.878000
20
239.602910
11
16.203977
21
238.497040
0
LINE
8
boundary
62
5
39
2
10
16.203977
20
238.497040
11
16.827308
21
236.414026
0
LINE
8
boundary
62
5
39
2
10
16.827308
20
236.414026
11
17.367678
21
234.650055
0
LINE
8
boundary
62
5
39
2
10
17.367678
20
234.650055
11
17.671130
21
233.650867
0
LINE
8
boundary
62
5
39
2
10
17.671130
20
233.650867
11
17.839194
21
233.117677
0
LINE
8
boundary
62
5
39
2
10
17.839194
20
233.117677
11
18.541263
21
230.844240
0
LINE
8
boundary
62
5
39
2
10
18.541263
20
230.844240
11
19.177632
21
228.856249
0
LINE
8
boundary
62
5
39
2
10
19.177632
20
228.856249
11
19.450063
21
227.989334
0
LINE
8
boundary
62
5
39
2
10
19.450063
20
227.989334
11
20.041951
21
226.169984
0
LINE
8
boundary
62
5
39
2
10
20.041951
20
226.169984
11
20.382182
21
225.101695
0
LINE
8
boundary
62
5
39
2
10
20.382182
20
225.101695
11
20.635013
21
224.327519
0
LINE
8
boundary
62
5
39
2
10
20.635013
20
224.327519
11
21.326250
21
222.192264
0
LINE
8
boundary
62
5
39
2
10
21.326250
20
222.192264
11
22.244278
21
219.426421
0
LINE
8
boundary
62
5
39
2
10
22.244278
20
219.426421
11
23.274443
21
216.310473
0
LINE
8
boundary
62
5
39
2
10
23.274443
20
216.310473
11
23.819323
21
214.698399
0
LINE
8
boundary
62
5
39
2
10
23.819323
20
214.698399
11
24.272905
21
213.348703
0
LINE
8
boundary
62
5
39
2
10
24.272905
20
213.348703
11
25.125705
21
210.871612
0
LINE
8
boundary
62
5
39
2
10
25.125705
20
210.871612
11
25.291844
21
210.376446
0
LINE
8
boundary
62
5
39
2
10
25.291844
20
210.376446
11
26.312114
21
207.398038
0
LINE
8
boundary
62
5
39
2
10
26.312114
20
207.398038
11
26.553207
21
206.707819
0
LINE
8
boundary
62
5
39
2
10
26.553207
20
206.707819
11
26.832005
21
205.906277
0
LINE
8
boundary
62
5
39
2
10
26.832005
20
205.906277
11
27.173380
21
204.939318
0
LINE
8
boundary
62
5
39
2
10
27.173380
20
204.939318
11
27.358474
21
204.413061
0
LINE
8
boundary
62
5
39
2
10
27.358474
20
204.413061
11
27.798415
21
203.180423
0
LINE
8
boundary
62
5
39
2
10
27.798415
20
203.180423
11
28.428386
21
201.431269
0
LINE
8
boundary
62
5
39
2
10
28.428386
20
201.431269
11
28.964987
21
199.926089
0
LINE
8
boundary
62
5
39
2
10
28.964987
20
199.926089
11
29.505510
21
198.428160
0
LINE
8
boundary
62
5
39
2
10
29.505510
20
198.428160
11
30.053662
21
196.928969
0
LINE
8
boundary
62
5
39
2
10
30.053662
20
196.928969
11
30.311747
21
196.232799
0
LINE
8
boundary
62
5
39
2
10
30.311747
20
196.232799
11
30.609641
21
195.428425
0
LINE
8
boundary
62
5
39
2
10
30.609641
20
195.428425
11
30.951191
21
194.519132
0
LINE
8
boundary
62
5
39
2
10
30.951191
20
194.519132
11
31.173673
21
193.926456
0
LINE
8
boundary
62
5
39
2
10
31.173673
20
193.926456
11
31.596844
21
192.814781
0
LINE
8
boundary
62
5
39
2
10
31.596844
20
192.814781
11
32.248864
21
191.119469
0
LINE
8
boundary
62
5
39
2
10
32.248864
20
191.119469
11
32.907175
21
189.432418
0
LINE
8
boundary
62
5
39
2
10
32.907175
20
189.432418
11
33.502928
21
187.901350
0
LINE
8
boundary
62
5
39
2
10
33.502928
20
187.901350
11
34.096905
21
186.389832
0
LINE
8
boundary
62
5
39
2
10
34.096905
20
186.389832
11
34.698861
21
184.875725
0
LINE
8
boundary
62
5
39
2
10
34.698861
20
184.875725
11
34.891159
21
184.396550
0
LINE
8
boundary
62
5
39
2
10
34.891159
20
184.396550
11
35.308556
21
183.358759
0
LINE
8
boundary
62
5
39
2
10
35.308556
20
183.358759
11
35.564652
21
182.727043
0
LINE
8
boundary
62
5
39
2
10
35.564652
20
182.727043
11
35.925754
21
181.838606
0
LINE
8
boundary
62
5
39
2
10
35.925754
20
181.838606
11
36.244223
21
181.060478
0
LINE
8
boundary
62
5
39
2
10
36.244223
20
181.060478
11
36.550257
21
180.314951
0
LINE
8
boundary
62
5
39
2
10
36.550257
20
180.314951
11
36.929747
21
179.395925
0
LINE
8
boundary
62
5
39
2
10
36.929747
20
179.395925
11
37.181841
21
178.787459
0
LINE
8
boundary
62
5
39
2
10
37.181841
20
178.787459
11
37.621145
21
177.732341
0
LINE
8
boundary
62
5
39
2
10
37.621145
20
177.732341
11
37.820334
21
177.255720
0
LINE
8
boundary
62
5
39
2
10
37.820334
20
177.255720
11
38.909511
21
174.669424
0
LINE
8
boundary
62
5
39
2
10
38.909511
20
174.669424
11
39.117251
21
174.178088
0
LINE
8
boundary
62
5
39
2
10
39.117251
20
174.178088
11
40.382997
21
171.211602
0
LINE
8
boundary
62
5
39
2
10
40.382997
20
171.211602
11
41.772934
21
167.955258
0
LINE
8
boundary
62
5
39
2
10
41.772934
20
167.955258
11
42.318680
21
166.685715
0
LINE
8
boundary
62
5
39
2
10
42.318680
20
166.685715
11
43.130185
21
164.802936
0
LINE
8
boundary
62
5
39
2
10
43.130185
20
164.802936
11
44.188251
21
162.357968
0
LINE
8
boundary
62
5
39
2
10
44.188251
20
162.357968
11
44.509552
21
161.617718
0
LINE
8
boundary
62
5
39
2
10
44.509552
20
161.617718
11
45.426352
21
159.508691
0
LINE
8
boundary
62
5
39
2
10
45.426352
20
159.508691
11
45.906838
21
158.395523
0
LINE
8
boundary
62
5
39
2
10
45.906838
20
158.395523
11
47.318163
21
155.132105
0
LINE
8
boundary
62
5
39
2
10
47.318163
20
155.132105
11
48.049096
21
153.436596
0
LINE
8
boundary
62
5
39
2
10
48.049096
20
153.436596
11
48.748160
21
151.821188
0
LINE
8
boundary
62
5
39
2
10
48.748160
20
151.821188
11
50.069930
21
148.748285
0
LINE
8
boundary
62
5
39
2
10
50.069930
20
148.748285
11
50.495264
21
147.757581
0
LINE
8
boundary
62
5
39
2
10
50.495264
20
147.757581
11
51.652398
21
145.033677
0
LINE
8
boundary
62
5
39
2
10
51.652398
20
145.033677
11
52.212249
21
143.701023
0
LINE
8
boundary
62
5
39
2
10
52.212249
20
143.701023
11
53.122390
21
141.543644
0
LINE
8
boundary
62
5
39
2
10
53.122390
20
141.543644
11
54.102921
21
139.189936
0
LINE
8
boundary
62
5
39
2
10
54.102921
20
139.189936
11
54.309239
21
138.697015
0
LINE
8
boundary
62
5
39
2
10
54.309239
20
138.697015
11
54.797050
21
137.515708
0
LINE
8
boundary
62
5
39
2
10
54.797050
20
137.515708
11
55.499507
21
135.798572
0
LINE
8
boundary
62
5
39
2
10
55.499507
20
135.798572
11
55.839083
21
134.955719
0
LINE
8
boundary
62
5
39
2
10
55.839083
20
134.955719
11
56.694274
21
132.842733
0
LINE
8
boundary
62
5
39
2
10
56.694274
20
132.842733
11
57.687642
21
130.347122
0
LINE
8
boundary
62
5
39
2
10
57.687642
20
130.347122
11
57.897706
21
129.821749
0
LINE
8
boundary
62
5
39
2
10
57.897706
20
129.821749
11
58.246915
21
128.932821
0
LINE
8
boundary
62
5
39
2
10
58.246915
20
128.932821
11
59.096267
21
126.736636
0
LINE
8
boundary
62
5
39
2
10
59.096267
20
126.736636
11
59.317827
21
126.149601
0
LINE
8
boundary
62
5
39
2
10
59.317827
20
126.149601
11
60.296595
21
123.584155
0
LINE
8
boundary
62
5
39
2
10
60.296595
20
123.584155
11
60.863153
21
122.063799
0
LINE
8
boundary
62
5
39
2
10
60.863153
20
122.063799
11
61.504193
21
120.361774
0
LINE
8
boundary
62
5
39
2
10
61.504193
20
120.361774
11
62.453231
21
117.784212
0
LINE
8
boundary
62
5
39
2
10
62.453231
20
117.784212
11
62.719090
21
117.069658
0
LINE
8
boundary
62
5
39
2
10
62.719090
20
117.069658
11
63.514434
21
114.884858
0
LINE
8
boundary
62
5
39
2
10
63.514434
20
114.884858
11
63.930576
21
113.716076
0
LINE
8
boundary
62
5
39
2
10
63.930576
20
113.716076
11
64.131150
21
113.142467
0
LINE
8
boundary
62
5
39
2
10
64.131150
20
113.142467
11
65.127612
21
110.312574
0
LINE
8
boundary
62
5
39
2
10
65.127612
20
110.312574
11
67.038340
21
104.776695
0
LINE
8
boundary
62
5
39
2
10
67.038340
20
104.776695
11
67.523342
21
103.336327
0
LINE
8
boundary
62
5
39
2
10
67.523342
20
103.336327
11
69.041821
21
98.738532
0
LINE
8
boundary
62
5
39
2
10
69.041821
20
98.738532
11
69.882530
21
96.198288
0
LINE
8
boundary
62
5
39
2
10
69.882530
20
96.198288
11
70.134789
21
95.424121
0
LINE
8
boundary
62
5
39
2
10
70.134789
20
95.424121
11
72.189190
21
88.968142
0
LINE
8
boundary
62
5
39
2
10
72.189190
20
88.968142
11
72.949196
21
86.556037
0
LINE
8
boundary
62
5
39
2
10
72.949196
20
86.556037
11
73.885181
21
83.522776
0
LINE
8
boundary
62
5
39
2
10
73.885181
20
83.522776
11
74.318383
21
82.110880
0
LINE
8
boundary
62
5
39
2
10
74.318383
20
82.110880
11
74.720560
21
80.805111
0
LINE
8
boundary
62
5
39
2
10
74.720560
20
80.805111
11
75.541495
21
78.126749
0
LINE
8
boundary
62
5
39
2
10
75.541495
20
78.126749
11
76.363326
21
75.403628
0
LINE
8
boundary
62
5
39
2
10
76.363326
20
75.403628
11
76.731738
21
74.179553
0
LINE
8
boundary
62
5
39
2
10
76.731738
20
74.179553
11
77.169056
21
72.730381
0
LINE
8
boundary
62
5
39
2
10
77.169056
20
72.730381
11
77.911773
21
70.266482
0
LINE
8
boundary
62
5
39
2
10
77.911773
20
70.266482
11
78.099528
21
69.645074
0
LINE
8
boundary
62
5
39
2
10
78.099528
20
69.645074
11
78.753115
21
67.453430
0
LINE
8
boundary
62
5
39
2
10
78.753115
20
67.453430
11
79.055000
21
66.443195
0
LINE
8
boundary
62
5
39
2
10
79.055000
20
66.443195
11
79.527484
21
64.864467
0
LINE
8
boundary
62
5
39
2
10
79.527484
20
64.864467
11
80.177650
21
62.698495
0
LINE
8
boundary
62
5
39
2
10
80.177650
20
62.698495
11
80.564592
21
61.414683
0
LINE
8
boundary
62
5
39
2
10
80.564592
20
61.414683
11
81.050651
21
59.788039
0
LINE
8
boundary
62
5
39
2
10
81.050651
20
59.788039
11
81.264074
21
59.078307
0
LINE
8
boundary
62
5
39
2
10
81.264074
20
59.078307
11
81.792819
21
57.320727
0
LINE
8
boundary
62
5
39
2
10
81.792819
20
57.320727
11
82.320013
21
55.581204
0
LINE
8
boundary
62
5
39
2
10
82.320013
20
55.581204
11
82.529253
21
54.890997
0
LINE
8
boundary
62
5
39
2
10
82.529253
20
54.890997
11
83.031813
21
53.247265
0
LINE
8
boundary
62
5
39
2
10
83.031813
20
53.247265
11
83.255047
21
52.512281
0
LINE
8
boundary
62
5
39
2
10
83.255047
20
52.512281
11
83.964769
21
50.199836
0
LINE
8
boundary
62
5
39
2
10
83.964769
20
50.199836
11
84.309237
21
49.089889
0
LINE
8
boundary
62
5
39
2
10
84.309237
20
49.089889
11
84.656729
21
47.962450
0
LINE
8
boundary
62
5
39
2
10
84.656729
20
47.962450
11
85.152618
21
46.392840
0
LINE
8
boundary
62
5
39
2
10
85.152618
20
46.392840
11
85.358484
21
45.736687
0
LINE
8
boundary
62
5
39
2
10
85.358484
20
45.736687
11
86.037739
21
43.609368
0
LINE
8
boundary
62
5
39
2
10
86.037739
20
43.609368
11
86.717414
21
41.506757
0
LINE
8
boundary
62
5
39
2
10
86.717414
20
41.506757
11
87.380855
21
39.491909
0
LINE
8
boundary
62
5
39
2
10
87.380855
20
39.491909
11
87.656263
21
38.673695
0
LINE
8
boundary
62
5
39
2
10
87.656263
20
38.673695
11
88.039404
21
37.531778
0
LINE
8
boundary
62
5
39
2
10
88.039404
20
37.531778
11
88.445038
21
36.351997
0
LINE
8
boundary
62
5
39
2
10
88.445038
20
36.351997
11
88.693490
21
35.626968
0
LINE
8
boundary
62
5
39
2
10
88.693490
20
35.626968
11
89.221848
21
34.125171
0
LINE
8
boundary
62
5
39
2
10
89.221848
20
34.125171
11
89.987623
21
31.992184
0
LINE
8
boundary
62
5
39
2
10
89.987623
20
31.992184
11
90.836142
21
29.717352
0
LINE
8
boundary
62
5
39
2
10
90.836142
20
29.717352
11
91.041346
21
29.191005
0
LINE
8
boundary
62
5
39
2
10
91.041346
20
29.191005
11
91.678579
21
27.549498
0
LINE
8
boundary
62
5
39
2
10
91.678579
20
27.549498
11
92.075879
21
26.574007
0
LINE
8
boundary
62
5
39
2
10
92.075879
20
26.574007
11
92.518448
21
25.482614
0
LINE
8
boundary
62
5
39
2
10
92.518448
20
25.482614
11
93.092746
21
24.138414
0
LINE
8
boundary
62
5
39
2
10
93.092746
20
24.138414
11
93.356764
21
23.517688
0
LINE
8
boundary
62
5
39
2
10
93.356764
20
23.517688
11
94.094113
21
21.879763
0
LINE
8
boundary
62
5
39
2
10
94.094113
20
21.879763
11
94.756087
21
20.477526
0
LINE
8
boundary
62
5
39
2
10
94.756087
20
20.477526
11
95.031117
21
19.903964
0
LINE
8
boundary
62
5
39
2
10
95.031117
20
19.903964
11
95.866450
21
18.267894
0
LINE
8
boundary
62
5
39
2
10
95.866450
20
18.267894
11
96.704957
21
16.735070
0
LINE
8
boundary
62
5
39
2
10
96.704957
20
16.735070
11
97.020835
21
16.200732
0
LINE
8
boundary
62
5
39
2
10
97.020835
20
16.200732
11
97.547582
21
15.306459
0
LINE
8
boundary
62
5
39
2
10
97.547582
20
15.306459
11
97.978688
21
14.634529
0
LINE
8
boundary
62
5
39
2
10
97.978688
20
14.634529
11
98.395260
21
13.983086
0
LINE
8
boundary
62
5
39
2
10
98.395260
20
13.983086
11
98.930299
21
13.221127
0
LINE
8
boundary
62
5
39
2
10
98.930299
20
13.221127
11
99.248933
21
12.765983
0
LINE
8
boundary
62
5
39
2
10
99.248933
20
12.765983
11
99.876912
21
11.956763
0
LINE
8
boundary
62
5
39
2
10
99.876912
20
11.956763
11
100.819662
21
10.837728
0
LINE
8
boundary
62
5
39
2
10
100.819662
20
10.837728
11
101.759644
21
9.860283
0
LINE
8
boundary
62
5
39
2
10
101.759644
20
9.860283
11
102.697880
21
9.020691
0
LINE
8
boundary
62
5
39
2
10
102.697880
20
9.020691
11
103.635371
21
8.315196
0
LINE
8
boundary
62
5
39
2
10
103.635371
20
8.315196
11
104.549481
21
7.755826
0
LINE
8
boundary
62
5
39
2
10
104.549481
20
7.755826
11
105.471601
21
7.313117
0
LINE
8
boundary
62
5
39
2
10
105.471601
20
7.313117
11
106.406425
21
6.984170
0
LINE
8
boundary
62
5
39
2
10
106.406425
20
6.984170
11
107.349522
21
6.769040
0
LINE
8
boundary
62
5
39
2
10
107.349522
20
6.769040
11
108.295386
21
6.667500
0
LINE
8
boundary
62
5
39
2
10
108.295386
20
6.667500
11
108.935713
21
6.675462
0
LINE
8
boundary
62
5
39
2
10
108.935713
20
6.675462
11
110.124964
21
6.799148
0
LINE
8
boundary
62
5
39
2
10
110.124964
20
6.799148
11
110.998853
21
7.019719
0
LINE
8
boundary
62
5
39
2
10
110.998853
20
7.019719
11
111.847210
21
7.337703
0
LINE
8
boundary
62
5
39
2
10
111.847210
20
7.337703
11
112.666691
21
7.749874
0
LINE
8
boundary
62
5
39
2
10
112.666691
20
7.749874
11
113.454133
21
8.253409
0
LINE
8
boundary
62
5
39
2
10
113.454133
20
8.253409
11
114.206568
21
8.845845
0
LINE
8
boundary
62
5
39
2
10
114.206568
20
8.845845
11
114.921139
21
9.525056
0
LINE
8
boundary
62
5
39
2
10
114.921139
20
9.525056
11
115.301911
21
9.921867
0
LINE
8
boundary
62
5
39
2
10
115.301911
20
9.921867
11
116.024783
21
10.832772
0
LINE
8
boundary
62
5
39
2
10
116.024783
20
10.832772
11
116.694928
21
11.855463
0
LINE
8
boundary
62
5
39
2
10
116.694928
20
11.855463
11
117.306585
21
12.990151
0
LINE
8
boundary
62
5
39
2
10
117.306585
20
12.990151
11
117.633004
21
13.733189
0
LINE
8
boundary
62
5
39
2
10
117.633004
20
13.733189
11
117.853397
21
14.237471
0
LINE
8
boundary
62
5
39
2
10
117.853397
20
14.237471
11
118.247820
21
15.361551
0
LINE
8
boundary
62
5
39
2
10
118.247820
20
15.361551
11
118.610349
21
16.625272
0
LINE
8
boundary
62
5
39
2
10
118.610349
20
16.625272
11
118.912010
21
17.968299
0
LINE
8
boundary
62
5
39
2
10
118.912010
20
17.968299
11
119.047529
21
18.653490
0
LINE
8
boundary
62
5
39
2
10
119.047529
20
18.653490
11
119.149905
21
19.390972
0
LINE
8
boundary
62
5
39
2
10
119.149905
20
19.390972
11
119.277983
21
20.350853
0
LINE
8
boundary
62
5
39
2
10
119.277983
20
20.350853
11
106.843841
21
20.591804
0
LINE
8
boundary
62
5
39
2
10
106.843841
20
20.591804
11
106.843841
21
23.337804
0
LINE
8
boundary
62
5
39
2
10
106.843841
20
23.337804
11
119.430344
21
23.337804
0
LINE
8
boundary
62
5
39
2
10
119.430344
20
23.337804
11
119.451630
21
24.087161
0
LINE
8
boundary
62
5
39
2
10
119.451630
20
24.087161
11
119.390754
21
25.896344
0
LINE
8
boundary
62
5
39
2
10
119.390754
20
25.896344
11
119.248561
21
27.731878
0
LINE
8
boundary
62
5
39
2
10
119.248561
20
27.731878
11
119.201003
21
28.278218
0
LINE
8
boundary
62
5
39
2
10
119.201003
20
28.278218
11
119.092290
21
29.121531
0
LINE
8
boundary
62
5
39
2
10
119.092290
20
29.121531
11
118.902745
21
30.546881
0
LINE
8
boundary
62
5
39
2
10
118.902745
20
30.546881
11
118.771320
21
31.319405
0
LINE
8
boundary
62
5
39
2
10
118.771320
20
31.319405
11
118.598882
21
32.324191
0
LINE
8
boundary
62
5
39
2
10
118.598882
20
32.324191
11
118.227963
21
34.163304
0
LINE
8
boundary
62
5
39
2
10
118.227963
20
34.163304
11
118.029557
21
35.025738
0
LINE
8
boundary
62
5
39
2
10
118.029557
20
35.025738
11
117.792365
21
36.063939
0
LINE
8
boundary
62
5
39
2
10
117.792365
20
36.063939
11
117.464147
21
37.353591
0
LINE
8
boundary
62
5
39
2
10
117.464147
20
37.353591
11
117.294456
21
38.024325
0
LINE
8
boundary
62
5
39
2
10
117.294456
20
38.024325
11
116.923934
21
39.363967
0
LINE
8
boundary
62
5
39
2
10
116.923934
20
39.363967
11
101.885175
21
39.513965
0
LINE
8
boundary
62
5
39
2
10
101.885175
20
39.513965
11
101.885174
21
42.259965
0
LINE
8
boundary
62
5
39
2
10
101.885174
20
42.259965
11
116.018319
21
42.259965
0
LINE
8
boundary
62
5
39
2
10
116.018319
20
42.259965
11
115.451953
21
44.239695
0
LINE
8
boundary
62
5
39
2
10
115.451953
20
44.239695
11
115.273300
21
44.776679
0
LINE
8
boundary
62
5
39
2
10
115.273300
20
44.776679
11
114.730170
21
46.414892
0
LINE
8
boundary
62
5
39
2
10
114.730170
20
46.414892
11
114.396447
21
47.375290
0
LINE
8
boundary
62
5
39
2
10
114.396447
20
47.375290
11
113.958641
21
48.639292
0
LINE
8
boundary
62
5
39
2
10
113.958641
20
48.639292
11
113.456969
21
50.029474
0
LINE
8
boundary
62
5
39
2
10
113.456969
20
50.029474
11
113.139889
21
50.910784
0
LINE
8
boundary
62
5
39
2
10
113.139889
20
50.910784
11
112.459820
21
52.734163
0
LINE
8
boundary
62
5
39
2
10
112.459820
20
52.734163
11
112.276457
21
53.227190
0
LINE
8
boundary
62
5
39
2
10
112.276457
20
53.227190
11
111.409934
21
55.484383
0
LINE
8
boundary
62
5
39
2
10
111.409934
20
55.484383
11
111.124868
21
56.211202
0
LINE
8
boundary
62
5
39
2
10
111.124868
20
56.211202
11
110.426750
21
57.981647
0
LINE
8
boundary
62
5
39
2
10
110.426750
20
57.981647
11
95.446299
21
58.436126
0
LINE
8
boundary
62
5
39
2
10
95.446299
20
58.436126
11
95.446299
21
61.182126
0
LINE
8
boundary
62
5
39
2
10
95.446299
20
61.182126
11
109.057438
21
61.182126
0
LINE
8
boundary
62
5
39
2
10
109.057438
20
61.182126
11
108.431403
21
62.880193
0
LINE
8
boundary
62
5
39
2
10
108.431403
20
62.880193
11
107.999860
21
63.909774
0
LINE
8
boundary
62
5
39
2
10
107.999860
20
63.909774
11
107.385082
21
65.380301
0
LINE
8
boundary
62
5
39
2
10
107.385082
20
65.380301
11
106.430528
21
67.617334
0
LINE
8
boundary
62
5
39
2
10
106.430528
20
67.617334
11
105.762134
21
69.187507
0
LINE
8
boundary
62
5
39
2
10
105.762134
20
69.187507
11
104.428493
21
72.258419
0
LINE
8
boundary
62
5
39
2
10
104.428493
20
72.258419
11
104.082914
21
73.056127
0
LINE
8
boundary
62
5
39
2
10
104.082914
20
73.056127
11
102.386147
21
76.910295
0
LINE
8
boundary
62
5
39
2
10
102.386147
20
76.910295
11
88.504395
21
77.358286
0
LINE
8
boundary
62
5
39
2
10
88.504395
20
77.358286
11
88.504394
21
80.104287
0
LINE
8
boundary
62
5
39
2
10
88.504394
20
80.104287
11
100.887015
21
80.104287
0
LINE
8
boundary
62
5
39
2
10
100.887015
20
80.104287
11
100.592908
21
80.937667
0
LINE
8
boundary
62
5
39
2
10
100.592908
20
80.937667
11
100.332185
21
81.517258
0
LINE
8
boundary
62
5
39
2
10
100.332185
20
81.517258
11
98.800145
21
84.933664
0
LINE
8
boundary
62
5
39
2
10
98.800145
20
84.933664
11
98.272385
21
86.102492
0
LINE
8
boundary
62
5
39
2
10
98.272385
20
86.102492
11
96.986756
21
88.959230
0
LINE
8
boundary
62
5
39
2
10
96.986756
20
88.959230
11
96.218811
21
90.658719
0
LINE
8
boundary
62
5
39
2
10
96.218811
20
90.658719
11
95.161670
21
93.006526
0
LINE
8
boundary
62
5
39
2
10
95.161670
20
93.006526
11
94.183795
21
95.175387
0
LINE
8
boundary
62
5
39
2
10
94.183795
20
95.175387
11
93.754821
21
96.130448
0
LINE
8
boundary
62
5
39
2
10
93.754821
20
96.130448
11
81.271639
21
96.280447
0
LINE
8
boundary
62
5
39
2
10
81.271639
20
96.280447
11
81.271639
21
99.026448
0
LINE
8
boundary
62
5
39
2
10
81.271639
20
99.026448
11
92.377682
21
99.026448
0
LINE
8
boundary
62
5
39
2
10
92.377682
20
99.026448
11
92.178736
21
99.642951
0
LINE
8
boundary
62
5
39
2
10
92.178736
20
99.642951
11
91.512205
21
101.135042
0
LINE
8
boundary
62
5
39
2
10
91.512205
20
101.135042
11
90.214199
21
104.052729
0
LINE
8
boundary
62
5
39
2
10
90.214199
20
104.052729
11
89.705735
21
105.200741
0
LINE
8
boundary
62
5
39
2
10
89.705735
20
105.200741
11
88.299899
21
108.396981
0
LINE
8
boundary
62
5
39
2
10
88.299899
20
108.396981
11
87.923357
21
109.257194
0
LINE
8
boundary
62
5
39
2
10
87.923357
20
109.257194
11
86.440326
21
112.675213
0
LINE
8
boundary
62
5
39
2
10
86.440326
20
112.675213
11
86.170586
21
113.300125
0
LINE
8
boundary
62
5
39
2
10
86.170586
20
113.300125
11
85.420967
21
115.052609
0
LINE
8
boundary
62
5
39
2
10
85.420967
20
115.052609
11
73.882806
21
115.202608
0
LINE
8
boundary
62
5
39
2
10
73.882806
20
115.202608
11
73.882805
21
117.948608
0
LINE
8
boundary
62
5
39
2
10
73.882805
20
117.948608
11
84.113561
21
117.948608
0
LINE
8
boundary
62
5
39
2
10
84.113561
20
117.948608
11
82.865384
21
121.084303
0
LINE
8
boundary
62
5
39
2
10
82.865384
20
121.084303
11
81.138033
21
125.242349
0
LINE
8
boundary
62
5
39
2
10
81.138033
20
125.242349
11
79.793368
21
128.530697
0
LINE
8
boundary
62
5
39
2
10
79.793368
20
128.530697
11
79.455957
21
129.355403
0
LINE
8
boundary
62
5
39
2
10
79.455957
20
129.355403
11
77.849757
21
133.343621
0
LINE
8
boundary
62
5
39
2
10
77.849757
20
133.343621
11
77.599163
21
133.974770
0
LINE
8
boundary
62
5
39
2
10
77.599163
20
133.974770
11
66.388983
21
134.124770
0
LINE
8
boundary
62
5
39
2
10
66.388983
20
134.124770
11
66.388983
21
136.870769
0
LINE
8
boundary
62
5
39
2
10
66.388983
20
136.870769
11
76.381733
21
136.870769
0
LINE
8
boundary
62
5
39
2
10
76.381733
20
136.870769
11
76.142243
21
137.654188
0
LINE
8
boundary
62
5
39
2
10
76.142243
20
137.654188
11
74.721411
21
141.298318
0
LINE
8
boundary
62
5
39
2
10
74.721411
20
141.298318
11
74.524531
21
141.808241
0
LINE
8
boundary
62
5
39
2
10
74.524531
20
141.808241
11
73.198384
21
145.266036
0
LINE
8
boundary
62
5
39
2
10
73.198384
20
145.266036
11
72.924454
21
145.987562
0
LINE
8
boundary
62
5
39
2
10
72.924454
20
145.987562
11
71.702176
21
149.227966
0
LINE
8
boundary
62
5
39
2
10
71.702176
20
149.227966
11
71.338629
21
150.201968
0
LINE
8
boundary
62
5
39
2
10
71.338629
20
150.201968
11
70.338971
21
152.896931
0
LINE
8
boundary
62
5
39
2
10
70.338971
20
152.896931
11
58.808927
21
153.046930
0
LINE
8
boundary
62
5
39
2
10
58.808927
20
153.046930
11
58.808927
21
155.792930
0
LINE
8
boundary
62
5
39
2
10
58.808927
20
155.792930
11
69.213132
21
155.792930
0
LINE
8
boundary
62
5
39
2
10
69.213132
20
155.792930
11
68.788435
21
157.135548
0
LINE
8
boundary
62
5
39
2
10
68.788435
20
157.135548
11
68.196067
21
158.778247
0
LINE
8
boundary
62
5
39
2
10
68.196067
20
158.778247
11
67.370083
21
161.081422
0
LINE
8
boundary
62
5
39
2
10
67.370083
20
161.081422
11
66.632206
21
163.163583
0
LINE
8
boundary
62
5
39
2
10
66.632206
20
163.163583
11
65.976945
21
165.021954
0
LINE
8
boundary
62
5
39
2
10
65.976945
20
165.021954
11
65.068158
21
167.631711
0
LINE
8
boundary
62
5
39
2
10
65.068158
20
167.631711
11
64.608760
21
168.956944
0
LINE
8
boundary
62
5
39
2
10
64.608760
20
168.956944
11
63.578178
21
171.969091
0
LINE
8
boundary
62
5
39
2
10
63.578178
20
171.969091
11
51.392264
21
171.969091
0
LINE
8
boundary
62
5
39
2
10
51.392264
20
171.969091
11
51.392264
21
174.715091
0
LINE
8
boundary
62
5
39
2
10
51.392264
20
174.715091
11
62.587040
21
174.715091
0
LINE
8
boundary
62
5
39
2
10
62.587040
20
174.715091
11
62.068245
21
176.445967
0
LINE
8
boundary
62
5
39
2
10
62.068245
20
176.445967
11
61.292273
21
178.765631
0
LINE
8
boundary
62
5
39
2
10
61.292273
20
178.765631
11
60.644204
21
180.721351
0
LINE
8
boundary
62
5
39
2
10
60.644204
20
180.721351
11
60.001935
21
182.675614
0
LINE
8
boundary
62
5
39
2
10
60.001935
20
182.675614
11
59.780126
21
183.355220
0
LINE
8
boundary
62
5
39
2
10
59.780126
20
183.355220
11
59.365522
21
184.628339
0
LINE
8
boundary
62
5
39
2
10
59.365522
20
184.628339
11
59.065053
21
185.557310
0
LINE
8
boundary
62
5
39
2
10
59.065053
20
185.557310
11
58.735008
21
186.579507
0
LINE
8
boundary
62
5
39
2
10
58.735008
20
186.579507
11
58.351244
21
187.776890
0
LINE
8
boundary
62
5
39
2
10
58.351244
20
187.776890
11
58.110484
21
188.529035
0
LINE
8
boundary
62
5
39
2
10
58.110484
20
188.529035
11
57.638537
21
190.015178
0
LINE
8
boundary
62
5
39
2
10
57.638537
20
190.015178
11
57.408855
21
190.741253
0
LINE
8
boundary
62
5
39
2
10
57.408855
20
190.741253
11
44.450290
21
190.891252
0
LINE
8
boundary
62
5
39
2
10
44.450290
20
190.891252
11
44.450290
21
193.637252
0
LINE
8
boundary
62
5
39
2
10
44.450290
20
193.637252
11
56.442414
21
193.637252
0
LINE
8
boundary
62
5
39
2
10
56.442414
20
193.637252
11
56.201353
21
194.583371
0
LINE
8
boundary
62
5
39
2
10
56.201353
20
194.583371
11
55.526472
21
196.742576
0
LINE
8
boundary
62
5
39
2
10
55.526472
20
196.742576
11
55.297793
21
197.482806
0
LINE
8
boundary
62
5
39
2
10
55.297793
20
197.482806
11
54.859165
21
198.900508
0
LINE
8
boundary
62
5
39
2
10
54.859165
20
198.900508
11
54.476292
21
200.153841
0
LINE
8
boundary
62
5
39
2
10
54.476292
20
200.153841
11
54.199763
21
201.057206
0
LINE
8
boundary
62
5
39
2
10
54.199763
20
201.057206
11
53.655079
21
202.860961
0
LINE
8
boundary
62
5
39
2
10
53.655079
20
202.860961
11
53.163179
21
204.504342
0
LINE
8
boundary
62
5
39
2
10
53.163179
20
204.504342
11
52.901690
21
205.368210
0
LINE
8
boundary
62
5
39
2
10
52.901690
20
205.368210
11
52.690129
21
206.076355
0
LINE
8
boundary
62
5
39
2
10
52.690129
20
206.076355
11
52.256630
21
207.525479
0
LINE
8
boundary
62
5
39
2
10
52.256630
20
207.525479
11
51.774110
21
209.160691
0
LINE
8
boundary
62
5
39
2
10
51.774110
20
209.160691
11
51.618124
21
209.683676
0
LINE
8
boundary
62
5
39
2
10
51.618124
20
209.683676
11
38.189304
21
209.813413
0
LINE
8
boundary
62
5
39
2
10
38.189304
20
209.813413
11
38.189304
21
212.559413
0
LINE
8
boundary
62
5
39
2
10
38.189304
20
212.559413
11
50.720541
21
212.559413
0
LINE
8
boundary
62
5
39
2
10
50.720541
20
212.559413
11
50.529380
21
213.403489
0
LINE
8
boundary
62
5
39
2
10
50.529380
20
213.403489
11
50.351312
21
214.009608
0
LINE
8
boundary
62
5
39
2
10
50.351312
20
214.009608
11
50.142173
21
214.732308
0
LINE
8
boundary
62
5
39
2
10
50.142173
20
214.732308
11
49.722633
21
216.179467
0
LINE
8
boundary
62
5
39
2
10
49.722633
20
216.179467
11
49.396033
21
217.323821
0
LINE
8
boundary
62
5
39
2
10
49.396033
20
217.323821
11
49.097722
21
218.355003
0
LINE
8
boundary
62
5
39
2
10
49.097722
20
218.355003
11
48.671600
21
219.851791
0
LINE
8
boundary
62
5
39
2
10
48.671600
20
219.851791
11
48.475983
21
220.537596
0
LINE
8
boundary
62
5
39
2
10
48.475983
20
220.537596
11
47.852065
21
222.731663
0
LINE
8
boundary
62
5
39
2
10
47.852065
20
222.731663
11
47.198855
21
225.076007
0
LINE
8
boundary
62
5
39
2
10
47.198855
20
225.076007
11
46.610304
21
227.152379
0
LINE
8
boundary
62
5
39
2
10
46.610304
20
227.152379
11
46.216166
21
228.585576
0
LINE
8
boundary
62
5
39
2
10
46.216166
20
228.585576
11
32.386680
21
228.735574
0
LINE
8
boundary
62
5
39
2
10
32.386680
20
228.735574
11
32.386680
21
231.481574
0
LINE
8
boundary
62
5
39
2
10
32.386680
20
231.481574
11
45.353976
21
231.481574
0
LINE
8
boundary
62
5
39
2
10
45.353976
20
231.481574
11
45.110555
21
232.565132
0
LINE
8
boundary
62
5
39
2
10
45.110555
20
232.565132
11
44.310682
21
235.447760
0
LINE
8
boundary
62
5
39
2
10
44.310682
20
235.447760
11
44.152865
21
236.014931
0
LINE
8
boundary
62
5
39
2
10
44.152865
20
236.014931
11
43.249253
21
239.279970
0
LINE
8
boundary
62
5
39
2
10
43.249253
20
239.279970
11
42.793642
21
240.888636
0
LINE
8
boundary
62
5
39
2
10
42.793642
20
240.888636
11
42.375352
21
242.410418
0
LINE
8
boundary
62
5
39
2
10
42.375352
20
242.410418
11
41.664151
21
244.933436
0
LINE
8
boundary
62
5
39
2
10
41.664151
20
244.933436
11
41.439241
21
245.719098
0
LINE
8
boundary
62
5
39
2
10
41.439241
20
245.719098
11
40.934080
21
247.507735
0
LINE
8
boundary
62
5
39
2
10
40.934080
20
247.507735
11
27.037727
21
247.657735
0
LINE
8
boundary
62
5
39
2
10
27.037727
20
247.657735
11
27.037727
21
250.403735
0
LINE
8
boundary
62
5
39
2
10
27.037727
20
250.403735
11
40.048621
21
250.403735
0
LINE
8
boundary
62
5
39
2
10
40.048621
20
250.403735
11
39.908095
21
251.085277
0
LINE
8
boundary
62
5
39
2
10
39.908095
20
251.085277
11
39.131027
21
253.768731
0
LINE
8
boundary
62
5
39
2
10
39.131027
20
253.768731
11
38.477075
21
255.978668
0
LINE
8
boundary
62
5
39
2
10
38.477075
20
255.978668
11
38.256432
21
256.737972
0
LINE
8
boundary
62
5
39
2
10
38.256432
20
256.737972
11
37.612460
21
258.904430
0
LINE
8
boundary
62
5
39
2
10
37.612460
20
258.904430
11
36.891722
21
261.288272
0
LINE
8
boundary
62
5
39
2
10
36.891722
20
261.288272
11
36.143240
21
263.747189
0
LINE
8
boundary
62
5
39
2
10
36.143240
20
263.747189
11
35.665580
21
265.297145
0
LINE
8
boundary
62
5
39
2
10
35.665580
20
265.297145
11
35.423324
21
266.070149
0
LINE
8
boundary
62
5
39
2
10
35.423324
20
266.070149
11
35.261600
21
266.579896
0
LINE
8
boundary
62
5
39
2
10
35.261600
20
266.579896
11
22.452501
21
266.579896
0
LINE
8
boundary
62
5
39
2
10
22.452501
20
266.579896
11
22.452501
21
269.325896
0
LINE
8
boundary
62
5
39
2
10
22.452501
20
269.325896
11
34.342153
21
269.325896
0
LINE
8
boundary
62
5
39
2
10
34.342153
20
269.325896
11
33.789620
21
271.233141
0
LINE
8
boundary
62
5
39
2
10
33.789620
20
271.233141
11
32.977144
21
273.730246
0
LINE
8
boundary
62
5
39
2
10
32.977144
20
273.730246
11
32.689258
21
274.586697
0
LINE
8
boundary
62
5
39
2
10
32.689258
20
274.586697
11
31.977585
21
276.743911
0
LINE
8
boundary
62
5
39
2
10
31.977585
20
276.743911
11
31.604290
21
277.862359
0
LINE
8
boundary
62
5
39
2
10
31.604290
20
277.862359
11
31.097018
21
279.340611
0
LINE
8
boundary
62
5
39
2
10
31.097018
20
279.340611
11
30.563956
21
280.888518
0
LINE
8
boundary
62
5
39
2
10
30.563956
20
280.888518
11
30.055311
21
282.322908
0
LINE
8
boundary
62
5
39
2
10
30.055311
20
282.322908
11
29.799259
21
283.056950
0
LINE
8
boundary
62
5
39
2
10
29.799259
20
283.056950
11
29.169459
21
284.816561
0
LINE
8
boundary
62
5
39
2
10
29.169459
20
284.816561
11
28.977977
21
285.352057
0
LINE
8
boundary
62
5
39
2
10
28.977977
20
285.352057
11
18.089756
21
285.502057
0
LINE
8
boundary
62
5
39
2
10
18.089756
20
285.502057
11
18.089756
21
288.248057
0
LINE
8
boundary
62
5
39
2
10
18.089756
20
288.248057
11
27.836019
21
288.248057
0
LINE
8
boundary
62
5
39
2
10
27.836019
20
288.248057
11
27.367418
21
289.661068
0
LINE
8
boundary
62
5
39
2
10
27.367418
20
289.661068
11
27.116594
21
290.302408
0
LINE
8
boundary
62
5
39
2
10
27.116594
20
290.302408
11
26.720116
21
291.324155
0
LINE
8
boundary
62
5
39
2
10
26.720116
20
291.324155
11
26.132847
21
292.798702
0
LINE
8
boundary
62
5
39
2
10
26.132847
20
292.798702
11
25.912395
21
293.351050
0
LINE
8
boundary
62
5
39
2
10
25.912395
20
293.351050
11
25.552738
21
294.220835
0
LINE
8
boundary
62
5
39
2
10
25.552738
20
294.220835
11
25.210266
21
295.051605
0
LINE
8
boundary
62
5
39
2
10
25.210266
20
295.051605
11
24.980068
21
295.590535
0
LINE
8
boundary
62
5
39
2
10
24.980068
20
295.590535
11
24.522531
21
296.664380
0
LINE
8
boundary
62
5
39
2
10
24.522531
20
296.664380
11
23.900433
21
298.075553
0
LINE
8
boundary
62
5
39
2
10
23.900433
20
298.075553
11
22.779557
21
300.486566
0
LINE
8
boundary
62
5
39
2
10
22.779557
20
300.486566
11
21.779672
21
302.508631
0
LINE
8
boundary
62
5
39
2
10
21.779672
20
302.508631
11
21.054262
21
303.868941
0
LINE
8
boundary
62
5
39
2
10
21.054262
20
303.868941
11
20.741649
21
304.424217
0
LINE
8
boundary
62
5
39
2
10
20.741649
20
304.424217
11
14.113014
21
304.424217
0
LINE
8
boundary
62
5
39
2
10
14.113014
20
304.424217
11
14.113014
21
307.170218
0
LINE
8
boundary
62
5
39
2
10
14.113014
20
307.170218
11
18.917279
21
307.170218
0
LINE
8
boundary
62
5
39
2
10
18.917279
20
307.170218
11
18.469334
21
307.966912
0
LINE
8
boundary
62
5
39
2
10
18.469334
20
307.966912
11
17.848913
21
308.764959
0
LINE
8
boundary
62
5
39
2
10
17.848913
20
308.764959
11
17.322096
21
309.379348
0
LINE
8
boundary
62
5
39
2
10
17.322096
20
309.379348
11
16.744682
21
309.959171
0
LINE
8
boundary
62
5
39
2
10
16.744682
20
309.959171
11
16.243651
21
310.404966
0
LINE
8
boundary
62
5
39
2
10
16.243651
20
310.404966
11
15.748117
21
310.796258
0
LINE
8
boundary
62
5
39
2
10
15.748117
20
310.796258
11
15.258065
21
311.133874
0
LINE
8
boundary
62
5
39
2
10
15.258065
20
311.133874
11
14.867177
21
311.375596
0
LINE
8
annotation
62
1
39
211
10
99.342985
20
19.655944
11
99.342985
21
24.273664
0
LINE
8
annotation
62
1
39
211
10
99.342985
20
24.273664
11
98.316406
21
23.246796
0
LINE
8
annotation
62
1
39
211
10
101.816213
20
19.716853
11
101.816213
21
19.716853
0
LINE
8
annotation
62
1
39
211
10
101.816213
20
19.716853
11
101.923535
21
19.676734
0
LINE
8
annotation
62
1
39
211
10
101.923535
20
19.676734
11
102.033602
21
19.656802
0
LINE
8
annotation
62
1
39
211
10
102.033602
20
19.656802
11
102.143927
21
19.656244
0
LINE
8
annotation
62
1
39
211
10
102.143927
20
19.656244
11
102.252021
21
19.674249
0
LINE
8
annotation
62
1
39
211
10
102.252021
20
19.674249
11
102.355395
21
19.710003
0
LINE
8
annotation
62
1
39
211
10
102.355395
20
19.710003
11
102.451563
21
19.762694
0
LINE
8
annotation
62
1
39
211
10
102.451563
20
19.762694
11
102.538034
21
19.831508
0
LINE
8
annotation
62
1
39
211
10
102.538034
20
19.831508
11
102.612321
21
19.915633
0
LINE
8
annotation
62
1
39
211
10
102.612321
20
19.915633
11
102.671937
21
20.014257
0
LINE
8
annotation
62
1
39
211
10
102.671937
20
20.014257
11
102.671937
21
20.014257
0
LINE
8
annotation
62
1
39
211
10
102.671937
20
20.014257
11
102.849806
21
20.430604
0
LINE
8
annotation
62
1
39
211
10
102.849806
20
20.430604
11
102.983208
21
20.859002
0
LINE
8
annotation
62
1
39
211
10
102.983208
20
20.859002
11
103.072143
21
21.296035
0
LINE
8
annotation
62
1
39
211
10
103.072143
20
21.296035
11
103.116610
21
21.738287
0
LINE
8
annotation
62
1
39
211
10
103.116610
20
21.738287
11
103.116610
21
22.182344
0
LINE
8
annotation
62
1
39
211
10
103.116610
20
22.182344
11
103.072143
21
22.624789
0
LINE
8
annotation
62
1
39
211
10
103.072143
20
22.624789
11
102.983208
21
23.062208
0
LINE
8
annotation
62
1
39
211
10
102.983208
20
23.062208
11
102.849806
21
23.491185
0
LINE
8
annotation
62
1
39
211
10
102.849806
20
23.491185
11
102.671937
21
23.908304
0
LINE
8
annotation
62
1
39
211
10
102.671937
20
23.908304
11
102.671937
21
23.908304
0
LINE
8
annotation
62
1
39
211
10
102.671937
20
23.908304
11
102.649317
21
23.950401
0
LINE
8
annotation
62
1
39
211
10
102.649317
20
23.950401
11
102.623672
21
23.990647
0
LINE
8
annotation
62
1
39
211
10
102.623672
20
23.990647
11
102.595197
21
24.028847
0
LINE
8
annotation
62
1
39
211
10
102.595197
20
24.028847
11
102.564082
21
24.064801
0
LINE
8
annotation
62
1
39
211
10
102.564082
20
24.064801
11
102.530523
21
24.098312
0
LINE
8
annotation
62
1
39
211
10
102.530523
20
24.098312
11
102.494711
21
24.129182
0
LINE
8
annotation
62
1
39
211
10
102.494711
20
24.129182
11
102.456839
21
24.157214
0
LINE
8
annotation
62
1
39
211
10
102.456839
20
24.157214
11
102.417102
21
24.182209
0
LINE
8
annotation
62
1
39
211
10
102.417102
20
24.182209
11
102.375691
21
24.203970
0
LINE
8
annotation
62
1
39
211
10
102.375691
20
24.203970
11
102.375691
21
24.203970
0
LINE
8
annotation
62
1
39
211
10
102.375691
20
24.203970
11
102.267518
21
24.244960
0
LINE
8
annotation
62
1
39
211
10
102.267518
20
24.244960
11
102.156806
21
24.265573
0
LINE
8
annotation
62
1
39
211
10
102.156806
20
24.265573
11
102.046015
21
24.266628
0
LINE
8
annotation
62
1
39
211
10
102.046015
20
24.266628
11
101.937605
21
24.248942
0
LINE
8
annotation
62
1
39
211
10
101.937605
20
24.248942
11
101.834037
21
24.213333
0
LINE
8
annotation
62
1
39
211
10
101.834037
20
24.213333
11
101.737768
21
24.160618
0
LINE
8
annotation
62
1
39
211
10
101.737768
20
24.160618
11
101.651260
21
24.091615
0
LINE
8
annotation
62
1
39
211
10
101.651260
20
24.091615
11
101.576971
21
24.007142
0
LINE
8
annotation
62
1
39
211
10
101.576971
20
24.007142
11
101.517362
21
23.908015
0
LINE
8
annotation
62
1
39
211
10
101.517362
20
23.908015
11
101.517362
21
23.908015
0
LINE
8
annotation
62
1
39
211
10
101.517362
20
23.908015
11
101.340350
21
23.491753
0
LINE
8
annotation
62
1
39
211
10
101.340350
20
23.491753
11
101.207592
21
23.063420
0
LINE
8
annotation
62
1
39
211
10
101.207592
20
23.063420
11
101.119086
21
22.626430
0
LINE
8
annotation
62
1
39
211
10
101.119086
20
22.626430
11
101.074833
21
22.184199
0
LINE
8
annotation
62
1
39
211
10
101.074833
20
22.184199
11
101.074833
21
21.740142
0
LINE
8
annotation
62
1
39
211
10
101.074833
20
21.740142
11
101.119086
21
21.297676
0
LINE
8
annotation
62
1
39
211
10
101.119086
20
21.297676
11
101.207592
21
20.860214
0
LINE
8
annotation
62
1
39
211
10
101.207592
20
20.860214
11
101.340350
21
20.431173
0
LINE
8
annotation
62
1
39
211
10
101.340350
20
20.431173
11
101.517362
21
20.013967
0
LINE
8
annotation
62
1
39
211
10
101.517362
20
20.013967
11
101.517362
21
20.013967
0
LINE
8
annotation
62
1
39
211
10
101.517362
20
20.013967
11
101.539899
21
19.971955
0
LINE
8
annotation
62
1
39
211
10
101.539899
20
19.971955
11
101.565354
21
19.931909
0
LINE
8
annotation
62
1
39
211
10
101.565354
20
19.931909
11
101.593619
21
19.893951
0
LINE
8
annotation
62
1
39
211
10
101.593619
20
19.893951
11
101.624587
21
19.858202
0
LINE
8
annotation
62
1
39
211
10
101.624587
20
19.858202
11
101.658150
21
19.824784
0
LINE
8
annotation
62
1
39
211
10
101.658150
20
19.824784
11
101.694202
21
19.793819
0
LINE
8
annotation
62
1
39
211
10
101.694202
20
19.793819
11
101.732634
21
19.765427
0
LINE
8
annotation
62
1
39
211
10
101.732634
20
19.765427
11
101.773341
21
19.739732
0
LINE
8
annotation
62
1
39
211
10
101.773341
20
19.739732
11
101.816213
21
19.716853
0
LINE
8
annotation
62
1
39
211
10
94.857723
20
38.486965
11
94.857723
21
43.286965
0
LINE
8
annotation
62
1
39
211
10
94.857723
20
43.286965
11
93.790621
21
42.219562
0
LINE
8
annotation
62
1
39
211
10
97.724824
20
38.486965
11
97.724824
21
43.286965
0
LINE
8
annotation
62
1
39
211
10
97.724824
20
43.286965
11
96.657723
21
42.219562
0
LINE
8
annotation
62
1
39
211
10
87.943360
20
57.504951
11
87.943360
21
62.113300
0
LINE
8
annotation
62
1
39
211
10
87.943360
20
62.113300
11
86.918865
21
61.088516
0
LINE
8
annotation
62
1
39
211
10
91.718373
20
57.504914
11
89.671695
21
57.504914
0
LINE
8
annotation
62
1
39
211
10
89.671695
20
57.504914
11
91.562892
21
60.549499
0
LINE
8
annotation
62
1
39
211
10
91.562892
20
60.549499
11
91.562892
21
60.549499
0
LINE
8
annotation
62
1
39
211
10
91.562892
20
60.549499
11
91.565153
21
60.552297
0
LINE
8
annotation
62
1
39
211
10
91.565153
20
60.552297
11
91.567321
21
60.555118
0
LINE
8
annotation
62
1
39
211
10
91.567321
20
60.555118
11
91.569411
21
60.557987
0
LINE
8
annotation
62
1
39
211
10
91.569411
20
60.557987
11
91.571436
21
60.560927
0
LINE
8
annotation
62
1
39
211
10
91.571436
20
60.560927
11
91.573412
21
60.563963
0
LINE
8
annotation
62
1
39
211
10
91.573412
20
60.563963
11
91.575351
21
60.567117
0
LINE
8
annotation
62
1
39
211
10
91.575351
20
60.567117
11
91.577270
21
60.570414
0
LINE
8
annotation
62
1
39
211
10
91.577270
20
60.570414
11
91.579181
21
60.573878
0
LINE
8
annotation
62
1
39
211
10
91.579181
20
60.573878
11
91.581099
21
60.577532
0
LINE
8
annotation
62
1
39
211
10
91.581099
20
60.577532
11
91.581099
21
60.577532
0
LINE
8
annotation
62
1
39
211
10
91.581099
20
60.577532
11
91.659186
21
60.745191
0
LINE
8
annotation
62
1
39
211
10
91.659186
20
60.745191
11
91.704803
21
60.918985
0
LINE
8
annotation
62
1
39
211
10
91.704803
20
60.918985
11
91.719069
21
61.094987
0
LINE
8
annotation
62
1
39
211
10
91.719069
20
61.094987
11
91.703100
21
61.269268
0
LINE
8
annotation
62
1
39
211
10
91.703100
20
61.269268
11
91.658014
21
61.437903
0
LINE
8
annotation
62
1
39
211
10
91.658014
20
61.437903
11
91.584931
21
61.596964
0
LINE
8
annotation
62
1
39
211
10
91.584931
20
61.596964
11
91.484967
21
61.742524
0
LINE
8
annotation
62
1
39
211
10
91.484967
20
61.742524
11
91.359241
21
61.870657
0
LINE
8
annotation
62
1
39
211
10
91.359241
20
61.870657
11
91.208871
21
61.977434
0
LINE
8
annotation
62
1
39
211
10
91.208871
20
61.977434
11
91.208871
21
61.977434
0
LINE
8
annotation
62
1
39
211
10
91.208871
20
61.977434
11
91.040745
21
62.054412
0
LINE
8
annotation
62
1
39
211
10
91.040745
20
62.054412
11
90.866685
21
62.099326
0
LINE
8
annotation
62
1
39
211
10
90.866685
20
62.099326
11
90.690581
21
62.113188
0
LINE
8
annotation
62
1
39
211
10
90.690581
20
62.113188
11
90.516326
21
62.097009
0
LINE
8
annotation
62
1
39
211
10
90.516326
20
62.097009
11
90.347810
21
62.051799
0
LINE
8
annotation
62
1
39
211
10
90.347810
20
62.051799
11
90.188925
21
61.978569
0
LINE
8
annotation
62
1
39
211
10
90.188925
20
61.978569
11
90.043562
21
61.878330
0
LINE
8
annotation
62
1
39
211
10
90.043562
20
61.878330
11
89.915613
21
61.752094
0
LINE
8
annotation
62
1
39
211
10
89.915613
20
61.752094
11
89.808968
21
61.600871
0
LINE
8
annotation
62
1
39
211
10
89.808968
20
61.600871
11
89.674585
21
61.343085
0
LINE
8
annotation
62
1
39
211
10
81.001605
20
76.426778
11
81.001605
21
81.035795
0
LINE
8
annotation
62
1
39
211
10
81.001605
20
81.035795
11
79.976961
21
80.010863
0
LINE
8
annotation
62
1
39
211
10
82.729842
20
76.426922
11
83.753329
21
76.426922
0
LINE
8
annotation
62
1
39
211
10
83.753329
20
76.426922
11
83.753329
21
76.426922
0
LINE
8
annotation
62
1
39
211
10
83.753329
20
76.426922
11
83.937406
21
76.443435
0
LINE
8
annotation
62
1
39
211
10
83.937406
20
76.443435
11
84.110616
21
76.491026
0
LINE
8
annotation
62
1
39
211
10
84.110616
20
76.491026
11
84.270077
21
76.566775
0
LINE
8
annotation
62
1
39
211
10
84.270077
20
76.566775
11
84.412911
21
76.667758
0
LINE
8
annotation
62
1
39
211
10
84.412911
20
76.667758
11
84.536235
21
76.791056
0
LINE
8
annotation
62
1
39
211
10
84.536235
20
76.791056
11
84.637168
21
76.933747
0
LINE
8
annotation
62
1
39
211
10
84.637168
20
76.933747
11
84.712830
21
77.092910
0
LINE
8
annotation
62
1
39
211
10
84.712830
20
77.092910
11
84.760340
21
77.265623
0
LINE
8
annotation
62
1
39
211
10
84.760340
20
77.265623
11
84.776817
21
77.448965
0
LINE
8
annotation
62
1
39
211
10
84.776817
20
77.448965
11
84.776817
21
77.961431
0
LINE
8
annotation
62
1
39
211
10
84.776817
20
77.961431
11
84.776817
21
77.961431
0
LINE
8
annotation
62
1
39
211
10
84.776817
20
77.961431
11
84.760340
21
78.144697
0
LINE
8
annotation
62
1
39
211
10
84.760340
20
78.144697
11
84.712830
21
78.317369
0
LINE
8
annotation
62
1
39
211
10
84.712830
20
78.317369
11
84.637168
21
78.476520
0
LINE
8
annotation
62
1
39
211
10
84.637168
20
78.476520
11
84.536235
21
78.619221
0
LINE
8
annotation
62
1
39
211
10
84.536235
20
78.619221
11
84.412911
21
78.742542
0
LINE
8
annotation
62
1
39
211
10
84.412911
20
78.742542
11
84.270077
21
78.843557
0
LINE
8
annotation
62
1
39
211
10
84.270077
20
78.843557
11
84.110616
21
78.919336
0
LINE
8
annotation
62
1
39
211
10
84.110616
20
78.919336
11
83.937406
21
78.966951
0
LINE
8
annotation
62
1
39
211
10
83.937406
20
78.966951
11
83.753329
21
78.983473
0
LINE
8
annotation
62
1
39
211
10
83.753329
20
78.983473
11
83.240863
21
78.983473
0
LINE
8
annotation
62
1
39
211
10
83.240863
20
78.983473
11
83.753329
21
78.983473
0
LINE
8
annotation
62
1
39
211
10
83.753329
20
78.983473
11
83.753329
21
78.983473
0
LINE
8
annotation
62
1
39
211
10
83.753329
20
78.983473
11
83.937406
21
79.000000
0
LINE
8
annotation
62
1
39
211
10
83.937406
20
79.000000
11
84.110616
21
79.047642
0
LINE
8
annotation
62
1
39
211
10
84.110616
20
79.047642
11
84.270077
21
79.123497
0
LINE
8
annotation
62
1
39
211
10
84.270077
20
79.123497
11
84.412911
21
79.224658
0
LINE
8
annotation
62
1
39
211
10
84.412911
20
79.224658
11
84.536235
21
79.348222
0
LINE
8
annotation
62
1
39
211
10
84.536235
20
79.348222
11
84.637168
21
79.491283
0
LINE
8
annotation
62
1
39
211
10
84.637168
20
79.491283
11
84.712830
21
79.650937
0
LINE
8
annotation
62
1
39
211
10
84.712830
20
79.650937
11
84.760340
21
79.824280
0
LINE
8
annotation
62
1
39
211
10
84.760340
20
79.824280
11
84.776817
21
80.008406
0
LINE
8
annotation
62
1
39
211
10
84.776817
20
80.008406
11
84.776817
21
80.008406
0
LINE
8
annotation
62
1
39
211
10
84.776817
20
80.008406
11
84.760340
21
80.191672
0
LINE
8
annotation
62
1
39
211
10
84.760340
20
80.191672
11
84.712830
21
80.364344
0
LINE
8
annotation
62
1
39
211
10
84.712830
20
80.364344
11
84.637168
21
80.523495
0
LINE
8
annotation
62
1
39
211
10
84.637168
20
80.523495
11
84.536235
21
80.666195
0
LINE
8
annotation
62
1
39
211
10
84.536235
20
80.666195
11
84.412911
21
80.789517
0
LINE
8
annotation
62
1
39
211
10
84.412911
20
80.789517
11
84.270077
21
80.890532
0
LINE
8
annotation
62
1
39
211
10
84.270077
20
80.890532
11
84.110616
21
80.966311
0
LINE
8
annotation
62
1
39
211
10
84.110616
20
80.966311
11
83.937406
21
81.013926
0
LINE
8
annotation
62
1
39
211
10
83.937406
20
81.013926
11
83.753329
21
81.030448
0
LINE
8
annotation
62
1
39
211
10
83.753329
20
81.030448
11
82.729842
21
81.030448
0
LINE
8
annotation
62
1
39
211
10
73.670099
20
95.571130
11
73.670099
21
99.735765
0
LINE
8
annotation
62
1
39
211
10
73.670099
20
99.735765
11
72.744247
21
98.809652
0
LINE
8
annotation
62
1
39
211
10
77.544116
20
96.496981
11
75.231707
21
96.496981
0
LINE
8
annotation
62
1
39
211
10
75.231707
20
96.496981
11
76.155208
21
99.735765
0
LINE
8
annotation
62
1
39
211
10
76.850968
20
95.571130
11
76.850968
21
97.420744
0
LINE
8
annotation
62
1
39
211
10
66.380015
20
114.271100
11
66.380015
21
118.880117
0
LINE
8
annotation
62
1
39
211
10
66.380015
20
118.880117
11
65.355372
21
117.855185
0
LINE
8
annotation
62
1
39
211
10
68.108252
20
114.271100
11
69.131740
21
114.271100
0
LINE
8
annotation
62
1
39
211
10
69.131740
20
114.271100
11
69.131740
21
114.271100
0
LINE
8
annotation
62
1
39
211
10
69.131740
20
114.271100
11
69.315436
21
114.287616
0
LINE
8
annotation
62
1
39
211
10
69.315436
20
114.287616
11
69.488443
21
114.335232
0
LINE
8
annotation
62
1
39
211
10
69.488443
20
114.335232
11
69.647846
21
114.411048
0
LINE
8
annotation
62
1
39
211
10
69.647846
20
114.411048
11
69.790727
21
114.512164
0
LINE
8
annotation
62
1
39
211
10
69.790727
20
114.512164
11
69.914169
21
114.635680
0
LINE
8
annotation
62
1
39
211
10
69.914169
20
114.635680
11
70.015257
21
114.778695
0
LINE
8
annotation
62
1
39
211
10
70.015257
20
114.778695
11
70.091074
21
114.938311
0
LINE
8
annotation
62
1
39
211
10
70.091074
20
114.938311
11
70.138703
21
115.111627
0
LINE
8
annotation
62
1
39
211
10
70.138703
20
115.111627
11
70.155227
21
115.295743
0
LINE
8
annotation
62
1
39
211
10
70.155227
20
115.295743
11
70.155227
21
115.805608
0
LINE
8
annotation
62
1
39
211
10
70.155227
20
115.805608
11
70.155227
21
115.805608
0
LINE
8
annotation
62
1
39
211
10
70.155227
20
115.805608
11
70.138712
21
115.989635
0
LINE
8
annotation
62
1
39
211
10
70.138712
20
115.989635
11
70.091107
21
116.162712
0
LINE
8
annotation
62
1
39
211
10
70.091107
20
116.162712
11
70.015322
21
116.321982
0
LINE
8
annotation
62
1
39
211
10
70.015322
20
116.321982
11
69.914265
21
116.464587
0
LINE
8
annotation
62
1
39
211
10
69.914265
20
116.464587
11
69.790846
21
116.587671
0
LINE
8
annotation
62
1
39
211
10
69.790846
20
116.587671
11
69.647974
21
116.688376
0
LINE
8
annotation
62
1
39
211
10
69.647974
20
116.688376
11
69.488560
21
116.763846
0
LINE
8
annotation
62
1
39
211
10
69.488560
20
116.763846
11
69.315512
21
116.811223
0
LINE
8
annotation
62
1
39
211
10
69.315512
20
116.811223
11
69.131740
21
116.827651
0
LINE
8
annotation
62
1
39
211
10
69.131740
20
116.827651
11
68.108252
21
116.827651
0
LINE
8
annotation
62
1
39
211
10
68.108252
20
116.827651
11
68.108252
21
118.880117
0
LINE
8
annotation
62
1
39
211
10
68.108252
20
118.880117
11
70.155227
21
118.880117
0
LINE
8
annotation
62
1
39
211
10
58.906562
20
133.199625
11
58.906562
21
137.795914
0
LINE
8
annotation
62
1
39
211
10
58.906562
20
137.795914
11
57.884748
21
136.773812
0
LINE
8
annotation
62
1
39
211
10
62.163179
20
137.795914
11
62.163179
21
137.795914
0
LINE
8
annotation
62
1
39
211
10
62.163179
20
137.795914
11
61.870786
21
137.686284
0
LINE
8
annotation
62
1
39
211
10
61.870786
20
137.686284
11
61.602476
21
137.538571
0
LINE
8
annotation
62
1
39
211
10
61.602476
20
137.538571
11
61.361005
21
137.356475
0
LINE
8
annotation
62
1
39
211
10
61.361005
20
137.356475
11
61.149127
21
137.143697
0
LINE
8
annotation
62
1
39
211
10
61.149127
20
137.143697
11
60.969595
21
136.903939
0
LINE
8
annotation
62
1
39
211
10
60.969595
20
136.903939
11
60.825165
21
136.640901
0
LINE
8
annotation
62
1
39
211
10
60.825165
20
136.640901
11
60.718591
21
136.358284
0
LINE
8
annotation
62
1
39
211
10
60.718591
20
136.358284
11
60.652626
21
136.059788
0
LINE
8
annotation
62
1
39
211
10
60.652626
20
136.059788
11
60.630026
21
135.749115
0
LINE
8
annotation
62
1
39
211
10
60.630026
20
135.749115
11
60.630026
21
134.221439
0
LINE
8
annotation
62
1
39
211
10
60.630026
20
134.221439
11
60.630026
21
134.221439
0
LINE
8
annotation
62
1
39
211
10
60.630026
20
134.221439
11
60.646505
21
134.037831
0
LINE
8
annotation
62
1
39
211
10
60.646505
20
134.037831
11
60.694002
21
133.864993
0
LINE
8
annotation
62
1
39
211
10
60.694002
20
133.864993
11
60.769609
21
133.705818
0
LINE
8
annotation
62
1
39
211
10
60.769609
20
133.705818
11
60.870418
21
133.563198
0
LINE
8
annotation
62
1
39
211
10
60.870418
20
133.563198
11
60.993520
21
133.440023
0
LINE
8
annotation
62
1
39
211
10
60.993520
20
133.440023
11
61.136006
21
133.339187
0
LINE
8
annotation
62
1
39
211
10
61.136006
20
133.339187
11
61.294969
21
133.263580
0
LINE
8
annotation
62
1
39
211
10
61.294969
20
133.263580
11
61.467498
21
133.216095
0
LINE
8
annotation
62
1
39
211
10
61.467498
20
133.216095
11
61.650687
21
133.199625
0
LINE
8
annotation
62
1
39
211
10
61.650687
20
133.199625
11
61.650687
21
133.199625
0
LINE
8
annotation
62
1
39
211
10
61.650687
20
133.199625
11
61.834255
21
133.216095
0
LINE
8
annotation
62
1
39
211
10
61.834255
20
133.216095
11
62.006987
21
133.263580
0
LINE
8
annotation
62
1
39
211
10
62.006987
20
133.263580
11
62.166009
21
133.339187
0
LINE
8
annotation
62
1
39
211
10
62.166009
20
133.339187
11
62.308447
21
133.440023
0
LINE
8
annotation
62
1
39
211
10
62.308447
20
133.440023
11
62.431431
21
133.563198
0
LINE
8
annotation
62
1
39
211
10
62.431431
20
133.563198
11
62.532085
21
133.705818
0
LINE
8
annotation
62
1
39
211
10
62.532085
20
133.705818
11
62.607538
21
133.864993
0
LINE
8
annotation
62
1
39
211
10
62.607538
20
133.864993
11
62.654917
21
134.037831
0
LINE
8
annotation
62
1
39
211
10
62.654917
20
134.037831
11
62.671348
21
134.221439
0
LINE
8
annotation
62
1
39
211
10
62.671348
20
134.221439
11
62.671348
21
134.729896
0
LINE
8
annotation
62
1
39
211
10
62.671348
20
134.729896
11
62.671348
21
134.729896
0
LINE
8
annotation
62
1
39
211
10
62.671348
20
134.729896
11
62.654917
21
134.913414
0
LINE
8
annotation
62
1
39
211
10
62.654917
20
134.913414
11
62.607538
21
135.086013
0
LINE
8
annotation
62
1
39
211
10
62.607538
20
135.086013
11
62.532085
21
135.244843
0
LINE
8
annotation
62
1
39
211
10
62.532085
20
135.244843
11
62.431431
21
135.387055
0
LINE
8
annotation
62
1
39
211
10
62.431431
20
135.387055
11
62.308447
21
135.509799
0
LINE
8
annotation
62
1
39
211
10
62.308447
20
135.509799
11
62.166009
21
135.610226
0
LINE
8
annotation
62
1
39
211
10
62.166009
20
135.610226
11
62.006987
21
135.685487
0
LINE
8
annotation
62
1
39
211
10
62.006987
20
135.685487
11
61.834255
21
135.732734
0
LINE
8
annotation
62
1
39
211
10
61.834255
20
135.732734
11
61.650687
21
135.749115
0
LINE
8
annotation
62
1
39
211
10
61.650687
20
135.749115
11
60.630026
21
135.749115
0
LINE
8
annotation
62
1
39
211
10
60.502191
20
132.625088
11
62.800336
21
132.625088
0
LINE
8
annotation
62
1
39
211
10
51.305583
20
152.116670
11
51.305583
21
156.723191
0
LINE
8
annotation
62
1
39
211
10
51.305583
20
156.723191
11
50.281494
21
155.698813
0
LINE
8
annotation
62
1
39
211
10
54.057117
20
152.116670
11
55.081205
21
156.723191
0
LINE
8
annotation
62
1
39
211
10
55.081205
20
156.723191
11
53.032739
21
156.723191
0
LINE
8
annotation
62
1
39
211
10
55.081205
20
154.671836
11
54.057117
21
154.671836
0
LINE
8
annotation
62
1
39
211
10
43.889474
20
171.037582
11
43.889474
21
175.646600
0
LINE
8
annotation
62
1
39
211
10
43.889474
20
175.646600
11
42.864831
21
174.621667
0
LINE
8
annotation
62
1
39
211
10
45.617711
20
172.059480
11
45.617711
21
172.059480
0
LINE
8
annotation
62
1
39
211
10
45.617711
20
172.059480
11
45.634236
21
171.875453
0
LINE
8
annotation
62
1
39
211
10
45.634236
20
171.875453
11
45.681864
21
171.702376
0
LINE
8
annotation
62
1
39
211
10
45.681864
20
171.702376
11
45.757681
21
171.543106
0
LINE
8
annotation
62
1
39
211
10
45.757681
20
171.543106
11
45.858769
21
171.400501
0
LINE
8
annotation
62
1
39
211
10
45.858769
20
171.400501
11
45.982212
21
171.277417
0
LINE
8
annotation
62
1
39
211
10
45.982212
20
171.277417
11
46.125093
21
171.176712
0
LINE
8
annotation
62
1
39
211
10
46.125093
20
171.176712
11
46.284495
21
171.101242
0
LINE
8
annotation
62
1
39
211
10
46.284495
20
171.101242
11
46.457503
21
171.053865
0
LINE
8
annotation
62
1
39
211
10
46.457503
20
171.053865
11
46.641199
21
171.037438
0
LINE
8
annotation
62
1
39
211
10
46.641199
20
171.037438
11
46.641199
21
171.037438
0
LINE
8
annotation
62
1
39
211
10
46.641199
20
171.037438
11
46.824895
21
171.053865
0
LINE
8
annotation
62
1
39
211
10
46.824895
20
171.053865
11
46.997902
21
171.101242
0
LINE
8
annotation
62
1
39
211
10
46.997902
20
171.101242
11
47.157305
21
171.176712
0
LINE
8
annotation
62
1
39
211
10
47.157305
20
171.176712
11
47.300186
21
171.277417
0
LINE
8
annotation
62
1
39
211
10
47.300186
20
171.277417
11
47.423628
21
171.400501
0
LINE
8
annotation
62
1
39
211
10
47.423628
20
171.400501
11
47.524716
21
171.543106
0
LINE
8
annotation
62
1
39
211
10
47.524716
20
171.543106
11
47.600533
21
171.702376
0
LINE
8
annotation
62
1
39
211
10
47.600533
20
171.702376
11
47.648162
21
171.875453
0
LINE
8
annotation
62
1
39
211
10
47.648162
20
171.875453
11
47.664686
21
172.059480
0
LINE
8
annotation
62
1
39
211
10
47.664686
20
172.059480
11
47.664686
21
172.569345
0
LINE
8
annotation
62
1
39
211
10
47.664686
20
172.569345
11
47.664686
21
172.569345
0
LINE
8
annotation
62
1
39
211
10
47.664686
20
172.569345
11
47.648171
21
172.753461
0
LINE
8
annotation
62
1
39
211
10
47.648171
20
172.753461
11
47.600566
21
172.926777
0
LINE
8
annotation
62
1
39
211
10
47.600566
20
172.926777
11
47.524780
21
173.086393
0
LINE
8
annotation
62
1
39
211
10
47.524780
20
173.086393
11
47.423723
21
173.229409
0
LINE
8
annotation
62
1
39
211
10
47.423723
20
173.229409
11
47.300305
21
173.352925
0
LINE
8
annotation
62
1
39
211
10
47.300305
20
173.352925
11
47.157433
21
173.454040
0
LINE
8
annotation
62
1
39
211
10
47.157433
20
173.454040
11
46.998019
21
173.529856
0
LINE
8
annotation
62
1
39
211
10
46.998019
20
173.529856
11
46.824971
21
173.577472
0
LINE
8
annotation
62
1
39
211
10
46.824971
20
173.577472
11
46.641199
21
173.593989
0
LINE
8
annotation
62
1
39
211
10
46.641199
20
173.593989
11
46.641199
21
173.593989
0
LINE
8
annotation
62
1
39
211
10
46.641199
20
173.593989
11
46.457426
21
173.577463
0
LINE
8
annotation
62
1
39
211
10
46.457426
20
173.577463
11
46.284378
21
173.529823
0
LINE
8
annotation
62
1
39
211
10
46.284378
20
173.529823
11
46.124964
21
173.453976
0
LINE
8
annotation
62
1
39
211
10
46.124964
20
173.453976
11
45.982093
21
173.352829
0
LINE
8
annotation
62
1
39
211
10
45.982093
20
173.352829
11
45.858674
21
173.229290
0
LINE
8
annotation
62
1
39
211
10
45.858674
20
173.229290
11
45.757617
21
173.086265
0
LINE
8
annotation
62
1
39
211
10
45.757617
20
173.086265
11
45.681831
21
172.926661
0
LINE
8
annotation
62
1
39
211
10
45.681831
20
172.926661
11
45.634226
21
172.753385
0
LINE
8
annotation
62
1
39
211
10
45.634226
20
172.753385
11
45.617711
21
172.569345
0
LINE
8
annotation
62
1
39
211
10
45.617711
20
172.569345
11
45.617711
21
172.059480
0
LINE
8
annotation
62
1
39
211
10
47.664686
20
174.618921
11
47.664686
21
174.618921
0
LINE
8
annotation
62
1
39
211
10
47.664686
20
174.618921
11
47.648171
21
174.802187
0
LINE
8
annotation
62
1
39
211
10
47.648171
20
174.802187
11
47.600566
21
174.974860
0
LINE
8
annotation
62
1
39
211
10
47.600566
20
174.974860
11
47.524780
21
175.134010
0
LINE
8
annotation
62
1
39
211
10
47.524780
20
175.134010
11
47.423723
21
175.276711
0
LINE
8
annotation
62
1
39
211
10
47.423723
20
175.276711
11
47.300305
21
175.400033
0
LINE
8
annotation
62
1
39
211
10
47.300305
20
175.400033
11
47.157433
21
175.501047
0
LINE
8
annotation
62
1
39
211
10
47.157433
20
175.501047
11
46.998019
21
175.576826
0
LINE
8
annotation
62
1
39
211
10
46.998019
20
175.576826
11
46.824971
21
175.624441
0
LINE
8
annotation
62
1
39
211
10
46.824971
20
175.624441
11
46.641199
21
175.640964
0
LINE
8
annotation
62
1
39
211
10
46.641199
20
175.640964
11
46.641199
21
175.640964
0
LINE
8
annotation
62
1
39
211
10
46.641199
20
175.640964
11
46.457426
21
175.624441
0
LINE
8
annotation
62
1
39
211
10
46.457426
20
175.624441
11
46.284378
21
175.576826
0
LINE
8
annotation
62
1
39
211
10
46.284378
20
175.576826
11
46.124964
21
175.501047
0
LINE
8
annotation
62
1
39
211
10
46.124964
20
175.501047
11
45.982093
21
175.400033
0
LINE
8
annotation
62
1
39
211
10
45.982093
20
175.400033
11
45.858674
21
175.276711
0
LINE
8
annotation
62
1
39
211
10
45.858674
20
175.276711
11
45.757617
21
175.134010
0
LINE
8
annotation
62
1
39
211
10
45.757617
20
175.134010
11
45.681831
21
174.974860
0
LINE
8
annotation
62
1
39
211
10
45.681831
20
174.974860
11
45.634226
21
174.802187
0
LINE
8
annotation
62
1
39
211
10
45.634226
20
174.802187
11
45.617711
21
174.618921
0
LINE
8
annotation
62
1
39
211
10
45.617711
20
174.618921
11
45.617711
21
174.618921
0
LINE
8
annotation
62
1
39
211
10
45.617711
20
174.618921
11
45.634236
21
174.434795
0
LINE
8
annotation
62
1
39
211
10
45.634236
20
174.434795
11
45.681864
21
174.261453
0
LINE
8
annotation
62
1
39
211
10
45.681864
20
174.261453
11
45.757681
21
174.101798
0
LINE
8
annotation
62
1
39
211
10
45.757681
20
174.101798
11
45.858769
21
173.958737
0
LINE
8
annotation
62
1
39
211
10
45.858769
20
173.958737
11
45.982212
21
173.835173
0
LINE
8
annotation
62
1
39
211
10
45.982212
20
173.835173
11
46.125093
21
173.734012
0
LINE
8
annotation
62
1
39
211
10
46.125093
20
173.734012
11
46.284495
21
173.658158
0
LINE
8
annotation
62
1
39
211
10
46.284495
20
173.658158
11
46.457503
21
173.610515
0
LINE
8
annotation
62
1
39
211
10
46.457503
20
173.610515
11
46.641199
21
173.593989
0
LINE
8
annotation
62
1
39
211
10
46.641199
20
173.593989
11
46.641199
21
173.593989
0
LINE
8
annotation
62
1
39
211
10
46.641199
20
173.593989
11
46.824895
21
173.610515
0
LINE
8
annotation
62
1
39
211
10
46.824895
20
173.610515
11
46.997902
21
173.658158
0
LINE
8
annotation
62
1
39
211
10
46.997902
20
173.658158
11
47.157305
21
173.734012
0
LINE
8
annotation
62
1
39
211
10
47.157305
20
173.734012
11
47.300186
21
173.835173
0
LINE
8
annotation
62
1
39
211
10
47.300186
20
173.835173
11
47.423628
21
173.958737
0
LINE
8
annotation
62
1
39
211
10
47.423628
20
173.958737
11
47.524716
21
174.101798
0
LINE
8
annotation
62
1
39
211
10
47.524716
20
174.101798
11
47.600533
21
174.261453
0
LINE
8
annotation
62
1
39
211
10
47.600533
20
174.261453
11
47.648162
21
174.434795
0
LINE
8
annotation
62
1
39
211
10
47.648162
20
174.434795
11
47.664686
21
174.618921
0
LINE
8
annotation
62
1
39
211
10
36.947500
20
189.959743
11
36.947500
21
194.568761
0
LINE
8
annotation
62
1
39
211
10
36.947500
20
194.568761
11
35.922857
21
193.543828
0
LINE
8
annotation
62
1
39
211
10
39.186758
20
189.959743
11
39.186758
21
189.959743
0
LINE
8
annotation
62
1
39
211
10
39.186758
20
189.959743
11
39.479446
21
190.068813
0
LINE
8
annotation
62
1
39
211
10
39.479446
20
190.068813
11
39.748096
21
190.216240
0
LINE
8
annotation
62
1
39
211
10
39.748096
20
190.216240
11
39.989934
21
190.398269
0
LINE
8
annotation
62
1
39
211
10
39.989934
20
190.398269
11
40.202182
21
190.611143
0
LINE
8
annotation
62
1
39
211
10
40.202182
20
190.611143
11
40.382066
21
190.851106
0
LINE
8
annotation
62
1
39
211
10
40.382066
20
190.851106
11
40.526808
21
191.114401
0
LINE
8
annotation
62
1
39
211
10
40.526808
20
191.114401
11
40.633632
21
191.397272
0
LINE
8
annotation
62
1
39
211
10
40.633632
20
191.397272
11
40.699763
21
191.695964
0
LINE
8
annotation
62
1
39
211
10
40.699763
20
191.695964
11
40.722423
21
192.006718
0
LINE
8
annotation
62
1
39
211
10
40.722423
20
192.006718
11
40.722423
21
193.543828
0
LINE
8
annotation
62
1
39
211
10
40.722423
20
193.543828
11
40.722423
21
193.543828
0
LINE
8
annotation
62
1
39
211
10
40.722423
20
193.543828
11
40.705946
21
193.727954
0
LINE
8
annotation
62
1
39
211
10
40.705946
20
193.727954
11
40.658436
21
193.901297
0
LINE
8
annotation
62
1
39
211
10
40.658436
20
193.901297
11
40.582774
21
194.060951
0
LINE
8
annotation
62
1
39
211
10
40.582774
20
194.060951
11
40.481841
21
194.204012
0
LINE
8
annotation
62
1
39
211
10
40.481841
20
194.204012
11
40.358517
21
194.327576
0
LINE
8
annotation
62
1
39
211
10
40.358517
20
194.327576
11
40.215684
21
194.428737
0
LINE
8
annotation
62
1
39
211
10
40.215684
20
194.428737
11
40.056222
21
194.504592
0
LINE
8
annotation
62
1
39
211
10
40.056222
20
194.504592
11
39.883012
21
194.552234
0
LINE
8
annotation
62
1
39
211
10
39.883012
20
194.552234
11
39.698936
21
194.568761
0
LINE
8
annotation
62
1
39
211
10
39.698936
20
194.568761
11
39.698936
21
194.568761
0
LINE
8
annotation
62
1
39
211
10
39.698936
20
194.568761
11
39.515240
21
194.552234
0
LINE
8
annotation
62
1
39
211
10
39.515240
20
194.552234
11
39.342232
21
194.504592
0
LINE
8
annotation
62
1
39
211
10
39.342232
20
194.504592
11
39.182830
21
194.428737
0
LINE
8
annotation
62
1
39
211
10
39.182830
20
194.428737
11
39.039949
21
194.327576
0
LINE
8
annotation
62
1
39
211
10
39.039949
20
194.327576
11
38.916506
21
194.204012
0
LINE
8
annotation
62
1
39
211
10
38.916506
20
194.204012
11
38.815418
21
194.060951
0
LINE
8
annotation
62
1
39
211
10
38.815418
20
194.060951
11
38.739601
21
193.901297
0
LINE
8
annotation
62
1
39
211
10
38.739601
20
193.901297
11
38.691973
21
193.727954
0
LINE
8
annotation
62
1
39
211
10
38.691973
20
193.727954
11
38.675448
21
193.543828
0
LINE
8
annotation
62
1
39
211
10
38.675448
20
193.543828
11
38.675448
21
193.031362
0
LINE
8
annotation
62
1
39
211
10
38.675448
20
193.031362
11
38.675448
21
193.031362
0
LINE
8
annotation
62
1
39
211
10
38.675448
20
193.031362
11
38.691973
21
192.847245
0
LINE
8
annotation
62
1
39
211
10
38.691973
20
192.847245
11
38.739601
21
192.673929
0
LINE
8
annotation
62
1
39
211
10
38.739601
20
192.673929
11
38.815418
21
192.514314
0
LINE
8
annotation
62
1
39
211
10
38.815418
20
192.514314
11
38.916506
21
192.371298
0
LINE
8
annotation
62
1
39
211
10
38.916506
20
192.371298
11
39.039949
21
192.247782
0
LINE
8
annotation
62
1
39
211
10
39.039949
20
192.247782
11
39.182830
21
192.146667
0
LINE
8
annotation
62
1
39
211
10
39.182830
20
192.146667
11
39.342232
21
192.070851
0
LINE
8
annotation
62
1
39
211
10
39.342232
20
192.070851
11
39.515240
21
192.023235
0
LINE
8
annotation
62
1
39
211
10
39.515240
20
192.023235
11
39.698936
21
192.006718
0
LINE
8
annotation
62
1
39
211
10
39.698936
20
192.006718
11
40.722423
21
192.006718
0
LINE
8
annotation
62
1
39
211
10
38.547548
20
189.383616
11
40.852057
21
189.383616
0
LINE
8
annotation
62
1
39
211
10
31.352088
20
209.283789
11
29.662114
21
209.283789
0
LINE
8
annotation
62
1
39
211
10
29.662114
20
209.283789
11
31.223706
21
211.797751
0
LINE
8
annotation
62
1
39
211
10
31.223706
20
211.797751
11
31.223706
21
211.797751
0
LINE
8
annotation
62
1
39
211
10
31.223706
20
211.797751
11
31.225573
21
211.800061
0
LINE
8
annotation
62
1
39
211
10
31.225573
20
211.800061
11
31.227363
21
211.802391
0
LINE
8
annotation
62
1
39
211
10
31.227363
20
211.802391
11
31.229088
21
211.804760
0
LINE
8
annotation
62
1
39
211
10
31.229088
20
211.804760
11
31.230761
21
211.807187
0
LINE
8
annotation
62
1
39
211
10
31.230761
20
211.807187
11
31.232392
21
211.809694
0
LINE
8
annotation
62
1
39
211
10
31.232392
20
211.809694
11
31.233993
21
211.812298
0
LINE
8
annotation
62
1
39
211
10
31.233993
20
211.812298
11
31.235577
21
211.815021
0
LINE
8
annotation
62
1
39
211
10
31.235577
20
211.815021
11
31.237155
21
211.817881
0
LINE
8
annotation
62
1
39
211
10
31.237155
20
211.817881
11
31.238739
21
211.820898
0
LINE
8
annotation
62
1
39
211
10
31.238739
20
211.820898
11
31.238739
21
211.820898
0
LINE
8
annotation
62
1
39
211
10
31.238739
20
211.820898
11
31.303217
21
211.959337
0
LINE
8
annotation
62
1
39
211
10
31.303217
20
211.959337
11
31.340884
21
212.102842
0
LINE
8
annotation
62
1
39
211
10
31.340884
20
212.102842
11
31.352663
21
212.248169
0
LINE
8
annotation
62
1
39
211
10
31.352663
20
212.248169
11
31.339477
21
212.392076
0
LINE
8
annotation
62
1
39
211
10
31.339477
20
212.392076
11
31.302250
21
212.531320
0
LINE
8
annotation
62
1
39
211
10
31.302250
20
212.531320
11
31.241903
21
212.662659
0
LINE
8
annotation
62
1
39
211
10
31.241903
20
212.662659
11
31.159362
21
212.782851
0
LINE
8
annotation
62
1
39
211
10
31.159362
20
212.782851
11
31.055548
21
212.888652
0
LINE
8
annotation
62
1
39
211
10
31.055548
20
212.888652
11
30.931385
21
212.976819
0
LINE
8
annotation
62
1
39
211
10
30.931385
20
212.976819
11
30.931385
21
212.976819
0
LINE
8
annotation
62
1
39
211
10
30.931385
20
212.976819
11
30.792560
21
213.040381
0
LINE
8
annotation
62
1
39
211
10
30.792560
20
213.040381
11
30.648836
21
213.077467
0
LINE
8
annotation
62
1
39
211
10
30.648836
20
213.077467
11
30.503425
21
213.088913
0
LINE
8
annotation
62
1
39
211
10
30.503425
20
213.088913
11
30.359539
21
213.075554
0
LINE
8
annotation
62
1
39
211
10
30.359539
20
213.075554
11
30.220393
21
213.038223
0
LINE
8
annotation
62
1
39
211
10
30.220393
20
213.038223
11
30.089199
21
212.977756
0
LINE
8
annotation
62
1
39
211
10
30.089199
20
212.977756
11
29.969171
21
212.894988
0
LINE
8
annotation
62
1
39
211
10
29.969171
20
212.894988
11
29.863521
21
212.790753
0
LINE
8
annotation
62
1
39
211
10
29.863521
20
212.790753
11
29.775463
21
212.665885
0
LINE
8
annotation
62
1
39
211
10
29.775463
20
212.665885
11
29.664500
21
212.453028
0
LINE
8
annotation
62
1
39
211
10
33.390535
20
209.334011
11
33.390535
21
209.334011
0
LINE
8
annotation
62
1
39
211
10
33.390535
20
209.334011
11
33.478972
21
209.300951
0
LINE
8
annotation
62
1
39
211
10
33.478972
20
209.300951
11
33.569672
21
209.284526
0
LINE
8
annotation
62
1
39
211
10
33.569672
20
209.284526
11
33.660584
21
209.284067
0
LINE
8
annotation
62
1
39
211
10
33.660584
20
209.284067
11
33.749658
21
209.298904
0
LINE
8
annotation
62
1
39
211
10
33.749658
20
209.298904
11
33.834842
21
209.328366
0
LINE
8
annotation
62
1
39
211
10
33.834842
20
209.328366
11
33.914088
21
209.371786
0
LINE
8
annotation
62
1
39
211
10
33.914088
20
209.371786
11
33.985344
21
209.428491
0
LINE
8
annotation
62
1
39
211
10
33.985344
20
209.428491
11
34.046560
21
209.497814
0
LINE
8
annotation
62
1
39
211
10
34.046560
20
209.497814
11
34.095685
21
209.579084
0
LINE
8
annotation
62
1
39
211
10
34.095685
20
209.579084
11
34.095685
21
209.579084
0
LINE
8
annotation
62
1
39
211
10
34.095685
20
209.579084
11
34.242257
21
209.922171
0
LINE
8
annotation
62
1
39
211
10
34.242257
20
209.922171
11
34.352185
21
210.275188
0
LINE
8
annotation
62
1
39
211
10
34.352185
20
210.275188
11
34.425471
21
210.635320
0
LINE
8
annotation
62
1
39
211
10
34.425471
20
210.635320
11
34.462114
21
210.999754
0
LINE
8
annotation
62
1
39
211
10
34.462114
20
210.999754
11
34.462114
21
211.365674
0
LINE
8
annotation
62
1
39
211
10
34.462114
20
211.365674
11
34.425471
21
211.730267
0
LINE
8
annotation
62
1
39
211
10
34.425471
20
211.730267
11
34.352185
21
212.090718
0
LINE
8
annotation
62
1
39
211
10
34.352185
20
212.090718
11
34.242257
21
212.444212
0
LINE
8
annotation
62
1
39
211
10
34.242257
20
212.444212
11
34.095685
21
212.787935
0
LINE
8
annotation
62
1
39
211
10
34.095685
20
212.787935
11
34.095685
21
212.787935
0
LINE
8
annotation
62
1
39
211
10
34.095685
20
212.787935
11
34.077046
21
212.822624
0
LINE
8
annotation
62
1
39
211
10
34.077046
20
212.822624
11
34.055914
21
212.855789
0
LINE
8
annotation
62
1
39
211
10
34.055914
20
212.855789
11
34.032448
21
212.887267
0
LINE
8
annotation
62
1
39
211
10
34.032448
20
212.887267
11
34.006809
21
212.916895
0
LINE
8
annotation
62
1
39
211
10
34.006809
20
212.916895
11
33.979154
21
212.944509
0
LINE
8
annotation
62
1
39
211
10
33.979154
20
212.944509
11
33.949644
21
212.969948
0
LINE
8
annotation
62
1
39
211
10
33.949644
20
212.969948
11
33.918436
21
212.993047
0
LINE
8
annotation
62
1
39
211
10
33.918436
20
212.993047
11
33.885691
21
213.013644
0
LINE
8
annotation
62
1
39
211
10
33.885691
20
213.013644
11
33.851567
21
213.031576
0
LINE
8
annotation
62
1
39
211
10
33.851567
20
213.031576
11
33.851567
21
213.031576
0
LINE
8
annotation
62
1
39
211
10
33.851567
20
213.031576
11
33.762428
21
213.065353
0
LINE
8
annotation
62
1
39
211
10
33.762428
20
213.065353
11
33.671197
21
213.082339
0
LINE
8
annotation
62
1
39
211
10
33.671197
20
213.082339
11
33.579901
21
213.083208
0
LINE
8
annotation
62
1
39
211
10
33.579901
20
213.083208
11
33.490567
21
213.068635
0
LINE
8
annotation
62
1
39
211
10
33.490567
20
213.068635
11
33.405222
21
213.039291
0
LINE
8
annotation
62
1
39
211
10
33.405222
20
213.039291
11
33.325893
21
212.995852
0
LINE
8
annotation
62
1
39
211
10
33.325893
20
212.995852
11
33.254606
21
212.938991
0
LINE
8
annotation
62
1
39
211
10
33.254606
20
212.938991
11
33.193390
21
212.869381
0
LINE
8
annotation
62
1
39
211
10
33.193390
20
212.869381
11
33.144269
21
212.787697
0
LINE
8
annotation
62
1
39
211
10
33.144269
20
212.787697
11
33.144269
21
212.787697
0
LINE
8
annotation
62
1
39
211
10
33.144269
20
212.787697
11
32.998405
21
212.444681
0
LINE
8
annotation
62
1
39
211
10
32.998405
20
212.444681
11
32.889006
21
212.091717
0
LINE
8
annotation
62
1
39
211
10
32.889006
20
212.091717
11
32.816074
21
211.731620
0
LINE
8
annotation
62
1
39
211
10
32.816074
20
211.731620
11
32.779608
21
211.367203
0
LINE
8
annotation
62
1
39
211
10
32.779608
20
211.367203
11
32.779608
21
211.001283
0
LINE
8
annotation
62
1
39
211
10
32.779608
20
211.001283
11
32.816074
21
210.636672
0
LINE
8
annotation
62
1
39
211
10
32.816074
20
210.636672
11
32.889006
21
210.276186
0
LINE
8
annotation
62
1
39
211
10
32.889006
20
210.276186
11
32.998405
21
209.922639
0
LINE
8
annotation
62
1
39
211
10
32.998405
20
209.922639
11
33.144269
21
209.578845
0
LINE
8
annotation
62
1
39
211
10
33.144269
20
209.578845
11
33.144269
21
209.578845
0
LINE
8
annotation
62
1
39
211
10
33.144269
20
209.578845
11
33.162841
21
209.544225
0
LINE
8
annotation
62
1
39
211
10
33.162841
20
209.544225
11
33.183817
21
209.511226
0
LINE
8
annotation
62
1
39
211
10
33.183817
20
209.511226
11
33.207108
21
209.479947
0
LINE
8
annotation
62
1
39
211
10
33.207108
20
209.479947
11
33.232627
21
209.450488
0
LINE
8
annotation
62
1
39
211
10
33.232627
20
209.450488
11
33.260284
21
209.422950
0
LINE
8
annotation
62
1
39
211
10
33.260284
20
209.422950
11
33.289992
21
209.397434
0
LINE
8
annotation
62
1
39
211
10
33.289992
20
209.397434
11
33.321662
21
209.374038
0
LINE
8
annotation
62
1
39
211
10
33.321662
20
209.374038
11
33.355206
21
209.352864
0
LINE
8
annotation
62
1
39
211
10
33.355206
20
209.352864
11
33.390535
21
209.334011
0
LINE
8
annotation
62
1
39
211
10
25.906128
20
227.804362
11
23.859450
21
227.804362
0
LINE
8
annotation
62
1
39
211
10
23.859450
20
227.804362
11
25.750648
21
230.848947
0
LINE
8
annotation
62
1
39
211
10
25.750648
20
230.848947
11
25.750648
21
230.848947
0
LINE
8
annotation
62
1
39
211
10
25.750648
20
230.848947
11
25.752908
21
230.851745
0
LINE
8
annotation
62
1
39
211
10
25.752908
20
230.851745
11
25.755077
21
230.854566
0
LINE
8
annotation
62
1
39
211
10
25.755077
20
230.854566
11
25.757166
21
230.857435
0
LINE
8
annotation
62
1
39
211
10
25.757166
20
230.857435
11
25.759191
21
230.860375
0
LINE
8
annotation
62
1
39
211
10
25.759191
20
230.860375
11
25.761167
21
230.863411
0
LINE
8
annotation
62
1
39
211
10
25.761167
20
230.863411
11
25.763107
21
230.866565
0
LINE
8
annotation
62
1
39
211
10
25.763107
20
230.866565
11
25.765025
21
230.869862
0
LINE
8
annotation
62
1
39
211
10
25.765025
20
230.869862
11
25.766936
21
230.873326
0
LINE
8
annotation
62
1
39
211
10
25.766936
20
230.873326
11
25.768854
21
230.876980
0
LINE
8
annotation
62
1
39
211
10
25.768854
20
230.876980
11
25.768854
21
230.876980
0
LINE
8
annotation
62
1
39
211
10
25.768854
20
230.876980
11
25.846942
21
231.044640
0
LINE
8
annotation
62
1
39
211
10
25.846942
20
231.044640
11
25.892559
21
231.218434
0
LINE
8
annotation
62
1
39
211
10
25.892559
20
231.218434
11
25.906824
21
231.394435
0
LINE
8
annotation
62
1
39
211
10
25.906824
20
231.394435
11
25.890855
21
231.568716
0
LINE
8
annotation
62
1
39
211
10
25.890855
20
231.568716
11
25.845770
21
231.737351
0
LINE
8
annotation
62
1
39
211
10
25.845770
20
231.737351
11
25.772686
21
231.896412
0
LINE
8
annotation
62
1
39
211
10
25.772686
20
231.896412
11
25.672723
21
232.041972
0
LINE
8
annotation
62
1
39
211
10
25.672723
20
232.041972
11
25.546997
21
232.170105
0
LINE
8
annotation
62
1
39
211
10
25.546997
20
232.170105
11
25.396626
21
232.276882
0
LINE
8
annotation
62
1
39
211
10
25.396626
20
232.276882
11
25.396626
21
232.276882
0
LINE
8
annotation
62
1
39
211
10
25.396626
20
232.276882
11
25.228500
21
232.353860
0
LINE
8
annotation
62
1
39
211
10
25.228500
20
232.353860
11
25.054440
21
232.398774
0
LINE
8
annotation
62
1
39
211
10
25.054440
20
232.398774
11
24.878336
21
232.412636
0
LINE
8
annotation
62
1
39
211
10
24.878336
20
232.412636
11
24.704081
21
232.396457
0
LINE
8
annotation
62
1
39
211
10
24.704081
20
232.396457
11
24.535565
21
232.351247
0
LINE
8
annotation
62
1
39
211
10
24.535565
20
232.351247
11
24.376680
21
232.278017
0
LINE
8
annotation
62
1
39
211
10
24.376680
20
232.278017
11
24.231317
21
232.177779
0
LINE
8
annotation
62
1
39
211
10
24.231317
20
232.177779
11
24.103368
21
232.051542
0
LINE
8
annotation
62
1
39
211
10
24.103368
20
232.051542
11
23.996724
21
231.900319
0
LINE
8
annotation
62
1
39
211
10
23.996724
20
231.900319
11
23.862340
21
231.642534
0
LINE
8
annotation
62
1
39
211
10
28.659247
20
227.804399
11
28.659247
21
232.412749
0
LINE
8
annotation
62
1
39
211
10
28.659247
20
232.412749
11
27.634752
21
231.387964
0
LINE
8
annotation
62
1
39
211
10
20.197684
20
247.131293
11
18.510537
21
247.131293
0
LINE
8
annotation
62
1
39
211
10
18.510537
20
247.131293
11
20.069516
21
249.641050
0
LINE
8
annotation
62
1
39
211
10
20.069516
20
249.641050
11
20.069516
21
249.641050
0
LINE
8
annotation
62
1
39
211
10
20.069516
20
249.641050
11
20.071380
21
249.643356
0
LINE
8
annotation
62
1
39
211
10
20.071380
20
249.643356
11
20.073167
21
249.645682
0
LINE
8
annotation
62
1
39
211
10
20.073167
20
249.645682
11
20.074890
21
249.648047
0
LINE
8
annotation
62
1
39
211
10
20.074890
20
249.648047
11
20.076559
21
249.650471
0
LINE
8
annotation
62
1
39
211
10
20.076559
20
249.650471
11
20.078188
21
249.652973
0
LINE
8
annotation
62
1
39
211
10
20.078188
20
249.652973
11
20.079787
21
249.655573
0
LINE
8
annotation
62
1
39
211
10
20.079787
20
249.655573
11
20.081368
21
249.658291
0
LINE
8
annotation
62
1
39
211
10
20.081368
20
249.658291
11
20.082944
21
249.661146
0
LINE
8
annotation
62
1
39
211
10
20.082944
20
249.661146
11
20.084525
21
249.664158
0
LINE
8
annotation
62
1
39
211
10
20.084525
20
249.664158
11
20.084525
21
249.664158
0
LINE
8
annotation
62
1
39
211
10
20.084525
20
249.664158
11
20.148895
21
249.802366
0
LINE
8
annotation
62
1
39
211
10
20.148895
20
249.802366
11
20.186499
21
249.945630
0
LINE
8
annotation
62
1
39
211
10
20.186499
20
249.945630
11
20.198258
21
250.090714
0
LINE
8
annotation
62
1
39
211
10
20.198258
20
250.090714
11
20.185094
21
250.234381
0
LINE
8
annotation
62
1
39
211
10
20.185094
20
250.234381
11
20.147929
21
250.373392
0
LINE
8
annotation
62
1
39
211
10
20.147929
20
250.373392
11
20.087684
21
250.504512
0
LINE
8
annotation
62
1
39
211
10
20.087684
20
250.504512
11
20.005280
21
250.624502
0
LINE
8
annotation
62
1
39
211
10
20.005280
20
250.624502
11
19.901640
21
250.730126
0
LINE
8
annotation
62
1
39
211
10
19.901640
20
250.730126
11
19.777684
21
250.818146
0
LINE
8
annotation
62
1
39
211
10
19.777684
20
250.818146
11
19.777684
21
250.818146
0
LINE
8
annotation
62
1
39
211
10
19.777684
20
250.818146
11
19.639092
21
250.881602
0
LINE
8
annotation
62
1
39
211
10
19.639092
20
250.881602
11
19.495608
21
250.918626
0
LINE
8
annotation
62
1
39
211
10
19.495608
20
250.918626
11
19.350440
21
250.930053
0
LINE
8
annotation
62
1
39
211
10
19.350440
20
250.930053
11
19.206795
21
250.916716
0
LINE
8
annotation
62
1
39
211
10
19.206795
20
250.916716
11
19.067882
21
250.879447
0
LINE
8
annotation
62
1
39
211
10
19.067882
20
250.879447
11
18.936908
21
250.819082
0
LINE
8
annotation
62
1
39
211
10
18.936908
20
250.819082
11
18.817080
21
250.736452
0
LINE
8
annotation
62
1
39
211
10
18.817080
20
250.736452
11
18.711607
21
250.632391
0
LINE
8
annotation
62
1
39
211
10
18.711607
20
250.632391
11
18.623696
21
250.507732
0
LINE
8
annotation
62
1
39
211
10
18.623696
20
250.507732
11
18.512919
21
250.295231
0
LINE
8
annotation
62
1
39
211
10
23.309963
20
247.131293
11
21.622816
21
247.131293
0
LINE
8
annotation
62
1
39
211
10
21.622816
20
247.131293
11
23.181795
21
249.641050
0
LINE
8
annotation
62
1
39
211
10
23.181795
20
249.641050
11
23.181795
21
249.641050
0
LINE
8
annotation
62
1
39
211
10
23.181795
20
249.641050
11
23.183659
21
249.643356
0
LINE
8
annotation
62
1
39
211
10
23.183659
20
249.643356
11
23.185446
21
249.645682
0
LINE
8
annotation
62
1
39
211
10
23.185446
20
249.645682
11
23.187169
21
249.648047
0
LINE
8
annotation
62
1
39
211
10
23.187169
20
249.648047
11
23.188838
21
249.650471
0
LINE
8
annotation
62
1
39
211
10
23.188838
20
249.650471
11
23.190467
21
249.652973
0
LINE
8
annotation
62
1
39
211
10
23.190467
20
249.652973
11
23.192066
21
249.655573
0
LINE
8
annotation
62
1
39
211
10
23.192066
20
249.655573
11
23.193647
21
249.658291
0
LINE
8
annotation
62
1
39
211
10
23.193647
20
249.658291
11
23.195223
21
249.661146
0
LINE
8
annotation
62
1
39
211
10
23.195223
20
249.661146
11
23.196804
21
249.664158
0
LINE
8
annotation
62
1
39
211
10
23.196804
20
249.664158
11
23.196804
21
249.664158
0
LINE
8
annotation
62
1
39
211
10
23.196804
20
249.664158
11
23.261174
21
249.802366
0
LINE
8
annotation
62
1
39
211
10
23.261174
20
249.802366
11
23.298778
21
249.945630
0
LINE
8
annotation
62
1
39
211
10
23.298778
20
249.945630
11
23.310537
21
250.090714
0
LINE
8
annotation
62
1
39
211
10
23.310537
20
250.090714
11
23.297373
21
250.234381
0
LINE
8
annotation
62
1
39
211
10
23.297373
20
250.234381
11
23.260208
21
250.373392
0
LINE
8
annotation
62
1
39
211
10
23.260208
20
250.373392
11
23.199963
21
250.504512
0
LINE
8
annotation
62
1
39
211
10
23.199963
20
250.504512
11
23.117559
21
250.624502
0
LINE
8
annotation
62
1
39
211
10
23.117559
20
250.624502
11
23.013919
21
250.730126
0
LINE
8
annotation
62
1
39
211
10
23.013919
20
250.730126
11
22.889963
21
250.818146
0
LINE
8
annotation
62
1
39
211
10
22.889963
20
250.818146
11
22.889963
21
250.818146
0
LINE
8
annotation
62
1
39
211
10
22.889963
20
250.818146
11
22.751371
21
250.881602
0
LINE
8
annotation
62
1
39
211
10
22.751371
20
250.881602
11
22.607887
21
250.918626
0
LINE
8
annotation
62
1
39
211
10
22.607887
20
250.918626
11
22.462719
21
250.930053
0
LINE
8
annotation
62
1
39
211
10
22.462719
20
250.930053
11
22.319074
21
250.916716
0
LINE
8
annotation
62
1
39
211
10
22.319074
20
250.916716
11
22.180161
21
250.879447
0
LINE
8
annotation
62
1
39
211
10
22.180161
20
250.879447
11
22.049187
21
250.819082
0
LINE
8
annotation
62
1
39
211
10
22.049187
20
250.819082
11
21.929359
21
250.736452
0
LINE
8
annotation
62
1
39
211
10
21.929359
20
250.736452
11
21.823886
21
250.632391
0
LINE
8
annotation
62
1
39
211
10
21.823886
20
250.632391
11
21.735975
21
250.507732
0
LINE
8
annotation
62
1
39
211
10
21.735975
20
250.507732
11
21.625198
21
250.295231
0
LINE
8
annotation
62
1
39
211
10
15.612660
20
266.053227
11
13.925311
21
266.053227
0
LINE
8
annotation
62
1
39
211
10
13.925311
20
266.053227
11
15.484477
21
268.563284
0
LINE
8
annotation
62
1
39
211
10
15.484477
20
268.563284
11
15.484477
21
268.563284
0
LINE
8
annotation
62
1
39
211
10
15.484477
20
268.563284
11
15.486341
21
268.565590
0
LINE
8
annotation
62
1
39
211
10
15.486341
20
268.565590
11
15.488128
21
268.567916
0
LINE
8
annotation
62
1
39
211
10
15.488128
20
268.567916
11
15.489851
21
268.570282
0
LINE
8
annotation
62
1
39
211
10
15.489851
20
268.570282
11
15.491521
21
268.572706
0
LINE
8
annotation
62
1
39
211
10
15.491521
20
268.572706
11
15.493150
21
268.575208
0
LINE
8
annotation
62
1
39
211
10
15.493150
20
268.575208
11
15.494749
21
268.577809
0
LINE
8
annotation
62
1
39
211
10
15.494749
20
268.577809
11
15.496330
21
268.580527
0
LINE
8
annotation
62
1
39
211
10
15.496330
20
268.580527
11
15.497906
21
268.583383
0
LINE
8
annotation
62
1
39
211
10
15.497906
20
268.583383
11
15.499487
21
268.586395
0
LINE
8
annotation
62
1
39
211
10
15.499487
20
268.586395
11
15.499487
21
268.586395
0
LINE
8
annotation
62
1
39
211
10
15.499487
20
268.586395
11
15.563865
21
268.724619
0
LINE
8
annotation
62
1
39
211
10
15.563865
20
268.724619
11
15.601473
21
268.867901
0
LINE
8
annotation
62
1
39
211
10
15.601473
20
268.867901
11
15.613234
21
269.013002
0
LINE
8
annotation
62
1
39
211
10
15.613234
20
269.013002
11
15.600069
21
269.156685
0
LINE
8
annotation
62
1
39
211
10
15.600069
20
269.156685
11
15.562899
21
269.295713
0
LINE
8
annotation
62
1
39
211
10
15.562899
20
269.295713
11
15.502647
21
269.426849
0
LINE
8
annotation
62
1
39
211
10
15.502647
20
269.426849
11
15.420233
21
269.546853
0
LINE
8
annotation
62
1
39
211
10
15.420233
20
269.546853
11
15.316580
21
269.652490
0
LINE
8
annotation
62
1
39
211
10
15.316580
20
269.652490
11
15.192610
21
269.740521
0
LINE
8
annotation
62
1
39
211
10
15.192610
20
269.740521
11
15.192610
21
269.740521
0
LINE
8
annotation
62
1
39
211
10
15.192610
20
269.740521
11
15.054002
21
269.803984
0
LINE
8
annotation
62
1
39
211
10
15.054002
20
269.803984
11
14.910501
21
269.841012
0
LINE
8
annotation
62
1
39
211
10
14.910501
20
269.841012
11
14.765315
21
269.852441
0
LINE
8
annotation
62
1
39
211
10
14.765315
20
269.852441
11
14.621653
21
269.839102
0
LINE
8
annotation
62
1
39
211
10
14.621653
20
269.839102
11
14.482723
21
269.801829
0
LINE
8
annotation
62
1
39
211
10
14.482723
20
269.801829
11
14.351733
21
269.741456
0
LINE
8
annotation
62
1
39
211
10
14.351733
20
269.741456
11
14.231891
21
269.658816
0
LINE
8
annotation
62
1
39
211
10
14.231891
20
269.658816
11
14.126405
21
269.554743
0
LINE
8
annotation
62
1
39
211
10
14.126405
20
269.554743
11
14.038484
21
269.430070
0
LINE
8
annotation
62
1
39
211
10
14.038484
20
269.430070
11
13.927694
21
269.217543
0
LINE
8
annotation
62
1
39
211
10
17.037675
20
266.053377
11
17.881350
21
266.053377
0
LINE
8
annotation
62
1
39
211
10
17.881350
20
266.053377
11
17.881350
21
266.053377
0
LINE
8
annotation
62
1
39
211
10
17.881350
20
266.053377
11
18.033087
21
266.066989
0
LINE
8
annotation
62
1
39
211
10
18.033087
20
266.066989
11
18.175866
21
266.106219
0
LINE
8
annotation
62
1
39
211
10
18.175866
20
266.106219
11
18.307313
21
266.168659
0
LINE
8
annotation
62
1
39
211
10
18.307313
20
266.168659
11
18.425052
21
266.251901
0
LINE
8
annotation
62
1
39
211
10
18.425052
20
266.251901
11
18.526710
21
266.353537
0
LINE
8
annotation
62
1
39
211
10
18.526710
20
266.353537
11
18.609910
21
266.471160
0
LINE
8
annotation
62
1
39
211
10
18.609910
20
266.471160
11
18.672279
21
266.602359
0
LINE
8
annotation
62
1
39
211
10
18.672279
20
266.602359
11
18.711442
21
266.744729
0
LINE
8
annotation
62
1
39
211
10
18.711442
20
266.744729
11
18.725025
21
266.895860
0
LINE
8
annotation
62
1
39
211
10
18.725025
20
266.895860
11
18.725025
21
267.318293
0
LINE
8
annotation
62
1
39
211
10
18.725025
20
267.318293
11
18.725025
21
267.318293
0
LINE
8
annotation
62
1
39
211
10
18.725025
20
267.318293
11
18.711442
21
267.469362
0
LINE
8
annotation
62
1
39
211
10
18.711442
20
267.469362
11
18.672279
21
267.611698
0
LINE
8
annotation
62
1
39
211
10
18.672279
20
267.611698
11
18.609910
21
267.742888
0
LINE
8
annotation
62
1
39
211
10
18.609910
20
267.742888
11
18.526710
21
267.860518
0
LINE
8
annotation
62
1
39
211
10
18.526710
20
267.860518
11
18.425052
21
267.962174
0
LINE
8
annotation
62
1
39
211
10
18.425052
20
267.962174
11
18.307313
21
268.045442
0
LINE
8
annotation
62
1
39
211
10
18.307313
20
268.045442
11
18.175866
21
268.107907
0
LINE
8
annotation
62
1
39
211
10
18.175866
20
268.107907
11
18.033087
21
268.147157
0
LINE
8
annotation
62
1
39
211
10
18.033087
20
268.147157
11
17.881350
21
268.160776
0
LINE
8
annotation
62
1
39
211
10
17.881350
20
268.160776
11
17.458917
21
268.160776
0
LINE
8
annotation
62
1
39
211
10
17.458917
20
268.160776
11
17.881350
21
268.160776
0
LINE
8
annotation
62
1
39
211
10
17.881350
20
268.160776
11
17.881350
21
268.160776
0
LINE
8
annotation
62
1
39
211
10
17.881350
20
268.160776
11
18.033087
21
268.174399
0
LINE
8
annotation
62
1
39
211
10
18.033087
20
268.174399
11
18.175866
21
268.213672
0
LINE
8
annotation
62
1
39
211
10
18.175866
20
268.213672
11
18.307313
21
268.276200
0
LINE
8
annotation
62
1
39
211
10
18.307313
20
268.276200
11
18.425052
21
268.359588
0
LINE
8
annotation
62
1
39
211
10
18.425052
20
268.359588
11
18.526710
21
268.461443
0
LINE
8
annotation
62
1
39
211
10
18.526710
20
268.461443
11
18.609910
21
268.579371
0
LINE
8
annotation
62
1
39
211
10
18.609910
20
268.579371
11
18.672279
21
268.710976
0
LINE
8
annotation
62
1
39
211
10
18.672279
20
268.710976
11
18.711442
21
268.853865
0
LINE
8
annotation
62
1
39
211
10
18.711442
20
268.853865
11
18.725025
21
269.005642
0
LINE
8
annotation
62
1
39
211
10
18.725025
20
269.005642
11
18.725025
21
269.005642
0
LINE
8
annotation
62
1
39
211
10
18.725025
20
269.005642
11
18.711442
21
269.156711
0
LINE
8
annotation
62
1
39
211
10
18.711442
20
269.156711
11
18.672279
21
269.299047
0
LINE
8
annotation
62
1
39
211
10
18.672279
20
269.299047
11
18.609910
21
269.430237
0
LINE
8
annotation
62
1
39
211
10
18.609910
20
269.430237
11
18.526710
21
269.547867
0
LINE
8
annotation
62
1
39
211
10
18.526710
20
269.547867
11
18.425052
21
269.649523
0
LINE
8
annotation
62
1
39
211
10
18.425052
20
269.649523
11
18.307313
21
269.732791
0
LINE
8
annotation
62
1
39
211
10
18.307313
20
269.732791
11
18.175866
21
269.795256
0
LINE
8
annotation
62
1
39
211
10
18.175866
20
269.795256
11
18.033087
21
269.834506
0
LINE
8
annotation
62
1
39
211
10
18.033087
20
269.834506
11
17.881350
21
269.848126
0
LINE
8
annotation
62
1
39
211
10
17.881350
20
269.848126
11
17.037675
21
269.848126
0
LINE
8
annotation
62
1
39
211
10
11.113514
20
285.128969
11
9.562581
21
285.128969
0
LINE
8
annotation
62
1
39
211
10
9.562581
20
285.128969
11
10.995694
21
287.436097
0
LINE
8
annotation
62
1
39
211
10
10.995694
20
287.436097
11
10.995694
21
287.436097
0
LINE
8
annotation
62
1
39
211
10
10.995694
20
287.436097
11
10.997408
21
287.438217
0
LINE
8
annotation
62
1
39
211
10
10.997408
20
287.438217
11
10.999051
21
287.440355
0
LINE
8
annotation
62
1
39
211
10
10.999051
20
287.440355
11
11.000634
21
287.442529
0
LINE
8
annotation
62
1
39
211
10
11.000634
20
287.442529
11
11.002169
21
287.444757
0
LINE
8
annotation
62
1
39
211
10
11.002169
20
287.444757
11
11.003666
21
287.447058
0
LINE
8
annotation
62
1
39
211
10
11.003666
20
287.447058
11
11.005136
21
287.449448
0
LINE
8
annotation
62
1
39
211
10
11.005136
20
287.449448
11
11.006589
21
287.451946
0
LINE
8
annotation
62
1
39
211
10
11.006589
20
287.451946
11
11.008037
21
287.454571
0
LINE
8
annotation
62
1
39
211
10
11.008037
20
287.454571
11
11.009491
21
287.457340
0
LINE
8
annotation
62
1
39
211
10
11.009491
20
287.457340
11
11.009491
21
287.457340
0
LINE
8
annotation
62
1
39
211
10
11.009491
20
287.457340
11
11.068664
21
287.584389
0
LINE
8
annotation
62
1
39
211
10
11.068664
20
287.584389
11
11.103232
21
287.716087
0
LINE
8
annotation
62
1
39
211
10
11.103232
20
287.716087
11
11.114042
21
287.849457
0
LINE
8
annotation
62
1
39
211
10
11.114042
20
287.849457
11
11.101941
21
287.981524
0
LINE
8
annotation
62
1
39
211
10
11.101941
20
287.981524
11
11.067776
21
288.109313
0
LINE
8
annotation
62
1
39
211
10
11.067776
20
288.109313
11
11.012395
21
288.229846
0
LINE
8
annotation
62
1
39
211
10
11.012395
20
288.229846
11
10.936644
21
288.340149
0
LINE
8
annotation
62
1
39
211
10
10.936644
20
288.340149
11
10.841372
21
288.437245
0
LINE
8
annotation
62
1
39
211
10
10.841372
20
288.437245
11
10.727424
21
288.518159
0
LINE
8
annotation
62
1
39
211
10
10.727424
20
288.518159
11
10.727424
21
288.518159
0
LINE
8
annotation
62
1
39
211
10
10.727424
20
288.518159
11
10.600021
21
288.576491
0
LINE
8
annotation
62
1
39
211
10
10.600021
20
288.576491
11
10.468122
21
288.610526
0
LINE
8
annotation
62
1
39
211
10
10.468122
20
288.610526
11
10.334674
21
288.621031
0
LINE
8
annotation
62
1
39
211
10
10.334674
20
288.621031
11
10.202626
21
288.608770
0
LINE
8
annotation
62
1
39
211
10
10.202626
20
288.608770
11
10.074928
21
288.574511
0
LINE
8
annotation
62
1
39
211
10
10.074928
20
288.574511
11
9.954528
21
288.519019
0
LINE
8
annotation
62
1
39
211
10
9.954528
20
288.519019
11
9.844375
21
288.443060
0
LINE
8
annotation
62
1
39
211
10
9.844375
20
288.443060
11
9.747418
21
288.347401
0
LINE
8
annotation
62
1
39
211
10
9.747418
20
288.347401
11
9.666605
21
288.232807
0
LINE
8
annotation
62
1
39
211
10
9.666605
20
288.232807
11
9.564771
21
288.037462
0
LINE
8
annotation
62
1
39
211
10
14.362318
20
285.905340
11
12.423322
21
285.905340
0
LINE
8
annotation
62
1
39
211
10
12.423322
20
285.905340
11
13.197694
21
288.621116
0
LINE
8
annotation
62
1
39
211
10
13.781101
20
285.128997
11
13.781101
21
286.679931
0
LINE
8
annotation
62
1
39
211
10
9.814791
20
304.616802
11
8.766306
21
304.616802
0
LINE
8
annotation
62
1
39
211
10
8.766306
20
304.616802
11
9.735140
21
306.176500
0
LINE
8
annotation
62
1
39
211
10
9.735140
20
306.176500
11
9.735140
21
306.176500
0
LINE
8
annotation
62
1
39
211
10
9.735140
20
306.176500
11
9.736298
21
306.177934
0
LINE
8
annotation
62
1
39
211
10
9.736298
20
306.177934
11
9.737409
21
306.179379
0
LINE
8
annotation
62
1
39
211
10
9.737409
20
306.179379
11
9.738479
21
306.180849
0
LINE
8
annotation
62
1
39
211
10
9.738479
20
306.180849
11
9.739517
21
306.182355
0
LINE
8
annotation
62
1
39
211
10
9.739517
20
306.182355
11
9.740529
21
306.183910
0
LINE
8
annotation
62
1
39
211
10
9.740529
20
306.183910
11
9.741523
21
306.185526
0
LINE
8
annotation
62
1
39
211
10
9.741523
20
306.185526
11
9.742505
21
306.187215
0
LINE
8
annotation
62
1
39
211
10
9.742505
20
306.187215
11
9.743484
21
306.188989
0
LINE
8
annotation
62
1
39
211
10
9.743484
20
306.188989
11
9.744467
21
306.190861
0
LINE
8
annotation
62
1
39
211
10
9.744467
20
306.190861
11
9.744467
21
306.190861
0
LINE
8
annotation
62
1
39
211
10
9.744467
20
306.190861
11
9.784470
21
306.276751
0
LINE
8
annotation
62
1
39
211
10
9.784470
20
306.276751
11
9.807839
21
306.365783
0
LINE
8
annotation
62
1
39
211
10
9.807839
20
306.365783
11
9.815147
21
306.455946
0
LINE
8
annotation
62
1
39
211
10
9.815147
20
306.455946
11
9.806966
21
306.545228
0
LINE
8
annotation
62
1
39
211
10
9.806966
20
306.545228
11
9.783870
21
306.631617
0
LINE
8
annotation
62
1
39
211
10
9.783870
20
306.631617
11
9.746430
21
306.713102
0
LINE
8
annotation
62
1
39
211
10
9.746430
20
306.713102
11
9.695220
21
306.787671
0
LINE
8
annotation
62
1
39
211
10
9.695220
20
306.787671
11
9.630812
21
306.853311
0
LINE
8
annotation
62
1
39
211
10
9.630812
20
306.853311
11
9.553780
21
306.908012
0
LINE
8
annotation
62
1
39
211
10
9.553780
20
306.908012
11
9.553780
21
306.908012
0
LINE
8
annotation
62
1
39
211
10
9.553780
20
306.908012
11
9.467651
21
306.947446
0
LINE
8
annotation
62
1
39
211
10
9.467651
20
306.947446
11
9.378482
21
306.970455
0
LINE
8
annotation
62
1
39
211
10
9.378482
20
306.970455
11
9.288267
21
306.977557
0
LINE
8
annotation
62
1
39
211
10
9.288267
20
306.977557
11
9.198998
21
306.969268
0
LINE
8
annotation
62
1
39
211
10
9.198998
20
306.969268
11
9.112670
21
306.946108
0
LINE
8
annotation
62
1
39
211
10
9.112670
20
306.946108
11
9.031276
21
306.908593
0
LINE
8
annotation
62
1
39
211
10
9.031276
20
306.908593
11
8.956808
21
306.857242
0
LINE
8
annotation
62
1
39
211
10
8.956808
20
306.857242
11
8.891262
21
306.792573
0
LINE
8
annotation
62
1
39
211
10
8.891262
20
306.792573
11
8.836629
21
306.715104
0
LINE
8
annotation
62
1
39
211
10
8.836629
20
306.715104
11
8.767786
21
306.583044
0
LINE
8
annotation
62
1
39
211
10
10.700266
20
304.616821
11
11.224509
21
304.616821
0
LINE
8
annotation
62
1
39
211
10
11.224509
20
304.616821
11
11.224509
21
304.616821
0
LINE
8
annotation
62
1
39
211
10
11.224509
20
304.616821
11
11.318600
21
304.625281
0
LINE
8
annotation
62
1
39
211
10
11.318600
20
304.625281
11
11.407216
21
304.649670
0
LINE
8
annotation
62
1
39
211
10
11.407216
20
304.649670
11
11.488864
21
304.688504
0
LINE
8
annotation
62
1
39
211
10
11.488864
20
304.688504
11
11.562050
21
304.740297
0
LINE
8
annotation
62
1
39
211
10
11.562050
20
304.740297
11
11.625278
21
304.803563
0
LINE
8
annotation
62
1
39
211
10
11.625278
20
304.803563
11
11.677057
21
304.876817
0
LINE
8
annotation
62
1
39
211
10
11.677057
20
304.876817
11
11.715891
21
304.958574
0
LINE
8
annotation
62
1
39
211
10
11.715891
20
304.958574
11
11.740287
21
305.047349
0
LINE
8
annotation
62
1
39
211
10
11.740287
20
305.047349
11
11.748751
21
305.141655
0
LINE
8
annotation
62
1
39
211
10
11.748751
20
305.141655
11
11.748751
21
305.402814
0
LINE
8
annotation
62
1
39
211
10
11.748751
20
305.402814
11
11.748751
21
305.402814
0
LINE
8
annotation
62
1
39
211
10
11.748751
20
305.402814
11
11.740292
21
305.497075
0
LINE
8
annotation
62
1
39
211
10
11.740292
20
305.497075
11
11.715908
21
305.585727
0
LINE
8
annotation
62
1
39
211
10
11.715908
20
305.585727
11
11.677090
21
305.667307
0
LINE
8
annotation
62
1
39
211
10
11.677090
20
305.667307
11
11.625327
21
305.740351
0
LINE
8
annotation
62
1
39
211
10
11.625327
20
305.740351
11
11.562110
21
305.803396
0
LINE
8
annotation
62
1
39
211
10
11.562110
20
305.803396
11
11.488930
21
305.854979
0
LINE
8
annotation
62
1
39
211
10
11.488930
20
305.854979
11
11.407276
21
305.893635
0
LINE
8
annotation
62
1
39
211
10
11.407276
20
305.893635
11
11.318639
21
305.917902
0
LINE
8
annotation
62
1
39
211
10
11.318639
20
305.917902
11
11.224509
21
305.926316
0
LINE
8
annotation
62
1
39
211
10
11.224509
20
305.926316
11
10.700266
21
305.926316
0
LINE
8
annotation
62
1
39
211
10
10.700266
20
305.926316
11
10.700266
21
306.977614
0
LINE
8
annotation
62
1
39
211
10
10.700266
20
306.977614
11
11.748751
21
306.977614
0
LINE
8
annotation
62
1
39
211
10
24.025330
20
235.246069
11
20.974263
21
235.246069
0
LINE
8
annotation
62
1
39
211
10
20.974263
20
235.246069
11
24.025330
21
240.741021
0
LINE
8
annotation
62
1
39
211
10
24.025330
20
240.741021
11
20.974263
21
240.741021
0
LINE
8
annotation
62
1
39
211
10
29.091000
20
237.993545
11
26.086454
21
237.993545
0
LINE
8
annotation
62
1
39
211
10
32.372860
20
235.246069
11
33.594459
21
240.741021
0
LINE
8
annotation
62
1
39
211
10
33.594459
20
240.741021
11
31.150917
21
240.741021
0
LINE
8
annotation
62
1
39
211
10
33.594459
20
238.294034
11
32.372860
21
238.294034
0
LINE
8
boundary
62
5
39
2
10
129.071160
20
6.669757
11
129.647840
21
6.753551
0
LINE
8
boundary
62
5
39
2
10
129.647840
20
6.753551
11
130.181061
21
6.899269
0
LINE
8
boundary
62
5
39
2
10
130.181061
20
6.899269
11
130.897739
21
7.195754
0
LINE
8
boundary
62
5
39
2
10
130.897739
20
7.195754
11
131.494700
21
7.556140
0
LINE
8
boundary
62
5
39
2
10
131.494700
20
7.556140
11
132.083515
21
7.991015
0
LINE
8
boundary
62
5
39
2
10
132.083515
20
7.991015
11
132.486174
21
8.338094
0
LINE
8
boundary
62
5
39
2
10
132.486174
20
8.338094
11
133.231964
21
9.053265
0
LINE
8
boundary
62
5
39
2
10
133.231964
20
9.053265
11
133.894308
21
9.812168
0
LINE
8
boundary
62
5
39
2
10
133.894308
20
9.812168
11
134.512912
21
10.602141
0
LINE
8
boundary
62
5
39
2
10
134.512912
20
10.602141
11
134.970400
21
11.239427
0
LINE
8
boundary
62
5
39
2
10
134.970400
20
11.239427
11
135.615782
21
12.199623
0
LINE
8
boundary
62
5
39
2
10
135.615782
20
12.199623
11
136.424342
21
13.526837
0
LINE
8
boundary
62
5
39
2
10
136.424342
20
13.526837
11
136.723930
21
14.053979
0
LINE
8
boundary
62
5
39
2
10
136.723930
20
14.053979
11
137.083570
21
14.696491
0
LINE
8
boundary
62
5
39
2
10
137.083570
20
14.696491
11
137.641675
21
15.742923
0
LINE
8
boundary
62
5
39
2
10
137.641675
20
15.742923
11
138.051896
21
16.558787
0
LINE
8
boundary
62
5
39
2
10
138.051896
20
16.558787
11
138.568171
21
17.617072
0
LINE
8
boundary
62
5
39
2
10
138.568171
20
17.617072
11
139.304558
21
19.195337
0
LINE
8
boundary
62
5
39
2
10
139.304558
20
19.195337
11
139.864584
21
20.387794
0
LINE
8
boundary
62
5
39
2
10
139.864584
20
20.387794
11
140.411754
21
21.631023
0
LINE
8
boundary
62
5
39
2
10
140.411754
20
21.631023
11
140.880469
21
22.739401
0
LINE
8
boundary
62
5
39
2
10
140.880469
20
22.739401
11
141.335740
21
23.838753
0
LINE
8
boundary
62
5
39
2
10
141.335740
20
23.838753
11
141.537070
21
24.312401
0
LINE
8
boundary
62
5
39
2
10
141.537070
20
24.312401
11
141.795188
21
24.965566
0
LINE
8
boundary
62
5
39
2
10
141.795188
20
24.965566
11
142.111139
21
25.733349
0
LINE
8
boundary
62
5
39
2
10
142.111139
20
25.733349
11
142.692235
21
27.206659
0
LINE
8
boundary
62
5
39
2
10
142.692235
20
27.206659
11
143.195772
21
28.523005
0
LINE
8
boundary
62
5
39
2
10
143.195772
20
28.523005
11
143.667157
21
29.777307
0
LINE
8
boundary
62
5
39
2
10
143.667157
20
29.777307
11
143.886562
21
30.344241
0
LINE
8
boundary
62
5
39
2
10
143.886562
20
30.344241
11
144.141981
21
31.054189
0
LINE
8
boundary
62
5
39
2
10
144.141981
20
31.054189
11
144.494596
21
31.993199
0
LINE
8
boundary
62
5
39
2
10
144.494596
20
31.993199
11
145.076743
21
33.605736
0
LINE
8
boundary
62
5
39
2
10
145.076743
20
33.605736
11
145.582005
21
35.040436
0
LINE
8
boundary
62
5
39
2
10
145.582005
20
35.040436
11
146.064976
21
36.423765
0
LINE
8
boundary
62
5
39
2
10
146.064976
20
36.423765
11
146.373649
21
37.290214
0
LINE
8
boundary
62
5
39
2
10
146.373649
20
37.290214
11
146.550774
21
37.824591
0
LINE
8
boundary
62
5
39
2
10
146.550774
20
37.824591
11
147.014173
21
39.164046
0
LINE
8
boundary
62
5
39
2
10
147.014173
20
39.164046
11
147.641781
21
41.055398
0
LINE
8
boundary
62
5
39
2
10
147.641781
20
41.055398
11
147.888779
21
41.765775
0
LINE
8
boundary
62
5
39
2
10
147.888779
20
41.765775
11
148.241214
21
42.868397
0
LINE
8
boundary
62
5
39
2
10
148.241214
20
42.868397
11
148.773677
21
44.460543
0
LINE
8
boundary
62
5
39
2
10
148.773677
20
44.460543
11
148.995211
21
45.159752
0
LINE
8
boundary
62
5
39
2
10
148.995211
20
45.159752
11
149.443003
21
46.561330
0
LINE
8
boundary
62
5
39
2
10
149.443003
20
46.561330
11
149.678754
21
47.267518
0
LINE
8
boundary
62
5
39
2
10
149.678754
20
47.267518
11
150.040392
21
48.444062
0
LINE
8
boundary
62
5
39
2
10
150.040392
20
48.444062
11
150.595169
21
50.172675
0
LINE
8
boundary
62
5
39
2
10
150.595169
20
50.172675
11
151.125143
21
51.891970
0
LINE
8
boundary
62
5
39
2
10
151.125143
20
51.891970
11
151.298192
21
52.431134
0
LINE
8
boundary
62
5
39
2
10
151.298192
20
52.431134
11
151.615844
21
53.489533
0
LINE
8
boundary
62
5
39
2
10
151.615844
20
53.489533
11
152.007469
21
54.747006
0
LINE
8
boundary
62
5
39
2
10
152.007469
20
54.747006
11
152.332681
21
55.835917
0
LINE
8
boundary
62
5
39
2
10
152.332681
20
55.835917
11
152.599509
21
56.718661
0
LINE
8
boundary
62
5
39
2
10
152.599509
20
56.718661
11
153.089189
21
58.360106
0
LINE
8
boundary
62
5
39
2
10
153.089189
20
58.360106
11
153.460734
21
59.583853
0
LINE
8
boundary
62
5
39
2
10
153.460734
20
59.583853
11
153.821396
21
60.823147
0
LINE
8
boundary
62
5
39
2
10
153.821396
20
60.823147
11
154.071325
21
61.670304
0
LINE
8
boundary
62
5
39
2
10
154.071325
20
61.670304
11
154.560469
21
63.351093
0
LINE
8
boundary
62
5
39
2
10
154.560469
20
63.351093
11
154.962208
21
64.711398
0
LINE
8
boundary
62
5
39
2
10
154.962208
20
64.711398
11
155.213484
21
65.599303
0
LINE
8
boundary
62
5
39
2
10
155.213484
20
65.599303
11
155.541693
21
66.741368
0
LINE
8
boundary
62
5
39
2
10
155.541693
20
66.741368
11
155.737044
21
67.401548
0
LINE
8
boundary
62
5
39
2
10
155.737044
20
67.401548
11
156.031757
21
68.459134
0
LINE
8
boundary
62
5
39
2
10
156.031757
20
68.459134
11
156.522850
21
70.171934
0
LINE
8
boundary
62
5
39
2
10
156.522850
20
70.171934
11
157.015096
21
71.933253
0
LINE
8
boundary
62
5
39
2
10
157.015096
20
71.933253
11
157.338506
21
73.060293
0
LINE
8
boundary
62
5
39
2
10
157.338506
20
73.060293
11
157.508702
21
73.688303
0
LINE
8
boundary
62
5
39
2
10
157.508702
20
73.688303
11
157.764961
21
74.610059
0
LINE
8
boundary
62
5
39
2
10
157.764961
20
74.610059
11
158.003740
21
75.462399
0
LINE
8
boundary
62
5
39
2
10
158.003740
20
75.462399
11
158.173583
21
76.054337
0
LINE
8
boundary
62
5
39
2
10
158.173583
20
76.054337
11
158.499936
21
77.255366
0
LINE
8
boundary
62
5
39
2
10
158.499936
20
77.255366
11
158.957081
21
78.899053
0
LINE
8
boundary
62
5
39
2
10
158.957081
20
78.899053
11
159.502291
21
80.888392
0
LINE
8
boundary
62
5
39
2
10
159.502291
20
80.888392
11
159.934877
21
82.442170
0
LINE
8
boundary
62
5
39
2
10
159.934877
20
82.442170
11
160.103612
21
83.070486
0
LINE
8
boundary
62
5
39
2
10
160.103612
20
83.070486
11
160.521684
21
84.595598
0
LINE
8
boundary
62
5
39
2
10
160.521684
20
84.595598
11
160.880675
21
85.880843
0
LINE
8
boundary
62
5
39
2
10
160.880675
20
85.880843
11
161.039920
21
86.475419
0
LINE
8
boundary
62
5
39
2
10
161.039920
20
86.475419
11
161.225135
21
87.154464
0
LINE
8
boundary
62
5
39
2
10
161.225135
20
87.154464
11
161.565203
21
88.385750
0
LINE
8
boundary
62
5
39
2
10
161.565203
20
88.385750
11
161.879395
21
89.504687
0
LINE
8
boundary
62
5
39
2
10
161.879395
20
89.504687
11
162.098073
21
90.312755
0
LINE
8
boundary
62
5
39
2
10
162.098073
20
90.312755
11
162.334400
21
91.172160
0
LINE
8
boundary
62
5
39
2
10
162.334400
20
91.172160
11
162.640096
21
92.268898
0
LINE
8
boundary
62
5
39
2
10
162.640096
20
92.268898
11
162.944421
21
93.345143
0
LINE
8
boundary
62
5
39
2
10
162.944421
20
93.345143
11
163.191368
21
94.247048
0
LINE
8
boundary
62
5
39
2
10
163.191368
20
94.247048
11
163.438998
21
95.138982
0
LINE
8
boundary
62
5
39
2
10
163.438998
20
95.138982
11
163.753769
21
96.256494
0
LINE
8
boundary
62
5
39
2
10
163.753769
20
96.256494
11
164.092009
21
97.442728
0
LINE
8
boundary
62
5
39
2
10
164.092009
20
97.442728
11
164.306695
21
98.215548
0
LINE
8
boundary
62
5
39
2
10
164.306695
20
98.215548
11
164.546231
21
99.068548
0
LINE
8
boundary
62
5
39
2
10
164.546231
20
99.068548
11
164.841762
21
100.104074
0
LINE
8
boundary
62
5
39
2
10
164.841762
20
100.104074
11
165.127022
21
101.094350
0
LINE
8
boundary
62
5
39
2
10
165.127022
20
101.094350
11
165.388186
21
102.020110
0
LINE
8
boundary
62
5
39
2
10
165.388186
20
102.020110
11
165.658634
21
102.970210
0
LINE
8
boundary
62
5
39
2
10
165.658634
20
102.970210
11
165.948141
21
103.970450
0
LINE
8
boundary
62
5
39
2
10
165.948141
20
103.970450
11
166.249958
21
105.005388
0
LINE
8
boundary
62
5
39
2
10
166.249958
20
105.005388
11
166.521334
21
105.952727
0
LINE
8
boundary
62
5
39
2
10
166.521334
20
105.952727
11
166.781263
21
106.853530
0
LINE
8
boundary
62
5
39
2
10
166.781263
20
106.853530
11
166.994629
21
107.584183
0
LINE
8
boundary
62
5
39
2
10
166.994629
20
107.584183
11
167.348768
21
108.791173
0
LINE
8
boundary
62
5
39
2
10
167.348768
20
108.791173
11
167.783115
21
110.269710
0
LINE
8
boundary
62
5
39
2
10
167.783115
20
110.269710
11
168.185101
21
111.630553
0
LINE
8
boundary
62
5
39
2
10
168.185101
20
111.630553
11
168.490887
21
112.659457
0
LINE
8
boundary
62
5
39
2
10
168.490887
20
112.659457
11
168.848445
21
113.850891
0
LINE
8
boundary
62
5
39
2
10
168.848445
20
113.850891
11
169.031515
21
114.470423
0
LINE
8
boundary
62
5
39
2
10
169.031515
20
114.470423
11
169.516514
21
116.094283
0
LINE
8
boundary
62
5
39
2
10
169.516514
20
116.094283
11
170.008980
21
117.727489
0
LINE
8
boundary
62
5
39
2
10
170.008980
20
117.727489
11
170.229938
21
118.456447
0
LINE
8
boundary
62
5
39
2
10
170.229938
20
118.456447
11
170.508883
21
119.370292
0
LINE
8
boundary
62
5
39
2
10
170.508883
20
119.370292
11
170.821028
21
120.390125
0
LINE
8
boundary
62
5
39
2
10
170.821028
20
120.390125
11
171.016163
21
121.022906
0
LINE
8
boundary
62
5
39
2
10
171.016163
20
121.022906
11
171.418424
21
122.324799
0
LINE
8
boundary
62
5
39
2
10
171.418424
20
122.324799
11
172.021885
21
124.260485
0
LINE
8
boundary
62
5
39
2
10
172.021885
20
124.260485
11
172.259081
21
125.014448
0
LINE
8
boundary
62
5
39
2
10
172.259081
20
125.014448
11
172.579233
21
126.045998
0
LINE
8
boundary
62
5
39
2
10
172.579233
20
126.045998
11
173.159226
21
127.897346
0
LINE
8
boundary
62
5
39
2
10
173.159226
20
127.897346
11
173.753531
21
129.777925
0
LINE
8
boundary
62
5
39
2
10
173.753531
20
129.777925
11
173.984246
21
130.506905
0
LINE
8
boundary
62
5
39
2
10
173.984246
20
130.506905
11
174.357606
21
131.673099
0
LINE
8
boundary
62
5
39
2
10
174.357606
20
131.673099
11
174.674553
21
132.664903
0
LINE
8
boundary
62
5
39
2
10
174.674553
20
132.664903
11
174.971383
21
133.582600
0
LINE
8
boundary
62
5
39
2
10
174.971383
20
133.582600
11
175.372204
21
134.824873
0
LINE
8
boundary
62
5
39
2
10
175.372204
20
134.824873
11
175.594815
21
135.506178
0
LINE
8
boundary
62
5
39
2
10
175.594815
20
135.506178
11
176.077098
21
136.986730
0
LINE
8
boundary
62
5
39
2
10
176.077098
20
136.986730
11
176.789168
21
139.150398
0
LINE
8
boundary
62
5
39
2
10
176.789168
20
139.150398
11
177.508377
21
141.315843
0
LINE
8
boundary
62
5
39
2
10
177.508377
20
141.315843
11
177.672107
21
141.804214
0
LINE
8
boundary
62
5
39
2
10
177.672107
20
141.804214
11
178.183759
21
143.339986
0
LINE
8
boundary
62
5
39
2
10
178.183759
20
143.339986
11
178.854599
21
145.335615
0
LINE
8
boundary
62
5
39
2
10
178.854599
20
145.335615
11
179.535480
21
147.343623
0
LINE
8
boundary
62
5
39
2
10
179.535480
20
147.343623
11
179.699716
21
147.829240
0
LINE
8
boundary
62
5
39
2
10
179.699716
20
147.829240
11
180.226386
21
149.363648
0
LINE
8
boundary
62
5
39
2
10
180.226386
20
149.363648
11
180.445146
21
150.004319
0
LINE
8
boundary
62
5
39
2
10
180.445146
20
150.004319
11
180.927309
21
151.395296
0
LINE
8
boundary
62
5
39
2
10
180.927309
20
151.395296
11
181.198216
21
152.181152
0
LINE
8
boundary
62
5
39
2
10
181.198216
20
152.181152
11
181.638256
21
153.438207
0
LINE
8
boundary
62
5
39
2
10
181.638256
20
153.438207
11
181.958974
21
154.359717
0
LINE
8
boundary
62
5
39
2
10
181.958974
20
154.359717
11
182.359229
21
155.491993
0
LINE
8
boundary
62
5
39
2
10
182.359229
20
155.491993
11
182.727442
21
156.539931
0
LINE
8
boundary
62
5
39
2
10
182.727442
20
156.539931
11
183.425786
21
158.486553
0
LINE
8
boundary
62
5
39
2
10
183.425786
20
158.486553
11
184.287697
21
160.905192
0
LINE
8
boundary
62
5
39
2
10
184.287697
20
160.905192
11
184.859152
21
162.467643
0
LINE
8
boundary
62
5
39
2
10
184.859152
20
162.467643
11
185.879450
21
165.276835
0
LINE
8
boundary
62
5
39
2
10
185.879450
20
165.276835
11
186.338314
21
166.507661
0
LINE
8
boundary
62
5
39
2
10
186.338314
20
166.507661
11
187.503228
21
169.654900
0
LINE
8
boundary
62
5
39
2
10
187.503228
20
169.654900
11
187.863024
21
170.601883
0
LINE
8
boundary
62
5
39
2
10
187.863024
20
170.601883
11
189.159632
21
174.039658
0
LINE
8
boundary
62
5
39
2
10
189.159632
20
174.039658
11
189.432628
21
174.744861
0
LINE
8
boundary
62
5
39
2
10
189.432628
20
174.744861
11
190.849279
21
178.431543
0
LINE
8
boundary
62
5
39
2
10
190.849279
20
178.431543
11
191.045940
21
178.930278
0
LINE
8
boundary
62
5
39
2
10
191.045940
20
178.930278
11
192.572822
21
182.831231
0
LINE
8
boundary
62
5
39
2
10
192.572822
20
182.831231
11
194.330853
21
187.239541
0
LINE
8
boundary
62
5
39
2
10
194.330853
20
187.239541
11
196.123955
21
191.657463
0
LINE
8
boundary
62
5
39
2
10
196.123955
20
191.657463
11
197.895051
21
195.948032
0
LINE
8
boundary
62
5
39
2
10
197.895051
20
195.948032
11
200.027661
21
201.022167
0
LINE
8
boundary
62
5
39
2
10
200.027661
20
201.022167
11
202.200145
21
206.097149
0
LINE
8
boundary
62
5
39
2
10
202.200145
20
206.097149
11
202.490112
21
206.777295
0
LINE
8
boundary
62
5
39
2
10
202.490112
20
206.777295
11
204.390570
21
211.124989
0
LINE
8
boundary
62
5
39
2
10
204.390570
20
211.124989
11
204.838398
21
212.155392
0
LINE
8
boundary
62
5
39
2
10
204.838398
20
212.155392
11
206.585082
21
216.087559
0
LINE
8
boundary
62
5
39
2
10
206.585082
20
216.087559
11
207.232102
21
217.551917
0
LINE
8
boundary
62
5
39
2
10
207.232102
20
217.551917
11
208.767662
21
220.972281
0
LINE
8
boundary
62
5
39
2
10
208.767662
20
220.972281
11
209.651087
21
222.949830
0
LINE
8
boundary
62
5
39
2
10
209.651087
20
222.949830
11
210.923228
21
225.768735
0
LINE
8
boundary
62
5
39
2
10
210.923228
20
225.768735
11
212.074143
21
228.330841
0
LINE
8
boundary
62
5
39
2
10
212.074143
20
228.330841
11
213.038336
21
230.467539
0
LINE
8
boundary
62
5
39
2
10
213.038336
20
230.467539
11
214.480125
21
233.676566
0
LINE
8
boundary
62
5
39
2
10
214.480125
20
233.676566
11
215.101207
21
235.060441
0
LINE
8
boundary
62
5
39
2
10
215.101207
20
235.060441
11
216.847908
21
238.968518
0
LINE
8
boundary
62
5
39
2
10
216.847908
20
238.968518
11
218.394811
21
242.457451
0
LINE
8
boundary
62
5
39
2
10
218.394811
20
242.457451
11
219.733929
21
245.511795
0
LINE
8
boundary
62
5
39
2
10
219.733929
20
245.511795
11
221.032849
21
248.509185
0
LINE
8
boundary
62
5
39
2
10
221.032849
20
248.509185
11
221.387744
21
249.331998
0
LINE
8
boundary
62
5
39
2
10
221.387744
20
249.331998
11
222.289577
21
251.449597
0
LINE
8
boundary
62
5
39
2
10
222.289577
20
251.449597
11
222.819714
21
252.698653
0
LINE
8
boundary
62
5
39
2
10
222.819714
20
252.698653
11
223.350758
21
253.967002
0
LINE
8
boundary
62
5
39
2
10
223.350758
20
253.967002
11
223.860381
21
255.188231
0
LINE
8
boundary
62
5
39
2
10
223.860381
20
255.188231
11
224.264911
21
256.170978
0
LINE
8
boundary
62
5
39
2
10
224.264911
20
256.170978
11
224.869588
21
257.644864
0
LINE
8
boundary
62
5
39
2
10
224.869588
20
257.644864
11
225.150141
21
258.339823
0
LINE
8
boundary
62
5
39
2
10
225.150141
20
258.339823
11
225.844743
21
260.066267
0
LINE
8
boundary
62
5
39
2
10
225.844743
20
260.066267
11
226.783273
21
262.450215
0
LINE
8
boundary
62
5
39
2
10
226.783273
20
262.450215
11
227.153924
21
263.416142
0
LINE
8
boundary
62
5
39
2
10
227.153924
20
263.416142
11
227.619300
21
264.630168
0
LINE
8
boundary
62
5
39
2
10
227.619300
20
264.630168
11
228.374948
21
266.655151
0
LINE
8
boundary
62
5
39
2
10
228.374948
20
266.655151
11
229.094709
21
268.639889
0
LINE
8
boundary
62
5
39
2
10
229.094709
20
268.639889
11
229.355482
21
269.366795
0
LINE
8
boundary
62
5
39
2
10
229.355482
20
269.366795
11
229.777465
21
270.583608
0
LINE
8
boundary
62
5
39
2
10
229.777465
20
270.583608
11
230.122254
21
271.582233
0
LINE
8
boundary
62
5
39
2
10
230.122254
20
271.582233
11
230.422176
21
272.485745
0
LINE
8
boundary
62
5
39
2
10
230.422176
20
272.485745
11
230.839439
21
273.748778
0
LINE
8
boundary
62
5
39
2
10
230.839439
20
273.748778
11
231.027820
21
274.345744
0
LINE
8
boundary
62
5
39
2
10
231.027820
20
274.345744
11
231.504511
21
275.864284
0
LINE
8
boundary
62
5
39
2
10
231.504511
20
275.864284
11
232.115003
21
277.926722
0
LINE
8
boundary
62
5
39
2
10
232.115003
20
277.926722
11
232.595666
21
279.670157
0
LINE
8
boundary
62
5
39
2
10
232.595666
20
279.670157
11
233.028872
21
281.357649
0
LINE
8
boundary
62
5
39
2
10
233.028872
20
281.357649
11
233.162731
21
281.890117
0
LINE
8
boundary
62
5
39
2
10
233.162731
20
281.890117
11
233.416772
21
282.999511
0
LINE
8
boundary
62
5
39
2
10
233.416772
20
282.999511
11
233.594547
21
283.783524
0
LINE
8
boundary
62
5
39
2
10
233.594547
20
283.783524
11
233.758384
21
284.595497
0
LINE
8
boundary
62
5
39
2
10
233.758384
20
284.595497
11
233.961825
21
285.615646
0
LINE
8
boundary
62
5
39
2
10
233.961825
20
285.615646
11
234.245534
21
287.284525
0
LINE
8
boundary
62
5
39
2
10
234.245534
20
287.284525
11
234.556122
21
289.645725
0
LINE
8
boundary
62
5
39
2
10
234.556122
20
289.645725
11
234.619234
21
290.387538
0
LINE
8
boundary
62
5
39
2
10
234.619234
20
290.387538
11
234.733057
21
291.790123
0
LINE
8
boundary
62
5
39
2
10
234.733057
20
291.790123
11
234.798897
21
293.820627
0
LINE
8
boundary
62
5
39
2
10
234.798897
20
293.820627
11
234.778750
21
294.817668
0
LINE
8
boundary
62
5
39
2
10
234.778750
20
294.817668
11
234.762229
21
295.614376
0
LINE
8
boundary
62
5
39
2
10
234.762229
20
295.614376
11
234.648107
21
297.187314
0
LINE
8
boundary
62
5
39
2
10
234.648107
20
297.187314
11
234.464141
21
298.678805
0
LINE
8
boundary
62
5
39
2
10
234.464141
20
298.678805
11
234.385470
21
299.233880
0
LINE
8
boundary
62
5
39
2
10
234.385470
20
299.233880
11
234.213527
21
300.089585
0
LINE
8
boundary
62
5
39
2
10
234.213527
20
300.089585
11
234.064382
21
300.812361
0
LINE
8
boundary
62
5
39
2
10
234.064382
20
300.812361
11
233.899365
21
301.420199
0
LINE
8
boundary
62
5
39
2
10
233.899365
20
301.420199
11
233.661686
21
302.278710
0
LINE
8
boundary
62
5
39
2
10
233.661686
20
302.278710
11
233.183283
21
303.633340
0
LINE
8
boundary
62
5
39
2
10
233.183283
20
303.633340
11
232.635044
21
304.876663
0
LINE
8
boundary
62
5
39
2
10
232.635044
20
304.876663
11
232.364247
21
305.377674
0
LINE
8
boundary
62
5
39
2
10
232.364247
20
305.377674
11
232.061062
21
305.936739
0
LINE
8
boundary
62
5
39
2
10
232.061062
20
305.936739
11
231.465640
21
306.853197
0
LINE
8
boundary
62
5
39
2
10
231.465640
20
306.853197
11
230.824749
21
307.686644
0
LINE
8
boundary
62
5
39
2
10
230.824749
20
307.686644
11
230.141157
21
308.436034
0
LINE
8
boundary
62
5
39
2
10
230.141157
20
308.436034
11
229.417636
21
309.099896
0
LINE
8
boundary
62
5
39
2
10
229.417636
20
309.099896
11
228.657020
21
309.676551
0
LINE
8
boundary
62
5
39
2
10
228.657020
20
309.676551
11
228.193693
21
309.989041
0
LINE
8
boundary
62
5
39
2
10
228.193693
20
309.989041
11
227.315663
21
310.450876
0
LINE
8
boundary
62
5
39
2
10
227.315663
20
310.450876
11
226.413197
21
310.800926
0
LINE
8
boundary
62
5
39
2
10
226.413197
20
310.800926
11
225.491806
21
311.038915
0
LINE
8
boundary
62
5
39
2
10
225.491806
20
311.038915
11
224.556983
21
311.164535
0
LINE
8
boundary
62
5
39
2
10
224.556983
20
311.164535
11
223.614213
21
311.177433
0
LINE
8
boundary
62
5
39
2
10
223.614213
20
311.177433
11
222.668977
21
311.077253
0
LINE
8
boundary
62
5
39
2
10
222.668977
20
311.077253
11
221.726753
21
310.863590
0
LINE
8
boundary
62
5
39
2
10
221.726753
20
310.863590
11
220.793059
21
310.536121
0
LINE
8
boundary
62
5
39
2
10
220.793059
20
310.536121
11
219.872313
21
310.094716
0
LINE
8
boundary
62
5
39
2
10
219.872313
20
310.094716
11
218.964581
21
309.540152
0
LINE
8
boundary
62
5
39
2
10
218.964581
20
309.540152
11
218.068857
21
308.873461
0
LINE
8
boundary
62
5
39
2
10
218.068857
20
308.873461
11
217.184143
21
308.095686
0
LINE
8
boundary
62
5
39
2
10
217.184143
20
308.095686
11
216.309464
21
307.207868
0
LINE
8
boundary
62
5
39
2
10
216.309464
20
307.207868
11
215.443870
21
306.211073
0
LINE
8
boundary
62
5
39
2
10
215.443870
20
306.211073
11
215.075281
21
305.735475
0
LINE
8
boundary
62
5
39
2
10
215.075281
20
305.735475
11
214.586404
21
305.106364
0
LINE
8
boundary
62
5
39
2
10
214.586404
20
305.106364
11
214.133667
21
304.460347
0
LINE
8
boundary
62
5
39
2
10
214.133667
20
304.460347
11
213.736119
21
303.894793
0
LINE
8
boundary
62
5
39
2
10
213.736119
20
303.894793
11
213.187421
21
303.037368
0
LINE
8
boundary
62
5
39
2
10
213.187421
20
303.037368
11
212.892061
21
302.577363
0
LINE
8
boundary
62
5
39
2
10
212.892061
20
302.577363
11
212.235310
21
301.462896
0
LINE
8
boundary
62
5
39
2
10
212.235310
20
301.462896
11
211.276029
21
299.733297
0
LINE
8
boundary
62
5
39
2
10
211.276029
20
299.733297
11
210.871191
21
298.947949
0
LINE
8
boundary
62
5
39
2
10
210.871191
20
298.947949
11
210.385219
21
297.990037
0
LINE
8
boundary
62
5
39
2
10
210.385219
20
297.990037
11
210.129646
21
297.452897
0
LINE
8
boundary
62
5
39
2
10
210.129646
20
297.452897
11
221.939766
21
297.302897
0
LINE
8
boundary
62
5
39
2
10
221.939766
20
297.302897
11
221.939766
21
294.556897
0
LINE
8
boundary
62
5
39
2
10
221.939766
20
294.556897
11
208.795501
21
294.556896
0
LINE
8
boundary
62
5
39
2
10
208.795501
20
294.556896
11
208.331225
21
293.474460
0
LINE
8
boundary
62
5
39
2
10
208.331225
20
293.474460
11
207.884896
21
292.428897
0
LINE
8
boundary
62
5
39
2
10
207.884896
20
292.428897
11
207.321751
21
291.038604
0
LINE
8
boundary
62
5
39
2
10
207.321751
20
291.038604
11
207.050114
21
290.370931
0
LINE
8
boundary
62
5
39
2
10
207.050114
20
290.370931
11
206.295045
21
288.423250
0
LINE
8
boundary
62
5
39
2
10
206.295045
20
288.423250
11
205.875457
21
287.306298
0
LINE
8
boundary
62
5
39
2
10
205.875457
20
287.306298
11
205.365855
21
285.934694
0
LINE
8
boundary
62
5
39
2
10
205.365855
20
285.934694
11
204.723754
21
284.150304
0
LINE
8
boundary
62
5
39
2
10
204.723754
20
284.150304
11
204.518128
21
283.562648
0
LINE
8
boundary
62
5
39
2
10
204.518128
20
283.562648
11
204.078158
21
282.309715
0
LINE
8
boundary
62
5
39
2
10
204.078158
20
282.309715
11
203.747497
21
281.342782
0
LINE
8
boundary
62
5
39
2
10
203.747497
20
281.342782
11
203.428628
21
280.413467
0
LINE
8
boundary
62
5
39
2
10
203.428628
20
280.413467
11
202.965154
21
279.029089
0
LINE
8
boundary
62
5
39
2
10
202.965154
20
279.029089
11
202.823325
21
278.426143
0
LINE
8
boundary
62
5
39
2
10
202.823325
20
278.426143
11
217.010914
21
278.426143
0
LINE
8
boundary
62
5
39
2
10
217.010914
20
278.426143
11
217.010914
21
275.680143
0
LINE
8
boundary
62
5
39
2
10
217.010914
20
275.680143
11
201.865757
21
275.680143
0
LINE
8
boundary
62
5
39
2
10
201.865757
20
275.680143
11
201.443572
21
274.375302
0
LINE
8
boundary
62
5
39
2
10
201.443572
20
274.375302
11
200.759525
21
272.227025
0
LINE
8
boundary
62
5
39
2
10
200.759525
20
272.227025
11
200.455928
21
271.256769
0
LINE
8
boundary
62
5
39
2
10
200.455928
20
271.256769
11
200.065419
21
270.017474
0
LINE
8
boundary
62
5
39
2
10
200.065419
20
270.017474
11
199.790388
21
269.122641
0
LINE
8
boundary
62
5
39
2
10
199.790388
20
269.122641
11
199.376610
21
267.785678
0
LINE
8
boundary
62
5
39
2
10
199.376610
20
267.785678
11
198.761814
21
265.776661
0
LINE
8
boundary
62
5
39
2
10
198.761814
20
265.776661
11
198.128693
21
263.702652
0
LINE
8
boundary
62
5
39
2
10
198.128693
20
263.702652
11
197.946376
21
263.104705
0
LINE
8
boundary
62
5
39
2
10
197.946376
20
263.104705
11
197.564895
21
261.842035
0
LINE
8
boundary
62
5
39
2
10
197.564895
20
261.842035
11
197.215896
21
260.687485
0
LINE
8
boundary
62
5
39
2
10
197.215896
20
260.687485
11
196.999394
21
259.965168
0
LINE
8
boundary
62
5
39
2
10
196.999394
20
259.965168
11
210.597349
21
259.549389
0
LINE
8
boundary
62
5
39
2
10
210.597349
20
259.549389
11
210.597348
21
256.803389
0
LINE
8
boundary
62
5
39
2
10
210.597348
20
256.803389
11
196.051870
21
256.803389
0
LINE
8
boundary
62
5
39
2
10
196.051870
20
256.803389
11
195.854524
21
256.147006
0
LINE
8
boundary
62
5
39
2
10
195.854524
20
256.147006
11
195.271637
21
254.201072
0
LINE
8
boundary
62
5
39
2
10
195.271637
20
254.201072
11
194.962933
21
253.171436
0
LINE
8
boundary
62
5
39
2
10
194.962933
20
253.171436
11
194.687044
21
252.244557
0
LINE
8
boundary
62
5
39
2
10
194.687044
20
252.244557
11
194.195052
21
250.596499
0
LINE
8
boundary
62
5
39
2
10
194.195052
20
250.596499
11
193.799811
21
249.266840
0
LINE
8
boundary
62
5
39
2
10
193.799811
20
249.266840
11
193.505828
21
248.289520
0
LINE
8
boundary
62
5
39
2
10
193.505828
20
248.289520
11
192.901793
21
246.278811
0
LINE
8
boundary
62
5
39
2
10
192.901793
20
246.278811
11
192.618050
21
245.337898
0
LINE
8
boundary
62
5
39
2
10
192.618050
20
245.337898
11
192.295985
21
244.262895
0
LINE
8
boundary
62
5
39
2
10
192.295985
20
244.262895
11
191.819201
21
242.679687
0
LINE
8
boundary
62
5
39
2
10
191.819201
20
242.679687
11
191.274391
21
240.867011
0
LINE
8
boundary
62
5
39
2
10
191.274391
20
240.867011
11
203.680940
21
240.672635
0
LINE
8
boundary
62
5
39
2
10
203.680940
20
240.672635
11
203.680940
21
237.926636
0
LINE
8
boundary
62
5
39
2
10
203.680940
20
237.926636
11
190.376872
21
237.926635
0
LINE
8
boundary
62
5
39
2
10
190.376872
20
237.926635
11
190.184295
21
237.299632
0
LINE
8
boundary
62
5
39
2
10
190.184295
20
237.299632
11
189.817402
21
236.097662
0
LINE
8
boundary
62
5
39
2
10
189.817402
20
236.097662
11
189.356108
21
234.597630
0
LINE
8
boundary
62
5
39
2
10
189.356108
20
234.597630
11
189.186310
21
234.042239
0
LINE
8
boundary
62
5
39
2
10
189.186310
20
234.042239
11
188.640328
21
232.270122
0
LINE
8
boundary
62
5
39
2
10
188.640328
20
232.270122
11
187.898391
21
229.902047
0
LINE
8
boundary
62
5
39
2
10
187.898391
20
229.902047
11
187.668814
21
229.176136
0
LINE
8
boundary
62
5
39
2
10
187.668814
20
229.176136
11
186.853976
21
226.587645
0
LINE
8
boundary
62
5
39
2
10
186.853976
20
226.587645
11
185.825344
21
223.363955
0
LINE
8
boundary
62
5
39
2
10
185.825344
20
223.363955
11
185.575502
21
222.589492
0
LINE
8
boundary
62
5
39
2
10
185.575502
20
222.589492
11
185.376529
21
221.981973
0
LINE
8
boundary
62
5
39
2
10
185.376529
20
221.981973
11
196.473675
21
221.795881
0
LINE
8
boundary
62
5
39
2
10
196.473675
20
221.795881
11
196.473674
21
219.049881
0
LINE
8
boundary
62
5
39
2
10
196.473674
20
219.049881
11
184.417944
21
219.049882
0
LINE
8
boundary
62
5
39
2
10
184.417944
20
219.049882
11
184.254368
21
218.549542
0
LINE
8
boundary
62
5
39
2
10
184.254368
20
218.549542
11
183.037278
21
214.885056
0
LINE
8
boundary
62
5
39
2
10
183.037278
20
214.885056
11
182.734990
21
213.983070
0
LINE
8
boundary
62
5
39
2
10
182.734990
20
213.983070
11
181.768354
21
211.148937
0
LINE
8
boundary
62
5
39
2
10
181.768354
20
211.148937
11
181.252275
21
209.659282
0
LINE
8
boundary
62
5
39
2
10
181.252275
20
209.659282
11
180.585942
21
207.734250
0
LINE
8
boundary
62
5
39
2
10
180.585942
20
207.734250
11
179.469477
21
204.559249
0
LINE
8
boundary
62
5
39
2
10
179.469477
20
204.559249
11
179.211061
21
203.832806
0
LINE
8
boundary
62
5
39
2
10
179.211061
20
203.832806
11
178.934334
21
203.069128
0
LINE
8
boundary
62
5
39
2
10
178.934334
20
203.069128
11
189.115157
21
202.919128
0
LINE
8
boundary
62
5
39
2
10
189.115157
20
202.919128
11
189.115157
21
200.173128
0
LINE
8
boundary
62
5
39
2
10
189.115157
20
200.173128
11
177.881039
21
200.173128
0
LINE
8
boundary
62
5
39
2
10
177.881039
20
200.173128
11
177.660247
21
199.575261
0
LINE
8
boundary
62
5
39
2
10
177.660247
20
199.575261
11
177.141405
21
198.163981
0
LINE
8
boundary
62
5
39
2
10
177.141405
20
198.163981
11
176.758256
21
197.138696
0
LINE
8
boundary
62
5
39
2
10
176.758256
20
197.138696
11
176.374120
21
196.103487
0
LINE
8
boundary
62
5
39
2
10
176.374120
20
196.103487
11
175.860219
21
194.740947
0
LINE
8
boundary
62
5
39
2
10
175.860219
20
194.740947
11
175.604939
21
194.059635
0
LINE
8
boundary
62
5
39
2
10
175.604939
20
194.059635
11
174.966122
21
192.382078
0
LINE
8
boundary
62
5
39
2
10
174.966122
20
192.382078
11
174.075929
21
190.062062
0
LINE
8
boundary
62
5
39
2
10
174.075929
20
190.062062
11
173.349520
21
188.208613
0
LINE
8
boundary
62
5
39
2
10
173.349520
20
188.208613
11
172.644640
21
186.431429
0
LINE
8
boundary
62
5
39
2
10
172.644640
20
186.431429
11
172.282772
21
185.527377
0
LINE
8
boundary
62
5
39
2
10
172.282772
20
185.527377
11
171.935486
21
184.660021
0
LINE
8
boundary
62
5
39
2
10
171.935486
20
184.660021
11
171.756903
21
184.042374
0
LINE
8
boundary
62
5
39
2
10
171.756903
20
184.042374
11
181.650610
21
184.042374
0
LINE
8
boundary
62
5
39
2
10
181.650610
20
184.042374
11
181.650611
21
181.296374
0
LINE
8
boundary
62
5
39
2
10
181.650611
20
181.296374
11
170.571624
21
181.296374
0
LINE
8
boundary
62
5
39
2
10
170.571624
20
181.296374
11
169.779871
21
179.375034
0
LINE
8
boundary
62
5
39
2
10
169.779871
20
179.375034
11
169.051997
21
177.622821
0
LINE
8
boundary
62
5
39
2
10
169.051997
20
177.622821
11
168.735521
21
176.866742
0
LINE
8
boundary
62
5
39
2
10
168.735521
20
176.866742
11
168.117425
21
175.388379
0
LINE
8
boundary
62
5
39
2
10
168.117425
20
175.388379
11
167.275740
21
173.392311
0
LINE
8
boundary
62
5
39
2
10
167.275740
20
173.392311
11
167.016369
21
172.776444
0
LINE
8
boundary
62
5
39
2
10
167.016369
20
172.776444
11
166.165296
21
170.771661
0
LINE
8
boundary
62
5
39
2
10
166.165296
20
170.771661
11
165.907595
21
170.167234
0
LINE
8
boundary
62
5
39
2
10
165.907595
20
170.167234
11
164.793894
21
167.567584
0
LINE
8
boundary
62
5
39
2
10
164.793894
20
167.567584
11
164.391201
21
166.634241
0
LINE
8
boundary
62
5
39
2
10
164.391201
20
166.634241
11
163.825086
21
165.315620
0
LINE
8
boundary
62
5
39
2
10
163.825086
20
165.315620
11
174.105598
21
165.165620
0
LINE
8
boundary
62
5
39
2
10
174.105598
20
165.165620
11
174.105597
21
162.419620
0
LINE
8
boundary
62
5
39
2
10
174.105597
20
162.419620
11
162.576886
21
162.419620
0
LINE
8
boundary
62
5
39
2
10
162.576886
20
162.419620
11
161.569256
21
160.087596
0
LINE
8
boundary
62
5
39
2
10
161.569256
20
160.087596
11
161.047100
21
158.874691
0
LINE
8
boundary
62
5
39
2
10
161.047100
20
158.874691
11
160.361745
21
157.291961
0
LINE
8
boundary
62
5
39
2
10
160.361745
20
157.291961
11
159.274582
21
154.774282
0
LINE
8
boundary
62
5
39
2
10
159.274582
20
154.774282
11
158.811955
21
153.706630
0
LINE
8
boundary
62
5
39
2
10
158.811955
20
153.706630
11
158.201065
21
152.280114
0
LINE
8
boundary
62
5
39
2
10
158.201065
20
152.280114
11
157.464104
21
150.567155
0
LINE
8
boundary
62
5
39
2
10
157.464104
20
150.567155
11
157.143378
21
149.811516
0
LINE
8
boundary
62
5
39
2
10
157.143378
20
149.811516
11
156.139526
21
147.456230
0
LINE
8
boundary
62
5
39
2
10
156.139526
20
147.456230
11
155.708673
21
146.438867
0
LINE
8
boundary
62
5
39
2
10
155.708673
20
146.438867
11
166.733273
21
146.288866
0
LINE
8
boundary
62
5
39
2
10
166.733273
20
146.288866
11
166.733273
21
143.542867
0
LINE
8
boundary
62
5
39
2
10
166.733273
20
143.542867
11
154.481391
21
143.542867
0
LINE
8
boundary
62
5
39
2
10
154.481391
20
143.542867
11
153.847792
21
142.032569
0
LINE
8
boundary
62
5
39
2
10
153.847792
20
142.032569
11
153.540576
21
141.304187
0
LINE
8
boundary
62
5
39
2
10
153.540576
20
141.304187
11
153.113468
21
140.274713
0
LINE
8
boundary
62
5
39
2
10
153.113468
20
140.274713
11
152.906720
21
139.778578
0
LINE
8
boundary
62
5
39
2
10
152.906720
20
139.778578
11
152.530706
21
138.864691
0
LINE
8
boundary
62
5
39
2
10
152.530706
20
138.864691
11
152.279748
21
138.257165
0
LINE
8
boundary
62
5
39
2
10
152.279748
20
138.257165
11
151.955296
21
137.461530
0
LINE
8
boundary
62
5
39
2
10
151.955296
20
137.461530
11
151.659849
21
136.739584
0
LINE
8
boundary
62
5
39
2
10
151.659849
20
136.739584
11
151.387458
21
136.065191
0
LINE
8
boundary
62
5
39
2
10
151.387458
20
136.065191
11
151.047240
21
135.225484
0
LINE
8
boundary
62
5
39
2
10
151.047240
20
135.225484
11
150.827398
21
134.675620
0
LINE
8
boundary
62
5
39
2
10
150.827398
20
134.675620
11
150.442112
21
133.714530
0
LINE
8
boundary
62
5
39
2
10
150.442112
20
133.714530
11
149.844717
21
132.206430
0
LINE
8
boundary
62
5
39
2
10
149.844717
20
132.206430
11
149.255283
21
130.700898
0
LINE
8
boundary
62
5
39
2
10
149.255283
20
130.700898
11
148.674041
21
129.197655
0
LINE
8
boundary
62
5
39
2
10
148.674041
20
129.197655
11
148.141551
21
127.827103
0
LINE
8
boundary
62
5
39
2
10
148.141551
20
127.827103
11
159.843688
21
127.412113
0
LINE
8
boundary
62
5
39
2
10
159.843688
20
127.412113
11
159.843689
21
124.666113
0
LINE
8
boundary
62
5
39
2
10
159.843689
20
124.666113
11
146.934287
21
124.666112
0
LINE
8
boundary
62
5
39
2
10
146.934287
20
124.666112
11
146.607810
21
123.793347
0
LINE
8
boundary
62
5
39
2
10
146.607810
20
123.793347
11
146.387315
21
123.203426
0
LINE
8
boundary
62
5
39
2
10
146.387315
20
123.203426
11
146.113623
21
122.462062
0
LINE
8
boundary
62
5
39
2
10
146.113623
20
122.462062
11
145.835883
21
121.708737
0
LINE
8
boundary
62
5
39
2
10
145.835883
20
121.708737
11
145.627573
21
121.137180
0
LINE
8
boundary
62
5
39
2
10
145.627573
20
121.137180
11
145.292259
21
120.215378
0
LINE
8
boundary
62
5
39
2
10
145.292259
20
120.215378
11
144.756241
21
118.723240
0
LINE
8
boundary
62
5
39
2
10
144.756241
20
118.723240
11
144.227654
21
117.232330
0
LINE
8
boundary
62
5
39
2
10
144.227654
20
117.232330
11
143.750005
21
115.896790
0
LINE
8
boundary
62
5
39
2
10
143.750005
20
115.896790
11
143.288162
21
114.598444
0
LINE
8
boundary
62
5
39
2
10
143.288162
20
114.598444
11
142.832938
21
113.305769
0
LINE
8
boundary
62
5
39
2
10
142.832938
20
113.305769
11
142.644178
21
112.766056
0
LINE
8
boundary
62
5
39
2
10
142.644178
20
112.766056
11
142.384276
21
112.018856
0
LINE
8
boundary
62
5
39
2
10
142.384276
20
112.018856
11
142.128758
21
111.279936
0
LINE
8
boundary
62
5
39
2
10
142.128758
20
111.279936
11
141.802976
21
110.329337
0
LINE
8
boundary
62
5
39
2
10
141.802976
20
110.329337
11
141.244041
21
108.685359
0
LINE
8
boundary
62
5
39
2
10
141.244041
20
108.685359
11
153.639344
21
108.535359
0
LINE
8
boundary
62
5
39
2
10
153.639344
20
108.535359
11
153.639344
21
105.789359
0
LINE
8
boundary
62
5
39
2
10
153.639344
20
105.789359
11
140.258978
21
105.789359
0
LINE
8
boundary
62
5
39
2
10
140.258978
20
105.789359
11
139.559729
21
103.719427
0
LINE
8
boundary
62
5
39
2
10
139.559729
20
103.719427
11
139.120423
21
102.400581
0
LINE
8
boundary
62
5
39
2
10
139.120423
20
102.400581
11
138.844296
21
101.567998
0
LINE
8
boundary
62
5
39
2
10
138.844296
20
101.567998
11
138.156804
21
99.464209
0
LINE
8
boundary
62
5
39
2
10
138.156804
20
99.464209
11
137.452863
21
97.340812
0
LINE
8
boundary
62
5
39
2
10
137.452863
20
97.340812
11
137.192058
21
96.539994
0
LINE
8
boundary
62
5
39
2
10
137.192058
20
96.539994
11
136.775022
21
95.263251
0
LINE
8
boundary
62
5
39
2
10
136.775022
20
95.263251
11
136.255987
21
93.640173
0
LINE
8
boundary
62
5
39
2
10
136.255987
20
93.640173
11
135.819360
21
92.260905
0
LINE
8
boundary
62
5
39
2
10
135.819360
20
92.260905
11
135.447254
21
91.119179
0
LINE
8
boundary
62
5
39
2
10
135.447254
20
91.119179
11
135.028566
21
89.808605
0
LINE
8
boundary
62
5
39
2
10
135.028566
20
89.808605
11
147.891406
21
89.658605
0
LINE
8
boundary
62
5
39
2
10
147.891406
20
89.658605
11
147.891406
21
86.912605
0
LINE
8
boundary
62
5
39
2
10
147.891406
20
86.912605
11
134.115765
21
86.912605
0
LINE
8
boundary
62
5
39
2
10
134.115765
20
86.912605
11
133.570371
21
85.118442
0
LINE
8
boundary
62
5
39
2
10
133.570371
20
85.118442
11
133.173123
21
83.801830
0
LINE
8
boundary
62
5
39
2
10
133.173123
20
83.801830
11
132.909720
21
82.947504
0
LINE
8
boundary
62
5
39
2
10
132.909720
20
82.947504
11
132.735872
21
82.365193
0
LINE
8
boundary
62
5
39
2
10
132.735872
20
82.365193
11
132.426705
21
81.346112
0
LINE
8
boundary
62
5
39
2
10
132.426705
20
81.346112
11
132.022027
21
79.963594
0
LINE
8
boundary
62
5
39
2
10
132.022027
20
79.963594
11
131.565213
21
78.417943
0
LINE
8
boundary
62
5
39
2
10
131.565213
20
78.417943
11
131.317700
21
77.547305
0
LINE
8
boundary
62
5
39
2
10
131.317700
20
77.547305
11
130.979269
21
76.356177
0
LINE
8
boundary
62
5
39
2
10
130.979269
20
76.356177
11
130.837225
21
75.860138
0
LINE
8
boundary
62
5
39
2
10
130.837225
20
75.860138
11
130.517178
21
74.717387
0
LINE
8
boundary
62
5
39
2
10
130.517178
20
74.717387
11
130.266682
21
73.793262
0
LINE
8
boundary
62
5
39
2
10
130.266682
20
73.793262
11
129.912337
21
72.495210
0
LINE
8
boundary
62
5
39
2
10
129.912337
20
72.495210
11
129.649408
21
71.487814
0
LINE
8
boundary
62
5
39
2
10
129.649408
20
71.487814
11
129.503242
21
70.931851
0
LINE
8
boundary
62
5
39
2
10
129.503242
20
70.931851
11
142.606081
21
70.781851
0
LINE
8
boundary
62
5
39
2
10
142.606081
20
70.781851
11
142.606081
21
68.035851
0
LINE
8
boundary
62
5
39
2
10
142.606081
20
68.035851
11
128.772914
21
68.035851
0
LINE
8
boundary
62
5
39
2
10
128.772914
20
68.035851
11
128.590591
21
67.286016
0
LINE
8
boundary
62
5
39
2
10
128.590591
20
67.286016
11
128.472713
21
66.778929
0
LINE
8
boundary
62
5
39
2
10
128.472713
20
66.778929
11
128.273443
21
65.921459
0
LINE
8
boundary
62
5
39
2
10
128.273443
20
65.921459
11
128.136163
21
65.336686
0
LINE
8
boundary
62
5
39
2
10
128.136163
20
65.336686
11
127.989072
21
64.665061
0
LINE
8
boundary
62
5
39
2
10
127.989072
20
64.665061
11
127.724356
21
63.463635
0
LINE
8
boundary
62
5
39
2
10
127.724356
20
63.463635
11
127.559759
21
62.661103
0
LINE
8
boundary
62
5
39
2
10
127.559759
20
62.661103
11
127.352531
21
61.661919
0
LINE
8
boundary
62
5
39
2
10
127.352531
20
61.661919
11
127.194064
21
60.833317
0
LINE
8
boundary
62
5
39
2
10
127.194064
20
60.833317
11
126.948979
21
59.592439
0
LINE
8
boundary
62
5
39
2
10
126.948979
20
59.592439
11
126.837740
21
58.948355
0
LINE
8
boundary
62
5
39
2
10
126.837740
20
58.948355
11
126.607567
21
57.610767
0
LINE
8
boundary
62
5
39
2
10
126.607567
20
57.610767
11
126.368601
21
56.254700
0
LINE
8
boundary
62
5
39
2
10
126.368601
20
56.254700
11
126.268581
21
55.602964
0
LINE
8
boundary
62
5
39
2
10
126.268581
20
55.602964
11
126.086362
21
54.412006
0
LINE
8
boundary
62
5
39
2
10
126.086362
20
54.412006
11
125.872237
21
53.103170
0
LINE
8
boundary
62
5
39
2
10
125.872237
20
53.103170
11
125.790601
21
52.544366
0
LINE
8
boundary
62
5
39
2
10
125.790601
20
52.544366
11
125.725047
21
51.905097
0
LINE
8
boundary
62
5
39
2
10
125.725047
20
51.905097
11
138.083388
21
51.905098
0
LINE
8
boundary
62
5
39
2
10
138.083388
20
51.905098
11
138.083388
21
49.159097
0
LINE
8
boundary
62
5
39
2
10
138.083388
20
49.159097
11
125.291421
21
49.159097
0
LINE
8
boundary
62
5
39
2
10
125.291421
20
49.159097
11
125.178764
21
48.381599
0
LINE
8
boundary
62
5
39
2
10
125.178764
20
48.381599
11
125.063386
21
47.587712
0
LINE
8
boundary
62
5
39
2
10
125.063386
20
47.587712
11
124.987339
21
47.075317
0
LINE
8
boundary
62
5
39
2
10
124.987339
20
47.075317
11
124.857240
21
46.140529
0
LINE
8
boundary
62
5
39
2
10
124.857240
20
46.140529
11
124.748813
21
45.378470
0
LINE
8
boundary
62
5
39
2
10
124.748813
20
45.378470
11
124.646590
21
44.656641
0
LINE
8
boundary
62
5
39
2
10
124.646590
20
44.656641
11
124.521374
21
43.782878
0
LINE
8
boundary
62
5
39
2
10
124.521374
20
43.782878
11
124.401592
21
42.941874
0
LINE
8
boundary
62
5
39
2
10
124.401592
20
42.941874
11
124.287715
21
42.142489
0
LINE
8
boundary
62
5
39
2
10
124.287715
20
42.142489
11
124.149595
21
41.158433
0
LINE
8
boundary
62
5
39
2
10
124.149595
20
41.158433
11
124.017335
21
40.201445
0
LINE
8
boundary
62
5
39
2
10
124.017335
20
40.201445
11
123.882579
21
39.202059
0
LINE
8
boundary
62
5
39
2
10
123.882579
20
39.202059
11
123.794788
21
38.546196
0
LINE
8
boundary
62
5
39
2
10
123.794788
20
38.546196
11
123.643227
21
37.343851
0
LINE
8
boundary
62
5
39
2
10
123.643227
20
37.343851
11
123.453151
21
35.731639
0
LINE
8
boundary
62
5
39
2
10
123.453151
20
35.731639
11
123.277441
21
34.106739
0
LINE
8
boundary
62
5
39
2
10
123.277441
20
34.106739
11
123.187566
21
33.178342
0
LINE
8
boundary
62
5
39
2
10
123.187566
20
33.178342
11
133.775362
21
33.028344
0
LINE
8
boundary
62
5
39
2
10
133.775362
20
33.028344
11
133.775362
21
30.282344
0
LINE
8
boundary
62
5
39
2
10
133.775362
20
30.282344
11
122.938397
21
30.282344
0
LINE
8
boundary
62
5
39
2
10
122.938397
20
30.282344
11
122.888977
21
29.593633
0
LINE
8
boundary
62
5
39
2
10
122.888977
20
29.593633
11
122.792989
21
28.074693
0
LINE
8
boundary
62
5
39
2
10
122.792989
20
28.074693
11
122.757203
21
27.470464
0
LINE
8
boundary
62
5
39
2
10
122.757203
20
27.470464
11
122.682893
21
25.795470
0
LINE
8
boundary
62
5
39
2
10
122.682893
20
25.795470
11
122.647395
21
24.425918
0
LINE
8
boundary
62
5
39
2
10
122.647395
20
24.425918
11
122.634462
21
23.743375
0
LINE
8
boundary
62
5
39
2
10
122.634462
20
23.743375
11
122.628733
21
23.174704
0
LINE
8
boundary
62
5
39
2
10
122.628733
20
23.174704
11
122.626630
21
22.485812
0
LINE
8
boundary
62
5
39
2
10
122.626630
20
22.485812
11
122.632291
21
21.861457
0
LINE
8
boundary
62
5
39
2
10
122.632291
20
21.861457
11
122.641684
21
21.275685
0
LINE
8
boundary
62
5
39
2
10
122.641684
20
21.275685
11
122.664122
21
20.490831
0
LINE
8
boundary
62
5
39
2
10
122.664122
20
20.490831
11
122.695503
21
19.703070
0
LINE
8
boundary
62
5
39
2
10
122.695503
20
19.703070
11
122.725101
21
19.153061
0
LINE
8
boundary
62
5
39
2
10
122.725101
20
19.153061
11
122.762300
21
18.561586
0
LINE
8
boundary
62
5
39
2
10
122.762300
20
18.561586
11
122.818367
21
17.849385
0
LINE
8
boundary
62
5
39
2
10
122.818367
20
17.849385
11
122.888666
21
17.097652
0
LINE
8
boundary
62
5
39
2
10
122.888666
20
17.097652
11
122.967392
21
16.395590
0
LINE
8
boundary
62
5
39
2
10
122.967392
20
16.395590
11
123.057688
21
15.712089
0
LINE
8
boundary
62
5
39
2
10
123.057688
20
15.712089
11
123.158728
21
15.050415
0
LINE
8
boundary
62
5
39
2
10
123.158728
20
15.050415
11
123.269287
21
14.414961
0
LINE
8
boundary
62
5
39
2
10
123.269287
20
14.414961
11
129.878383
21
14.151590
0
LINE
8
boundary
62
5
39
2
10
129.878383
20
14.151590
11
129.878383
21
11.405590
0
LINE
8
boundary
62
5
39
2
10
129.878383
20
11.405590
11
124.122549
21
11.405590
0
LINE
8
boundary
62
5
39
2
10
124.122549
20
11.405590
11
124.309787
21
10.731238
0
LINE
8
boundary
62
5
39
2
10
124.309787
20
10.731238
11
124.625701
21
10.028838
0
LINE
8
boundary
62
5
39
2
10
124.625701
20
10.028838
11
124.932930
21
9.457934
0
LINE
8
boundary
62
5
39
2
10
124.932930
20
9.457934
11
125.258175
21
8.939508
0
LINE
8
boundary
62
5
39
2
10
125.258175
20
8.939508
11
125.562222
21
8.523119
0
LINE
8
boundary
62
5
39
2
10
125.562222
20
8.523119
11
125.947327
21
8.076178
0
LINE
8
boundary
62
5
39
2
10
125.947327
20
8.076178
11
126.564623
21
7.517004
0
LINE
8
boundary
62
5
39
2
10
126.564623
20
7.517004
11
127.064023
21
7.168996
0
LINE
8
boundary
62
5
39
2
10
127.064023
20
7.168996
11
127.565521
21
6.933400
0
LINE
8
boundary
62
5
39
2
10
127.565521
20
6.933400
11
128.076884
21
6.771563
0
LINE
8
boundary
62
5
39
2
10
128.076884
20
6.771563
11
128.598020
21
6.681004
0
LINE
8
boundary
62
5
39
2
10
128.598020
20
6.681004
11
129.071160
21
6.669757
0
LINE
8
annotation
62
1
39
211
10
134.287105
20
11.205656
11
134.287105
21
14.351524
0
LINE
8
annotation
62
1
39
211
10
134.287105
20
14.351524
11
133.587739
21
13.651960
0
LINE
8
annotation
62
1
39
211
10
140.967657
20
29.255305
11
138.835862
21
29.255305
0
LINE
8
annotation
62
1
39
211
10
138.835862
20
29.255305
11
140.805711
21
32.426507
0
LINE
8
annotation
62
1
39
211
10
140.805711
20
32.426507
11
140.805711
21
32.426507
0
LINE
8
annotation
62
1
39
211
10
140.805711
20
32.426507
11
140.808065
21
32.429421
0
LINE
8
annotation
62
1
39
211
10
140.808065
20
32.429421
11
140.810324
21
32.432360
0
LINE
8
annotation
62
1
39
211
10
140.810324
20
32.432360
11
140.812500
21
32.435348
0
LINE
8
annotation
62
1
39
211
10
140.812500
20
32.435348
11
140.814610
21
32.438411
0
LINE
8
annotation
62
1
39
211
10
140.814610
20
32.438411
11
140.816667
21
32.441573
0
LINE
8
annotation
62
1
39
211
10
140.816667
20
32.441573
11
140.818688
21
32.444858
0
LINE
8
annotation
62
1
39
211
10
140.818688
20
32.444858
11
140.820686
21
32.448292
0
LINE
8
annotation
62
1
39
211
10
140.820686
20
32.448292
11
140.822677
21
32.451900
0
LINE
8
annotation
62
1
39
211
10
140.822677
20
32.451900
11
140.824675
21
32.455706
0
LINE
8
annotation
62
1
39
211
10
140.824675
20
32.455706
11
140.824675
21
32.455706
0
LINE
8
annotation
62
1
39
211
10
140.824675
20
32.455706
11
140.906009
21
32.630338
0
LINE
8
annotation
62
1
39
211
10
140.906009
20
32.630338
11
140.953523
21
32.811360
0
LINE
8
annotation
62
1
39
211
10
140.953523
20
32.811360
11
140.968382
21
32.994681
0
LINE
8
annotation
62
1
39
211
10
140.968382
20
32.994681
11
140.951749
21
33.176210
0
LINE
8
annotation
62
1
39
211
10
140.951749
20
33.176210
11
140.904789
21
33.351858
0
LINE
8
annotation
62
1
39
211
10
140.904789
20
33.351858
11
140.828666
21
33.517534
0
LINE
8
annotation
62
1
39
211
10
140.828666
20
33.517534
11
140.724545
21
33.669148
0
LINE
8
annotation
62
1
39
211
10
140.724545
20
33.669148
11
140.593590
21
33.802609
0
LINE
8
annotation
62
1
39
211
10
140.593590
20
33.802609
11
140.436966
21
33.913827
0
LINE
8
annotation
62
1
39
211
10
140.436966
20
33.913827
11
140.436966
21
33.913827
0
LINE
8
annotation
62
1
39
211
10
140.436966
20
33.913827
11
140.261848
21
33.994006
0
LINE
8
annotation
62
1
39
211
10
140.261848
20
33.994006
11
140.080549
21
34.040788
0
LINE
8
annotation
62
1
39
211
10
140.080549
20
34.040788
11
139.897122
21
34.055227
0
LINE
8
annotation
62
1
39
211
10
139.897122
20
34.055227
11
139.715620
21
34.038374
0
LINE
8
annotation
62
1
39
211
10
139.715620
20
34.038374
11
139.540096
21
33.991284
0
LINE
8
annotation
62
1
39
211
10
139.540096
20
33.991284
11
139.374603
21
33.915009
0
LINE
8
annotation
62
1
39
211
10
139.374603
20
33.915009
11
139.223195
21
33.810602
0
LINE
8
annotation
62
1
39
211
10
139.223195
20
33.810602
11
139.089924
21
33.679116
0
LINE
8
annotation
62
1
39
211
10
139.089924
20
33.679116
11
138.978845
21
33.521603
0
LINE
8
annotation
62
1
39
211
10
138.978845
20
33.521603
11
138.838873
21
33.253097
0
LINE
8
annotation
62
1
39
211
10
143.143889
20
48.132248
11
144.209786
21
48.132248
0
LINE
8
annotation
62
1
39
211
10
144.209786
20
48.132248
11
144.209786
21
48.132248
0
LINE
8
annotation
62
1
39
211
10
144.209786
20
48.132248
11
144.401490
21
48.149445
0
LINE
8
annotation
62
1
39
211
10
144.401490
20
48.149445
11
144.581877
21
48.199008
0
LINE
8
annotation
62
1
39
211
10
144.581877
20
48.199008
11
144.747947
21
48.277895
0
LINE
8
annotation
62
1
39
211
10
144.747947
20
48.277895
11
144.896699
21
48.383063
0
LINE
8
annotation
62
1
39
211
10
144.896699
20
48.383063
11
145.025133
21
48.511470
0
LINE
8
annotation
62
1
39
211
10
145.025133
20
48.511470
11
145.130248
21
48.660074
0
LINE
8
annotation
62
1
39
211
10
145.130248
20
48.660074
11
145.209046
21
48.825832
0
LINE
8
annotation
62
1
39
211
10
145.209046
20
48.825832
11
145.258524
21
49.005701
0
LINE
8
annotation
62
1
39
211
10
145.258524
20
49.005701
11
145.275684
21
49.196640
0
LINE
8
annotation
62
1
39
211
10
145.275684
20
49.196640
11
145.275684
21
49.730342
0
LINE
8
annotation
62
1
39
211
10
145.275684
20
49.730342
11
145.275684
21
49.730342
0
LINE
8
annotation
62
1
39
211
10
145.275684
20
49.730342
11
145.258524
21
49.921201
0
LINE
8
annotation
62
1
39
211
10
145.258524
20
49.921201
11
145.209046
21
50.101029
0
LINE
8
annotation
62
1
39
211
10
145.209046
20
50.101029
11
145.130248
21
50.266774
0
LINE
8
annotation
62
1
39
211
10
145.130248
20
50.266774
11
145.025133
21
50.415388
0
LINE
8
annotation
62
1
39
211
10
145.025133
20
50.415388
11
144.896699
21
50.543820
0
LINE
8
annotation
62
1
39
211
10
144.896699
20
50.543820
11
144.747947
21
50.649020
0
LINE
8
annotation
62
1
39
211
10
144.747947
20
50.649020
11
144.581877
21
50.727939
0
LINE
8
annotation
62
1
39
211
10
144.581877
20
50.727939
11
144.401490
21
50.777527
0
LINE
8
annotation
62
1
39
211
10
144.401490
20
50.777527
11
144.209786
21
50.794734
0
LINE
8
annotation
62
1
39
211
10
144.209786
20
50.794734
11
143.676085
21
50.794734
0
LINE
8
annotation
62
1
39
211
10
143.676085
20
50.794734
11
144.209786
21
50.794734
0
LINE
8
annotation
62
1
39
211
10
144.209786
20
50.794734
11
144.209786
21
50.794734
0
LINE
8
annotation
62
1
39
211
10
144.209786
20
50.794734
11
144.401490
21
50.811945
0
LINE
8
annotation
62
1
39
211
10
144.401490
20
50.811945
11
144.581877
21
50.861562
0
LINE
8
annotation
62
1
39
211
10
144.581877
20
50.861562
11
144.747947
21
50.940559
0
LINE
8
annotation
62
1
39
211
10
144.747947
20
50.940559
11
144.896699
21
51.045912
0
LINE
8
annotation
62
1
39
211
10
144.896699
20
51.045912
11
145.025133
21
51.174596
0
LINE
8
annotation
62
1
39
211
10
145.025133
20
51.174596
11
145.130248
21
51.323585
0
LINE
8
annotation
62
1
39
211
10
145.130248
20
51.323585
11
145.209046
21
51.489855
0
LINE
8
annotation
62
1
39
211
10
145.209046
20
51.489855
11
145.258524
21
51.670381
0
LINE
8
annotation
62
1
39
211
10
145.258524
20
51.670381
11
145.275684
21
51.862136
0
LINE
8
annotation
62
1
39
211
10
145.275684
20
51.862136
11
145.275684
21
51.862136
0
LINE
8
annotation
62
1
39
211
10
145.275684
20
51.862136
11
145.258524
21
52.052996
0
LINE
8
annotation
62
1
39
211
10
145.258524
20
52.052996
11
145.209046
21
52.232824
0
LINE
8
annotation
62
1
39
211
10
145.209046
20
52.232824
11
145.130248
21
52.398569
0
LINE
8
annotation
62
1
39
211
10
145.130248
20
52.398569
11
145.025133
21
52.547183
0
LINE
8
annotation
62
1
39
211
10
145.025133
20
52.547183
11
144.896699
21
52.675614
0
LINE
8
annotation
62
1
39
211
10
144.896699
20
52.675614
11
144.747947
21
52.780815
0
LINE
8
annotation
62
1
39
211
10
144.747947
20
52.780815
11
144.581877
21
52.859734
0
LINE
8
annotation
62
1
39
211
10
144.581877
20
52.859734
11
144.401490
21
52.909322
0
LINE
8
annotation
62
1
39
211
10
144.401490
20
52.909322
11
144.209786
21
52.926529
0
LINE
8
annotation
62
1
39
211
10
144.209786
20
52.926529
11
143.143889
21
52.926529
0
LINE
8
annotation
62
1
39
211
10
150.065076
20
68.075953
11
147.399881
21
68.075953
0
LINE
8
annotation
62
1
39
211
10
147.399881
20
68.075953
11
148.464273
21
71.808851
0
LINE
8
annotation
62
1
39
211
10
149.266180
20
67.008851
11
149.266180
21
69.140646
0
LINE
8
annotation
62
1
39
211
10
152.951907
20
85.885605
11
154.017805
21
85.885605
0
LINE
8
annotation
62
1
39
211
10
154.017805
20
85.885605
11
154.017805
21
85.885605
0
LINE
8
annotation
62
1
39
211
10
154.017805
20
85.885605
11
154.209112
21
85.902806
0
LINE
8
annotation
62
1
39
211
10
154.209112
20
85.902806
11
154.389289
21
85.952395
0
LINE
8
annotation
62
1
39
211
10
154.389289
20
85.952395
11
154.555296
21
86.031352
0
LINE
8
annotation
62
1
39
211
10
154.555296
20
86.031352
11
154.704098
21
86.136658
0
LINE
8
annotation
62
1
39
211
10
154.704098
20
86.136658
11
154.832655
21
86.265292
0
LINE
8
annotation
62
1
39
211
10
154.832655
20
86.265292
11
154.937932
21
86.414234
0
LINE
8
annotation
62
1
39
211
10
154.937932
20
86.414234
11
155.016890
21
86.580463
0
LINE
8
annotation
62
1
39
211
10
155.016890
20
86.580463
11
155.066493
21
86.760961
0
LINE
8
annotation
62
1
39
211
10
155.066493
20
86.760961
11
155.083702
21
86.952706
0
LINE
8
annotation
62
1
39
211
10
155.083702
20
86.952706
11
155.083702
21
87.483699
0
LINE
8
annotation
62
1
39
211
10
155.083702
20
87.483699
11
155.083702
21
87.483699
0
LINE
8
annotation
62
1
39
211
10
155.083702
20
87.483699
11
155.066503
21
87.675351
0
LINE
8
annotation
62
1
39
211
10
155.066503
20
87.675351
11
155.016925
21
87.855600
0
LINE
8
annotation
62
1
39
211
10
155.016925
20
87.855600
11
154.937999
21
88.021469
0
LINE
8
annotation
62
1
39
211
10
154.937999
20
88.021469
11
154.832755
21
88.169984
0
LINE
8
annotation
62
1
39
211
10
154.832755
20
88.169984
11
154.704222
21
88.298168
0
LINE
8
annotation
62
1
39
211
10
154.704222
20
88.298168
11
154.555430
21
88.403046
0
LINE
8
annotation
62
1
39
211
10
154.555430
20
88.403046
11
154.389410
21
88.481643
0
LINE
8
annotation
62
1
39
211
10
154.389410
20
88.481643
11
154.209192
21
88.530983
0
LINE
8
annotation
62
1
39
211
10
154.209192
20
88.530983
11
154.017805
21
88.548091
0
LINE
8
annotation
62
1
39
211
10
154.017805
20
88.548091
11
152.951907
21
88.548091
0
LINE
8
annotation
62
1
39
211
10
152.951907
20
88.548091
11
152.951907
21
90.685605
0
LINE
8
annotation
62
1
39
211
10
152.951907
20
90.685605
11
155.083702
21
90.685605
0
LINE
8
annotation
62
1
39
211
10
160.300949
20
109.562359
11
160.300949
21
109.562359
0
LINE
8
annotation
62
1
39
211
10
160.300949
20
109.562359
11
159.995596
21
109.447870
0
LINE
8
annotation
62
1
39
211
10
159.995596
20
109.447870
11
159.715395
21
109.293610
0
LINE
8
annotation
62
1
39
211
10
159.715395
20
109.293610
11
159.463221
21
109.103443
0
LINE
8
annotation
62
1
39
211
10
159.463221
20
109.103443
11
159.241952
21
108.881235
0
LINE
8
annotation
62
1
39
211
10
159.241952
20
108.881235
11
159.054464
21
108.630851
0
LINE
8
annotation
62
1
39
211
10
159.054464
20
108.630851
11
158.903633
21
108.356155
0
LINE
8
annotation
62
1
39
211
10
158.903633
20
108.356155
11
158.792335
21
108.061012
0
LINE
8
annotation
62
1
39
211
10
158.792335
20
108.061012
11
158.723447
21
107.749287
0
LINE
8
annotation
62
1
39
211
10
158.723447
20
107.749287
11
158.699845
21
107.424845
0
LINE
8
annotation
62
1
39
211
10
158.699845
20
107.424845
11
158.699845
21
105.829460
0
LINE
8
annotation
62
1
39
211
10
158.699845
20
105.829460
11
158.699845
21
105.829460
0
LINE
8
annotation
62
1
39
211
10
158.699845
20
105.829460
11
158.717054
21
105.637715
0
LINE
8
annotation
62
1
39
211
10
158.717054
20
105.637715
11
158.766656
21
105.457217
0
LINE
8
annotation
62
1
39
211
10
158.766656
20
105.457217
11
158.845615
21
105.290987
0
LINE
8
annotation
62
1
39
211
10
158.845615
20
105.290987
11
158.950891
21
105.142046
0
LINE
8
annotation
62
1
39
211
10
158.950891
20
105.142046
11
159.079449
21
105.013412
0
LINE
8
annotation
62
1
39
211
10
159.079449
20
105.013412
11
159.228250
21
104.908106
0
LINE
8
annotation
62
1
39
211
10
159.228250
20
104.908106
11
159.394258
21
104.829149
0
LINE
8
annotation
62
1
39
211
10
159.394258
20
104.829149
11
159.574434
21
104.779560
0
LINE
8
annotation
62
1
39
211
10
159.574434
20
104.779560
11
159.765742
21
104.762359
0
LINE
8
annotation
62
1
39
211
10
159.765742
20
104.762359
11
159.765742
21
104.762359
0
LINE
8
annotation
62
1
39
211
10
159.765742
20
104.762359
11
159.957446
21
104.779560
0
LINE
8
annotation
62
1
39
211
10
159.957446
20
104.779560
11
160.137833
21
104.829149
0
LINE
8
annotation
62
1
39
211
10
160.137833
20
104.829149
11
160.303903
21
104.908106
0
LINE
8
annotation
62
1
39
211
10
160.303903
20
104.908106
11
160.452655
21
105.013412
0
LINE
8
annotation
62
1
39
211
10
160.452655
20
105.013412
11
160.581089
21
105.142046
0
LINE
8
annotation
62
1
39
211
10
160.581089
20
105.142046
11
160.686204
21
105.290987
0
LINE
8
annotation
62
1
39
211
10
160.686204
20
105.290987
11
160.765002
21
105.457217
0
LINE
8
annotation
62
1
39
211
10
160.765002
20
105.457217
11
160.814480
21
105.637715
0
LINE
8
annotation
62
1
39
211
10
160.814480
20
105.637715
11
160.831640
21
105.829460
0
LINE
8
annotation
62
1
39
211
10
160.831640
20
105.829460
11
160.831640
21
106.360452
0
LINE
8
annotation
62
1
39
211
10
160.831640
20
106.360452
11
160.831640
21
106.360452
0
LINE
8
annotation
62
1
39
211
10
160.831640
20
106.360452
11
160.814480
21
106.552105
0
LINE
8
annotation
62
1
39
211
10
160.814480
20
106.552105
11
160.765002
21
106.732354
0
LINE
8
annotation
62
1
39
211
10
160.765002
20
106.732354
11
160.686204
21
106.898223
0
LINE
8
annotation
62
1
39
211
10
160.686204
20
106.898223
11
160.581089
21
107.046737
0
LINE
8
annotation
62
1
39
211
10
160.581089
20
107.046737
11
160.452655
21
107.174921
0
LINE
8
annotation
62
1
39
211
10
160.452655
20
107.174921
11
160.303903
21
107.279800
0
LINE
8
annotation
62
1
39
211
10
160.303903
20
107.279800
11
160.137833
21
107.358397
0
LINE
8
annotation
62
1
39
211
10
160.137833
20
107.358397
11
159.957446
21
107.407737
0
LINE
8
annotation
62
1
39
211
10
159.957446
20
107.407737
11
159.765742
21
107.424845
0
LINE
8
annotation
62
1
39
211
10
159.765742
20
107.424845
11
158.699845
21
107.424845
0
LINE
8
annotation
62
1
39
211
10
158.566344
20
104.162359
11
160.966344
21
104.162359
0
LINE
8
annotation
62
1
39
211
10
165.970086
20
123.639113
11
167.037188
21
128.439113
0
LINE
8
annotation
62
1
39
211
10
167.037188
20
128.439113
11
164.902684
21
128.439113
0
LINE
8
annotation
62
1
39
211
10
167.037188
20
126.301599
11
165.970086
21
126.301599
0
LINE
8
annotation
62
1
39
211
10
171.793773
20
143.580108
11
171.793773
21
143.580108
0
LINE
8
annotation
62
1
39
211
10
171.793773
20
143.580108
11
171.810982
21
143.388456
0
LINE
8
annotation
62
1
39
211
10
171.810982
20
143.388456
11
171.860585
21
143.208207
0
LINE
8
annotation
62
1
39
211
10
171.860585
20
143.208207
11
171.939543
21
143.042338
0
LINE
8
annotation
62
1
39
211
10
171.939543
20
143.042338
11
172.044820
21
142.893823
0
LINE
8
annotation
62
1
39
211
10
172.044820
20
142.893823
11
172.173377
21
142.765639
0
LINE
8
annotation
62
1
39
211
10
172.173377
20
142.765639
11
172.322179
21
142.660761
0
LINE
8
annotation
62
1
39
211
10
172.322179
20
142.660761
11
172.488186
21
142.582164
0
LINE
8
annotation
62
1
39
211
10
172.488186
20
142.582164
11
172.668363
21
142.532824
0
LINE
8
annotation
62
1
39
211
10
172.668363
20
142.532824
11
172.859671
21
142.515716
0
LINE
8
annotation
62
1
39
211
10
172.859671
20
142.515716
11
172.859671
21
142.515716
0
LINE
8
annotation
62
1
39
211
10
172.859671
20
142.515716
11
173.050978
21
142.532824
0
LINE
8
annotation
62
1
39
211
10
173.050978
20
142.532824
11
173.231155
21
142.582164
0
LINE
8
annotation
62
1
39
211
10
173.231155
20
142.582164
11
173.397162
21
142.660761
0
LINE
8
annotation
62
1
39
211
10
173.397162
20
142.660761
11
173.545964
21
142.765639
0
LINE
8
annotation
62
1
39
211
10
173.545964
20
142.765639
11
173.674522
21
142.893823
0
LINE
8
annotation
62
1
39
211
10
173.674522
20
142.893823
11
173.779798
21
143.042338
0
LINE
8
annotation
62
1
39
211
10
173.779798
20
143.042338
11
173.858756
21
143.208207
0
LINE
8
annotation
62
1
39
211
10
173.858756
20
143.208207
11
173.908359
21
143.388456
0
LINE
8
annotation
62
1
39
211
10
173.908359
20
143.388456
11
173.925568
21
143.580108
0
LINE
8
annotation
62
1
39
211
10
173.925568
20
143.580108
11
173.925568
21
144.111100
0
LINE
8
annotation
62
1
39
211
10
173.925568
20
144.111100
11
173.925568
21
144.111100
0
LINE
8
annotation
62
1
39
211
10
173.925568
20
144.111100
11
173.908369
21
144.302846
0
LINE
8
annotation
62
1
39
211
10
173.908369
20
144.302846
11
173.858791
21
144.483343
0
LINE
8
annotation
62
1
39
211
10
173.858791
20
144.483343
11
173.779865
21
144.649573
0
LINE
8
annotation
62
1
39
211
10
173.779865
20
144.649573
11
173.674621
21
144.798515
0
LINE
8
annotation
62
1
39
211
10
173.674621
20
144.798515
11
173.546088
21
144.927149
0
LINE
8
annotation
62
1
39
211
10
173.546088
20
144.927149
11
173.397296
21
145.032454
0
LINE
8
annotation
62
1
39
211
10
173.397296
20
145.032454
11
173.231276
21
145.111412
0
LINE
8
annotation
62
1
39
211
10
173.231276
20
145.111412
11
173.051058
21
145.161001
0
LINE
8
annotation
62
1
39
211
10
173.051058
20
145.161001
11
172.859671
21
145.178202
0
LINE
8
annotation
62
1
39
211
10
172.859671
20
145.178202
11
172.859671
21
145.178202
0
LINE
8
annotation
62
1
39
211
10
172.859671
20
145.178202
11
172.668284
21
145.160991
0
LINE
8
annotation
62
1
39
211
10
172.668284
20
145.160991
11
172.488065
21
145.111377
0
LINE
8
annotation
62
1
39
211
10
172.488065
20
145.111377
11
172.322045
21
145.032387
0
LINE
8
annotation
62
1
39
211
10
172.322045
20
145.032387
11
172.173254
21
144.927050
0
LINE
8
annotation
62
1
39
211
10
172.173254
20
144.927050
11
172.044721
21
144.798391
0
LINE
8
annotation
62
1
39
211
10
172.044721
20
144.798391
11
171.939476
21
144.649439
0
LINE
8
annotation
62
1
39
211
10
171.939476
20
144.649439
11
171.860550
21
144.483222
0
LINE
8
annotation
62
1
39
211
10
171.860550
20
144.483222
11
171.810972
21
144.302767
0
LINE
8
annotation
62
1
39
211
10
171.810972
20
144.302767
11
171.793773
21
144.111100
0
LINE
8
annotation
62
1
39
211
10
171.793773
20
144.111100
11
171.793773
21
143.580108
0
LINE
8
annotation
62
1
39
211
10
173.925568
20
146.245604
11
173.925568
21
146.245604
0
LINE
8
annotation
62
1
39
211
10
173.925568
20
146.245604
11
173.908369
21
146.436464
0
LINE
8
annotation
62
1
39
211
10
173.908369
20
146.436464
11
173.858791
21
146.616292
0
LINE
8
annotation
62
1
39
211
10
173.858791
20
146.616292
11
173.779865
21
146.782037
0
LINE
8
annotation
62
1
39
211
10
173.779865
20
146.782037
11
173.674621
21
146.930650
0
LINE
8
annotation
62
1
39
211
10
173.674621
20
146.930650
11
173.546088
21
147.059082
0
LINE
8
annotation
62
1
39
211
10
173.546088
20
147.059082
11
173.397296
21
147.164283
0
LINE
8
annotation
62
1
39
211
10
173.397296
20
147.164283
11
173.231276
21
147.243202
0
LINE
8
annotation
62
1
39
211
10
173.231276
20
147.243202
11
173.051058
21
147.292790
0
LINE
8
annotation
62
1
39
211
10
173.051058
20
147.292790
11
172.859671
21
147.309997
0
LINE
8
annotation
62
1
39
211
10
172.859671
20
147.309997
11
172.859671
21
147.309997
0
LINE
8
annotation
62
1
39
211
10
172.859671
20
147.309997
11
172.668284
21
147.292790
0
LINE
8
annotation
62
1
39
211
10
172.668284
20
147.292790
11
172.488065
21
147.243202
0
LINE
8
annotation
62
1
39
211
10
172.488065
20
147.243202
11
172.322045
21
147.164283
0
LINE
8
annotation
62
1
39
211
10
172.322045
20
147.164283
11
172.173254
21
147.059082
0
LINE
8
annotation
62
1
39
211
10
172.173254
20
147.059082
11
172.044721
21
146.930650
0
LINE
8
annotation
62
1
39
211
10
172.044721
20
146.930650
11
171.939476
21
146.782037
0
LINE
8
annotation
62
1
39
211
10
171.939476
20
146.782037
11
171.860550
21
146.616292
0
LINE
8
annotation
62
1
39
211
10
171.860550
20
146.616292
11
171.810972
21
146.436464
0
LINE
8
annotation
62
1
39
211
10
171.810972
20
146.436464
11
171.793773
21
146.245604
0
LINE
8
annotation
62
1
39
211
10
171.793773
20
146.245604
11
171.793773
21
146.245604
0
LINE
8
annotation
62
1
39
211
10
171.793773
20
146.245604
11
171.810982
21
146.053848
0
LINE
8
annotation
62
1
39
211
10
171.810982
20
146.053848
11
171.860585
21
145.873323
0
LINE
8
annotation
62
1
39
211
10
171.860585
20
145.873323
11
171.939543
21
145.707053
0
LINE
8
annotation
62
1
39
211
10
171.939543
20
145.707053
11
172.044820
21
145.558064
0
LINE
8
annotation
62
1
39
211
10
172.044820
20
145.558064
11
172.173377
21
145.429380
0
LINE
8
annotation
62
1
39
211
10
172.173377
20
145.429380
11
172.322179
21
145.324027
0
LINE
8
annotation
62
1
39
211
10
172.322179
20
145.324027
11
172.488186
21
145.245030
0
LINE
8
annotation
62
1
39
211
10
172.488186
20
145.245030
11
172.668363
21
145.195413
0
LINE
8
annotation
62
1
39
211
10
172.668363
20
145.195413
11
172.859671
21
145.178202
0
LINE
8
annotation
62
1
39
211
10
172.859671
20
145.178202
11
172.859671
21
145.178202
0
LINE
8
annotation
62
1
39
211
10
172.859671
20
145.178202
11
173.050978
21
145.195413
0
LINE
8
annotation
62
1
39
211
10
173.050978
20
145.195413
11
173.231155
21
145.245030
0
LINE
8
annotation
62
1
39
211
10
173.231155
20
145.245030
11
173.397162
21
145.324027
0
LINE
8
annotation
62
1
39
211
10
173.397162
20
145.324027
11
173.545964
21
145.429380
0
LINE
8
annotation
62
1
39
211
10
173.545964
20
145.429380
11
173.674522
21
145.558064
0
LINE
8
annotation
62
1
39
211
10
173.674522
20
145.558064
11
173.779798
21
145.707053
0
LINE
8
annotation
62
1
39
211
10
173.779798
20
145.707053
11
173.858756
21
145.873323
0
LINE
8
annotation
62
1
39
211
10
173.858756
20
145.873323
11
173.908359
21
146.053848
0
LINE
8
annotation
62
1
39
211
10
173.908359
20
146.053848
11
173.925568
21
146.245604
0
LINE
8
annotation
62
1
39
211
10
179.698294
20
161.392620
11
179.698294
21
161.392620
0
LINE
8
annotation
62
1
39
211
10
179.698294
20
161.392620
11
180.003109
21
161.506209
0
LINE
8
annotation
62
1
39
211
10
180.003109
20
161.506209
11
180.282892
21
161.659746
0
LINE
8
annotation
62
1
39
211
10
180.282892
20
161.659746
11
180.534751
21
161.849317
0
LINE
8
annotation
62
1
39
211
10
180.534751
20
161.849317
11
180.755794
21
162.071012
0
LINE
8
annotation
62
1
39
211
10
180.755794
20
162.071012
11
180.943131
21
162.320918
0
LINE
8
annotation
62
1
39
211
10
180.943131
20
162.320918
11
181.093871
21
162.595123
0
LINE
8
annotation
62
1
39
211
10
181.093871
20
162.595123
11
181.205122
21
162.889716
0
LINE
8
annotation
62
1
39
211
10
181.205122
20
162.889716
11
181.273993
21
163.200784
0
LINE
8
annotation
62
1
39
211
10
181.273993
20
163.200784
11
181.297592
21
163.524415
0
LINE
8
annotation
62
1
39
211
10
181.297592
20
163.524415
11
181.297592
21
165.125218
0
LINE
8
annotation
62
1
39
211
10
181.297592
20
165.125218
11
181.297592
21
165.125218
0
LINE
8
annotation
62
1
39
211
10
181.297592
20
165.125218
11
181.280432
21
165.316974
0
LINE
8
annotation
62
1
39
211
10
181.280432
20
165.316974
11
181.230954
21
165.497499
0
LINE
8
annotation
62
1
39
211
10
181.230954
20
165.497499
11
181.152157
21
165.663769
0
LINE
8
annotation
62
1
39
211
10
181.152157
20
165.663769
11
181.047041
21
165.812758
0
LINE
8
annotation
62
1
39
211
10
181.047041
20
165.812758
11
180.918607
21
165.941442
0
LINE
8
annotation
62
1
39
211
10
180.918607
20
165.941442
11
180.769855
21
166.046795
0
LINE
8
annotation
62
1
39
211
10
180.769855
20
166.046795
11
180.603786
21
166.125792
0
LINE
8
annotation
62
1
39
211
10
180.603786
20
166.125792
11
180.423399
21
166.175409
0
LINE
8
annotation
62
1
39
211
10
180.423399
20
166.175409
11
180.231695
21
166.192620
0
LINE
8
annotation
62
1
39
211
10
180.231695
20
166.192620
11
180.231695
21
166.192620
0
LINE
8
annotation
62
1
39
211
10
180.231695
20
166.192620
11
180.040387
21
166.175409
0
LINE
8
annotation
62
1
39
211
10
180.040387
20
166.175409
11
179.860210
21
166.125792
0
LINE
8
annotation
62
1
39
211
10
179.860210
20
166.125792
11
179.694203
21
166.046795
0
LINE
8
annotation
62
1
39
211
10
179.694203
20
166.046795
11
179.545401
21
165.941442
0
LINE
8
annotation
62
1
39
211
10
179.545401
20
165.941442
11
179.416844
21
165.812758
0
LINE
8
annotation
62
1
39
211
10
179.416844
20
165.812758
11
179.311567
21
165.663769
0
LINE
8
annotation
62
1
39
211
10
179.311567
20
165.663769
11
179.232609
21
165.497499
0
LINE
8
annotation
62
1
39
211
10
179.232609
20
165.497499
11
179.183006
21
165.316974
0
LINE
8
annotation
62
1
39
211
10
179.183006
20
165.316974
11
179.165797
21
165.125218
0
LINE
8
annotation
62
1
39
211
10
179.165797
20
165.125218
11
179.165797
21
164.591516
0
LINE
8
annotation
62
1
39
211
10
179.165797
20
164.591516
11
179.165797
21
164.591516
0
LINE
8
annotation
62
1
39
211
10
179.165797
20
164.591516
11
179.183006
21
164.399771
0
LINE
8
annotation
62
1
39
211
10
179.183006
20
164.399771
11
179.232609
21
164.219273
0
LINE
8
annotation
62
1
39
211
10
179.232609
20
164.219273
11
179.311567
21
164.053044
0
LINE
8
annotation
62
1
39
211
10
179.311567
20
164.053044
11
179.416844
21
163.904102
0
LINE
8
annotation
62
1
39
211
10
179.416844
20
163.904102
11
179.545401
21
163.775468
0
LINE
8
annotation
62
1
39
211
10
179.545401
20
163.775468
11
179.694203
21
163.670162
0
LINE
8
annotation
62
1
39
211
10
179.694203
20
163.670162
11
179.860210
21
163.591205
0
LINE
8
annotation
62
1
39
211
10
179.860210
20
163.591205
11
180.040387
21
163.541616
0
LINE
8
annotation
62
1
39
211
10
180.040387
20
163.541616
11
180.231695
21
163.524415
0
LINE
8
annotation
62
1
39
211
10
180.231695
20
163.524415
11
181.297592
21
163.524415
0
LINE
8
annotation
62
1
39
211
10
179.032598
20
160.792620
11
181.432598
21
160.792620
0
LINE
8
annotation
62
1
39
211
10
186.403754
20
180.360514
11
186.403754
21
184.978234
0
LINE
8
annotation
62
1
39
211
10
186.403754
20
184.978234
11
185.377176
21
183.951366
0
LINE
8
annotation
62
1
39
211
10
188.876983
20
180.421423
11
188.876983
21
180.421423
0
LINE
8
annotation
62
1
39
211
10
188.876983
20
180.421423
11
188.984305
21
180.381304
0
LINE
8
annotation
62
1
39
211
10
188.984305
20
180.381304
11
189.094372
21
180.361372
0
LINE
8
annotation
62
1
39
211
10
189.094372
20
180.361372
11
189.204697
21
180.360814
0
LINE
8
annotation
62
1
39
211
10
189.204697
20
180.360814
11
189.312790
21
180.378819
0
LINE
8
annotation
62
1
39
211
10
189.312790
20
180.378819
11
189.416165
21
180.414573
0
LINE
8
annotation
62
1
39
211
10
189.416165
20
180.414573
11
189.512332
21
180.467264
0
LINE
8
annotation
62
1
39
211
10
189.512332
20
180.467264
11
189.598804
21
180.536078
0
LINE
8
annotation
62
1
39
211
10
189.598804
20
180.536078
11
189.673091
21
180.620203
0
LINE
8
annotation
62
1
39
211
10
189.673091
20
180.620203
11
189.732706
21
180.718827
0
LINE
8
annotation
62
1
39
211
10
189.732706
20
180.718827
11
189.732706
21
180.718827
0
LINE
8
annotation
62
1
39
211
10
189.732706
20
180.718827
11
189.910576
21
181.135174
0
LINE
8
annotation
62
1
39
211
10
189.910576
20
181.135174
11
190.043978
21
181.563572
0
LINE
8
annotation
62
1
39
211
10
190.043978
20
181.563572
11
190.132913
21
182.000605
0
LINE
8
annotation
62
1
39
211
10
190.132913
20
182.000605
11
190.177380
21
182.442857
0
LINE
8
annotation
62
1
39
211
10
190.177380
20
182.442857
11
190.177380
21
182.886914
0
LINE
8
annotation
62
1
39
211
10
190.177380
20
182.886914
11
190.132913
21
183.329359
0
LINE
8
annotation
62
1
39
211
10
190.132913
20
183.329359
11
190.043978
21
183.766778
0
LINE
8
annotation
62
1
39
211
10
190.043978
20
183.766778
11
189.910576
21
184.195755
0
LINE
8
annotation
62
1
39
211
10
189.910576
20
184.195755
11
189.732706
21
184.612874
0
LINE
8
annotation
62
1
39
211
10
189.732706
20
184.612874
11
189.732706
21
184.612874
0
LINE
8
annotation
62
1
39
211
10
189.732706
20
184.612874
11
189.710087
21
184.654971
0
LINE
8
annotation
62
1
39
211
10
189.710087
20
184.654971
11
189.684442
21
184.695217
0
LINE
8
annotation
62
1
39
211
10
189.684442
20
184.695217
11
189.655966
21
184.733417
0
LINE
8
annotation
62
1
39
211
10
189.655966
20
184.733417
11
189.624852
21
184.769371
0
LINE
8
annotation
62
1
39
211
10
189.624852
20
184.769371
11
189.591292
21
184.802882
0
LINE
8
annotation
62
1
39
211
10
189.591292
20
184.802882
11
189.555480
21
184.833752
0
LINE
8
annotation
62
1
39
211
10
189.555480
20
184.833752
11
189.517609
21
184.861784
0
LINE
8
annotation
62
1
39
211
10
189.517609
20
184.861784
11
189.477872
21
184.886779
0
LINE
8
annotation
62
1
39
211
10
189.477872
20
184.886779
11
189.436461
21
184.908540
0
LINE
8
annotation
62
1
39
211
10
189.436461
20
184.908540
11
189.436461
21
184.908540
0
LINE
8
annotation
62
1
39
211
10
189.436461
20
184.908540
11
189.328287
21
184.949530
0
LINE
8
annotation
62
1
39
211
10
189.328287
20
184.949530
11
189.217575
21
184.970143
0
LINE
8
annotation
62
1
39
211
10
189.217575
20
184.970143
11
189.106785
21
184.971198
0
LINE
8
annotation
62
1
39
211
10
189.106785
20
184.971198
11
188.998375
21
184.953512
0
LINE
8
annotation
62
1
39
211
10
188.998375
20
184.953512
11
188.894806
21
184.917903
0
LINE
8
annotation
62
1
39
211
10
188.894806
20
184.917903
11
188.798538
21
184.865189
0
LINE
8
annotation
62
1
39
211
10
188.798538
20
184.865189
11
188.712029
21
184.796186
0
LINE
8
annotation
62
1
39
211
10
188.712029
20
184.796186
11
188.637741
21
184.711712
0
LINE
8
annotation
62
1
39
211
10
188.637741
20
184.711712
11
188.578132
21
184.612585
0
LINE
8
annotation
62
1
39
211
10
188.578132
20
184.612585
11
188.578132
21
184.612585
0
LINE
8
annotation
62
1
39
211
10
188.578132
20
184.612585
11
188.401120
21
184.196323
0
LINE
8
annotation
62
1
39
211
10
188.401120
20
184.196323
11
188.268362
21
183.767990
0
LINE
8
annotation
62
1
39
211
10
188.268362
20
183.767990
11
188.179856
21
183.331000
0
LINE
8
annotation
62
1
39
211
10
188.179856
20
183.331000
11
188.135603
21
182.888769
0
LINE
8
annotation
62
1
39
211
10
188.135603
20
182.888769
11
188.135603
21
182.444713
0
LINE
8
annotation
62
1
39
211
10
188.135603
20
182.444713
11
188.179856
21
182.002246
0
LINE
8
annotation
62
1
39
211
10
188.179856
20
182.002246
11
188.268362
21
181.564784
0
LINE
8
annotation
62
1
39
211
10
188.268362
20
181.564784
11
188.401120
21
181.135743
0
LINE
8
annotation
62
1
39
211
10
188.401120
20
181.135743
11
188.578132
21
180.718537
0
LINE
8
annotation
62
1
39
211
10
188.578132
20
180.718537
11
188.578132
21
180.718537
0
LINE
8
annotation
62
1
39
211
10
188.578132
20
180.718537
11
188.600669
21
180.676525
0
LINE
8
annotation
62
1
39
211
10
188.600669
20
180.676525
11
188.626124
21
180.636479
0
LINE
8
annotation
62
1
39
211
10
188.626124
20
180.636479
11
188.654389
21
180.598521
0
LINE
8
annotation
62
1
39
211
10
188.654389
20
180.598521
11
188.685357
21
180.562772
0
LINE
8
annotation
62
1
39
211
10
188.685357
20
180.562772
11
188.718920
21
180.529354
0
LINE
8
annotation
62
1
39
211
10
188.718920
20
180.529354
11
188.754971
21
180.498389
0
LINE
8
annotation
62
1
39
211
10
188.754971
20
180.498389
11
188.793404
21
180.469997
0
LINE
8
annotation
62
1
39
211
10
188.793404
20
180.469997
11
188.834110
21
180.444302
0
LINE
8
annotation
62
1
39
211
10
188.834110
20
180.444302
11
188.876983
21
180.421423
0
LINE
8
annotation
62
1
39
211
10
194.341706
20
199.146128
11
194.341706
21
203.946128
0
LINE
8
annotation
62
1
39
211
10
194.341706
20
203.946128
11
193.274604
21
202.878725
0
LINE
8
annotation
62
1
39
211
10
197.208807
20
199.146128
11
197.208807
21
203.946128
0
LINE
8
annotation
62
1
39
211
10
197.208807
20
203.946128
11
196.141706
21
202.878725
0
LINE
8
annotation
62
1
39
211
10
201.224736
20
218.118707
11
201.224736
21
222.727056
0
LINE
8
annotation
62
1
39
211
10
201.224736
20
222.727056
11
200.200241
21
221.702272
0
LINE
8
annotation
62
1
39
211
10
204.999749
20
218.118669
11
202.953070
21
218.118669
0
LINE
8
annotation
62
1
39
211
10
202.953070
20
218.118669
11
204.844268
21
221.163255
0
LINE
8
annotation
62
1
39
211
10
204.844268
20
221.163255
11
204.844268
21
221.163255
0
LINE
8
annotation
62
1
39
211
10
204.844268
20
221.163255
11
204.846529
21
221.166053
0
LINE
8
annotation
62
1
39
211
10
204.846529
20
221.166053
11
204.848697
21
221.168874
0
LINE
8
annotation
62
1
39
211
10
204.848697
20
221.168874
11
204.850787
21
221.171743
0
LINE
8
annotation
62
1
39
211
10
204.850787
20
221.171743
11
204.852812
21
221.174683
0
LINE
8
annotation
62
1
39
211
10
204.852812
20
221.174683
11
204.854787
21
221.177719
0
LINE
8
annotation
62
1
39
211
10
204.854787
20
221.177719
11
204.856727
21
221.180873
0
LINE
8
annotation
62
1
39
211
10
204.856727
20
221.180873
11
204.858645
21
221.184170
0
LINE
8
annotation
62
1
39
211
10
204.858645
20
221.184170
11
204.860557
21
221.187634
0
LINE
8
annotation
62
1
39
211
10
204.860557
20
221.187634
11
204.862475
21
221.191288
0
LINE
8
annotation
62
1
39
211
10
204.862475
20
221.191288
11
204.862475
21
221.191288
0
LINE
8
annotation
62
1
39
211
10
204.862475
20
221.191288
11
204.940562
21
221.358947
0
LINE
8
annotation
62
1
39
211
10
204.940562
20
221.358947
11
204.986179
21
221.532741
0
LINE
8
annotation
62
1
39
211
10
204.986179
20
221.532741
11
205.000444
21
221.708743
0
LINE
8
annotation
62
1
39
211
10
205.000444
20
221.708743
11
204.984475
21
221.883024
0
LINE
8
annotation
62
1
39
211
10
204.984475
20
221.883024
11
204.939390
21
222.051659
0
LINE
8
annotation
62
1
39
211
10
204.939390
20
222.051659
11
204.866307
21
222.210720
0
LINE
8
annotation
62
1
39
211
10
204.866307
20
222.210720
11
204.766343
21
222.356280
0
LINE
8
annotation
62
1
39
211
10
204.766343
20
222.356280
11
204.640617
21
222.484413
0
LINE
8
annotation
62
1
39
211
10
204.640617
20
222.484413
11
204.490247
21
222.591190
0
LINE
8
annotation
62
1
39
211
10
204.490247
20
222.591190
11
204.490247
21
222.591190
0
LINE
8
annotation
62
1
39
211
10
204.490247
20
222.591190
11
204.322121
21
222.668168
0
LINE
8
annotation
62
1
39
211
10
204.322121
20
222.668168
11
204.148060
21
222.713082
0
LINE
8
annotation
62
1
39
211
10
204.148060
20
222.713082
11
203.971957
21
222.726944
0
LINE
8
annotation
62
1
39
211
10
203.971957
20
222.726944
11
203.797701
21
222.710764
0
LINE
8
annotation
62
1
39
211
10
203.797701
20
222.710764
11
203.629186
21
222.665554
0
LINE
8
annotation
62
1
39
211
10
203.629186
20
222.665554
11
203.470301
21
222.592325
0
LINE
8
annotation
62
1
39
211
10
203.470301
20
222.592325
11
203.324938
21
222.492086
0
LINE
8
annotation
62
1
39
211
10
203.324938
20
222.492086
11
203.196988
21
222.365850
0
LINE
8
annotation
62
1
39
211
10
203.196988
20
222.365850
11
203.090344
21
222.214627
0
LINE
8
annotation
62
1
39
211
10
203.090344
20
222.214627
11
202.955960
21
221.956841
0
LINE
8
annotation
62
1
39
211
10
208.432150
20
236.995127
11
208.432150
21
241.604144
0
LINE
8
annotation
62
1
39
211
10
208.432150
20
241.604144
11
207.407507
21
240.579211
0
LINE
8
annotation
62
1
39
211
10
210.160387
20
236.995271
11
211.183875
21
236.995271
0
LINE
8
annotation
62
1
39
211
10
211.183875
20
236.995271
11
211.183875
21
236.995271
0
LINE
8
annotation
62
1
39
211
10
211.183875
20
236.995271
11
211.367952
21
237.011784
0
LINE
8
annotation
62
1
39
211
10
211.367952
20
237.011784
11
211.541161
21
237.059375
0
LINE
8
annotation
62
1
39
211
10
211.541161
20
237.059375
11
211.700623
21
237.135123
0
LINE
8
annotation
62
1
39
211
10
211.700623
20
237.135123
11
211.843457
21
237.236107
0
LINE
8
annotation
62
1
39
211
10
211.843457
20
237.236107
11
211.966780
21
237.359405
0
LINE
8
annotation
62
1
39
211
10
211.966780
20
237.359405
11
212.067714
21
237.502096
0
LINE
8
annotation
62
1
39
211
10
212.067714
20
237.502096
11
212.143376
21
237.661258
0
LINE
8
annotation
62
1
39
211
10
212.143376
20
237.661258
11
212.190885
21
237.833971
0
LINE
8
annotation
62
1
39
211
10
212.190885
20
237.833971
11
212.207362
21
238.017313
0
LINE
8
annotation
62
1
39
211
10
212.207362
20
238.017313
11
212.207362
21
238.529780
0
LINE
8
annotation
62
1
39
211
10
212.207362
20
238.529780
11
212.207362
21
238.529780
0
LINE
8
annotation
62
1
39
211
10
212.207362
20
238.529780
11
212.190885
21
238.713046
0
LINE
8
annotation
62
1
39
211
10
212.190885
20
238.713046
11
212.143376
21
238.885718
0
LINE
8
annotation
62
1
39
211
10
212.143376
20
238.885718
11
212.067714
21
239.044869
0
LINE
8
annotation
62
1
39
211
10
212.067714
20
239.044869
11
211.966780
21
239.187569
0
LINE
8
annotation
62
1
39
211
10
211.966780
20
239.187569
11
211.843457
21
239.310891
0
LINE
8
annotation
62
1
39
211
10
211.843457
20
239.310891
11
211.700623
21
239.411906
0
LINE
8
annotation
62
1
39
211
10
211.700623
20
239.411906
11
211.541161
21
239.487685
0
LINE
8
annotation
62
1
39
211
10
211.541161
20
239.487685
11
211.367952
21
239.535300
0
LINE
8
annotation
62
1
39
211
10
211.367952
20
239.535300
11
211.183875
21
239.551822
0
LINE
8
annotation
62
1
39
211
10
211.183875
20
239.551822
11
210.671409
21
239.551822
0
LINE
8
annotation
62
1
39
211
10
210.671409
20
239.551822
11
211.183875
21
239.551822
0
LINE
8
annotation
62
1
39
211
10
211.183875
20
239.551822
11
211.183875
21
239.551822
0
LINE
8
annotation
62
1
39
211
10
211.183875
20
239.551822
11
211.367952
21
239.568348
0
LINE
8
annotation
62
1
39
211
10
211.367952
20
239.568348
11
211.541161
21
239.615991
0
LINE
8
annotation
62
1
39
211
10
211.541161
20
239.615991
11
211.700623
21
239.691845
0
LINE
8
annotation
62
1
39
211
10
211.700623
20
239.691845
11
211.843457
21
239.793007
0
LINE
8
annotation
62
1
39
211
10
211.843457
20
239.793007
11
211.966780
21
239.916570
0
LINE
8
annotation
62
1
39
211
10
211.966780
20
239.916570
11
212.067714
21
240.059632
0
LINE
8
annotation
62
1
39
211
10
212.067714
20
240.059632
11
212.143376
21
240.219286
0
LINE
8
annotation
62
1
39
211
10
212.143376
20
240.219286
11
212.190885
21
240.392628
0
LINE
8
annotation
62
1
39
211
10
212.190885
20
240.392628
11
212.207362
21
240.576755
0
LINE
8
annotation
62
1
39
211
10
212.207362
20
240.576755
11
212.207362
21
240.576755
0
LINE
8
annotation
62
1
39
211
10
212.207362
20
240.576755
11
212.190885
21
240.760020
0
LINE
8
annotation
62
1
39
211
10
212.190885
20
240.760020
11
212.143376
21
240.932693
0
LINE
8
annotation
62
1
39
211
10
212.143376
20
240.932693
11
212.067714
21
241.091844
0
LINE
8
annotation
62
1
39
211
10
212.067714
20
241.091844
11
211.966780
21
241.234544
0
LINE
8
annotation
62
1
39
211
10
211.966780
20
241.234544
11
211.843457
21
241.357866
0
LINE
8
annotation
62
1
39
211
10
211.843457
20
241.357866
11
211.700623
21
241.458881
0
LINE
8
annotation
62
1
39
211
10
211.700623
20
241.458881
11
211.541161
21
241.534660
0
LINE
8
annotation
62
1
39
211
10
211.541161
20
241.534660
11
211.367952
21
241.582274
0
LINE
8
annotation
62
1
39
211
10
211.367952
20
241.582274
11
211.183875
21
241.598797
0
LINE
8
annotation
62
1
39
211
10
211.183875
20
241.598797
11
210.160387
21
241.598797
0
LINE
8
annotation
62
1
39
211
10
215.249809
20
256.094071
11
215.249809
21
260.258707
0
LINE
8
annotation
62
1
39
211
10
215.249809
20
260.258707
11
214.323957
21
259.332594
0
LINE
8
annotation
62
1
39
211
10
219.123826
20
257.019923
11
216.811416
21
257.019923
0
LINE
8
annotation
62
1
39
211
10
216.811416
20
257.019923
11
217.734918
21
260.258707
0
LINE
8
annotation
62
1
39
211
10
218.430678
20
256.094071
11
218.430678
21
257.943686
0
LINE
8
annotation
62
1
39
211
10
221.762124
20
274.748634
11
221.762124
21
279.357652
0
LINE
8
annotation
62
1
39
211
10
221.762124
20
279.357652
11
220.737481
21
278.332719
0
LINE
8
annotation
62
1
39
211
10
223.490361
20
274.748634
11
224.513849
21
274.748634
0
LINE
8
annotation
62
1
39
211
10
224.513849
20
274.748634
11
224.513849
21
274.748634
0
LINE
8
annotation
62
1
39
211
10
224.513849
20
274.748634
11
224.697545
21
274.765151
0
LINE
8
annotation
62
1
39
211
10
224.697545
20
274.765151
11
224.870552
21
274.812767
0
LINE
8
annotation
62
1
39
211
10
224.870552
20
274.812767
11
225.029955
21
274.888583
0
LINE
8
annotation
62
1
39
211
10
225.029955
20
274.888583
11
225.172836
21
274.989698
0
LINE
8
annotation
62
1
39
211
10
225.172836
20
274.989698
11
225.296278
21
275.113214
0
LINE
8
annotation
62
1
39
211
10
225.296278
20
275.113214
11
225.397366
21
275.256230
0
LINE
8
annotation
62
1
39
211
10
225.397366
20
275.256230
11
225.473183
21
275.415846
0
LINE
8
annotation
62
1
39
211
10
225.473183
20
275.415846
11
225.520812
21
275.589162
0
LINE
8
annotation
62
1
39
211
10
225.520812
20
275.589162
11
225.537336
21
275.773278
0
LINE
8
annotation
62
1
39
211
10
225.537336
20
275.773278
11
225.537336
21
276.283143
0
LINE
8
annotation
62
1
39
211
10
225.537336
20
276.283143
11
225.537336
21
276.283143
0
LINE
8
annotation
62
1
39
211
10
225.537336
20
276.283143
11
225.520821
21
276.467170
0
LINE
8
annotation
62
1
39
211
10
225.520821
20
276.467170
11
225.473216
21
276.640247
0
LINE
8
annotation
62
1
39
211
10
225.473216
20
276.640247
11
225.397431
21
276.799516
0
LINE
8
annotation
62
1
39
211
10
225.397431
20
276.799516
11
225.296374
21
276.942122
0
LINE
8
annotation
62
1
39
211
10
225.296374
20
276.942122
11
225.172955
21
277.065206
0
LINE
8
annotation
62
1
39
211
10
225.172955
20
277.065206
11
225.030083
21
277.165911
0
LINE
8
annotation
62
1
39
211
10
225.030083
20
277.165911
11
224.870669
21
277.241381
0
LINE
8
annotation
62
1
39
211
10
224.870669
20
277.241381
11
224.697621
21
277.288758
0
LINE
8
annotation
62
1
39
211
10
224.697621
20
277.288758
11
224.513849
21
277.305185
0
LINE
8
annotation
62
1
39
211
10
224.513849
20
277.305185
11
223.490361
21
277.305185
0
LINE
8
annotation
62
1
39
211
10
223.490361
20
277.305185
11
223.490361
21
279.357652
0
LINE
8
annotation
62
1
39
211
10
223.490361
20
279.357652
11
225.537336
21
279.357652
0
LINE
8
annotation
62
1
39
211
10
226.690976
20
293.625388
11
226.690976
21
298.234405
0
LINE
8
annotation
62
1
39
211
10
226.690976
20
298.234405
11
225.666333
21
297.209473
0
LINE
8
annotation
62
1
39
211
10
229.956612
20
298.234405
11
229.956612
21
298.234405
0
LINE
8
annotation
62
1
39
211
10
229.956612
20
298.234405
11
229.663409
21
298.124472
0
LINE
8
annotation
62
1
39
211
10
229.663409
20
298.124472
11
229.394356
21
297.976349
0
LINE
8
annotation
62
1
39
211
10
229.394356
20
297.976349
11
229.152216
21
297.793749
0
LINE
8
annotation
62
1
39
211
10
229.152216
20
297.793749
11
228.939751
21
297.580383
0
LINE
8
annotation
62
1
39
211
10
228.939751
20
297.580383
11
228.759723
21
297.339960
0
LINE
8
annotation
62
1
39
211
10
228.759723
20
297.339960
11
228.614893
21
297.076194
0
LINE
8
annotation
62
1
39
211
10
228.614893
20
297.076194
11
228.508023
21
296.792794
0
LINE
8
annotation
62
1
39
211
10
228.508023
20
296.792794
11
228.441876
21
296.493472
0
LINE
8
annotation
62
1
39
211
10
228.441876
20
296.493472
11
228.419213
21
296.181939
0
LINE
8
annotation
62
1
39
211
10
228.419213
20
296.181939
11
228.419213
21
294.650032
0
LINE
8
annotation
62
1
39
211
10
228.419213
20
294.650032
11
228.419213
21
294.650032
0
LINE
8
annotation
62
1
39
211
10
228.419213
20
294.650032
11
228.435738
21
294.465915
0
LINE
8
annotation
62
1
39
211
10
228.435738
20
294.465915
11
228.483366
21
294.292599
0
LINE
8
annotation
62
1
39
211
10
228.483366
20
294.292599
11
228.559183
21
294.132984
0
LINE
8
annotation
62
1
39
211
10
228.559183
20
294.132984
11
228.660271
21
293.989968
0
LINE
8
annotation
62
1
39
211
10
228.660271
20
293.989968
11
228.783714
21
293.866452
0
LINE
8
annotation
62
1
39
211
10
228.783714
20
293.866452
11
228.926595
21
293.765336
0
LINE
8
annotation
62
1
39
211
10
228.926595
20
293.765336
11
229.085997
21
293.689521
0
LINE
8
annotation
62
1
39
211
10
229.085997
20
293.689521
11
229.259005
21
293.641904
0
LINE
8
annotation
62
1
39
211
10
229.259005
20
293.641904
11
229.442701
21
293.625388
0
LINE
8
annotation
62
1
39
211
10
229.442701
20
293.625388
11
229.442701
21
293.625388
0
LINE
8
annotation
62
1
39
211
10
229.442701
20
293.625388
11
229.626777
21
293.641904
0
LINE
8
annotation
62
1
39
211
10
229.626777
20
293.641904
11
229.799987
21
293.689521
0
LINE
8
annotation
62
1
39
211
10
229.799987
20
293.689521
11
229.959449
21
293.765336
0
LINE
8
annotation
62
1
39
211
10
229.959449
20
293.765336
11
230.102282
21
293.866452
0
LINE
8
annotation
62
1
39
211
10
230.102282
20
293.866452
11
230.225606
21
293.989968
0
LINE
8
annotation
62
1
39
211
10
230.225606
20
293.989968
11
230.326539
21
294.132984
0
LINE
8
annotation
62
1
39
211
10
230.326539
20
294.132984
11
230.402201
21
294.292599
0
LINE
8
annotation
62
1
39
211
10
230.402201
20
294.292599
11
230.449711
21
294.465915
0
LINE
8
annotation
62
1
39
211
10
230.449711
20
294.465915
11
230.466188
21
294.650032
0
LINE
8
annotation
62
1
39
211
10
230.466188
20
294.650032
11
230.466188
21
295.159897
0
LINE
8
annotation
62
1
39
211
10
230.466188
20
295.159897
11
230.466188
21
295.159897
0
LINE
8
annotation
62
1
39
211
10
230.466188
20
295.159897
11
230.449711
21
295.343924
0
LINE
8
annotation
62
1
39
211
10
230.449711
20
295.343924
11
230.402201
21
295.517001
0
LINE
8
annotation
62
1
39
211
10
230.402201
20
295.517001
11
230.326539
21
295.676270
0
LINE
8
annotation
62
1
39
211
10
230.326539
20
295.676270
11
230.225606
21
295.818876
0
LINE
8
annotation
62
1
39
211
10
230.225606
20
295.818876
11
230.102282
21
295.941959
0
LINE
8
annotation
62
1
39
211
10
230.102282
20
295.941959
11
229.959449
21
296.042665
0
LINE
8
annotation
62
1
39
211
10
229.959449
20
296.042665
11
229.799987
21
296.118135
0
LINE
8
annotation
62
1
39
211
10
229.799987
20
296.118135
11
229.626777
21
296.165512
0
LINE
8
annotation
62
1
39
211
10
229.626777
20
296.165512
11
229.442701
21
296.181939
0
LINE
8
annotation
62
1
39
211
10
229.442701
20
296.181939
11
228.419213
21
296.181939
0
LINE
8
annotation
62
1
39
211
10
228.291024
20
293.049261
11
230.595533
21
293.049261
0
LINE
8
annotation
62
1
39
211
10
214.578264
20
287.762255
11
212.750105
21
285.117990
0
LINE
8
annotation
62
1
39
211
10
212.750105
20
285.117990
11
210.921602
21
287.762255
0
LINE
8
annotation
62
1
39
211
10
212.750105
20
285.330783
11
212.750105
21
282.280184
0
LINE
8
annotation
62
1
39
211
10
219.631914
20
285.021219
11
216.634599
21
285.021219
0
LINE
8
annotation
62
1
39
211
10
222.905875
20
282.280356
11
222.905875
21
287.762083
0
LINE
8
annotation
62
1
39
211
10
222.905875
20
287.762083
11
221.687217
21
286.543081
0
LINE
8
annotation
62
1
39
211
10
225.569133
20
282.280356
11
225.569133
21
282.280356
0
LINE
8
annotation
62
1
39
211
10
225.569133
20
282.280356
11
225.917240
21
282.410078
0
LINE
8
annotation
62
1
39
211
10
225.917240
20
282.410078
11
226.236759
21
282.585420
0
LINE
8
annotation
62
1
39
211
10
226.236759
20
282.585420
11
226.524389
21
282.801916
0
LINE
8
annotation
62
1
39
211
10
226.524389
20
282.801916
11
226.776826
21
283.055097
0
LINE
8
annotation
62
1
39
211
10
226.776826
20
283.055097
11
226.990770
21
283.340496
0
LINE
8
annotation
62
1
39
211
10
226.990770
20
283.340496
11
227.162919
21
283.653646
0
LINE
8
annotation
62
1
39
211
10
227.162919
20
283.653646
11
227.289970
21
283.990079
0
LINE
8
annotation
62
1
39
211
10
227.289970
20
283.990079
11
227.368622
21
284.345326
0
LINE
8
annotation
62
1
39
211
10
227.368622
20
284.345326
11
227.395573
21
284.714922
0
LINE
8
annotation
62
1
39
211
10
227.395573
20
284.714922
11
227.395573
21
286.543081
0
LINE
8
annotation
62
1
39
211
10
227.395573
20
286.543081
11
227.395573
21
286.543081
0
LINE
8
annotation
62
1
39
211
10
227.395573
20
286.543081
11
227.375977
21
286.762071
0
LINE
8
annotation
62
1
39
211
10
227.375977
20
286.762071
11
227.319471
21
286.968236
0
LINE
8
annotation
62
1
39
211
10
227.319471
20
286.968236
11
227.229482
21
287.158120
0
LINE
8
annotation
62
1
39
211
10
227.229482
20
287.158120
11
227.109438
21
287.328270
0
LINE
8
annotation
62
1
39
211
10
227.109438
20
287.328270
11
226.962763
21
287.475230
0
LINE
8
annotation
62
1
39
211
10
226.962763
20
287.475230
11
226.792884
21
287.595546
0
LINE
8
annotation
62
1
39
211
10
226.792884
20
287.595546
11
226.603228
21
287.685763
0
LINE
8
annotation
62
1
39
211
10
226.603228
20
287.685763
11
226.397222
21
287.742427
0
LINE
8
annotation
62
1
39
211
10
226.397222
20
287.742427
11
226.178290
21
287.762083
0
LINE
8
annotation
62
1
39
211
10
226.178290
20
287.762083
11
226.178290
21
287.762083
0
LINE
8
annotation
62
1
39
211
10
226.178290
20
287.762083
11
225.959812
21
287.742427
0
LINE
8
annotation
62
1
39
211
10
225.959812
20
287.742427
11
225.754046
21
287.685763
0
LINE
8
annotation
62
1
39
211
10
225.754046
20
287.685763
11
225.564461
21
287.595546
0
LINE
8
annotation
62
1
39
211
10
225.564461
20
287.595546
11
225.394525
21
287.475230
0
LINE
8
annotation
62
1
39
211
10
225.394525
20
287.475230
11
225.247709
21
287.328270
0
LINE
8
annotation
62
1
39
211
10
225.247709
20
287.328270
11
225.127480
21
287.158120
0
LINE
8
annotation
62
1
39
211
10
225.127480
20
287.158120
11
225.037308
21
286.968236
0
LINE
8
annotation
62
1
39
211
10
225.037308
20
286.968236
11
224.980661
21
286.762071
0
LINE
8
annotation
62
1
39
211
10
224.980661
20
286.762071
11
224.961007
21
286.543081
0
LINE
8
annotation
62
1
39
211
10
224.961007
20
286.543081
11
224.961007
21
285.933580
0
LINE
8
annotation
62
1
39
211
10
224.961007
20
285.933580
11
224.961007
21
285.933580
0
LINE
8
annotation
62
1
39
211
10
224.961007
20
285.933580
11
224.980661
21
285.714602
0
LINE
8
annotation
62
1
39
211
10
224.980661
20
285.714602
11
225.037308
21
285.508469
0
LINE
8
annotation
62
1
39
211
10
225.037308
20
285.508469
11
225.127480
21
285.318630
0
LINE
8
annotation
62
1
39
211
10
225.127480
20
285.318630
11
225.247709
21
285.148534
0
LINE
8
annotation
62
1
39
211
10
225.247709
20
285.148534
11
225.394525
21
285.001631
0
LINE
8
annotation
62
1
39
211
10
225.394525
20
285.001631
11
225.564461
21
284.881369
0
LINE
8
annotation
62
1
39
211
10
225.564461
20
284.881369
11
225.754046
21
284.791198
0
LINE
8
annotation
62
1
39
211
10
225.754046
20
284.791198
11
225.959812
21
284.734566
0
LINE
8
annotation
62
1
39
211
10
225.959812
20
284.734566
11
226.178290
21
284.714922
0
LINE
8
annotation
62
1
39
211
10
226.178290
20
284.714922
11
227.395573
21
284.714922
0
LINE
8
annotation
62
1
39
211
10
224.808890
20
281.595140
11
227.549753
21
281.595140
0
LINE
8
boundary
62
5
39
2
10
172.368833
20
490.760133
11
172.138156
21
491.405246
0
LINE
8
boundary
62
5
39
2
10
172.138156
20
491.405246
11
171.536363
21
493.096898
0
LINE
8
boundary
62
5
39
2
10
171.536363
20
493.096898
11
171.352432
21
493.606658
0
LINE
8
boundary
62
5
39
2
10
171.352432
20
493.606658
11
155.794512
21
493.756658
0
LINE
8
boundary
62
5
39
2
10
155.794512
20
493.756658
11
155.794513
21
496.502658
0
LINE
8
boundary
62
5
39
2
10
155.794513
20
496.502658
11
170.248987
21
496.502658
0
LINE
8
boundary
62
5
39
2
10
170.248987
20
496.502658
11
169.936953
21
497.553672
0
LINE
8
boundary
62
5
39
2
10
169.936953
20
497.553672
11
169.389639
21
499.094087
0
LINE
8
boundary
62
5
39
2
10
169.389639
20
499.094087
11
169.145947
21
499.765976
0
LINE
8
boundary
62
5
39
2
10
169.145947
20
499.765976
11
168.967695
21
500.260837
0
LINE
8
boundary
62
5
39
2
10
168.967695
20
500.260837
11
168.344103
21
501.990524
0
LINE
8
boundary
62
5
39
2
10
168.344103
20
501.990524
11
167.582584
21
504.118907
0
LINE
8
boundary
62
5
39
2
10
167.582584
20
504.118907
11
166.722074
21
506.483391
0
LINE
8
boundary
62
5
39
2
10
166.722074
20
506.483391
11
165.994198
21
508.500753
0
LINE
8
boundary
62
5
39
2
10
165.994198
20
508.500753
11
165.775354
21
509.095047
0
LINE
8
boundary
62
5
39
2
10
165.775354
20
509.095047
11
165.055744
21
511.053132
0
LINE
8
boundary
62
5
39
2
10
165.055744
20
511.053132
11
164.553035
21
512.433643
0
LINE
8
boundary
62
5
39
2
10
164.553035
20
512.433643
11
148.740381
21
512.678819
0
LINE
8
boundary
62
5
39
2
10
148.740381
20
512.678819
11
148.740381
21
515.424819
0
LINE
8
boundary
62
5
39
2
10
148.740381
20
515.424819
11
163.374952
21
515.424819
0
LINE
8
boundary
62
5
39
2
10
163.374952
20
515.424819
11
163.213478
21
516.040610
0
LINE
8
boundary
62
5
39
2
10
163.213478
20
516.040610
11
162.430734
21
518.110695
0
LINE
8
boundary
62
5
39
2
10
162.430734
20
518.110695
11
161.958437
21
519.372425
0
LINE
8
boundary
62
5
39
2
10
161.958437
20
519.372425
11
161.511122
21
520.533505
0
LINE
8
boundary
62
5
39
2
10
161.511122
20
520.533505
11
160.763002
21
522.495306
0
LINE
8
boundary
62
5
39
2
10
160.763002
20
522.495306
11
160.565411
21
522.998576
0
LINE
8
boundary
62
5
39
2
10
160.565411
20
522.998576
11
159.617438
21
525.438210
0
LINE
8
boundary
62
5
39
2
10
159.617438
20
525.438210
11
159.243865
21
526.380901
0
LINE
8
boundary
62
5
39
2
10
159.243865
20
526.380901
11
158.569984
21
528.081818
0
LINE
8
boundary
62
5
39
2
10
158.569984
20
528.081818
11
157.458114
21
530.847234
0
LINE
8
boundary
62
5
39
2
10
157.458114
20
530.847234
11
157.209862
21
531.450981
0
LINE
8
boundary
62
5
39
2
10
157.209862
20
531.450981
11
142.076062
21
531.600980
0
LINE
8
boundary
62
5
39
2
10
142.076062
20
531.600980
11
142.076062
21
534.346979
0
LINE
8
boundary
62
5
39
2
10
142.076062
20
534.346979
11
155.938170
21
534.346980
0
LINE
8
boundary
62
5
39
2
10
155.938170
20
534.346980
11
155.070209
21
536.591657
0
LINE
8
boundary
62
5
39
2
10
155.070209
20
536.591657
11
154.007993
21
539.050147
0
LINE
8
boundary
62
5
39
2
10
154.007993
20
539.050147
11
153.752911
21
539.649918
0
LINE
8
boundary
62
5
39
2
10
153.752911
20
539.649918
11
153.498793
21
540.231359
0
LINE
8
boundary
62
5
39
2
10
153.498793
20
540.231359
11
152.481358
21
542.529478
0
LINE
8
boundary
62
5
39
2
10
152.481358
20
542.529478
11
151.334451
21
545.053813
0
LINE
8
boundary
62
5
39
2
10
151.334451
20
545.053813
11
150.311581
21
547.267074
0
LINE
8
boundary
62
5
39
2
10
150.311581
20
547.267074
11
149.859893
21
548.231074
0
LINE
8
boundary
62
5
39
2
10
149.859893
20
548.231074
11
149.406091
21
549.178821
0
LINE
8
boundary
62
5
39
2
10
149.406091
20
549.178821
11
148.757555
21
550.523140
0
LINE
8
boundary
62
5
39
2
10
148.757555
20
550.523140
11
136.181649
21
550.523141
0
LINE
8
boundary
62
5
39
2
10
136.181649
20
550.523141
11
136.181649
21
553.269141
0
LINE
8
boundary
62
5
39
2
10
136.181649
20
553.269141
11
147.319364
21
553.269140
0
LINE
8
boundary
62
5
39
2
10
147.319364
20
553.269140
11
146.770456
21
554.520920
0
LINE
8
boundary
62
5
39
2
10
146.770456
20
554.520920
11
146.270502
21
555.503622
0
LINE
8
boundary
62
5
39
2
10
146.270502
20
555.503622
11
145.916801
21
556.179553
0
LINE
8
boundary
62
5
39
2
10
145.916801
20
556.179553
11
145.165975
21
557.612613
0
LINE
8
boundary
62
5
39
2
10
145.165975
20
557.612613
11
144.746218
21
558.390421
0
LINE
8
boundary
62
5
39
2
10
144.746218
20
558.390421
11
144.247655
21
559.319973
0
LINE
8
boundary
62
5
39
2
10
144.247655
20
559.319973
11
143.439817
21
560.788608
0
LINE
8
boundary
62
5
39
2
10
143.439817
20
560.788608
11
143.110189
21
561.386552
0
LINE
8
boundary
62
5
39
2
10
143.110189
20
561.386552
11
142.642898
21
562.205735
0
LINE
8
boundary
62
5
39
2
10
142.642898
20
562.205735
11
142.131997
21
563.105111
0
LINE
8
boundary
62
5
39
2
10
142.131997
20
563.105111
11
141.857747
21
563.571120
0
LINE
8
boundary
62
5
39
2
10
141.857747
20
563.571120
11
141.181537
21
564.725954
0
LINE
8
boundary
62
5
39
2
10
141.181537
20
564.725954
11
140.635391
21
565.615443
0
LINE
8
boundary
62
5
39
2
10
140.635391
20
565.615443
11
139.599321
21
567.315183
0
LINE
8
boundary
62
5
39
2
10
139.599321
20
567.315183
11
139.302215
21
567.793241
0
LINE
8
boundary
62
5
39
2
10
139.302215
20
567.793241
11
138.330338
21
569.295301
0
LINE
8
boundary
62
5
39
2
10
138.330338
20
569.295301
11
130.528244
21
569.445301
0
LINE
8
boundary
62
5
39
2
10
130.528244
20
569.445301
11
130.528244
21
572.191301
0
LINE
8
boundary
62
5
39
2
10
130.528244
20
572.191301
11
136.230084
21
572.191302
0
LINE
8
boundary
62
5
39
2
10
136.230084
20
572.191302
11
135.632001
21
573.167362
0
LINE
8
boundary
62
5
39
2
10
135.632001
20
573.167362
11
134.937677
21
574.065944
0
LINE
8
boundary
62
5
39
2
10
134.937677
20
574.065944
11
134.261778
21
574.906419
0
LINE
8
boundary
62
5
39
2
10
134.261778
20
574.906419
11
133.604425
21
575.687918
0
LINE
8
boundary
62
5
39
2
10
133.604425
20
575.687918
11
133.208344
21
576.157887
0
LINE
8
boundary
62
5
39
2
10
133.208344
20
576.157887
11
132.482717
21
576.940682
0
LINE
8
boundary
62
5
39
2
10
132.482717
20
576.940682
11
131.784306
21
577.638074
0
LINE
8
boundary
62
5
39
2
10
131.784306
20
577.638074
11
131.163223
21
578.195291
0
LINE
8
boundary
62
5
39
2
10
131.163223
20
578.195291
11
130.601095
21
578.646221
0
LINE
8
boundary
62
5
39
2
10
130.601095
20
578.646221
11
130.058011
21
579.039262
0
LINE
8
boundary
62
5
39
2
10
130.058011
20
579.039262
11
129.534083
21
579.374739
0
LINE
8
boundary
62
5
39
2
10
129.534083
20
579.374739
11
129.084297
21
579.629222
0
LINE
8
boundary
62
5
39
2
10
129.084297
20
579.629222
11
128.440123
21
579.923373
0
LINE
8
boundary
62
5
39
2
10
128.440123
20
579.923373
11
127.662254
21
580.147456
0
LINE
8
boundary
62
5
39
2
10
127.662254
20
580.147456
11
126.979761
21
580.194949
0
LINE
8
boundary
62
5
39
2
10
126.979761
20
580.194949
11
126.365045
21
580.103507
0
LINE
8
boundary
62
5
39
2
10
126.365045
20
580.103507
11
125.798886
21
579.889941
0
LINE
8
boundary
62
5
39
2
10
125.798886
20
579.889941
11
125.281647
21
579.558030
0
LINE
8
boundary
62
5
39
2
10
125.281647
20
579.558030
11
124.864532
21
579.166324
0
LINE
8
boundary
62
5
39
2
10
124.864532
20
579.166324
11
124.398662
21
578.557347
0
LINE
8
boundary
62
5
39
2
10
124.398662
20
578.557347
11
123.974974
21
577.768779
0
LINE
8
boundary
62
5
39
2
10
123.974974
20
577.768779
11
123.725049
21
577.159636
0
LINE
8
boundary
62
5
39
2
10
123.725049
20
577.159636
11
123.523347
21
576.547009
0
LINE
8
boundary
62
5
39
2
10
123.523347
20
576.547009
11
123.374424
21
575.993469
0
LINE
8
boundary
62
5
39
2
10
123.374424
20
575.993469
11
123.200594
21
575.204584
0
LINE
8
boundary
62
5
39
2
10
123.200594
20
575.204584
11
123.086668
21
574.562282
0
LINE
8
boundary
62
5
39
2
10
123.086668
20
574.562282
11
122.985812
21
573.881880
0
LINE
8
boundary
62
5
39
2
10
122.985812
20
573.881880
11
122.896810
21
573.170154
0
LINE
8
boundary
62
5
39
2
10
122.896810
20
573.170154
11
122.839355
21
572.611641
0
LINE
8
boundary
62
5
39
2
10
122.839355
20
572.611641
11
122.792150
21
572.072888
0
LINE
8
boundary
62
5
39
2
10
122.792150
20
572.072888
11
122.751047
21
571.514405
0
LINE
8
boundary
62
5
39
2
10
122.751047
20
571.514405
11
122.715948
21
570.936316
0
LINE
8
boundary
62
5
39
2
10
122.715948
20
570.936316
11
122.686395
21
570.339954
0
LINE
8
boundary
62
5
39
2
10
122.686395
20
570.339954
11
122.664183
21
569.756903
0
LINE
8
boundary
62
5
39
2
10
122.664183
20
569.756903
11
122.642854
21
568.914918
0
LINE
8
boundary
62
5
39
2
10
122.642854
20
568.914918
11
122.629424
21
568.097941
0
LINE
8
boundary
62
5
39
2
10
122.629424
20
568.097941
11
122.626630
21
566.717088
0
LINE
8
boundary
62
5
39
2
10
122.626630
20
566.717088
11
122.644513
21
565.267405
0
LINE
8
boundary
62
5
39
2
10
122.644513
20
565.267405
11
122.682308
21
563.752775
0
LINE
8
boundary
62
5
39
2
10
122.682308
20
563.752775
11
122.739485
21
562.177159
0
LINE
8
boundary
62
5
39
2
10
122.739485
20
562.177159
11
122.815835
21
560.544524
0
LINE
8
boundary
62
5
39
2
10
122.815835
20
560.544524
11
122.911638
21
558.858317
0
LINE
8
boundary
62
5
39
2
10
122.911638
20
558.858317
11
122.959345
21
558.170126
0
LINE
8
boundary
62
5
39
2
10
122.959345
20
558.170126
11
123.027768
21
557.121198
0
LINE
8
boundary
62
5
39
2
10
123.027768
20
557.121198
11
123.085397
21
556.384174
0
LINE
8
boundary
62
5
39
2
10
123.085397
20
556.384174
11
123.129191
21
555.785873
0
LINE
8
boundary
62
5
39
2
10
123.129191
20
555.785873
11
123.214621
21
554.789211
0
LINE
8
boundary
62
5
39
2
10
123.214621
20
554.789211
11
123.368859
21
553.085858
0
LINE
8
boundary
62
5
39
2
10
123.368859
20
553.085858
11
123.520624
21
551.598487
0
LINE
8
boundary
62
5
39
2
10
123.520624
20
551.598487
11
123.687384
21
550.131020
0
LINE
8
boundary
62
5
39
2
10
123.687384
20
550.131020
11
123.807252
21
549.200202
0
LINE
8
boundary
62
5
39
2
10
123.807252
20
549.200202
11
123.876534
21
548.627498
0
LINE
8
boundary
62
5
39
2
10
123.876534
20
548.627498
11
124.056407
21
547.328664
0
LINE
8
boundary
62
5
39
2
10
124.056407
20
547.328664
11
124.344222
21
545.464233
0
LINE
8
boundary
62
5
39
2
10
124.344222
20
545.464233
11
124.434288
21
544.897196
0
LINE
8
boundary
62
5
39
2
10
124.434288
20
544.897196
11
124.625641
21
543.810786
0
LINE
8
boundary
62
5
39
2
10
124.625641
20
543.810786
11
124.771197
21
543.022519
0
LINE
8
boundary
62
5
39
2
10
124.771197
20
543.022519
11
124.953567
21
542.074043
0
LINE
8
boundary
62
5
39
2
10
124.953567
20
542.074043
11
125.194521
21
540.910626
0
LINE
8
boundary
62
5
39
2
10
125.194521
20
540.910626
11
125.325400
21
540.265466
0
LINE
8
boundary
62
5
39
2
10
125.325400
20
540.265466
11
125.750082
21
538.366810
0
LINE
8
boundary
62
5
39
2
10
125.750082
20
538.366810
11
126.151367
21
536.683575
0
LINE
8
boundary
62
5
39
2
10
126.151367
20
536.683575
11
126.400685
21
535.708363
0
LINE
8
boundary
62
5
39
2
10
126.400685
20
535.708363
11
126.765731
21
534.285426
0
LINE
8
boundary
62
5
39
2
10
126.765731
20
534.285426
11
126.929755
21
533.669183
0
LINE
8
boundary
62
5
39
2
10
126.929755
20
533.669183
11
127.370663
21
532.073270
0
LINE
8
boundary
62
5
39
2
10
127.370663
20
532.073270
11
127.762443
21
530.694547
0
LINE
8
boundary
62
5
39
2
10
127.762443
20
530.694547
11
128.044288
21
529.736953
0
LINE
8
boundary
62
5
39
2
10
128.044288
20
529.736953
11
128.644807
21
527.738884
0
LINE
8
boundary
62
5
39
2
10
128.644807
20
527.738884
11
129.571324
21
524.793389
0
LINE
8
boundary
62
5
39
2
10
129.571324
20
524.793389
11
130.536891
21
521.852468
0
LINE
8
boundary
62
5
39
2
10
130.536891
20
521.852468
11
131.537122
21
518.912685
0
LINE
8
boundary
62
5
39
2
10
131.537122
20
518.912685
11
132.568374
21
515.972113
0
LINE
8
boundary
62
5
39
2
10
132.568374
20
515.972113
11
133.627912
21
513.029864
0
LINE
8
boundary
62
5
39
2
10
133.627912
20
513.029864
11
134.033759
21
511.930886
0
LINE
8
boundary
62
5
39
2
10
134.033759
20
511.930886
11
134.713878
21
510.085731
0
LINE
8
boundary
62
5
39
2
10
134.713878
20
510.085731
11
135.138374
21
508.956130
0
LINE
8
boundary
62
5
39
2
10
135.138374
20
508.956130
11
135.498543
21
508.003737
0
LINE
8
boundary
62
5
39
2
10
135.498543
20
508.003737
11
135.825304
21
507.139912
0
LINE
8
boundary
62
5
39
2
10
135.825304
20
507.139912
11
136.389213
21
505.667064
0
LINE
8
boundary
62
5
39
2
10
136.389213
20
505.667064
11
136.847156
21
504.486043
0
LINE
8
boundary
62
5
39
2
10
136.847156
20
504.486043
11
137.209690
21
503.557689
0
LINE
8
boundary
62
5
39
2
10
137.209690
20
503.557689
11
137.536029
21
502.720185
0
LINE
8
boundary
62
5
39
2
10
137.536029
20
502.720185
11
138.116900
21
501.246861
0
LINE
8
boundary
62
5
39
2
10
138.116900
20
501.246861
11
138.376903
21
500.595670
0
LINE
8
boundary
62
5
39
2
10
138.376903
20
500.595670
11
138.704846
21
499.773101
0
LINE
8
boundary
62
5
39
2
10
138.704846
20
499.773101
11
139.119835
21
498.745329
0
LINE
8
boundary
62
5
39
2
10
139.119835
20
498.745329
11
139.861586
21
496.923393
0
LINE
8
boundary
62
5
39
2
10
139.861586
20
496.923393
11
140.087403
21
496.375471
0
LINE
8
boundary
62
5
39
2
10
140.087403
20
496.375471
11
140.507812
21
495.350933
0
LINE
8
boundary
62
5
39
2
10
140.507812
20
495.350933
11
141.119917
21
493.876638
0
LINE
8
boundary
62
5
39
2
10
141.119917
20
493.876638
11
141.329398
21
493.377497
0
LINE
8
boundary
62
5
39
2
10
141.329398
20
493.377497
11
141.738963
21
492.402163
0
LINE
8
boundary
62
5
39
2
10
141.738963
20
492.402163
11
142.060999
21
491.642741
0
LINE
8
boundary
62
5
39
2
10
142.060999
20
491.642741
11
142.364589
21
490.927525
0
LINE
8
boundary
62
5
39
2
10
142.364589
20
490.927525
11
142.791844
21
489.929923
0
LINE
8
boundary
62
5
39
2
10
142.791844
20
489.929923
11
142.996475
21
489.452789
0
LINE
8
boundary
62
5
39
2
10
142.996475
20
489.452789
11
143.521971
21
488.237350
0
LINE
8
boundary
62
5
39
2
10
143.521971
20
488.237350
11
144.251416
21
486.563411
0
LINE
8
boundary
62
5
39
2
10
144.251416
20
486.563411
11
144.492288
21
486.015611
0
LINE
8
boundary
62
5
39
2
10
144.492288
20
486.015611
11
144.924305
21
485.027315
0
LINE
8
boundary
62
5
39
2
10
144.924305
20
485.027315
11
145.575214
21
483.550912
0
LINE
8
boundary
62
5
39
2
10
145.575214
20
483.550912
11
146.231466
21
482.074191
0
LINE
8
boundary
62
5
39
2
10
146.231466
20
482.074191
11
146.892860
21
480.597099
0
LINE
8
boundary
62
5
39
2
10
146.892860
20
480.597099
11
147.150232
21
480.024939
0
LINE
8
boundary
62
5
39
2
10
147.150232
20
480.024939
11
148.230050
21
477.641812
0
LINE
8
boundary
62
5
39
2
10
148.230050
20
477.641812
11
148.600499
21
476.828329
0
LINE
8
boundary
62
5
39
2
10
148.600499
20
476.828329
11
149.585034
21
474.684912
0
LINE
8
boundary
62
5
39
2
10
149.585034
20
474.684912
11
150.052258
21
473.670052
0
LINE
8
boundary
62
5
39
2
10
150.052258
20
473.670052
11
150.956113
21
471.726194
0
LINE
8
boundary
62
5
39
2
10
150.956113
20
471.726194
11
151.505754
21
470.543666
0
LINE
8
boundary
62
5
39
2
10
151.505754
20
470.543666
11
152.341649
21
468.765502
0
LINE
8
boundary
62
5
39
2
10
152.341649
20
468.765502
11
152.961260
21
467.443379
0
LINE
8
boundary
62
5
39
2
10
152.961260
20
467.443379
11
153.740018
21
465.802624
0
LINE
8
boundary
62
5
39
2
10
153.740018
20
465.802624
11
154.419036
21
464.363728
0
LINE
8
boundary
62
5
39
2
10
154.419036
20
464.363728
11
155.149611
21
462.837310
0
LINE
8
boundary
62
5
39
2
10
155.149611
20
462.837310
11
155.879433
21
461.299463
0
LINE
8
boundary
62
5
39
2
10
155.879433
20
461.299463
11
156.568829
21
459.869249
0
LINE
8
boundary
62
5
39
2
10
156.568829
20
459.869249
11
157.342781
21
458.245409
0
LINE
8
boundary
62
5
39
2
10
157.342781
20
458.245409
11
157.996069
21
456.897948
0
LINE
8
boundary
62
5
39
2
10
157.996069
20
456.897948
11
158.809586
21
455.196147
0
LINE
8
boundary
62
5
39
2
10
158.809586
20
455.196147
11
159.429769
21
453.922696
0
LINE
8
boundary
62
5
39
2
10
159.429769
20
453.922696
11
160.280501
21
452.145835
0
LINE
8
boundary
62
5
39
2
10
160.280501
20
452.145835
11
160.868425
21
450.942352
0
LINE
8
boundary
62
5
39
2
10
160.868425
20
450.942352
11
161.756406
21
449.087869
0
LINE
8
boundary
62
5
39
2
10
161.756406
20
449.087869
11
162.310639
21
447.955205
0
LINE
8
boundary
62
5
39
2
10
162.310639
20
447.955205
11
163.047538
21
446.414241
0
LINE
8
boundary
62
5
39
2
10
163.047538
20
446.414241
11
163.466127
21
445.558956
0
LINE
8
boundary
62
5
39
2
10
163.466127
20
445.558956
11
164.230949
21
443.956065
0
LINE
8
boundary
62
5
39
2
10
164.230949
20
443.956065
11
164.622595
21
443.155010
0
LINE
8
boundary
62
5
39
2
10
164.622595
20
443.155010
11
165.419334
21
441.479633
0
LINE
8
boundary
62
5
39
2
10
165.419334
20
441.479633
11
165.779671
21
440.741022
0
LINE
8
boundary
62
5
39
2
10
165.779671
20
440.741022
11
166.613840
21
438.978996
0
LINE
8
boundary
62
5
39
2
10
166.613840
20
438.978996
11
166.937175
21
438.313958
0
LINE
8
boundary
62
5
39
2
10
166.937175
20
438.313958
11
167.815929
21
436.447325
0
LINE
8
boundary
62
5
39
2
10
167.815929
20
436.447325
11
168.095323
21
435.870037
0
LINE
8
boundary
62
5
39
2
10
168.095323
20
435.870037
11
169.027297
21
433.878540
0
LINE
8
boundary
62
5
39
2
10
169.027297
20
433.878540
11
169.255162
21
433.405309
0
LINE
8
boundary
62
5
39
2
10
169.255162
20
433.405309
11
170.249851
21
431.266753
0
LINE
8
boundary
62
5
39
2
10
170.249851
20
431.266753
11
171.485720
21
428.605518
0
LINE
8
boundary
62
5
39
2
10
171.485720
20
428.605518
11
172.737218
21
425.887892
0
LINE
8
boundary
62
5
39
2
10
172.737218
20
425.887892
11
173.044175
21
425.216660
0
LINE
8
boundary
62
5
39
2
10
173.044175
20
425.216660
11
173.937183
21
423.247453
0
LINE
8
boundary
62
5
39
2
10
173.937183
20
423.247453
11
174.187979
21
422.677960
0
LINE
8
boundary
62
5
39
2
10
174.187979
20
422.677960
11
176.321285
21
417.915601
0
LINE
8
boundary
62
5
39
2
10
176.321285
20
417.915601
11
177.409832
21
415.408064
0
LINE
8
boundary
62
5
39
2
10
177.409832
20
415.408064
11
178.751707
21
412.366520
0
LINE
8
boundary
62
5
39
2
10
178.751707
20
412.366520
11
180.981248
21
407.156423
0
LINE
8
boundary
62
5
39
2
10
180.981248
20
407.156423
11
181.239030
21
406.562988
0
LINE
8
boundary
62
5
39
2
10
181.239030
20
406.562988
11
181.739342
21
405.379538
0
LINE
8
boundary
62
5
39
2
10
181.739342
20
405.379538
11
182.184706
21
404.315986
0
LINE
8
boundary
62
5
39
2
10
182.184706
20
404.315986
11
183.135333
21
402.030212
0
LINE
8
boundary
62
5
39
2
10
183.135333
20
402.030212
11
183.385805
21
401.415368
0
LINE
8
boundary
62
5
39
2
10
183.385805
20
401.415368
11
184.094740
21
399.703924
0
LINE
8
boundary
62
5
39
2
10
184.094740
20
399.703924
11
184.531268
21
398.627072
0
LINE
8
boundary
62
5
39
2
10
184.531268
20
398.627072
11
185.062906
21
397.336832
0
LINE
8
boundary
62
5
39
2
10
185.062906
20
397.336832
11
185.698237
21
395.762085
0
LINE
8
boundary
62
5
39
2
10
185.698237
20
395.762085
11
186.039741
21
394.929002
0
LINE
8
boundary
62
5
39
2
10
186.039741
20
394.929002
11
186.886479
21
392.820538
0
LINE
8
boundary
62
5
39
2
10
186.886479
20
392.820538
11
187.667300
21
390.874404
0
LINE
8
boundary
62
5
39
2
10
187.667300
20
390.874404
11
188.012487
21
390.000021
0
LINE
8
boundary
62
5
39
2
10
188.012487
20
390.000021
11
188.996249
21
387.494563
0
LINE
8
boundary
62
5
39
2
10
188.996249
20
387.494563
11
189.315696
21
386.667767
0
LINE
8
boundary
62
5
39
2
10
189.315696
20
386.667767
11
189.985381
21
384.957193
0
LINE
8
boundary
62
5
39
2
10
189.985381
20
384.957193
11
190.551523
21
383.486960
0
LINE
8
boundary
62
5
39
2
10
190.551523
20
383.486960
11
190.978857
21
382.391222
0
LINE
8
boundary
62
5
39
2
10
190.978857
20
382.391222
11
191.798747
21
380.255573
0
LINE
8
boundary
62
5
39
2
10
191.798747
20
380.255573
11
192.665033
21
377.999806
0
LINE
8
boundary
62
5
39
2
10
192.665033
20
377.999806
11
192.966451
21
377.201220
0
LINE
8
boundary
62
5
39
2
10
192.966451
20
377.201220
11
193.940135
21
374.613961
0
LINE
8
boundary
62
5
39
2
10
193.940135
20
374.613961
11
194.277466
21
373.707826
0
LINE
8
boundary
62
5
39
2
10
194.277466
20
373.707826
11
194.911743
21
372.021127
0
LINE
8
boundary
62
5
39
2
10
194.911743
20
372.021127
11
195.503653
21
370.430093
0
LINE
8
boundary
62
5
39
2
10
195.503653
20
370.430093
11
195.879569
21
369.429269
0
LINE
8
boundary
62
5
39
2
10
195.879569
20
369.429269
11
196.224441
21
368.514550
0
LINE
8
boundary
62
5
39
2
10
196.224441
20
368.514550
11
196.840598
21
366.847478
0
LINE
8
boundary
62
5
39
2
10
196.840598
20
366.847478
11
197.772969
21
364.316954
0
LINE
8
boundary
62
5
39
2
10
197.772969
20
364.316954
11
198.684791
21
361.856545
0
LINE
8
boundary
62
5
39
2
10
198.684791
20
361.856545
11
199.619033
21
359.320067
0
LINE
8
boundary
62
5
39
2
10
199.619033
20
359.320067
11
200.002208
21
358.279998
0
LINE
8
boundary
62
5
39
2
10
200.002208
20
358.279998
11
200.512941
21
356.897749
0
LINE
8
boundary
62
5
39
2
10
200.512941
20
356.897749
11
201.311958
21
354.744058
0
LINE
8
boundary
62
5
39
2
10
201.311958
20
354.744058
11
201.580199
21
354.025820
0
LINE
8
boundary
62
5
39
2
10
201.580199
20
354.025820
11
202.256173
21
352.206117
0
LINE
8
boundary
62
5
39
2
10
202.256173
20
352.206117
11
202.546129
21
351.432344
0
LINE
8
boundary
62
5
39
2
10
202.546129
20
351.432344
11
203.102071
21
349.951554
0
LINE
8
boundary
62
5
39
2
10
203.102071
20
349.951554
11
203.730882
21
348.294452
0
LINE
8
boundary
62
5
39
2
10
203.730882
20
348.294452
11
203.937676
21
347.750339
0
LINE
8
boundary
62
5
39
2
10
203.937676
20
347.750339
11
204.468923
21
346.373909
0
LINE
8
boundary
62
5
39
2
10
204.468923
20
346.373909
11
205.025773
21
344.923127
0
LINE
8
boundary
62
5
39
2
10
205.025773
20
344.923127
11
205.323936
21
344.163799
0
LINE
8
boundary
62
5
39
2
10
205.323936
20
344.163799
11
206.088052
21
342.218536
0
LINE
8
boundary
62
5
39
2
10
206.088052
20
342.218536
11
206.896923
21
340.213737
0
LINE
8
boundary
62
5
39
2
10
206.896923
20
340.213737
11
207.134595
21
339.624567
0
LINE
8
boundary
62
5
39
2
10
207.134595
20
339.624567
11
207.662985
21
338.354785
0
LINE
8
boundary
62
5
39
2
10
207.662985
20
338.354785
11
208.159219
21
337.159064
0
LINE
8
boundary
62
5
39
2
10
208.159219
20
337.159064
11
209.164034
21
334.823685
0
LINE
8
boundary
62
5
39
2
10
209.164034
20
334.823685
11
209.724671
21
333.574501
0
LINE
8
boundary
62
5
39
2
10
209.724671
20
333.574501
11
210.157642
21
332.607429
0
LINE
8
boundary
62
5
39
2
10
210.157642
20
332.607429
11
211.029326
21
330.751961
0
LINE
8
boundary
62
5
39
2
10
211.029326
20
330.751961
11
211.528871
21
329.728793
0
LINE
8
boundary
62
5
39
2
10
211.528871
20
329.728793
11
212.110988
21
328.551818
0
LINE
8
boundary
62
5
39
2
10
212.110988
20
328.551818
11
213.071266
21
326.720019
0
LINE
8
boundary
62
5
39
2
10
213.071266
20
326.720019
11
213.446976
21
326.051559
0
LINE
8
boundary
62
5
39
2
10
213.446976
20
326.051559
11
214.027127
21
325.012100
0
LINE
8
boundary
62
5
39
2
10
214.027127
20
325.012100
11
214.594157
21
324.073450
0
LINE
8
boundary
62
5
39
2
10
214.594157
20
324.073450
11
214.980113
21
323.429035
0
LINE
8
boundary
62
5
39
2
10
214.980113
20
323.429035
11
215.711241
21
322.312084
0
LINE
8
boundary
62
5
39
2
10
215.711241
20
322.312084
11
216.803004
21
320.754713
0
LINE
8
boundary
62
5
39
2
10
216.803004
20
320.754713
11
217.538077
21
319.813922
0
LINE
8
boundary
62
5
39
2
10
217.538077
20
319.813922
11
217.871323
21
319.399754
0
LINE
8
boundary
62
5
39
2
10
217.871323
20
319.399754
11
218.791105
21
318.366078
0
LINE
8
boundary
62
5
39
2
10
218.791105
20
318.366078
11
219.751545
21
317.420444
0
LINE
8
boundary
62
5
39
2
10
219.751545
20
317.420444
11
220.719376
21
316.601885
0
LINE
8
boundary
62
5
39
2
10
220.719376
20
316.601885
11
221.696170
21
315.911053
0
LINE
8
boundary
62
5
39
2
10
221.696170
20
315.911053
11
222.682340
21
315.348263
0
LINE
8
boundary
62
5
39
2
10
222.682340
20
315.348263
11
223.673703
21
314.912351
0
LINE
8
boundary
62
5
39
2
10
223.673703
20
314.912351
11
224.664907
21
314.601902
0
LINE
8
boundary
62
5
39
2
10
224.664907
20
314.601902
11
225.650567
21
314.415655
0
LINE
8
boundary
62
5
39
2
10
225.650567
20
314.415655
11
226.625290
21
314.352433
0
LINE
8
boundary
62
5
39
2
10
226.625290
20
314.352433
11
227.583633
21
314.411180
0
LINE
8
boundary
62
5
39
2
10
227.583633
20
314.411180
11
228.520131
21
314.590973
0
LINE
8
boundary
62
5
39
2
10
228.520131
20
314.590973
11
229.429278
21
314.890955
0
LINE
8
boundary
62
5
39
2
10
229.429278
20
314.890955
11
230.305553
21
315.310347
0
LINE
8
boundary
62
5
39
2
10
230.305553
20
315.310347
11
231.143380
21
315.848474
0
LINE
8
boundary
62
5
39
2
10
231.143380
20
315.848474
11
231.937168
21
316.504740
0
LINE
8
boundary
62
5
39
2
10
231.937168
20
316.504740
11
232.538654
21
317.130605
0
LINE
8
boundary
62
5
39
2
10
232.538654
20
317.130605
11
233.310033
21
318.098872
0
LINE
8
boundary
62
5
39
2
10
233.310033
20
318.098872
11
233.894495
21
319.024810
0
LINE
8
boundary
62
5
39
2
10
233.894495
20
319.024810
11
234.421361
21
320.046463
0
LINE
8
boundary
62
5
39
2
10
234.421361
20
320.046463
11
234.887049
21
321.163492
0
LINE
8
boundary
62
5
39
2
10
234.887049
20
321.163492
11
235.287842
21
322.375952
0
LINE
8
boundary
62
5
39
2
10
235.287842
20
322.375952
11
235.451784
21
322.906513
0
LINE
8
boundary
62
5
39
2
10
235.451784
20
322.906513
11
235.528052
21
323.457209
0
LINE
8
boundary
62
5
39
2
10
235.528052
20
323.457209
11
225.149695
21
323.457210
0
LINE
8
boundary
62
5
39
2
10
225.149695
20
323.457210
11
225.149694
21
326.203210
0
LINE
8
boundary
62
5
39
2
10
225.149694
20
326.203210
11
236.030119
21
326.203210
0
LINE
8
boundary
62
5
39
2
10
236.030119
20
326.203210
11
236.150848
21
327.672165
0
LINE
8
boundary
62
5
39
2
10
236.150848
20
327.672165
11
236.159897
21
328.194112
0
LINE
8
boundary
62
5
39
2
10
236.159897
20
328.194112
11
236.187991
21
329.491841
0
LINE
8
boundary
62
5
39
2
10
236.187991
20
329.491841
11
236.117254
21
331.427262
0
LINE
8
boundary
62
5
39
2
10
236.117254
20
331.427262
11
235.932635
21
333.478644
0
LINE
8
boundary
62
5
39
2
10
235.932635
20
333.478644
11
235.744176
21
334.814328
0
LINE
8
boundary
62
5
39
2
10
235.744176
20
334.814328
11
235.624685
21
335.647551
0
LINE
8
boundary
62
5
39
2
10
235.624685
20
335.647551
11
235.479613
21
336.454912
0
LINE
8
boundary
62
5
39
2
10
235.479613
20
336.454912
11
235.317666
21
337.348100
0
LINE
8
boundary
62
5
39
2
10
235.317666
20
337.348100
11
235.026547
21
338.706552
0
LINE
8
boundary
62
5
39
2
10
235.026547
20
338.706552
11
234.572752
21
340.620779
0
LINE
8
boundary
62
5
39
2
10
234.572752
20
340.620779
11
234.107779
21
342.379371
0
LINE
8
boundary
62
5
39
2
10
234.107779
20
342.379371
11
219.812474
21
342.379371
0
LINE
8
boundary
62
5
39
2
10
219.812474
20
342.379371
11
219.812474
21
345.125370
0
LINE
8
boundary
62
5
39
2
10
219.812474
20
345.125370
11
233.250259
21
345.125371
0
LINE
8
boundary
62
5
39
2
10
233.250259
20
345.125371
11
232.814313
21
346.698227
0
LINE
8
boundary
62
5
39
2
10
232.814313
20
346.698227
11
232.187521
21
348.586354
0
LINE
8
boundary
62
5
39
2
10
232.187521
20
348.586354
11
231.375283
21
350.917996
0
LINE
8
boundary
62
5
39
2
10
231.375283
20
350.917996
11
230.588937
21
353.068308
0
LINE
8
boundary
62
5
39
2
10
230.588937
20
353.068308
11
229.754397
21
355.265410
0
LINE
8
boundary
62
5
39
2
10
229.754397
20
355.265410
11
228.874205
21
357.507225
0
LINE
8
boundary
62
5
39
2
10
228.874205
20
357.507225
11
227.950911
21
359.791691
0
LINE
8
boundary
62
5
39
2
10
227.950911
20
359.791691
11
227.324783
21
361.301532
0
LINE
8
boundary
62
5
39
2
10
227.324783
20
361.301532
11
212.644049
21
361.301531
0
LINE
8
boundary
62
5
39
2
10
212.644049
20
361.301531
11
212.644049
21
364.047531
0
LINE
8
boundary
62
5
39
2
10
212.644049
20
364.047531
11
226.094652
21
364.047531
0
LINE
8
boundary
62
5
39
2
10
226.094652
20
364.047531
11
225.832509
21
364.831983
0
LINE
8
boundary
62
5
39
2
10
225.832509
20
364.831983
11
224.947946
21
366.880065
0
LINE
8
boundary
62
5
39
2
10
224.947946
20
366.880065
11
223.877815
21
369.314208
0
LINE
8
boundary
62
5
39
2
10
223.877815
20
369.314208
11
223.623821
21
369.879126
0
LINE
8
boundary
62
5
39
2
10
223.623821
20
369.879126
11
222.216650
21
373.025025
0
LINE
8
boundary
62
5
39
2
10
222.216650
20
373.025025
11
221.960753
21
373.584152
0
LINE
8
boundary
62
5
39
2
10
221.960753
20
373.584152
11
220.496098
21
376.800970
0
LINE
8
boundary
62
5
39
2
10
220.496098
20
376.800970
11
220.252884
21
377.325065
0
LINE
8
boundary
62
5
39
2
10
220.252884
20
377.325065
11
218.914713
21
380.223692
0
LINE
8
boundary
62
5
39
2
10
218.914713
20
380.223692
11
204.824269
21
380.223692
0
LINE
8
boundary
62
5
39
2
10
204.824269
20
380.223692
11
204.824269
21
382.969692
0
LINE
8
boundary
62
5
39
2
10
204.824269
20
382.969692
11
217.554420
21
382.969692
0
LINE
8
boundary
62
5
39
2
10
217.554420
20
382.969692
11
216.911934
21
384.519172
0
LINE
8
boundary
62
5
39
2
10
216.911934
20
384.519172
11
215.065969
21
388.446748
0
LINE
8
boundary
62
5
39
2
10
215.065969
20
388.446748
11
213.195897
21
392.410082
0
LINE
8
boundary
62
5
39
2
10
213.195897
20
392.410082
11
212.129665
21
394.667360
0
LINE
8
boundary
62
5
39
2
10
212.129665
20
394.667360
11
211.346620
21
396.324327
0
LINE
8
boundary
62
5
39
2
10
211.346620
20
396.324327
11
210.086119
21
398.995854
0
LINE
8
boundary
62
5
39
2
10
210.086119
20
398.995854
11
196.611121
21
399.145854
0
LINE
8
boundary
62
5
39
2
10
196.611121
20
399.145854
11
196.611121
21
401.891853
0
LINE
8
boundary
62
5
39
2
10
196.611121
20
401.891853
11
208.642452
21
401.891854
0
LINE
8
boundary
62
5
39
2
10
208.642452
20
401.891854
11
207.767374
21
403.926200
0
LINE
8
boundary
62
5
39
2
10
207.767374
20
403.926200
11
207.529930
21
404.434239
0
LINE
8
boundary
62
5
39
2
10
207.529930
20
404.434239
11
206.004588
21
407.703781
0
LINE
8
boundary
62
5
39
2
10
206.004588
20
407.703781
11
205.652620
21
408.462376
0
LINE
8
boundary
62
5
39
2
10
205.652620
20
408.462376
11
204.269198
21
411.457586
0
LINE
8
boundary
62
5
39
2
10
204.269198
20
411.457586
11
203.796007
21
412.487977
0
LINE
8
boundary
62
5
39
2
10
203.796007
20
412.487977
11
202.564327
21
415.187113
0
LINE
8
boundary
62
5
39
2
10
202.564327
20
415.187113
11
201.966080
21
416.506025
0
LINE
8
boundary
62
5
39
2
10
201.966080
20
416.506025
11
201.329905
21
417.918014
0
LINE
8
boundary
62
5
39
2
10
201.329905
20
417.918014
11
188.213753
21
418.068014
0
LINE
8
boundary
62
5
39
2
10
188.213753
20
418.068014
11
188.213753
21
420.814014
0
LINE
8
boundary
62
5
39
2
10
188.213753
20
420.814014
11
199.954394
21
420.814014
0
LINE
8
boundary
62
5
39
2
10
199.954394
20
420.814014
11
199.234352
21
422.606517
0
LINE
8
boundary
62
5
39
2
10
199.234352
20
422.606517
11
198.390465
21
424.516569
0
LINE
8
boundary
62
5
39
2
10
198.390465
20
424.516569
11
197.601097
21
426.316091
0
LINE
8
boundary
62
5
39
2
10
197.601097
20
426.316091
11
196.645754
21
428.508261
0
LINE
8
boundary
62
5
39
2
10
196.645754
20
428.508261
11
195.983759
21
430.038573
0
LINE
8
boundary
62
5
39
2
10
195.983759
20
430.038573
11
194.930077
21
432.490472
0
LINE
8
boundary
62
5
39
2
10
194.930077
20
432.490472
11
194.378327
21
433.784203
0
LINE
8
boundary
62
5
39
2
10
194.378327
20
433.784203
11
193.243378
21
436.463033
0
LINE
8
boundary
62
5
39
2
10
193.243378
20
436.463033
11
193.021787
21
436.990175
0
LINE
8
boundary
62
5
39
2
10
193.021787
20
436.990175
11
179.765273
21
436.990175
0
LINE
8
boundary
62
5
39
2
10
179.765273
20
436.990175
11
179.765273
21
439.736175
0
LINE
8
boundary
62
5
39
2
10
179.765273
20
439.736175
11
191.800490
21
439.736175
0
LINE
8
boundary
62
5
39
2
10
191.800490
20
439.736175
11
191.585374
21
440.425943
0
LINE
8
boundary
62
5
39
2
10
191.585374
20
440.425943
11
191.185662
21
441.390815
0
LINE
8
boundary
62
5
39
2
10
191.185662
20
441.390815
11
189.955562
21
444.379353
0
LINE
8
boundary
62
5
39
2
10
189.955562
20
444.379353
11
189.588291
21
445.279061
0
LINE
8
boundary
62
5
39
2
10
189.588291
20
445.279061
11
188.353228
21
448.323585
0
LINE
8
boundary
62
5
39
2
10
188.353228
20
448.323585
11
187.982072
21
449.246340
0
LINE
8
boundary
62
5
39
2
10
187.982072
20
449.246340
11
186.777473
21
452.259172
0
LINE
8
boundary
62
5
39
2
10
186.777473
20
452.259172
11
186.359375
21
453.314083
0
LINE
8
boundary
62
5
39
2
10
186.359375
20
453.314083
11
185.394544
21
455.762337
0
LINE
8
boundary
62
5
39
2
10
185.394544
20
455.762337
11
171.406092
21
455.912336
0
LINE
8
boundary
62
5
39
2
10
171.406092
20
455.912336
11
171.406092
21
458.658336
0
LINE
8
boundary
62
5
39
2
10
171.406092
20
458.658336
11
184.195793
21
458.658336
0
LINE
8
boundary
62
5
39
2
10
184.195793
20
458.658336
11
183.701324
21
460.107637
0
LINE
8
boundary
62
5
39
2
10
183.701324
20
460.107637
11
183.024744
21
461.865436
0
LINE
8
boundary
62
5
39
2
10
183.024744
20
461.865436
11
182.198442
21
464.022655
0
LINE
8
boundary
62
5
39
2
10
182.198442
20
464.022655
11
181.285995
21
466.427729
0
LINE
8
boundary
62
5
39
2
10
181.285995
20
466.427729
11
180.717265
21
467.933337
0
LINE
8
boundary
62
5
39
2
10
180.717265
20
467.933337
11
179.474859
21
471.255215
0
LINE
8
boundary
62
5
39
2
10
179.474859
20
471.255215
11
179.256479
21
471.841324
0
LINE
8
boundary
62
5
39
2
10
179.256479
20
471.841324
11
178.568845
21
473.705989
0
LINE
8
boundary
62
5
39
2
10
178.568845
20
473.705989
11
178.205480
21
474.684498
0
LINE
8
boundary
62
5
39
2
10
178.205480
20
474.684498
11
163.367738
21
474.834497
0
LINE
8
boundary
62
5
39
2
10
163.367738
20
474.834497
11
163.367739
21
477.580497
0
LINE
8
boundary
62
5
39
2
10
163.367739
20
477.580497
11
177.070828
21
477.580497
0
LINE
8
boundary
62
5
39
2
10
177.070828
20
477.580497
11
176.850665
21
478.359146
0
LINE
8
boundary
62
5
39
2
10
176.850665
20
478.359146
11
176.378353
21
479.651453
0
LINE
8
boundary
62
5
39
2
10
176.378353
20
479.651453
11
175.993558
21
480.707930
0
LINE
8
boundary
62
5
39
2
10
175.993558
20
480.707930
11
175.667500
21
481.605594
0
LINE
8
boundary
62
5
39
2
10
175.667500
20
481.605594
11
175.124183
21
483.107035
0
LINE
8
boundary
62
5
39
2
10
175.124183
20
483.107035
11
174.316103
21
485.352783
0
LINE
8
boundary
62
5
39
2
10
174.316103
20
485.352783
11
173.547412
21
487.477378
0
LINE
8
boundary
62
5
39
2
10
173.547412
20
487.477378
11
173.314789
21
488.123396
0
LINE
8
boundary
62
5
39
2
10
173.314789
20
488.123396
11
172.841564
21
489.439353
0
LINE
8
boundary
62
5
39
2
10
172.841564
20
489.439353
11
172.368833
21
490.760133
0
LINE
8
annotation
62
1
39
211
10
217.950101
20
322.620797
11
217.950101
21
327.039622
0
LINE
8
annotation
62
1
39
211
10
217.950101
20
327.039622
11
216.967740
21
326.056984
0
LINE
8
annotation
62
1
39
211
10
221.569861
20
322.620761
11
219.607355
21
322.620761
0
LINE
8
annotation
62
1
39
211
10
219.607355
20
322.620761
11
221.420775
21
325.540134
0
LINE
8
annotation
62
1
39
211
10
221.420775
20
325.540134
11
221.420775
21
325.540134
0
LINE
8
annotation
62
1
39
211
10
221.420775
20
325.540134
11
221.422943
21
325.542817
0
LINE
8
annotation
62
1
39
211
10
221.422943
20
325.542817
11
221.425022
21
325.545522
0
LINE
8
annotation
62
1
39
211
10
221.425022
20
325.545522
11
221.427026
21
325.548273
0
LINE
8
annotation
62
1
39
211
10
221.427026
20
325.548273
11
221.428968
21
325.551093
0
LINE
8
annotation
62
1
39
211
10
221.428968
20
325.551093
11
221.430862
21
325.554003
0
LINE
8
annotation
62
1
39
211
10
221.430862
20
325.554003
11
221.432722
21
325.557028
0
LINE
8
annotation
62
1
39
211
10
221.432722
20
325.557028
11
221.434561
21
325.560189
0
LINE
8
annotation
62
1
39
211
10
221.434561
20
325.560189
11
221.436394
21
325.563511
0
LINE
8
annotation
62
1
39
211
10
221.436394
20
325.563511
11
221.438233
21
325.567014
0
LINE
8
annotation
62
1
39
211
10
221.438233
20
325.567014
11
221.438233
21
325.567014
0
LINE
8
annotation
62
1
39
211
10
221.438233
20
325.567014
11
221.513109
21
325.727779
0
LINE
8
annotation
62
1
39
211
10
221.513109
20
325.727779
11
221.556850
21
325.894425
0
LINE
8
annotation
62
1
39
211
10
221.556850
20
325.894425
11
221.570529
21
326.063188
0
LINE
8
annotation
62
1
39
211
10
221.570529
20
326.063188
11
221.555216
21
326.230302
0
LINE
8
annotation
62
1
39
211
10
221.555216
20
326.230302
11
221.511985
21
326.392002
0
LINE
8
annotation
62
1
39
211
10
221.511985
20
326.392002
11
221.441908
21
326.544521
0
LINE
8
annotation
62
1
39
211
10
221.441908
20
326.544521
11
221.346055
21
326.684095
0
LINE
8
annotation
62
1
39
211
10
221.346055
20
326.684095
11
221.225500
21
326.806958
0
LINE
8
annotation
62
1
39
211
10
221.225500
20
326.806958
11
221.081313
21
326.909344
0
LINE
8
annotation
62
1
39
211
10
221.081313
20
326.909344
11
221.081313
21
326.909344
0
LINE
8
annotation
62
1
39
211
10
221.081313
20
326.909344
11
220.920102
21
326.983156
0
LINE
8
annotation
62
1
39
211
10
220.920102
20
326.983156
11
220.753200
21
327.026223
0
LINE
8
annotation
62
1
39
211
10
220.753200
20
327.026223
11
220.584339
21
327.039515
0
LINE
8
annotation
62
1
39
211
10
220.584339
20
327.039515
11
220.417250
21
327.024000
0
LINE
8
annotation
62
1
39
211
10
220.417250
20
327.024000
11
220.255664
21
326.980650
0
LINE
8
annotation
62
1
39
211
10
220.255664
20
326.980650
11
220.103314
21
326.910432
0
LINE
8
annotation
62
1
39
211
10
220.103314
20
326.910432
11
219.963929
21
326.814316
0
LINE
8
annotation
62
1
39
211
10
219.963929
20
326.814316
11
219.841242
21
326.693271
0
LINE
8
annotation
62
1
39
211
10
219.841242
20
326.693271
11
219.738984
21
326.548267
0
LINE
8
annotation
62
1
39
211
10
219.738984
20
326.548267
11
219.610127
21
326.301083
0
LINE
8
annotation
62
1
39
211
10
212.309684
20
341.447862
11
212.309684
21
346.056879
0
LINE
8
annotation
62
1
39
211
10
212.309684
20
346.056879
11
211.285041
21
345.031947
0
LINE
8
annotation
62
1
39
211
10
214.037921
20
341.448006
11
215.061409
21
341.448006
0
LINE
8
annotation
62
1
39
211
10
215.061409
20
341.448006
11
215.061409
21
341.448006
0
LINE
8
annotation
62
1
39
211
10
215.061409
20
341.448006
11
215.245486
21
341.464519
0
LINE
8
annotation
62
1
39
211
10
215.245486
20
341.464519
11
215.418695
21
341.512110
0
LINE
8
annotation
62
1
39
211
10
215.418695
20
341.512110
11
215.578157
21
341.587859
0
LINE
8
annotation
62
1
39
211
10
215.578157
20
341.587859
11
215.720991
21
341.688842
0
LINE
8
annotation
62
1
39
211
10
215.720991
20
341.688842
11
215.844314
21
341.812140
0
LINE
8
annotation
62
1
39
211
10
215.844314
20
341.812140
11
215.945248
21
341.954831
0
LINE
8
annotation
62
1
39
211
10
215.945248
20
341.954831
11
216.020910
21
342.113994
0
LINE
8
annotation
62
1
39
211
10
216.020910
20
342.113994
11
216.068419
21
342.286707
0
LINE
8
annotation
62
1
39
211
10
216.068419
20
342.286707
11
216.084896
21
342.470049
0
LINE
8
annotation
62
1
39
211
10
216.084896
20
342.470049
11
216.084896
21
342.982515
0
LINE
8
annotation
62
1
39
211
10
216.084896
20
342.982515
11
216.084896
21
342.982515
0
LINE
8
annotation
62
1
39
211
10
216.084896
20
342.982515
11
216.068419
21
343.165781
0
LINE
8
annotation
62
1
39
211
10
216.068419
20
343.165781
11
216.020910
21
343.338453
0
LINE
8
annotation
62
1
39
211
10
216.020910
20
343.338453
11
215.945248
21
343.497604
0
LINE
8
annotation
62
1
39
211
10
215.945248
20
343.497604
11
215.844314
21
343.640305
0
LINE
8
annotation
62
1
39
211
10
215.844314
20
343.640305
11
215.720991
21
343.763626
0
LINE
8
annotation
62
1
39
211
10
215.720991
20
343.763626
11
215.578157
21
343.864641
0
LINE
8
annotation
62
1
39
211
10
215.578157
20
343.864641
11
215.418695
21
343.940420
0
LINE
8
annotation
62
1
39
211
10
215.418695
20
343.940420
11
215.245486
21
343.988035
0
LINE
8
annotation
62
1
39
211
10
215.245486
20
343.988035
11
215.061409
21
344.004557
0
LINE
8
annotation
62
1
39
211
10
215.061409
20
344.004557
11
214.548943
21
344.004557
0
LINE
8
annotation
62
1
39
211
10
214.548943
20
344.004557
11
215.061409
21
344.004557
0
LINE
8
annotation
62
1
39
211
10
215.061409
20
344.004557
11
215.061409
21
344.004557
0
LINE
8
annotation
62
1
39
211
10
215.061409
20
344.004557
11
215.245486
21
344.021084
0
LINE
8
annotation
62
1
39
211
10
215.245486
20
344.021084
11
215.418695
21
344.068726
0
LINE
8
annotation
62
1
39
211
10
215.418695
20
344.068726
11
215.578157
21
344.144581
0
LINE
8
annotation
62
1
39
211
10
215.578157
20
344.144581
11
215.720991
21
344.245742
0
LINE
8
annotation
62
1
39
211
10
215.720991
20
344.245742
11
215.844314
21
344.369306
0
LINE
8
annotation
62
1
39
211
10
215.844314
20
344.369306
11
215.945248
21
344.512367
0
LINE
8
annotation
62
1
39
211
10
215.945248
20
344.512367
11
216.020910
21
344.672021
0
LINE
8
annotation
62
1
39
211
10
216.020910
20
344.672021
11
216.068419
21
344.845364
0
LINE
8
annotation
62
1
39
211
10
216.068419
20
344.845364
11
216.084896
21
345.029490
0
LINE
8
annotation
62
1
39
211
10
216.084896
20
345.029490
11
216.084896
21
345.029490
0
LINE
8
annotation
62
1
39
211
10
216.084896
20
345.029490
11
216.068419
21
345.212756
0
LINE
8
annotation
62
1
39
211
10
216.068419
20
345.212756
11
216.020910
21
345.385428
0
LINE
8
annotation
62
1
39
211
10
216.020910
20
345.385428
11
215.945248
21
345.544579
0
LINE
8
annotation
62
1
39
211
10
215.945248
20
345.544579
11
215.844314
21
345.687279
0
LINE
8
annotation
62
1
39
211
10
215.844314
20
345.687279
11
215.720991
21
345.810601
0
LINE
8
annotation
62
1
39
211
10
215.720991
20
345.810601
11
215.578157
21
345.911616
0
LINE
8
annotation
62
1
39
211
10
215.578157
20
345.911616
11
215.418695
21
345.987395
0
LINE
8
annotation
62
1
39
211
10
215.418695
20
345.987395
11
215.245486
21
346.035010
0
LINE
8
annotation
62
1
39
211
10
215.245486
20
346.035010
11
215.061409
21
346.051532
0
LINE
8
annotation
62
1
39
211
10
215.061409
20
346.051532
11
214.037921
21
346.051532
0
LINE
8
annotation
62
1
39
211
10
205.042509
20
360.592214
11
205.042509
21
364.756849
0
LINE
8
annotation
62
1
39
211
10
205.042509
20
364.756849
11
204.116657
21
363.830736
0
LINE
8
annotation
62
1
39
211
10
208.916527
20
361.518066
11
206.604117
21
361.518066
0
LINE
8
annotation
62
1
39
211
10
206.604117
20
361.518066
11
207.527618
21
364.756849
0
LINE
8
annotation
62
1
39
211
10
208.223378
20
360.592214
11
208.223378
21
362.441828
0
LINE
8
annotation
62
1
39
211
10
197.321479
20
379.292184
11
197.321479
21
383.901201
0
LINE
8
annotation
62
1
39
211
10
197.321479
20
383.901201
11
196.296835
21
382.876269
0
LINE
8
annotation
62
1
39
211
10
199.049716
20
379.292184
11
200.073203
21
379.292184
0
LINE
8
annotation
62
1
39
211
10
200.073203
20
379.292184
11
200.073203
21
379.292184
0
LINE
8
annotation
62
1
39
211
10
200.073203
20
379.292184
11
200.256899
21
379.308700
0
LINE
8
annotation
62
1
39
211
10
200.256899
20
379.308700
11
200.429907
21
379.356316
0
LINE
8
annotation
62
1
39
211
10
200.429907
20
379.356316
11
200.589309
21
379.432132
0
LINE
8
annotation
62
1
39
211
10
200.589309
20
379.432132
11
200.732190
21
379.533248
0
LINE
8
annotation
62
1
39
211
10
200.732190
20
379.533248
11
200.855633
21
379.656764
0
LINE
8
annotation
62
1
39
211
10
200.855633
20
379.656764
11
200.956721
21
379.799779
0
LINE
8
annotation
62
1
39
211
10
200.956721
20
379.799779
11
201.032537
21
379.959395
0
LINE
8
annotation
62
1
39
211
10
201.032537
20
379.959395
11
201.080166
21
380.132711
0
LINE
8
annotation
62
1
39
211
10
201.080166
20
380.132711
11
201.096691
21
380.316827
0
LINE
8
annotation
62
1
39
211
10
201.096691
20
380.316827
11
201.096691
21
380.826692
0
LINE
8
annotation
62
1
39
211
10
201.096691
20
380.826692
11
201.096691
21
380.826692
0
LINE
8
annotation
62
1
39
211
10
201.096691
20
380.826692
11
201.080176
21
381.010719
0
LINE
8
annotation
62
1
39
211
10
201.080176
20
381.010719
11
201.032571
21
381.183796
0
LINE
8
annotation
62
1
39
211
10
201.032571
20
381.183796
11
200.956785
21
381.343066
0
LINE
8
annotation
62
1
39
211
10
200.956785
20
381.343066
11
200.855728
21
381.485671
0
LINE
8
annotation
62
1
39
211
10
200.855728
20
381.485671
11
200.732309
21
381.608755
0
LINE
8
annotation
62
1
39
211
10
200.732309
20
381.608755
11
200.589438
21
381.709461
0
LINE
8
annotation
62
1
39
211
10
200.589438
20
381.709461
11
200.430023
21
381.784930
0
LINE
8
annotation
62
1
39
211
10
200.430023
20
381.784930
11
200.256975
21
381.832307
0
LINE
8
annotation
62
1
39
211
10
200.256975
20
381.832307
11
200.073203
21
381.848735
0
LINE
8
annotation
62
1
39
211
10
200.073203
20
381.848735
11
199.049716
21
381.848735
0
LINE
8
annotation
62
1
39
211
10
199.049716
20
381.848735
11
199.049716
21
383.901201
0
LINE
8
annotation
62
1
39
211
10
199.049716
20
383.901201
11
201.096691
21
383.901201
0
LINE
8
annotation
62
1
39
211
10
189.108331
20
398.214345
11
189.108331
21
402.823362
0
LINE
8
annotation
62
1
39
211
10
189.108331
20
402.823362
11
188.083687
21
401.798429
0
LINE
8
annotation
62
1
39
211
10
192.373967
20
402.823362
11
192.373967
21
402.823362
0
LINE
8
annotation
62
1
39
211
10
192.373967
20
402.823362
11
192.080763
21
402.713428
0
LINE
8
annotation
62
1
39
211
10
192.080763
20
402.713428
11
191.811711
21
402.565306
0
LINE
8
annotation
62
1
39
211
10
191.811711
20
402.565306
11
191.569571
21
402.382706
0
LINE
8
annotation
62
1
39
211
10
191.569571
20
402.382706
11
191.357106
21
402.169339
0
LINE
8
annotation
62
1
39
211
10
191.357106
20
402.169339
11
191.177077
21
401.928917
0
LINE
8
annotation
62
1
39
211
10
191.177077
20
401.928917
11
191.032247
21
401.665150
0
LINE
8
annotation
62
1
39
211
10
191.032247
20
401.665150
11
190.925378
21
401.381750
0
LINE
8
annotation
62
1
39
211
10
190.925378
20
401.381750
11
190.859231
21
401.082428
0
LINE
8
annotation
62
1
39
211
10
190.859231
20
401.082428
11
190.836568
21
400.770895
0
LINE
8
annotation
62
1
39
211
10
190.836568
20
400.770895
11
190.836568
21
399.238988
0
LINE
8
annotation
62
1
39
211
10
190.836568
20
399.238988
11
190.836568
21
399.238988
0
LINE
8
annotation
62
1
39
211
10
190.836568
20
399.238988
11
190.853092
21
399.054872
0
LINE
8
annotation
62
1
39
211
10
190.853092
20
399.054872
11
190.900721
21
398.881556
0
LINE
8
annotation
62
1
39
211
10
190.900721
20
398.881556
11
190.976538
21
398.721940
0
LINE
8
annotation
62
1
39
211
10
190.976538
20
398.721940
11
191.077626
21
398.578924
0
LINE
8
annotation
62
1
39
211
10
191.077626
20
398.578924
11
191.201068
21
398.455409
0
LINE
8
annotation
62
1
39
211
10
191.201068
20
398.455409
11
191.343949
21
398.354293
0
LINE
8
annotation
62
1
39
211
10
191.343949
20
398.354293
11
191.503352
21
398.278477
0
LINE
8
annotation
62
1
39
211
10
191.503352
20
398.278477
11
191.676359
21
398.230861
0
LINE
8
annotation
62
1
39
211
10
191.676359
20
398.230861
11
191.860055
21
398.214345
0
LINE
8
annotation
62
1
39
211
10
191.860055
20
398.214345
11
191.860055
21
398.214345
0
LINE
8
annotation
62
1
39
211
10
191.860055
20
398.214345
11
192.044132
21
398.230861
0
LINE
8
annotation
62
1
39
211
10
192.044132
20
398.230861
11
192.217342
21
398.278477
0
LINE
8
annotation
62
1
39
211
10
192.217342
20
398.278477
11
192.376804
21
398.354293
0
LINE
8
annotation
62
1
39
211
10
192.376804
20
398.354293
11
192.519637
21
398.455409
0
LINE
8
annotation
62
1
39
211
10
192.519637
20
398.455409
11
192.642961
21
398.578924
0
LINE
8
annotation
62
1
39
211
10
192.642961
20
398.578924
11
192.743894
21
398.721940
0
LINE
8
annotation
62
1
39
211
10
192.743894
20
398.721940
11
192.819556
21
398.881556
0
LINE
8
annotation
62
1
39
211
10
192.819556
20
398.881556
11
192.867066
21
399.054872
0
LINE
8
annotation
62
1
39
211
10
192.867066
20
399.054872
11
192.883543
21
399.238988
0
LINE
8
annotation
62
1
39
211
10
192.883543
20
399.238988
11
192.883543
21
399.748853
0
LINE
8
annotation
62
1
39
211
10
192.883543
20
399.748853
11
192.883543
21
399.748853
0
LINE
8
annotation
62
1
39
211
10
192.883543
20
399.748853
11
192.867066
21
399.932880
0
LINE
8
annotation
62
1
39
211
10
192.867066
20
399.932880
11
192.819556
21
400.105957
0
LINE
8
annotation
62
1
39
211
10
192.819556
20
400.105957
11
192.743894
21
400.265227
0
LINE
8
annotation
62
1
39
211
10
192.743894
20
400.265227
11
192.642961
21
400.407832
0
LINE
8
annotation
62
1
39
211
10
192.642961
20
400.407832
11
192.519637
21
400.530916
0
LINE
8
annotation
62
1
39
211
10
192.519637
20
400.530916
11
192.376804
21
400.631621
0
LINE
8
annotation
62
1
39
211
10
192.376804
20
400.631621
11
192.217342
21
400.707091
0
LINE
8
annotation
62
1
39
211
10
192.217342
20
400.707091
11
192.044132
21
400.754468
0
LINE
8
annotation
62
1
39
211
10
192.044132
20
400.754468
11
191.860055
21
400.770895
0
LINE
8
annotation
62
1
39
211
10
191.860055
20
400.770895
11
190.836568
21
400.770895
0
LINE
8
annotation
62
1
39
211
10
190.708379
20
397.638217
11
193.012888
21
397.638217
0
LINE
8
annotation
62
1
39
211
10
180.710408
20
417.137754
11
180.710408
21
421.744275
0
LINE
8
annotation
62
1
39
211
10
180.710408
20
421.744275
11
179.686319
21
420.719897
0
LINE
8
annotation
62
1
39
211
10
183.461942
20
417.137754
11
184.486031
21
421.744275
0
LINE
8
annotation
62
1
39
211
10
184.486031
20
421.744275
11
182.437565
21
421.744275
0
LINE
8
annotation
62
1
39
211
10
184.486031
20
419.692920
11
183.461942
21
419.692920
0
LINE
8
annotation
62
1
39
211
10
172.262483
20
436.058666
11
172.262483
21
440.667684
0
LINE
8
annotation
62
1
39
211
10
172.262483
20
440.667684
11
171.237839
21
439.642751
0
LINE
8
annotation
62
1
39
211
10
173.990720
20
437.080564
11
173.990720
21
437.080564
0
LINE
8
annotation
62
1
39
211
10
173.990720
20
437.080564
11
174.007244
21
436.896537
0
LINE
8
annotation
62
1
39
211
10
174.007244
20
436.896537
11
174.054873
21
436.723460
0
LINE
8
annotation
62
1
39
211
10
174.054873
20
436.723460
11
174.130689
21
436.564190
0
LINE
8
annotation
62
1
39
211
10
174.130689
20
436.564190
11
174.231777
21
436.421585
0
LINE
8
annotation
62
1
39
211
10
174.231777
20
436.421585
11
174.355220
21
436.298501
0
LINE
8
annotation
62
1
39
211
10
174.355220
20
436.298501
11
174.498101
21
436.197796
0
LINE
8
annotation
62
1
39
211
10
174.498101
20
436.197796
11
174.657503
21
436.122326
0
LINE
8
annotation
62
1
39
211
10
174.657503
20
436.122326
11
174.830511
21
436.074949
0
LINE
8
annotation
62
1
39
211
10
174.830511
20
436.074949
11
175.014207
21
436.058522
0
LINE
8
annotation
62
1
39
211
10
175.014207
20
436.058522
11
175.014207
21
436.058522
0
LINE
8
annotation
62
1
39
211
10
175.014207
20
436.058522
11
175.197903
21
436.074949
0
LINE
8
annotation
62
1
39
211
10
175.197903
20
436.074949
11
175.370911
21
436.122326
0
LINE
8
annotation
62
1
39
211
10
175.370911
20
436.122326
11
175.530313
21
436.197796
0
LINE
8
annotation
62
1
39
211
10
175.530313
20
436.197796
11
175.673194
21
436.298501
0
LINE
8
annotation
62
1
39
211
10
175.673194
20
436.298501
11
175.796637
21
436.421585
0
LINE
8
annotation
62
1
39
211
10
175.796637
20
436.421585
11
175.897725
21
436.564190
0
LINE
8
annotation
62
1
39
211
10
175.897725
20
436.564190
11
175.973541
21
436.723460
0
LINE
8
annotation
62
1
39
211
10
175.973541
20
436.723460
11
176.021170
21
436.896537
0
LINE
8
annotation
62
1
39
211
10
176.021170
20
436.896537
11
176.037694
21
437.080564
0
LINE
8
annotation
62
1
39
211
10
176.037694
20
437.080564
11
176.037694
21
437.590429
0
LINE
8
annotation
62
1
39
211
10
176.037694
20
437.590429
11
176.037694
21
437.590429
0
LINE
8
annotation
62
1
39
211
10
176.037694
20
437.590429
11
176.021180
21
437.774545
0
LINE
8
annotation
62
1
39
211
10
176.021180
20
437.774545
11
175.973575
21
437.947861
0
LINE
8
annotation
62
1
39
211
10
175.973575
20
437.947861
11
175.897789
21
438.107477
0
LINE
8
annotation
62
1
39
211
10
175.897789
20
438.107477
11
175.796732
21
438.250493
0
LINE
8
annotation
62
1
39
211
10
175.796732
20
438.250493
11
175.673313
21
438.374009
0
LINE
8
annotation
62
1
39
211
10
175.673313
20
438.374009
11
175.530442
21
438.475124
0
LINE
8
annotation
62
1
39
211
10
175.530442
20
438.475124
11
175.371027
21
438.550940
0
LINE
8
annotation
62
1
39
211
10
175.371027
20
438.550940
11
175.197979
21
438.598556
0
LINE
8
annotation
62
1
39
211
10
175.197979
20
438.598556
11
175.014207
21
438.615073
0
LINE
8
annotation
62
1
39
211
10
175.014207
20
438.615073
11
175.014207
21
438.615073
0
LINE
8
annotation
62
1
39
211
10
175.014207
20
438.615073
11
174.830435
21
438.598547
0
LINE
8
annotation
62
1
39
211
10
174.830435
20
438.598547
11
174.657387
21
438.550907
0
LINE
8
annotation
62
1
39
211
10
174.657387
20
438.550907
11
174.497973
21
438.475060
0
LINE
8
annotation
62
1
39
211
10
174.497973
20
438.475060
11
174.355101
21
438.373913
0
LINE
8
annotation
62
1
39
211
10
174.355101
20
438.373913
11
174.231682
21
438.250374
0
LINE
8
annotation
62
1
39
211
10
174.231682
20
438.250374
11
174.130625
21
438.107349
0
LINE
8
annotation
62
1
39
211
10
174.130625
20
438.107349
11
174.054840
21
437.947745
0
LINE
8
annotation
62
1
39
211
10
174.054840
20
437.947745
11
174.007234
21
437.774469
0
LINE
8
annotation
62
1
39
211
10
174.007234
20
437.774469
11
173.990720
21
437.590429
0
LINE
8
annotation
62
1
39
211
10
173.990720
20
437.590429
11
173.990720
21
437.080564
0
LINE
8
annotation
62
1
39
211
10
176.037694
20
439.640005
11
176.037694
21
439.640005
0
LINE
8
annotation
62
1
39
211
10
176.037694
20
439.640005
11
176.021180
21
439.823271
0
LINE
8
annotation
62
1
39
211
10
176.021180
20
439.823271
11
175.973575
21
439.995944
0
LINE
8
annotation
62
1
39
211
10
175.973575
20
439.995944
11
175.897789
21
440.155094
0
LINE
8
annotation
62
1
39
211
10
175.897789
20
440.155094
11
175.796732
21
440.297795
0
LINE
8
annotation
62
1
39
211
10
175.796732
20
440.297795
11
175.673313
21
440.421117
0
LINE
8
annotation
62
1
39
211
10
175.673313
20
440.421117
11
175.530442
21
440.522131
0
LINE
8
annotation
62
1
39
211
10
175.530442
20
440.522131
11
175.371027
21
440.597910
0
LINE
8
annotation
62
1
39
211
10
175.371027
20
440.597910
11
175.197979
21
440.645525
0
LINE
8
annotation
62
1
39
211
10
175.197979
20
440.645525
11
175.014207
21
440.662048
0
LINE
8
annotation
62
1
39
211
10
175.014207
20
440.662048
11
175.014207
21
440.662048
0
LINE
8
annotation
62
1
39
211
10
175.014207
20
440.662048
11
174.830435
21
440.645525
0
LINE
8
annotation
62
1
39
211
10
174.830435
20
440.645525
11
174.657387
21
440.597910
0
LINE
8
annotation
62
1
39
211
10
174.657387
20
440.597910
11
174.497973
21
440.522131
0
LINE
8
annotation
62
1
39
211
10
174.497973
20
440.522131
11
174.355101
21
440.421117
0
LINE
8
annotation
62
1
39
211
10
174.355101
20
440.421117
11
174.231682
21
440.297795
0
LINE
8
annotation
62
1
39
211
10
174.231682
20
440.297795
11
174.130625
21
440.155094
0
LINE
8
annotation
62
1
39
211
10
174.130625
20
440.155094
11
174.054840
21
439.995944
0
LINE
8
annotation
62
1
39
211
10
174.054840
20
439.995944
11
174.007234
21
439.823271
0
LINE
8
annotation
62
1
39
211
10
174.007234
20
439.823271
11
173.990720
21
439.640005
0
LINE
8
annotation
62
1
39
211
10
173.990720
20
439.640005
11
173.990720
21
439.640005
0
LINE
8
annotation
62
1
39
211
10
173.990720
20
439.640005
11
174.007244
21
439.455879
0
LINE
8
annotation
62
1
39
211
10
174.007244
20
439.455879
11
174.054873
21
439.282537
0
LINE
8
annotation
62
1
39
211
10
174.054873
20
439.282537
11
174.130689
21
439.122882
0
LINE
8
annotation
62
1
39
211
10
174.130689
20
439.122882
11
174.231777
21
438.979821
0
LINE
8
annotation
62
1
39
211
10
174.231777
20
438.979821
11
174.355220
21
438.856257
0
LINE
8
annotation
62
1
39
211
10
174.355220
20
438.856257
11
174.498101
21
438.755096
0
LINE
8
annotation
62
1
39
211
10
174.498101
20
438.755096
11
174.657503
21
438.679242
0
LINE
8
annotation
62
1
39
211
10
174.657503
20
438.679242
11
174.830511
21
438.631599
0
LINE
8
annotation
62
1
39
211
10
174.830511
20
438.631599
11
175.014207
21
438.615073
0
LINE
8
annotation
62
1
39
211
10
175.014207
20
438.615073
11
175.014207
21
438.615073
0
LINE
8
annotation
62
1
39
211
10
175.014207
20
438.615073
11
175.197903
21
438.631599
0
LINE
8
annotation
62
1
39
211
10
175.197903
20
438.631599
11
175.370911
21
438.679242
0
LINE
8
annotation
62
1
39
211
10
175.370911
20
438.679242
11
175.530313
21
438.755096
0
LINE
8
annotation
62
1
39
211
10
175.530313
20
438.755096
11
175.673194
21
438.856257
0
LINE
8
annotation
62
1
39
211
10
175.673194
20
438.856257
11
175.796637
21
438.979821
0
LINE
8
annotation
62
1
39
211
10
175.796637
20
438.979821
11
175.897725
21
439.122882
0
LINE
8
annotation
62
1
39
211
10
175.897725
20
439.122882
11
175.973541
21
439.282537
0
LINE
8
annotation
62
1
39
211
10
175.973541
20
439.282537
11
176.021170
21
439.455879
0
LINE
8
annotation
62
1
39
211
10
176.021170
20
439.455879
11
176.037694
21
439.640005
0
LINE
8
annotation
62
1
39
211
10
163.903302
20
454.980827
11
163.903302
21
459.589845
0
LINE
8
annotation
62
1
39
211
10
163.903302
20
459.589845
11
162.878658
21
458.564912
0
LINE
8
annotation
62
1
39
211
10
166.142560
20
454.980827
11
166.142560
21
454.980827
0
LINE
8
annotation
62
1
39
211
10
166.142560
20
454.980827
11
166.435247
21
455.089897
0
LINE
8
annotation
62
1
39
211
10
166.435247
20
455.089897
11
166.703898
21
455.237324
0
LINE
8
annotation
62
1
39
211
10
166.703898
20
455.237324
11
166.945736
21
455.419353
0
LINE
8
annotation
62
1
39
211
10
166.945736
20
455.419353
11
167.157984
21
455.632227
0
LINE
8
annotation
62
1
39
211
10
167.157984
20
455.632227
11
167.337868
21
455.872190
0
LINE
8
annotation
62
1
39
211
10
167.337868
20
455.872190
11
167.482610
21
456.135485
0
LINE
8
annotation
62
1
39
211
10
167.482610
20
456.135485
11
167.589434
21
456.418356
0
LINE
8
annotation
62
1
39
211
10
167.589434
20
456.418356
11
167.655564
21
456.717048
0
LINE
8
annotation
62
1
39
211
10
167.655564
20
456.717048
11
167.678225
21
457.027802
0
LINE
8
annotation
62
1
39
211
10
167.678225
20
457.027802
11
167.678225
21
458.564912
0
LINE
8
annotation
62
1
39
211
10
167.678225
20
458.564912
11
167.678225
21
458.564912
0
LINE
8
annotation
62
1
39
211
10
167.678225
20
458.564912
11
167.661748
21
458.749038
0
LINE
8
annotation
62
1
39
211
10
167.661748
20
458.749038
11
167.614238
21
458.922381
0
LINE
8
annotation
62
1
39
211
10
167.614238
20
458.922381
11
167.538576
21
459.082035
0
LINE
8
annotation
62
1
39
211
10
167.538576
20
459.082035
11
167.437643
21
459.225096
0
LINE
8
annotation
62
1
39
211
10
167.437643
20
459.225096
11
167.314319
21
459.348660
0
LINE
8
annotation
62
1
39
211
10
167.314319
20
459.348660
11
167.171486
21
459.449821
0
LINE
8
annotation
62
1
39
211
10
167.171486
20
459.449821
11
167.012024
21
459.525676
0
LINE
8
annotation
62
1
39
211
10
167.012024
20
459.525676
11
166.838814
21
459.573318
0
LINE
8
annotation
62
1
39
211
10
166.838814
20
459.573318
11
166.654737
21
459.589845
0
LINE
8
annotation
62
1
39
211
10
166.654737
20
459.589845
11
166.654737
21
459.589845
0
LINE
8
annotation
62
1
39
211
10
166.654737
20
459.589845
11
166.471041
21
459.573318
0
LINE
8
annotation
62
1
39
211
10
166.471041
20
459.573318
11
166.298034
21
459.525676
0
LINE
8
annotation
62
1
39
211
10
166.298034
20
459.525676
11
166.138631
21
459.449821
0
LINE
8
annotation
62
1
39
211
10
166.138631
20
459.449821
11
165.995750
21
459.348660
0
LINE
8
annotation
62
1
39
211
10
165.995750
20
459.348660
11
165.872308
21
459.225096
0
LINE
8
annotation
62
1
39
211
10
165.872308
20
459.225096
11
165.771220
21
459.082035
0
LINE
8
annotation
62
1
39
211
10
165.771220
20
459.082035
11
165.695403
21
458.922381
0
LINE
8
annotation
62
1
39
211
10
165.695403
20
458.922381
11
165.647774
21
458.749038
0
LINE
8
annotation
62
1
39
211
10
165.647774
20
458.749038
11
165.631250
21
458.564912
0
LINE
8
annotation
62
1
39
211
10
165.631250
20
458.564912
11
165.631250
21
458.052446
0
LINE
8
annotation
62
1
39
211
10
165.631250
20
458.052446
11
165.631250
21
458.052446
0
LINE
8
annotation
62
1
39
211
10
165.631250
20
458.052446
11
165.647774
21
457.868330
0
LINE
8
annotation
62
1
39
211
10
165.647774
20
457.868330
11
165.695403
21
457.695014
0
LINE
8
annotation
62
1
39
211
10
165.695403
20
457.695014
11
165.771220
21
457.535398
0
LINE
8
annotation
62
1
39
211
10
165.771220
20
457.535398
11
165.872308
21
457.392382
0
LINE
8
annotation
62
1
39
211
10
165.872308
20
457.392382
11
165.995750
21
457.268866
0
LINE
8
annotation
62
1
39
211
10
165.995750
20
457.268866
11
166.138631
21
457.167751
0
LINE
8
annotation
62
1
39
211
10
166.138631
20
457.167751
11
166.298034
21
457.091935
0
LINE
8
annotation
62
1
39
211
10
166.298034
20
457.091935
11
166.471041
21
457.044319
0
LINE
8
annotation
62
1
39
211
10
166.471041
20
457.044319
11
166.654737
21
457.027802
0
LINE
8
annotation
62
1
39
211
10
166.654737
20
457.027802
11
167.678225
21
457.027802
0
LINE
8
annotation
62
1
39
211
10
165.503350
20
454.404700
11
167.807859
21
454.404700
0
LINE
8
annotation
62
1
39
211
10
156.530523
20
474.304873
11
154.840549
21
474.304873
0
LINE
8
annotation
62
1
39
211
10
154.840549
20
474.304873
11
156.402140
21
476.818835
0
LINE
8
annotation
62
1
39
211
10
156.402140
20
476.818835
11
156.402140
21
476.818835
0
LINE
8
annotation
62
1
39
211
10
156.402140
20
476.818835
11
156.404007
21
476.821145
0
LINE
8
annotation
62
1
39
211
10
156.404007
20
476.821145
11
156.405797
21
476.823475
0
LINE
8
annotation
62
1
39
211
10
156.405797
20
476.823475
11
156.407523
21
476.825844
0
LINE
8
annotation
62
1
39
211
10
156.407523
20
476.825844
11
156.409195
21
476.828271
0
LINE
8
annotation
62
1
39
211
10
156.409195
20
476.828271
11
156.410826
21
476.830778
0
LINE
8
annotation
62
1
39
211
10
156.410826
20
476.830778
11
156.412428
21
476.833382
0
LINE
8
annotation
62
1
39
211
10
156.412428
20
476.833382
11
156.414012
21
476.836105
0
LINE
8
annotation
62
1
39
211
10
156.414012
20
476.836105
11
156.415590
21
476.838965
0
LINE
8
annotation
62
1
39
211
10
156.415590
20
476.838965
11
156.417174
21
476.841982
0
LINE
8
annotation
62
1
39
211
10
156.417174
20
476.841982
11
156.417174
21
476.841982
0
LINE
8
annotation
62
1
39
211
10
156.417174
20
476.841982
11
156.481652
21
476.980421
0
LINE
8
annotation
62
1
39
211
10
156.481652
20
476.980421
11
156.519319
21
477.123926
0
LINE
8
annotation
62
1
39
211
10
156.519319
20
477.123926
11
156.531098
21
477.269253
0
LINE
8
annotation
62
1
39
211
10
156.531098
20
477.269253
11
156.517912
21
477.413160
0
LINE
8
annotation
62
1
39
211
10
156.517912
20
477.413160
11
156.480684
21
477.552404
0
LINE
8
annotation
62
1
39
211
10
156.480684
20
477.552404
11
156.420338
21
477.683743
0
LINE
8
annotation
62
1
39
211
10
156.420338
20
477.683743
11
156.337796
21
477.803935
0
LINE
8
annotation
62
1
39
211
10
156.337796
20
477.803935
11
156.233983
21
477.909736
0
LINE
8
annotation
62
1
39
211
10
156.233983
20
477.909736
11
156.109819
21
477.997903
0
LINE
8
annotation
62
1
39
211
10
156.109819
20
477.997903
11
156.109819
21
477.997903
0
LINE
8
annotation
62
1
39
211
10
156.109819
20
477.997903
11
155.970995
21
478.061465
0
LINE
8
annotation
62
1
39
211
10
155.970995
20
478.061465
11
155.827271
21
478.098551
0
LINE
8
annotation
62
1
39
211
10
155.827271
20
478.098551
11
155.681859
21
478.109997
0
LINE
8
annotation
62
1
39
211
10
155.681859
20
478.109997
11
155.537974
21
478.096638
0
LINE
8
annotation
62
1
39
211
10
155.537974
20
478.096638
11
155.398828
21
478.059307
0
LINE
8
annotation
62
1
39
211
10
155.398828
20
478.059307
11
155.267634
21
477.998840
0
LINE
8
annotation
62
1
39
211
10
155.267634
20
477.998840
11
155.147605
21
477.916072
0
LINE
8
annotation
62
1
39
211
10
155.147605
20
477.916072
11
155.041956
21
477.811837
0
LINE
8
annotation
62
1
39
211
10
155.041956
20
477.811837
11
154.953898
21
477.686969
0
LINE
8
annotation
62
1
39
211
10
154.953898
20
477.686969
11
154.842935
21
477.474112
0
LINE
8
annotation
62
1
39
211
10
158.568969
20
474.355095
11
158.568969
21
474.355095
0
LINE
8
annotation
62
1
39
211
10
158.568969
20
474.355095
11
158.657407
21
474.322035
0
LINE
8
annotation
62
1
39
211
10
158.657407
20
474.322035
11
158.748107
21
474.305610
0
LINE
8
annotation
62
1
39
211
10
158.748107
20
474.305610
11
158.839019
21
474.305151
0
LINE
8
annotation
62
1
39
211
10
158.839019
20
474.305151
11
158.928092
21
474.319988
0
LINE
8
annotation
62
1
39
211
10
158.928092
20
474.319988
11
159.013277
21
474.349450
0
LINE
8
annotation
62
1
39
211
10
159.013277
20
474.349450
11
159.092523
21
474.392870
0
LINE
8
annotation
62
1
39
211
10
159.092523
20
474.392870
11
159.163779
21
474.449575
0
LINE
8
annotation
62
1
39
211
10
159.163779
20
474.449575
11
159.224995
21
474.518898
0
LINE
8
annotation
62
1
39
211
10
159.224995
20
474.518898
11
159.274120
21
474.600168
0
LINE
8
annotation
62
1
39
211
10
159.274120
20
474.600168
11
159.274120
21
474.600168
0
LINE
8
annotation
62
1
39
211
10
159.274120
20
474.600168
11
159.420691
21
474.943255
0
LINE
8
annotation
62
1
39
211
10
159.420691
20
474.943255
11
159.530620
21
475.296272
0
LINE
8
annotation
62
1
39
211
10
159.530620
20
475.296272
11
159.603906
21
475.656404
0
LINE
8
annotation
62
1
39
211
10
159.603906
20
475.656404
11
159.640549
21
476.020838
0
LINE
8
annotation
62
1
39
211
10
159.640549
20
476.020838
11
159.640549
21
476.386758
0
LINE
8
annotation
62
1
39
211
10
159.640549
20
476.386758
11
159.603906
21
476.751351
0
LINE
8
annotation
62
1
39
211
10
159.603906
20
476.751351
11
159.530620
21
477.111802
0
LINE
8
annotation
62
1
39
211
10
159.530620
20
477.111802
11
159.420691
21
477.465296
0
LINE
8
annotation
62
1
39
211
10
159.420691
20
477.465296
11
159.274120
21
477.809019
0
LINE
8
annotation
62
1
39
211
10
159.274120
20
477.809019
11
159.274120
21
477.809019
0
LINE
8
annotation
62
1
39
211
10
159.274120
20
477.809019
11
159.255480
21
477.843708
0
LINE
8
annotation
62
1
39
211
10
159.255480
20
477.843708
11
159.234348
21
477.876873
0
LINE
8
annotation
62
1
39
211
10
159.234348
20
477.876873
11
159.210883
21
477.908351
0
LINE
8
annotation
62
1
39
211
10
159.210883
20
477.908351
11
159.185244
21
477.937979
0
LINE
8
annotation
62
1
39
211
10
159.185244
20
477.937979
11
159.157589
21
477.965593
0
LINE
8
annotation
62
1
39
211
10
159.157589
20
477.965593
11
159.128079
21
477.991032
0
LINE
8
annotation
62
1
39
211
10
159.128079
20
477.991032
11
159.096871
21
478.014131
0
LINE
8
annotation
62
1
39
211
10
159.096871
20
478.014131
11
159.064126
21
478.034728
0
LINE
8
annotation
62
1
39
211
10
159.064126
20
478.034728
11
159.030002
21
478.052660
0
LINE
8
annotation
62
1
39
211
10
159.030002
20
478.052660
11
159.030002
21
478.052660
0
LINE
8
annotation
62
1
39
211
10
159.030002
20
478.052660
11
158.940862
21
478.086437
0
LINE
8
annotation
62
1
39
211
10
158.940862
20
478.086437
11
158.849631
21
478.103423
0
LINE
8
annotation
62
1
39
211
10
158.849631
20
478.103423
11
158.758335
21
478.104292
0
LINE
8
annotation
62
1
39
211
10
158.758335
20
478.104292
11
158.669001
21
478.089719
0
LINE
8
annotation
62
1
39
211
10
158.669001
20
478.089719
11
158.583657
21
478.060375
0
LINE
8
annotation
62
1
39
211
10
158.583657
20
478.060375
11
158.504327
21
478.016936
0
LINE
8
annotation
62
1
39
211
10
158.504327
20
478.016936
11
158.433041
21
477.960075
0
LINE
8
annotation
62
1
39
211
10
158.433041
20
477.960075
11
158.371824
21
477.890465
0
LINE
8
annotation
62
1
39
211
10
158.371824
20
477.890465
11
158.322704
21
477.808781
0
LINE
8
annotation
62
1
39
211
10
158.322704
20
477.808781
11
158.322704
21
477.808781
0
LINE
8
annotation
62
1
39
211
10
158.322704
20
477.808781
11
158.176839
21
477.465765
0
LINE
8
annotation
62
1
39
211
10
158.176839
20
477.465765
11
158.067441
21
477.112801
0
LINE
8
annotation
62
1
39
211
10
158.067441
20
477.112801
11
157.994509
21
476.752704
0
LINE
8
annotation
62
1
39
211
10
157.994509
20
476.752704
11
157.958043
21
476.388287
0
LINE
8
annotation
62
1
39
211
10
157.958043
20
476.388287
11
157.958043
21
476.022367
0
LINE
8
annotation
62
1
39
211
10
157.958043
20
476.022367
11
157.994509
21
475.657756
0
LINE
8
annotation
62
1
39
211
10
157.994509
20
475.657756
11
158.067441
21
475.297270
0
LINE
8
annotation
62
1
39
211
10
158.067441
20
475.297270
11
158.176839
21
474.943723
0
LINE
8
annotation
62
1
39
211
10
158.176839
20
474.943723
11
158.322704
21
474.599929
0
LINE
8
annotation
62
1
39
211
10
158.322704
20
474.599929
11
158.322704
21
474.599929
0
LINE
8
annotation
62
1
39
211
10
158.322704
20
474.599929
11
158.341276
21
474.565309
0
LINE
8
annotation
62
1
39
211
10
158.341276
20
474.565309
11
158.362252
21
474.532310
0
LINE
8
annotation
62
1
39
211
10
158.362252
20
474.532310
11
158.385543
21
474.501031
0
LINE
8
annotation
62
1
39
211
10
158.385543
20
474.501031
11
158.411062
21
474.471572
0
LINE
8
annotation
62
1
39
211
10
158.411062
20
474.471572
11
158.438719
21
474.444035
0
LINE
8
annotation
62
1
39
211
10
158.438719
20
474.444035
11
158.468427
21
474.418518
0
LINE
8
annotation
62
1
39
211
10
158.468427
20
474.418518
11
158.500097
21
474.395122
0
LINE
8
annotation
62
1
39
211
10
158.500097
20
474.395122
11
158.533641
21
474.373948
0
LINE
8
annotation
62
1
39
211
10
158.533641
20
474.373948
11
158.568969
21
474.355095
0
LINE
8
annotation
62
1
39
211
10
149.313961
20
492.825446
11
147.267282
21
492.825446
0
LINE
8
annotation
62
1
39
211
10
147.267282
20
492.825446
11
149.158480
21
495.870031
0
LINE
8
annotation
62
1
39
211
10
149.158480
20
495.870031
11
149.158480
21
495.870031
0
LINE
8
annotation
62
1
39
211
10
149.158480
20
495.870031
11
149.160741
21
495.872829
0
LINE
8
annotation
62
1
39
211
10
149.160741
20
495.872829
11
149.162909
21
495.875650
0
LINE
8
annotation
62
1
39
211
10
149.162909
20
495.875650
11
149.164999
21
495.878519
0
LINE
8
annotation
62
1
39
211
10
149.164999
20
495.878519
11
149.167024
21
495.881460
0
LINE
8
annotation
62
1
39
211
10
149.167024
20
495.881460
11
149.168999
21
495.884495
0
LINE
8
annotation
62
1
39
211
10
149.168999
20
495.884495
11
149.170939
21
495.887649
0
LINE
8
annotation
62
1
39
211
10
149.170939
20
495.887649
11
149.172857
21
495.890946
0
LINE
8
annotation
62
1
39
211
10
149.172857
20
495.890946
11
149.174769
21
495.894410
0
LINE
8
annotation
62
1
39
211
10
149.174769
20
495.894410
11
149.176687
21
495.898064
0
LINE
8
annotation
62
1
39
211
10
149.176687
20
495.898064
11
149.176687
21
495.898064
0
LINE
8
annotation
62
1
39
211
10
149.176687
20
495.898064
11
149.254774
21
496.065724
0
LINE
8
annotation
62
1
39
211
10
149.254774
20
496.065724
11
149.300391
21
496.239518
0
LINE
8
annotation
62
1
39
211
10
149.300391
20
496.239518
11
149.314656
21
496.415519
0
LINE
8
annotation
62
1
39
211
10
149.314656
20
496.415519
11
149.298687
21
496.589800
0
LINE
8
annotation
62
1
39
211
10
149.298687
20
496.589800
11
149.253602
21
496.758435
0
LINE
8
annotation
62
1
39
211
10
149.253602
20
496.758435
11
149.180519
21
496.917496
0
LINE
8
annotation
62
1
39
211
10
149.180519
20
496.917496
11
149.080555
21
497.063056
0
LINE
8
annotation
62
1
39
211
10
149.080555
20
497.063056
11
148.954829
21
497.191189
0
LINE
8
annotation
62
1
39
211
10
148.954829
20
497.191189
11
148.804458
21
497.297966
0
LINE
8
annotation
62
1
39
211
10
148.804458
20
497.297966
11
148.804458
21
497.297966
0
LINE
8
annotation
62
1
39
211
10
148.804458
20
497.297966
11
148.636333
21
497.374944
0
LINE
8
annotation
62
1
39
211
10
148.636333
20
497.374944
11
148.462272
21
497.419858
0
LINE
8
annotation
62
1
39
211
10
148.462272
20
497.419858
11
148.286169
21
497.433720
0
LINE
8
annotation
62
1
39
211
10
148.286169
20
497.433720
11
148.111913
21
497.417541
0
LINE
8
annotation
62
1
39
211
10
148.111913
20
497.417541
11
147.943397
21
497.372331
0
LINE
8
annotation
62
1
39
211
10
147.943397
20
497.372331
11
147.784512
21
497.299101
0
LINE
8
annotation
62
1
39
211
10
147.784512
20
497.299101
11
147.639150
21
497.198863
0
LINE
8
annotation
62
1
39
211
10
147.639150
20
497.198863
11
147.511200
21
497.072626
0
LINE
8
annotation
62
1
39
211
10
147.511200
20
497.072626
11
147.404556
21
496.921403
0
LINE
8
annotation
62
1
39
211
10
147.404556
20
496.921403
11
147.270172
21
496.663618
0
LINE
8
annotation
62
1
39
211
10
152.067079
20
492.825483
11
152.067079
21
497.433833
0
LINE
8
annotation
62
1
39
211
10
152.067079
20
497.433833
11
151.042584
21
496.409048
0
LINE
8
annotation
62
1
39
211
10
141.900339
20
512.152377
11
140.213192
21
512.152377
0
LINE
8
annotation
62
1
39
211
10
140.213192
20
512.152377
11
141.772171
21
514.662134
0
LINE
8
annotation
62
1
39
211
10
141.772171
20
514.662134
11
141.772171
21
514.662134
0
LINE
8
annotation
62
1
39
211
10
141.772171
20
514.662134
11
141.774035
21
514.664440
0
LINE
8
annotation
62
1
39
211
10
141.774035
20
514.664440
11
141.775822
21
514.666766
0
LINE
8
annotation
62
1
39
211
10
141.775822
20
514.666766
11
141.777545
21
514.669131
0
LINE
8
annotation
62
1
39
211
10
141.777545
20
514.669131
11
141.779214
21
514.671555
0
LINE
8
annotation
62
1
39
211
10
141.779214
20
514.671555
11
141.780843
21
514.674057
0
LINE
8
annotation
62
1
39
211
10
141.780843
20
514.674057
11
141.782442
21
514.676657
0
LINE
8
annotation
62
1
39
211
10
141.782442
20
514.676657
11
141.784023
21
514.679375
0
LINE
8
annotation
62
1
39
211
10
141.784023
20
514.679375
11
141.785598
21
514.682230
0
LINE
8
annotation
62
1
39
211
10
141.785598
20
514.682230
11
141.787180
21
514.685242
0
LINE
8
annotation
62
1
39
211
10
141.787180
20
514.685242
11
141.787180
21
514.685242
0
LINE
8
annotation
62
1
39
211
10
141.787180
20
514.685242
11
141.851550
21
514.823450
0
LINE
8
annotation
62
1
39
211
10
141.851550
20
514.823450
11
141.889153
21
514.966714
0
LINE
8
annotation
62
1
39
211
10
141.889153
20
514.966714
11
141.900913
21
515.111798
0
LINE
8
annotation
62
1
39
211
10
141.900913
20
515.111798
11
141.887749
21
515.255465
0
LINE
8
annotation
62
1
39
211
10
141.887749
20
515.255465
11
141.850584
21
515.394476
0
LINE
8
annotation
62
1
39
211
10
141.850584
20
515.394476
11
141.790339
21
515.525596
0
LINE
8
annotation
62
1
39
211
10
141.790339
20
515.525596
11
141.707935
21
515.645586
0
LINE
8
annotation
62
1
39
211
10
141.707935
20
515.645586
11
141.604295
21
515.751210
0
LINE
8
annotation
62
1
39
211
10
141.604295
20
515.751210
11
141.480339
21
515.839230
0
LINE
8
annotation
62
1
39
211
10
141.480339
20
515.839230
11
141.480339
21
515.839230
0
LINE
8
annotation
62
1
39
211
10
141.480339
20
515.839230
11
141.341747
21
515.902686
0
LINE
8
annotation
62
1
39
211
10
141.341747
20
515.902686
11
141.198263
21
515.939710
0
LINE
8
annotation
62
1
39
211
10
141.198263
20
515.939710
11
141.053095
21
515.951137
0
LINE
8
annotation
62
1
39
211
10
141.053095
20
515.951137
11
140.909450
21
515.937800
0
LINE
8
annotation
62
1
39
211
10
140.909450
20
515.937800
11
140.770537
21
515.900531
0
LINE
8
annotation
62
1
39
211
10
140.770537
20
515.900531
11
140.639562
21
515.840166
0
LINE
8
annotation
62
1
39
211
10
140.639562
20
515.840166
11
140.519735
21
515.757536
0
LINE
8
annotation
62
1
39
211
10
140.519735
20
515.757536
11
140.414262
21
515.653475
0
LINE
8
annotation
62
1
39
211
10
140.414262
20
515.653475
11
140.326351
21
515.528816
0
LINE
8
annotation
62
1
39
211
10
140.326351
20
515.528816
11
140.215574
21
515.316315
0
LINE
8
annotation
62
1
39
211
10
145.012618
20
512.152377
11
143.325471
21
512.152377
0
LINE
8
annotation
62
1
39
211
10
143.325471
20
512.152377
11
144.884450
21
514.662134
0
LINE
8
annotation
62
1
39
211
10
144.884450
20
514.662134
11
144.884450
21
514.662134
0
LINE
8
annotation
62
1
39
211
10
144.884450
20
514.662134
11
144.886314
21
514.664440
0
LINE
8
annotation
62
1
39
211
10
144.886314
20
514.664440
11
144.888101
21
514.666766
0
LINE
8
annotation
62
1
39
211
10
144.888101
20
514.666766
11
144.889824
21
514.669131
0
LINE
8
annotation
62
1
39
211
10
144.889824
20
514.669131
11
144.891493
21
514.671555
0
LINE
8
annotation
62
1
39
211
10
144.891493
20
514.671555
11
144.893122
21
514.674057
0
LINE
8
annotation
62
1
39
211
10
144.893122
20
514.674057
11
144.894721
21
514.676657
0
LINE
8
annotation
62
1
39
211
10
144.894721
20
514.676657
11
144.896302
21
514.679375
0
LINE
8
annotation
62
1
39
211
10
144.896302
20
514.679375
11
144.897877
21
514.682230
0
LINE
8
annotation
62
1
39
211
10
144.897877
20
514.682230
11
144.899459
21
514.685242
0
LINE
8
annotation
62
1
39
211
10
144.899459
20
514.685242
11
144.899459
21
514.685242
0
LINE
8
annotation
62
1
39
211
10
144.899459
20
514.685242
11
144.963829
21
514.823450
0
LINE
8
annotation
62
1
39
211
10
144.963829
20
514.823450
11
145.001432
21
514.966714
0
LINE
8
annotation
62
1
39
211
10
145.001432
20
514.966714
11
145.013192
21
515.111798
0
LINE
8
annotation
62
1
39
211
10
145.013192
20
515.111798
11
145.000028
21
515.255465
0
LINE
8
annotation
62
1
39
211
10
145.000028
20
515.255465
11
144.962863
21
515.394476
0
LINE
8
annotation
62
1
39
211
10
144.962863
20
515.394476
11
144.902618
21
515.525596
0
LINE
8
annotation
62
1
39
211
10
144.902618
20
515.525596
11
144.820214
21
515.645586
0
LINE
8
annotation
62
1
39
211
10
144.820214
20
515.645586
11
144.716574
21
515.751210
0
LINE
8
annotation
62
1
39
211
10
144.716574
20
515.751210
11
144.592618
21
515.839230
0
LINE
8
annotation
62
1
39
211
10
144.592618
20
515.839230
11
144.592618
21
515.839230
0
LINE
8
annotation
62
1
39
211
10
144.592618
20
515.839230
11
144.454026
21
515.902686
0
LINE
8
annotation
62
1
39
211
10
144.454026
20
515.902686
11
144.310542
21
515.939710
0
LINE
8
annotation
62
1
39
211
10
144.310542
20
515.939710
11
144.165374
21
515.951137
0
LINE
8
annotation
62
1
39
211
10
144.165374
20
515.951137
11
144.021729
21
515.937800
0
LINE
8
annotation
62
1
39
211
10
144.021729
20
515.937800
11
143.882816
21
515.900531
0
LINE
8
annotation
62
1
39
211
10
143.882816
20
515.900531
11
143.751841
21
515.840166
0
LINE
8
annotation
62
1
39
211
10
143.751841
20
515.840166
11
143.632014
21
515.757536
0
LINE
8
annotation
62
1
39
211
10
143.632014
20
515.757536
11
143.526541
21
515.653475
0
LINE
8
annotation
62
1
39
211
10
143.526541
20
515.653475
11
143.438630
21
515.528816
0
LINE
8
annotation
62
1
39
211
10
143.438630
20
515.528816
11
143.327853
21
515.316315
0
LINE
8
annotation
62
1
39
211
10
135.236221
20
531.074311
11
133.548872
21
531.074311
0
LINE
8
annotation
62
1
39
211
10
133.548872
20
531.074311
11
135.108038
21
533.584368
0
LINE
8
annotation
62
1
39
211
10
135.108038
20
533.584368
11
135.108038
21
533.584368
0
LINE
8
annotation
62
1
39
211
10
135.108038
20
533.584368
11
135.109902
21
533.586674
0
LINE
8
annotation
62
1
39
211
10
135.109902
20
533.586674
11
135.111689
21
533.589000
0
LINE
8
annotation
62
1
39
211
10
135.111689
20
533.589000
11
135.113412
21
533.591366
0
LINE
8
annotation
62
1
39
211
10
135.113412
20
533.591366
11
135.115082
21
533.593790
0
LINE
8
annotation
62
1
39
211
10
135.115082
20
533.593790
11
135.116710
21
533.596292
0
LINE
8
annotation
62
1
39
211
10
135.116710
20
533.596292
11
135.118310
21
533.598893
0
LINE
8
annotation
62
1
39
211
10
135.118310
20
533.598893
11
135.119891
21
533.601611
0
LINE
8
annotation
62
1
39
211
10
135.119891
20
533.601611
11
135.121467
21
533.604467
0
LINE
8
annotation
62
1
39
211
10
135.121467
20
533.604467
11
135.123048
21
533.607479
0
LINE
8
annotation
62
1
39
211
10
135.123048
20
533.607479
11
135.123048
21
533.607479
0
LINE
8
annotation
62
1
39
211
10
135.123048
20
533.607479
11
135.187426
21
533.745703
0
LINE
8
annotation
62
1
39
211
10
135.187426
20
533.745703
11
135.225034
21
533.888985
0
LINE
8
annotation
62
1
39
211
10
135.225034
20
533.888985
11
135.236795
21
534.034086
0
LINE
8
annotation
62
1
39
211
10
135.236795
20
534.034086
11
135.223629
21
534.177769
0
LINE
8
annotation
62
1
39
211
10
135.223629
20
534.177769
11
135.186460
21
534.316797
0
LINE
8
annotation
62
1
39
211
10
135.186460
20
534.316797
11
135.126207
21
534.447933
0
LINE
8
annotation
62
1
39
211
10
135.126207
20
534.447933
11
135.043794
21
534.567937
0
LINE
8
annotation
62
1
39
211
10
135.043794
20
534.567937
11
134.940141
21
534.673574
0
LINE
8
annotation
62
1
39
211
10
134.940141
20
534.673574
11
134.816171
21
534.761605
0
LINE
8
annotation
62
1
39
211
10
134.816171
20
534.761605
11
134.816171
21
534.761605
0
LINE
8
annotation
62
1
39
211
10
134.816171
20
534.761605
11
134.677562
21
534.825068
0
LINE
8
annotation
62
1
39
211
10
134.677562
20
534.825068
11
134.534061
21
534.862096
0
LINE
8
annotation
62
1
39
211
10
134.534061
20
534.862096
11
134.388876
21
534.873525
0
LINE
8
annotation
62
1
39
211
10
134.388876
20
534.873525
11
134.245214
21
534.860186
0
LINE
8
annotation
62
1
39
211
10
134.245214
20
534.860186
11
134.106284
21
534.822913
0
LINE
8
annotation
62
1
39
211
10
134.106284
20
534.822913
11
133.975294
21
534.762540
0
LINE
8
annotation
62
1
39
211
10
133.975294
20
534.762540
11
133.855452
21
534.679900
0
LINE
8
annotation
62
1
39
211
10
133.855452
20
534.679900
11
133.749966
21
534.575827
0
LINE
8
annotation
62
1
39
211
10
133.749966
20
534.575827
11
133.662045
21
534.451154
0
LINE
8
annotation
62
1
39
211
10
133.662045
20
534.451154
11
133.551255
21
534.238627
0
LINE
8
annotation
62
1
39
211
10
136.661236
20
531.074461
11
137.504911
21
531.074461
0
LINE
8
annotation
62
1
39
211
10
137.504911
20
531.074461
11
137.504911
21
531.074461
0
LINE
8
annotation
62
1
39
211
10
137.504911
20
531.074461
11
137.656648
21
531.088073
0
LINE
8
annotation
62
1
39
211
10
137.656648
20
531.088073
11
137.799427
21
531.127303
0
LINE
8
annotation
62
1
39
211
10
137.799427
20
531.127303
11
137.930873
21
531.189743
0
LINE
8
annotation
62
1
39
211
10
137.930873
20
531.189743
11
138.048613
21
531.272985
0
LINE
8
annotation
62
1
39
211
10
138.048613
20
531.272985
11
138.150270
21
531.374622
0
LINE
8
annotation
62
1
39
211
10
138.150270
20
531.374622
11
138.233471
21
531.492244
0
LINE
8
annotation
62
1
39
211
10
138.233471
20
531.492244
11
138.295840
21
531.623443
0
LINE
8
annotation
62
1
39
211
10
138.295840
20
531.623443
11
138.335003
21
531.765813
0
LINE
8
annotation
62
1
39
211
10
138.335003
20
531.765813
11
138.348585
21
531.916944
0
LINE
8
annotation
62
1
39
211
10
138.348585
20
531.916944
11
138.348585
21
532.339377
0
LINE
8
annotation
62
1
39
211
10
138.348585
20
532.339377
11
138.348585
21
532.339377
0
LINE
8
annotation
62
1
39
211
10
138.348585
20
532.339377
11
138.335003
21
532.490446
0
LINE
8
annotation
62
1
39
211
10
138.335003
20
532.490446
11
138.295840
21
532.632782
0
LINE
8
annotation
62
1
39
211
10
138.295840
20
532.632782
11
138.233471
21
532.763972
0
LINE
8
annotation
62
1
39
211
10
138.233471
20
532.763972
11
138.150270
21
532.881602
0
LINE
8
annotation
62
1
39
211
10
138.150270
20
532.881602
11
138.048613
21
532.983258
0
LINE
8
annotation
62
1
39
211
10
138.048613
20
532.983258
11
137.930873
21
533.066526
0
LINE
8
annotation
62
1
39
211
10
137.930873
20
533.066526
11
137.799427
21
533.128991
0
LINE
8
annotation
62
1
39
211
10
137.799427
20
533.128991
11
137.656648
21
533.168241
0
LINE
8
annotation
62
1
39
211
10
137.656648
20
533.168241
11
137.504911
21
533.181861
0
LINE
8
annotation
62
1
39
211
10
137.504911
20
533.181861
11
137.082478
21
533.181861
0
LINE
8
annotation
62
1
39
211
10
137.082478
20
533.181861
11
137.504911
21
533.181861
0
LINE
8
annotation
62
1
39
211
10
137.504911
20
533.181861
11
137.504911
21
533.181861
0
LINE
8
annotation
62
1
39
211
10
137.504911
20
533.181861
11
137.656648
21
533.195483
0
LINE
8
annotation
62
1
39
211
10
137.656648
20
533.195483
11
137.799427
21
533.234756
0
LINE
8
annotation
62
1
39
211
10
137.799427
20
533.234756
11
137.930873
21
533.297284
0
LINE
8
annotation
62
1
39
211
10
137.930873
20
533.297284
11
138.048613
21
533.380672
0
LINE
8
annotation
62
1
39
211
10
138.048613
20
533.380672
11
138.150270
21
533.482527
0
LINE
8
annotation
62
1
39
211
10
138.150270
20
533.482527
11
138.233471
21
533.600455
0
LINE
8
annotation
62
1
39
211
10
138.233471
20
533.600455
11
138.295840
21
533.732060
0
LINE
8
annotation
62
1
39
211
10
138.295840
20
533.732060
11
138.335003
21
533.874949
0
LINE
8
annotation
62
1
39
211
10
138.335003
20
533.874949
11
138.348585
21
534.026726
0
LINE
8
annotation
62
1
39
211
10
138.348585
20
534.026726
11
138.348585
21
534.026726
0
LINE
8
annotation
62
1
39
211
10
138.348585
20
534.026726
11
138.335003
21
534.177795
0
LINE
8
annotation
62
1
39
211
10
138.335003
20
534.177795
11
138.295840
21
534.320131
0
LINE
8
annotation
62
1
39
211
10
138.295840
20
534.320131
11
138.233471
21
534.451321
0
LINE
8
annotation
62
1
39
211
10
138.233471
20
534.451321
11
138.150270
21
534.568951
0
LINE
8
annotation
62
1
39
211
10
138.150270
20
534.568951
11
138.048613
21
534.670607
0
LINE
8
annotation
62
1
39
211
10
138.048613
20
534.670607
11
137.930873
21
534.753875
0
LINE
8
annotation
62
1
39
211
10
137.930873
20
534.753875
11
137.799427
21
534.816340
0
LINE
8
annotation
62
1
39
211
10
137.799427
20
534.816340
11
137.656648
21
534.855590
0
LINE
8
annotation
62
1
39
211
10
137.656648
20
534.855590
11
137.504911
21
534.869210
0
LINE
8
annotation
62
1
39
211
10
137.504911
20
534.869210
11
136.661236
21
534.869210
0
LINE
8
annotation
62
1
39
211
10
129.205407
20
550.150053
11
127.654474
21
550.150053
0
LINE
8
annotation
62
1
39
211
10
127.654474
20
550.150053
11
129.087587
21
552.457181
0
LINE
8
annotation
62
1
39
211
10
129.087587
20
552.457181
11
129.087587
21
552.457181
0
LINE
8
annotation
62
1
39
211
10
129.087587
20
552.457181
11
129.089301
21
552.459301
0
LINE
8
annotation
62
1
39
211
10
129.089301
20
552.459301
11
129.090943
21
552.461439
0
LINE
8
annotation
62
1
39
211
10
129.090943
20
552.461439
11
129.092527
21
552.463613
0
LINE
8
annotation
62
1
39
211
10
129.092527
20
552.463613
11
129.094062
21
552.465841
0
LINE
8
annotation
62
1
39
211
10
129.094062
20
552.465841
11
129.095559
21
552.468142
0
LINE
8
annotation
62
1
39
211
10
129.095559
20
552.468142
11
129.097028
21
552.470532
0
LINE
8
annotation
62
1
39
211
10
129.097028
20
552.470532
11
129.098482
21
552.473030
0
LINE
8
annotation
62
1
39
211
10
129.098482
20
552.473030
11
129.099930
21
552.475655
0
LINE
8
annotation
62
1
39
211
10
129.099930
20
552.475655
11
129.101384
21
552.478424
0
LINE
8
annotation
62
1
39
211
10
129.101384
20
552.478424
11
129.101384
21
552.478424
0
LINE
8
annotation
62
1
39
211
10
129.101384
20
552.478424
11
129.160557
21
552.605473
0
LINE
8
annotation
62
1
39
211
10
129.160557
20
552.605473
11
129.195125
21
552.737171
0
LINE
8
annotation
62
1
39
211
10
129.195125
20
552.737171
11
129.205935
21
552.870541
0
LINE
8
annotation
62
1
39
211
10
129.205935
20
552.870541
11
129.193834
21
553.002608
0
LINE
8
annotation
62
1
39
211
10
129.193834
20
553.002608
11
129.159669
21
553.130397
0
LINE
8
annotation
62
1
39
211
10
129.159669
20
553.130397
11
129.104288
21
553.250930
0
LINE
8
annotation
62
1
39
211
10
129.104288
20
553.250930
11
129.028537
21
553.361233
0
LINE
8
annotation
62
1
39
211
10
129.028537
20
553.361233
11
128.933264
21
553.458329
0
LINE
8
annotation
62
1
39
211
10
128.933264
20
553.458329
11
128.819317
21
553.539243
0
LINE
8
annotation
62
1
39
211
10
128.819317
20
553.539243
11
128.819317
21
553.539243
0
LINE
8
annotation
62
1
39
211
10
128.819317
20
553.539243
11
128.691914
21
553.597575
0
LINE
8
annotation
62
1
39
211
10
128.691914
20
553.597575
11
128.560014
21
553.631610
0
LINE
8
annotation
62
1
39
211
10
128.560014
20
553.631610
11
128.426567
21
553.642115
0
LINE
8
annotation
62
1
39
211
10
128.426567
20
553.642115
11
128.294519
21
553.629854
0
LINE
8
annotation
62
1
39
211
10
128.294519
20
553.629854
11
128.166821
21
553.595595
0
LINE
8
annotation
62
1
39
211
10
128.166821
20
553.595595
11
128.046421
21
553.540103
0
LINE
8
annotation
62
1
39
211
10
128.046421
20
553.540103
11
127.936268
21
553.464144
0
LINE
8
annotation
62
1
39
211
10
127.936268
20
553.464144
11
127.839310
21
553.368485
0
LINE
8
annotation
62
1
39
211
10
127.839310
20
553.368485
11
127.758497
21
553.253891
0
LINE
8
annotation
62
1
39
211
10
127.758497
20
553.253891
11
127.656664
21
553.058546
0
LINE
8
annotation
62
1
39
211
10
132.454211
20
550.926424
11
130.515215
21
550.926424
0
LINE
8
annotation
62
1
39
211
10
130.515215
20
550.926424
11
131.289587
21
553.642200
0
LINE
8
annotation
62
1
39
211
10
131.872994
20
550.150081
11
131.872994
21
551.701015
0
LINE
8
annotation
62
1
39
211
10
125.043312
20
569.302059
11
123.696535
21
569.302059
0
LINE
8
annotation
62
1
39
211
10
123.696535
20
569.302059
11
124.941001
21
571.305490
0
LINE
8
annotation
62
1
39
211
10
124.941001
20
571.305490
11
124.941001
21
571.305490
0
LINE
8
annotation
62
1
39
211
10
124.941001
20
571.305490
11
124.942489
21
571.307331
0
LINE
8
annotation
62
1
39
211
10
124.942489
20
571.307331
11
124.943916
21
571.309187
0
LINE
8
annotation
62
1
39
211
10
124.943916
20
571.309187
11
124.945291
21
571.311075
0
LINE
8
annotation
62
1
39
211
10
124.945291
20
571.311075
11
124.946623
21
571.313010
0
LINE
8
annotation
62
1
39
211
10
124.946623
20
571.313010
11
124.947923
21
571.315008
0
LINE
8
annotation
62
1
39
211
10
124.947923
20
571.315008
11
124.949200
21
571.317083
0
LINE
8
annotation
62
1
39
211
10
124.949200
20
571.317083
11
124.950462
21
571.319253
0
LINE
8
annotation
62
1
39
211
10
124.950462
20
571.319253
11
124.951720
21
571.321532
0
LINE
8
annotation
62
1
39
211
10
124.951720
20
571.321532
11
124.952982
21
571.323936
0
LINE
8
annotation
62
1
39
211
10
124.952982
20
571.323936
11
124.952982
21
571.323936
0
LINE
8
annotation
62
1
39
211
10
124.952982
20
571.323936
11
125.004366
21
571.434262
0
LINE
8
annotation
62
1
39
211
10
125.004366
20
571.434262
11
125.034383
21
571.548623
0
LINE
8
annotation
62
1
39
211
10
125.034383
20
571.548623
11
125.043770
21
571.664438
0
LINE
8
annotation
62
1
39
211
10
125.043770
20
571.664438
11
125.033262
21
571.779120
0
LINE
8
annotation
62
1
39
211
10
125.033262
20
571.779120
11
125.003595
21
571.890087
0
LINE
8
annotation
62
1
39
211
10
125.003595
20
571.890087
11
124.955503
21
571.994754
0
LINE
8
annotation
62
1
39
211
10
124.955503
20
571.994754
11
124.889724
21
572.090537
0
LINE
8
annotation
62
1
39
211
10
124.889724
20
572.090537
11
124.806993
21
572.174852
0
LINE
8
annotation
62
1
39
211
10
124.806993
20
572.174852
11
124.708044
21
572.245115
0
LINE
8
annotation
62
1
39
211
10
124.708044
20
572.245115
11
124.708044
21
572.245115
0
LINE
8
annotation
62
1
39
211
10
124.708044
20
572.245115
11
124.597412
21
572.295769
0
LINE
8
annotation
62
1
39
211
10
124.597412
20
572.295769
11
124.482875
21
572.325324
0
LINE
8
annotation
62
1
39
211
10
124.482875
20
572.325324
11
124.366994
21
572.334445
0
LINE
8
annotation
62
1
39
211
10
124.366994
20
572.334445
11
124.252328
21
572.323799
0
LINE
8
annotation
62
1
39
211
10
124.252328
20
572.323799
11
124.141440
21
572.294049
0
LINE
8
annotation
62
1
39
211
10
124.141440
20
572.294049
11
124.036888
21
572.245862
0
LINE
8
annotation
62
1
39
211
10
124.036888
20
572.245862
11
123.941235
21
572.179902
0
LINE
8
annotation
62
1
39
211
10
123.941235
20
572.179902
11
123.857041
21
572.096835
0
LINE
8
annotation
62
1
39
211
10
123.857041
20
572.096835
11
123.786865
21
571.997325
0
LINE
8
annotation
62
1
39
211
10
123.786865
20
571.997325
11
123.698437
21
571.827694
0
LINE
8
annotation
62
1
39
211
10
126.180705
20
569.302084
11
126.854093
21
569.302084
0
LINE
8
annotation
62
1
39
211
10
126.854093
20
569.302084
11
126.854093
21
569.302084
0
LINE
8
annotation
62
1
39
211
10
126.854093
20
569.302084
11
126.974953
21
569.312950
0
LINE
8
annotation
62
1
39
211
10
126.974953
20
569.312950
11
127.088781
21
569.344279
0
LINE
8
annotation
62
1
39
211
10
127.088781
20
569.344279
11
127.193658
21
569.394161
0
LINE
8
annotation
62
1
39
211
10
127.193658
20
569.394161
11
127.287664
21
569.460688
0
LINE
8
annotation
62
1
39
211
10
127.287664
20
569.460688
11
127.368881
21
569.541954
0
LINE
8
annotation
62
1
39
211
10
127.368881
20
569.541954
11
127.435391
21
569.636049
0
LINE
8
annotation
62
1
39
211
10
127.435391
20
569.636049
11
127.485273
21
569.741066
0
LINE
8
annotation
62
1
39
211
10
127.485273
20
569.741066
11
127.516610
21
569.855096
0
LINE
8
annotation
62
1
39
211
10
127.516610
20
569.855096
11
127.527482
21
569.976233
0
LINE
8
annotation
62
1
39
211
10
127.527482
20
569.976233
11
127.527482
21
570.311691
0
LINE
8
annotation
62
1
39
211
10
127.527482
20
570.311691
11
127.527482
21
570.311691
0
LINE
8
annotation
62
1
39
211
10
127.527482
20
570.311691
11
127.516616
21
570.432769
0
LINE
8
annotation
62
1
39
211
10
127.516616
20
570.432769
11
127.485295
21
570.546643
0
LINE
8
annotation
62
1
39
211
10
127.485295
20
570.546643
11
127.435433
21
570.651432
0
LINE
8
annotation
62
1
39
211
10
127.435433
20
570.651432
11
127.368944
21
570.745257
0
LINE
8
annotation
62
1
39
211
10
127.368944
20
570.745257
11
127.287742
21
570.826238
0
LINE
8
annotation
62
1
39
211
10
127.287742
20
570.826238
11
127.193742
21
570.892496
0
LINE
8
annotation
62
1
39
211
10
127.193742
20
570.892496
11
127.088858
21
570.942150
0
LINE
8
annotation
62
1
39
211
10
127.088858
20
570.942150
11
126.975003
21
570.973321
0
LINE
8
annotation
62
1
39
211
10
126.975003
20
570.973321
11
126.854093
21
570.984129
0
LINE
8
annotation
62
1
39
211
10
126.854093
20
570.984129
11
126.180705
21
570.984129
0
LINE
8
annotation
62
1
39
211
10
126.180705
20
570.984129
11
126.180705
21
572.334519
0
LINE
8
annotation
62
1
39
211
10
126.180705
20
572.334519
11
127.527482
21
572.334519
0
LINE
8
annotation
62
1
39
211
10
141.258903
20
513.425246
11
138.601679
21
513.425246
0
LINE
8
annotation
62
1
39
211
10
138.601679
20
513.425246
11
141.258903
21
518.210890
0
LINE
8
annotation
62
1
39
211
10
141.258903
20
518.210890
11
138.601679
21
518.210890
0
LINE
8
annotation
62
1
39
211
10
145.670677
20
515.818068
11
143.053969
21
515.818068
0
LINE
8
annotation
62
1
39
211
10
147.464844
20
513.425246
11
148.527553
21
513.425246
0
LINE
8
annotation
62
1
39
211
10
148.527553
20
513.425246
11
148.527553
21
513.425246
0
LINE
8
annotation
62
1
39
211
10
148.527553
20
513.425246
11
148.718289
21
513.442396
0
LINE
8
annotation
62
1
39
211
10
148.718289
20
513.442396
11
148.897926
21
513.491836
0
LINE
8
annotation
62
1
39
211
10
148.897926
20
513.491836
11
149.063437
21
513.570558
0
LINE
8
annotation
62
1
39
211
10
149.063437
20
513.570558
11
149.211794
21
513.675548
0
LINE
8
annotation
62
1
39
211
10
149.211794
20
513.675548
11
149.339967
21
513.803797
0
LINE
8
annotation
62
1
39
211
10
149.339967
20
513.803797
11
149.444929
21
513.952294
0
LINE
8
annotation
62
1
39
211
10
149.444929
20
513.952294
11
149.523651
21
514.118026
0
LINE
8
annotation
62
1
39
211
10
149.523651
20
514.118026
11
149.573105
21
514.297984
0
LINE
8
annotation
62
1
39
211
10
149.573105
20
514.297984
11
149.590262
21
514.489156
0
LINE
8
annotation
62
1
39
211
10
149.590262
20
514.489156
11
149.590262
21
515.018560
0
LINE
8
annotation
62
1
39
211
10
149.590262
20
515.018560
11
149.590262
21
515.018560
0
LINE
8
annotation
62
1
39
211
10
149.590262
20
515.018560
11
149.573115
21
515.209639
0
LINE
8
annotation
62
1
39
211
10
149.573115
20
515.209639
11
149.523685
21
515.389349
0
LINE
8
annotation
62
1
39
211
10
149.523685
20
515.389349
11
149.444995
21
515.554722
0
LINE
8
annotation
62
1
39
211
10
149.444995
20
515.554722
11
149.340066
21
515.702792
0
LINE
8
annotation
62
1
39
211
10
149.340066
20
515.702792
11
149.211917
21
515.830593
0
LINE
8
annotation
62
1
39
211
10
149.211917
20
515.830593
11
149.063571
21
515.935158
0
LINE
8
annotation
62
1
39
211
10
149.063571
20
515.935158
11
148.898047
21
516.013520
0
LINE
8
annotation
62
1
39
211
10
148.898047
20
516.013520
11
148.718368
21
516.062712
0
LINE
8
annotation
62
1
39
211
10
148.718368
20
516.062712
11
148.527553
21
516.079769
0
LINE
8
annotation
62
1
39
211
10
148.527553
20
516.079769
11
147.464844
21
516.079769
0
LINE
8
annotation
62
1
39
211
10
147.464844
20
516.079769
11
147.464844
21
518.210890
0
LINE
8
annotation
62
1
39
211
10
147.464844
20
518.210890
11
149.590262
21
518.210890
0
LINE
8
frame
62
5
39
2
10
0.000000
20
0.000000
11
300.000000
21
0.000000
0
LINE
8
frame
62
5
39
2
10
300.000000
20
0.000000
11
300.000000
21
600.000000
0
LINE
8
frame
62
5
39
2
10
300.000000
20
600.000000
11
0.000000
21
600.000000
0
LINE
8
frame
62
5
39
2
10
0.000000
20
600.000000
11
0.000000
21
0.000000
0
ENDSEC
0
EOF
