0
SECTION
2
HEADER
9
$ACADVER
1
AC1009
0
ENDSEC
0
SECTION
2
TABLES
0
TABLE
2
VPORT
70
1
0
VPORT
2
ACTIVE
70
0
10
0.0
20
0.0
11
0.0
21
0.0
12
0.0
22
0.0
13
0.0
23
0.0
14
0.0
24
0.0
15
0.0
25
0.0
16
0.0
26
0.0
36
0.0
17
0.0
27
0.0
37
0.0
40
0.0
41
0.0
42
0.0
43
0.0
44
0.0
50
0.0
51
0.0
71
0
72
1000
73
1
74
3
75
0
76
0
77
0
78
0
0
ENDTAB
0
ENDSEC
0
SECTION
2
ENTITIES
0
LINE
8
boundary
62
5
39
2
10
22.929148
20
336.275726
11
21.604861
21
337.230050
0
LINE
8
boundary
62
5
39
2
10
21.604861
20
337.230050
11
20.395978
21
337.998009
0
LINE
8
boundary
62
5
39
2
10
20.395978
20
337.998009
11
19.216585
21
338.653016
0
LINE
8
boundary
62
5
39
2
10
19.216585
20
338.653016
11
18.061454
21
339.202018
0
LINE
8
boundary
62
5
39
2
10
18.061454
20
339.202018
11
16.936224
21
339.644284
0
LINE
8
boundary
62
5
39
2
10
16.936224
20
339.644284
11
15.846553
21
339.979036
0
LINE
8
boundary
62
5
39
2
10
15.846553
20
339.979036
11
14.798060
21
340.205667
0
LINE
8
boundary
62
5
39
2
10
14.798060
20
340.205667
11
13.796393
21
340.323474
0
LINE
8
boundary
62
5
39
2
10
13.796393
20
340.323474
11
12.847176
21
340.331786
0
LINE
8
boundary
62
5
39
2
10
12.847176
20
340.331786
11
11.956008
21
340.229948
0
LINE
8
boundary
62
5
39
2
10
11.956008
20
340.229948
11
11.128502
21
340.017198
0
LINE
8
boundary
62
5
39
2
10
11.128502
20
340.017198
11
10.370207
21
339.692762
0
LINE
8
boundary
62
5
39
2
10
10.370207
20
339.692762
11
9.744598
21
339.290224
0
LINE
8
boundary
62
5
39
2
10
9.744598
20
339.290224
11
9.191228
21
338.802715
0
LINE
8
boundary
62
5
39
2
10
9.191228
20
338.802715
11
8.701446
21
338.231924
0
LINE
8
boundary
62
5
39
2
10
8.701446
20
338.231924
11
8.271321
21
337.580939
0
LINE
8
boundary
62
5
39
2
10
8.271321
20
337.580939
11
7.897270
21
336.852452
0
LINE
8
boundary
62
5
39
2
10
7.897270
20
336.852452
11
7.680079
21
336.361658
0
LINE
8
boundary
62
5
39
2
10
7.680079
20
336.361658
11
7.349400
21
335.358425
0
LINE
8
boundary
62
5
39
2
10
7.349400
20
335.358425
11
7.083486
21
334.244144
0
LINE
8
boundary
62
5
39
2
10
7.083486
20
334.244144
11
6.916908
21
333.196310
0
LINE
8
boundary
62
5
39
2
10
6.916908
20
333.196310
11
6.797845
21
332.098555
0
LINE
8
boundary
62
5
39
2
10
6.797845
20
332.098555
11
6.718929
21
330.934255
0
LINE
8
boundary
62
5
39
2
10
6.718929
20
330.934255
11
6.682615
21
330.207054
0
LINE
8
boundary
62
5
39
2
10
6.682615
20
330.207054
11
6.667500
21
328.640043
0
LINE
8
boundary
62
5
39
2
10
6.667500
20
328.640043
11
6.696891
21
327.425948
0
LINE
8
boundary
62
5
39
2
10
6.696891
20
327.425948
11
6.790869
21
325.621612
0
LINE
8
boundary
62
5
39
2
10
6.790869
20
325.621612
11
6.903982
21
324.130942
0
LINE
8
boundary
62
5
39
2
10
6.903982
20
324.130942
11
6.975055
21
323.258033
0
LINE
8
boundary
62
5
39
2
10
6.975055
20
323.258033
11
7.046172
21
322.581049
0
LINE
8
boundary
62
5
39
2
10
7.046172
20
322.581049
11
7.182049
21
321.247992
0
LINE
8
boundary
62
5
39
2
10
7.182049
20
321.247992
11
7.339720
21
319.937818
0
LINE
8
boundary
62
5
39
2
10
7.339720
20
319.937818
11
7.419196
21
319.303809
0
LINE
8
boundary
62
5
39
2
10
7.419196
20
319.303809
11
7.659350
21
317.570871
0
LINE
8
boundary
62
5
39
2
10
7.659350
20
317.570871
11
7.751391
21
316.896480
0
LINE
8
boundary
62
5
39
2
10
7.751391
20
316.896480
11
7.922189
21
315.783904
0
LINE
8
boundary
62
5
39
2
10
7.922189
20
315.783904
11
8.103796
21
314.566614
0
LINE
8
boundary
62
5
39
2
10
8.103796
20
314.566614
11
8.393653
21
312.757138
0
LINE
8
boundary
62
5
39
2
10
8.393653
20
312.757138
11
8.562377
21
311.747859
0
LINE
8
boundary
62
5
39
2
10
8.562377
20
311.747859
11
8.682292
21
311.045657
0
LINE
8
boundary
62
5
39
2
10
8.682292
20
311.045657
11
8.958626
21
309.476657
0
LINE
8
boundary
62
5
39
2
10
8.958626
20
309.476657
11
9.047010
21
308.963995
0
LINE
8
boundary
62
5
39
2
10
9.047010
20
308.963995
11
9.245908
21
307.876990
0
LINE
8
boundary
62
5
39
2
10
9.245908
20
307.876990
11
9.403676
21
306.990770
0
LINE
8
boundary
62
5
39
2
10
9.403676
20
306.990770
11
9.543441
21
306.247611
0
LINE
8
boundary
62
5
39
2
10
9.543441
20
306.247611
11
9.776896
21
304.971907
0
LINE
8
boundary
62
5
39
2
10
9.776896
20
304.971907
11
10.165329
21
302.909666
0
LINE
8
boundary
62
5
39
2
10
10.165329
20
302.909666
11
10.501530
21
301.182049
0
LINE
8
boundary
62
5
39
2
10
10.501530
20
301.182049
11
10.982028
21
298.704822
0
LINE
8
boundary
62
5
39
2
10
10.982028
20
298.704822
11
11.377845
21
296.709077
0
LINE
8
boundary
62
5
39
2
10
11.377845
20
296.709077
11
11.779072
21
294.691304
0
LINE
8
boundary
62
5
39
2
10
11.779072
20
294.691304
11
11.889374
21
294.138065
0
LINE
8
boundary
62
5
39
2
10
11.889374
20
294.138065
11
12.329034
21
291.963221
0
LINE
8
boundary
62
5
39
2
10
12.329034
20
291.963221
11
12.430464
21
291.451480
0
LINE
8
boundary
62
5
39
2
10
12.430464
20
291.451480
11
12.792752
21
289.676763
0
LINE
8
boundary
62
5
39
2
10
12.792752
20
289.676763
11
12.980662
21
288.737378
0
LINE
8
boundary
62
5
39
2
10
12.980662
20
288.737378
11
13.262384
21
287.369342
0
LINE
8
boundary
62
5
39
2
10
13.262384
20
287.369342
11
13.538397
21
286.001141
0
LINE
8
boundary
62
5
39
2
10
13.538397
20
286.001141
11
13.737096
21
285.043879
0
LINE
8
boundary
62
5
39
2
10
13.737096
20
285.043879
11
14.102230
21
283.247834
0
LINE
8
boundary
62
5
39
2
10
14.102230
20
283.247834
11
14.216103
21
282.703137
0
LINE
8
boundary
62
5
39
2
10
14.216103
20
282.703137
11
14.670893
21
280.482009
0
LINE
8
boundary
62
5
39
2
10
14.670893
20
280.482009
11
14.855565
21
279.588797
0
LINE
8
boundary
62
5
39
2
10
14.855565
20
279.588797
11
15.187217
21
277.979592
0
LINE
8
boundary
62
5
39
2
10
15.187217
20
277.979592
11
15.679118
21
275.599375
0
LINE
8
boundary
62
5
39
2
10
15.679118
20
275.599375
11
15.812941
21
274.939259
0
LINE
8
boundary
62
5
39
2
10
15.812941
20
274.939259
11
16.172636
21
273.214014
0
LINE
8
boundary
62
5
39
2
10
16.172636
20
273.214014
11
16.385599
21
272.170036
0
LINE
8
boundary
62
5
39
2
10
16.385599
20
272.170036
11
16.667441
21
270.825289
0
LINE
8
boundary
62
5
39
2
10
16.667441
20
270.825289
11
16.958770
21
269.405657
0
LINE
8
boundary
62
5
39
2
10
16.958770
20
269.405657
11
17.163268
21
268.434754
0
LINE
8
boundary
62
5
39
2
10
17.163268
20
268.434754
11
17.531961
21
266.648477
0
LINE
8
boundary
62
5
39
2
10
17.531961
20
266.648477
11
17.659892
21
266.043943
0
LINE
8
boundary
62
5
39
2
10
17.659892
20
266.043943
11
18.104779
21
263.900530
0
LINE
8
boundary
62
5
39
2
10
18.104779
20
263.900530
11
18.507381
21
261.975961
0
LINE
8
boundary
62
5
39
2
10
18.507381
20
261.975961
11
18.655319
21
261.265294
0
LINE
8
boundary
62
5
39
2
10
18.655319
20
261.265294
11
19.987547
21
254.907927
0
LINE
8
boundary
62
5
39
2
10
19.987547
20
254.907927
11
20.643603
21
251.780602
0
LINE
8
boundary
62
5
39
2
10
20.643603
20
251.780602
11
21.321614
21
248.594602
0
LINE
8
boundary
62
5
39
2
10
21.321614
20
248.594602
11
22.145557
21
244.724230
0
LINE
8
boundary
62
5
39
2
10
22.145557
20
244.724230
11
22.323916
21
243.896921
0
LINE
8
boundary
62
5
39
2
10
22.323916
20
243.896921
11
22.988644
21
240.815943
0
LINE
8
boundary
62
5
39
2
10
22.988644
20
240.815943
11
23.328704
21
239.234611
0
LINE
8
boundary
62
5
39
2
10
23.328704
20
239.234611
11
24.337121
21
234.609700
0
LINE
8
boundary
62
5
39
2
10
24.337121
20
234.609700
11
24.482020
21
233.949657
0
LINE
8
boundary
62
5
39
2
10
24.482020
20
233.949657
11
24.842834
21
232.314161
0
LINE
8
boundary
62
5
39
2
10
24.842834
20
232.314161
11
25.041221
21
231.418739
0
LINE
8
boundary
62
5
39
2
10
25.041221
20
231.418739
11
25.349718
21
230.030517
0
LINE
8
boundary
62
5
39
2
10
25.349718
20
230.030517
11
25.601375
21
228.905227
0
LINE
8
boundary
62
5
39
2
10
25.601375
20
228.905227
11
25.857948
21
227.759212
0
LINE
8
boundary
62
5
39
2
10
25.857948
20
227.759212
11
26.162742
21
226.409151
0
LINE
8
boundary
62
5
39
2
10
26.162742
20
226.409151
11
26.367672
21
225.500645
0
LINE
8
boundary
62
5
39
2
10
26.367672
20
225.500645
11
26.725560
21
223.930574
0
LINE
8
boundary
62
5
39
2
10
26.725560
20
223.930574
11
26.879073
21
223.255184
0
LINE
8
boundary
62
5
39
2
10
26.879073
20
223.255184
11
27.290159
21
221.469031
0
LINE
8
boundary
62
5
39
2
10
27.290159
20
221.469031
11
27.856944
21
219.023264
0
LINE
8
boundary
62
5
39
2
10
27.856944
20
219.023264
11
28.424345
21
216.600130
0
LINE
8
boundary
62
5
39
2
10
28.424345
20
216.600130
11
28.947285
21
214.389233
0
LINE
8
boundary
62
5
39
2
10
28.947285
20
214.389233
11
29.471390
21
212.195172
0
LINE
8
boundary
62
5
39
2
10
29.471390
20
212.195172
11
29.931717
21
210.297091
0
LINE
8
boundary
62
5
39
2
10
29.931717
20
210.297091
11
30.352061
21
208.556184
0
LINE
8
boundary
62
5
39
2
10
30.352061
20
208.556184
11
31.211485
21
205.061969
0
LINE
8
boundary
62
5
39
2
10
31.211485
20
205.061969
11
32.142373
21
201.327310
0
LINE
8
boundary
62
5
39
2
10
32.142373
20
201.327310
11
32.530758
21
199.797037
0
LINE
8
boundary
62
5
39
2
10
32.530758
20
199.797037
11
33.052571
21
197.730285
0
LINE
8
boundary
62
5
39
2
10
33.052571
20
197.730285
11
33.884561
21
194.488580
0
LINE
8
boundary
62
5
39
2
10
33.884561
20
194.488580
11
34.154084
21
193.443584
0
LINE
8
boundary
62
5
39
2
10
34.154084
20
193.443584
11
34.902868
21
190.555915
0
LINE
8
boundary
62
5
39
2
10
34.902868
20
190.555915
11
35.202531
21
189.417304
0
LINE
8
boundary
62
5
39
2
10
35.202531
20
189.417304
11
35.842028
21
186.972189
0
LINE
8
boundary
62
5
39
2
10
35.842028
20
186.972189
11
36.534735
21
184.358538
0
LINE
8
boundary
62
5
39
2
10
36.534735
20
184.358538
11
36.790065
21
183.389342
0
LINE
8
boundary
62
5
39
2
10
36.790065
20
183.389342
11
37.392170
21
181.130086
0
LINE
8
boundary
62
5
39
2
10
37.392170
20
181.130086
11
37.745527
21
179.802879
0
LINE
8
boundary
62
5
39
2
10
37.745527
20
179.802879
11
37.907349
21
179.200207
0
LINE
8
boundary
62
5
39
2
10
37.907349
20
179.200207
11
38.706486
21
176.209848
0
LINE
8
boundary
62
5
39
2
10
38.706486
20
176.209848
11
39.327206
21
173.901842
0
LINE
8
boundary
62
5
39
2
10
39.327206
20
173.901842
11
39.672687
21
172.611789
0
LINE
8
boundary
62
5
39
2
10
39.672687
20
172.611789
11
40.113589
21
170.973383
0
LINE
8
boundary
62
5
39
2
10
40.113589
20
170.973383
11
40.375206
21
170.000002
0
LINE
8
boundary
62
5
39
2
10
40.375206
20
170.000002
11
40.641654
21
169.005659
0
LINE
8
boundary
62
5
39
2
10
40.641654
20
169.005659
11
41.125587
21
167.198316
0
LINE
8
boundary
62
5
39
2
10
41.125587
20
167.198316
11
41.285178
21
166.602963
0
LINE
8
boundary
62
5
39
2
10
41.285178
20
166.602963
11
41.609525
21
165.389076
0
LINE
8
boundary
62
5
39
2
10
41.609525
20
165.389076
11
41.873978
21
164.399987
0
LINE
8
boundary
62
5
39
2
10
41.873978
20
164.399987
11
42.093211
21
163.577732
0
LINE
8
boundary
62
5
39
2
10
42.093211
20
163.577732
11
42.463741
21
162.187615
0
LINE
8
boundary
62
5
39
2
10
42.463741
20
162.187615
11
43.053935
21
159.965782
0
LINE
8
boundary
62
5
39
2
10
43.053935
20
159.965782
11
43.536976
21
158.129207
0
LINE
8
boundary
62
5
39
2
10
43.536976
20
158.129207
11
44.013480
21
156.308126
0
LINE
8
boundary
62
5
39
2
10
44.013480
20
156.308126
11
44.234251
21
155.459703
0
LINE
8
boundary
62
5
39
2
10
44.234251
20
155.459703
11
44.487841
21
154.484908
0
LINE
8
boundary
62
5
39
2
10
44.487841
20
154.484908
11
44.821671
21
153.193509
0
LINE
8
boundary
62
5
39
2
10
44.821671
20
153.193509
11
44.959749
21
152.659500
0
LINE
8
boundary
62
5
39
2
10
44.959749
20
152.659500
11
45.406787
21
150.918948
0
LINE
8
boundary
62
5
39
2
10
45.406787
20
150.918948
11
45.893073
21
149.002518
0
LINE
8
boundary
62
5
39
2
10
45.893073
20
149.002518
11
46.353771
21
147.171446
0
LINE
8
boundary
62
5
39
2
10
46.353771
20
147.171446
11
46.567031
21
146.317703
0
LINE
8
boundary
62
5
39
2
10
46.567031
20
146.317703
11
46.812090
21
145.338558
0
LINE
8
boundary
62
5
39
2
10
46.812090
20
145.338558
11
47.143682
21
144.003630
0
LINE
8
boundary
62
5
39
2
10
47.143682
20
144.003630
11
47.268110
21
143.503860
0
LINE
8
boundary
62
5
39
2
10
47.268110
20
143.503860
11
47.718492
21
141.681293
0
LINE
8
boundary
62
5
39
2
10
47.718492
20
141.681293
11
48.169128
21
139.830462
0
LINE
8
boundary
62
5
39
2
10
48.169128
20
139.830462
11
48.614171
21
137.992207
0
LINE
8
boundary
62
5
39
2
10
48.614171
20
137.992207
11
48.855978
21
136.987106
0
LINE
8
boundary
62
5
39
2
10
48.855978
20
136.987106
11
49.057360
21
136.152614
0
LINE
8
boundary
62
5
39
2
10
49.057360
20
136.152614
11
49.761754
21
133.210185
0
LINE
8
boundary
62
5
39
2
10
49.761754
20
133.210185
11
49.936609
21
132.470057
0
LINE
8
boundary
62
5
39
2
10
49.936609
20
132.470057
11
50.080637
21
131.855600
0
LINE
8
boundary
62
5
39
2
10
50.080637
20
131.855600
11
50.801908
21
128.785205
0
LINE
8
boundary
62
5
39
2
10
50.801908
20
128.785205
11
51.633491
21
125.224334
0
LINE
8
boundary
62
5
39
2
10
51.633491
20
125.224334
11
52.510749
21
121.406297
0
LINE
8
boundary
62
5
39
2
10
52.510749
20
121.406297
11
53.351659
21
117.743041
0
LINE
8
boundary
62
5
39
2
10
53.351659
20
117.743041
11
54.195262
21
114.014214
0
LINE
8
boundary
62
5
39
2
10
54.195262
20
114.014214
11
54.734410
21
111.641087
0
LINE
8
boundary
62
5
39
2
10
54.734410
20
111.641087
11
55.036629
21
110.312840
0
LINE
8
boundary
62
5
39
2
10
55.036629
20
110.312840
11
55.477989
21
108.386819
0
LINE
8
boundary
62
5
39
2
10
55.477989
20
108.386819
11
55.878254
21
106.602445
0
LINE
8
boundary
62
5
39
2
10
55.878254
20
106.602445
11
56.183188
21
105.259429
0
LINE
8
boundary
62
5
39
2
10
56.183188
20
105.259429
11
56.723144
21
102.880399
0
LINE
8
boundary
62
5
39
2
10
56.723144
20
102.880399
11
57.395509
21
99.961508
0
LINE
8
boundary
62
5
39
2
10
57.395509
20
99.961508
11
57.579214
21
99.148955
0
LINE
8
boundary
62
5
39
2
10
57.579214
20
99.148955
11
57.917944
21
97.678519
0
LINE
8
boundary
62
5
39
2
10
57.917944
20
97.678519
11
58.444639
21
95.389775
0
LINE
8
boundary
62
5
39
2
10
58.444639
20
95.389775
11
58.716507
21
94.230900
0
LINE
8
boundary
62
5
39
2
10
58.716507
20
94.230900
11
59.149061
21
92.358354
0
LINE
8
boundary
62
5
39
2
10
59.149061
20
92.358354
11
59.749751
21
89.810903
0
LINE
8
boundary
62
5
39
2
10
59.749751
20
89.810903
11
59.868341
21
89.306889
0
LINE
8
boundary
62
5
39
2
10
59.868341
20
89.306889
11
60.604443
21
86.207544
0
LINE
8
boundary
62
5
39
2
10
60.604443
20
86.207544
11
61.106744
21
84.141185
0
LINE
8
boundary
62
5
39
2
10
61.106744
20
84.141185
11
61.363805
21
83.069419
0
LINE
8
boundary
62
5
39
2
10
61.363805
20
83.069419
11
62.013170
21
80.434618
0
LINE
8
boundary
62
5
39
2
10
62.013170
20
80.434618
11
62.151051
21
79.873669
0
LINE
8
boundary
62
5
39
2
10
62.151051
20
79.873669
11
62.972548
21
76.588562
0
LINE
8
boundary
62
5
39
2
10
62.972548
20
76.588562
11
63.257075
21
75.481374
0
LINE
8
boundary
62
5
39
2
10
63.257075
20
75.481374
11
63.834199
21
73.217405
0
LINE
8
boundary
62
5
39
2
10
63.834199
20
73.217405
11
64.286952
21
71.491844
0
LINE
8
boundary
62
5
39
2
10
64.286952
20
71.491844
11
64.743963
21
69.741298
0
LINE
8
boundary
62
5
39
2
10
64.743963
20
69.741298
11
65.308811
21
67.641065
0
LINE
8
boundary
62
5
39
2
10
65.308811
20
67.641065
11
65.524660
21
66.824935
0
LINE
8
boundary
62
5
39
2
10
65.524660
20
66.824935
11
65.845769
21
65.653942
0
LINE
8
boundary
62
5
39
2
10
65.845769
20
65.653942
11
66.121922
21
64.642330
0
LINE
8
boundary
62
5
39
2
10
66.121922
20
64.642330
11
66.336243
21
63.885383
0
LINE
8
boundary
62
5
39
2
10
66.336243
20
63.885383
11
66.711672
21
62.519910
0
LINE
8
boundary
62
5
39
2
10
66.711672
20
62.519910
11
67.166649
21
60.928851
0
LINE
8
boundary
62
5
39
2
10
67.166649
20
60.928851
11
67.381610
21
60.187398
0
LINE
8
boundary
62
5
39
2
10
67.381610
20
60.187398
11
67.865429
21
58.507884
0
LINE
8
boundary
62
5
39
2
10
67.865429
20
58.507884
11
68.454546
21
56.545551
0
LINE
8
boundary
62
5
39
2
10
68.454546
20
56.545551
11
69.093640
21
54.447792
0
LINE
8
boundary
62
5
39
2
10
69.093640
20
54.447792
11
69.561660
21
52.975630
0
LINE
8
boundary
62
5
39
2
10
69.561660
20
52.975630
11
69.741249
21
52.403234
0
LINE
8
boundary
62
5
39
2
10
69.741249
20
52.403234
11
70.003198
21
51.603511
0
LINE
8
boundary
62
5
39
2
10
70.003198
20
51.603511
11
70.411622
21
50.347855
0
LINE
8
boundary
62
5
39
2
10
70.411622
20
50.347855
11
70.710153
21
49.467303
0
LINE
8
boundary
62
5
39
2
10
70.710153
20
49.467303
11
71.014882
21
48.559865
0
LINE
8
boundary
62
5
39
2
10
71.014882
20
48.559865
11
71.501448
21
47.162563
0
LINE
8
boundary
62
5
39
2
10
71.501448
20
47.162563
11
71.728482
21
46.520364
0
LINE
8
boundary
62
5
39
2
10
71.728482
20
46.520364
11
72.133316
21
45.385594
0
LINE
8
boundary
62
5
39
2
10
72.133316
20
45.385594
11
72.312040
21
44.901728
0
LINE
8
boundary
62
5
39
2
10
72.312040
20
44.901728
11
72.713305
21
43.808143
0
LINE
8
boundary
62
5
39
2
10
72.713305
20
43.808143
11
73.144313
21
42.673211
0
LINE
8
boundary
62
5
39
2
10
73.144313
20
42.673211
11
73.746052
21
41.120503
0
LINE
8
boundary
62
5
39
2
10
73.746052
20
41.120503
11
73.998982
21
40.478824
0
LINE
8
boundary
62
5
39
2
10
73.998982
20
40.478824
11
74.552688
21
39.105711
0
LINE
8
boundary
62
5
39
2
10
74.552688
20
39.105711
11
74.873693
21
38.334311
0
LINE
8
boundary
62
5
39
2
10
74.873693
20
38.334311
11
75.198411
21
37.556023
0
LINE
8
boundary
62
5
39
2
10
75.198411
20
37.556023
11
75.773777
21
36.218279
0
LINE
8
boundary
62
5
39
2
10
75.773777
20
36.218279
11
76.122520
21
35.429737
0
LINE
8
boundary
62
5
39
2
10
76.122520
20
35.429737
11
76.494400
21
34.593323
0
LINE
8
boundary
62
5
39
2
10
76.494400
20
34.593323
11
77.109246
21
33.255106
0
LINE
8
boundary
62
5
39
2
10
77.109246
20
33.255106
11
77.643512
21
32.122315
0
LINE
8
boundary
62
5
39
2
10
77.643512
20
32.122315
11
77.936914
21
31.520503
0
LINE
8
boundary
62
5
39
2
10
77.936914
20
31.520503
11
78.384569
21
30.605759
0
LINE
8
boundary
62
5
39
2
10
78.384569
20
30.605759
11
78.613120
21
30.147536
0
LINE
8
boundary
62
5
39
2
10
78.613120
20
30.147536
11
79.043415
21
29.304775
0
LINE
8
boundary
62
5
39
2
10
79.043415
20
29.304775
11
79.607198
21
28.220111
0
LINE
8
boundary
62
5
39
2
10
79.607198
20
28.220111
11
79.956446
21
27.573378
0
LINE
8
boundary
62
5
39
2
10
79.956446
20
27.573378
11
80.406064
21
26.743894
0
LINE
8
boundary
62
5
39
2
10
80.406064
20
26.743894
11
81.107853
21
25.496543
0
LINE
8
boundary
62
5
39
2
10
81.107853
20
25.496543
11
81.659540
21
24.539437
0
LINE
8
boundary
62
5
39
2
10
81.659540
20
24.539437
11
82.199175
21
23.643673
0
LINE
8
boundary
62
5
39
2
10
82.199175
20
23.643673
11
82.554977
21
23.055352
0
LINE
8
boundary
62
5
39
2
10
82.554977
20
23.055352
11
83.297496
21
21.879964
0
LINE
8
boundary
62
5
39
2
10
83.297496
20
21.879964
11
83.790353
21
21.115043
0
LINE
8
boundary
62
5
39
2
10
83.790353
20
21.115043
11
84.686164
21
19.794684
0
LINE
8
boundary
62
5
39
2
10
84.686164
20
19.794684
11
85.604045
21
18.509791
0
LINE
8
boundary
62
5
39
2
10
85.604045
20
18.509791
11
85.985145
21
17.986620
0
LINE
8
boundary
62
5
39
2
10
85.985145
20
17.986620
11
86.397042
21
17.453155
0
LINE
8
boundary
62
5
39
2
10
86.397042
20
17.453155
11
87.102382
21
16.544098
0
LINE
8
boundary
62
5
39
2
10
87.102382
20
16.544098
11
87.466235
21
16.106335
0
LINE
8
boundary
62
5
39
2
10
87.466235
20
16.106335
11
88.016723
21
15.447681
0
LINE
8
boundary
62
5
39
2
10
88.016723
20
15.447681
11
88.841875
21
14.516083
0
LINE
8
boundary
62
5
39
2
10
88.841875
20
14.516083
11
89.354827
21
13.948360
0
LINE
8
boundary
62
5
39
2
10
89.354827
20
13.948360
11
90.486746
21
12.790555
0
LINE
8
boundary
62
5
39
2
10
90.486746
20
12.790555
11
91.367234
21
11.966112
0
LINE
8
boundary
62
5
39
2
10
91.367234
20
11.966112
11
92.219828
21
11.215762
0
LINE
8
boundary
62
5
39
2
10
92.219828
20
11.215762
11
92.720607
21
10.783982
0
LINE
8
boundary
62
5
39
2
10
92.720607
20
10.783982
11
93.818572
21
9.922739
0
LINE
8
boundary
62
5
39
2
10
93.818572
20
9.922739
11
94.379153
21
9.525155
0
LINE
8
boundary
62
5
39
2
10
94.379153
20
9.525155
11
94.893610
21
9.163402
0
LINE
8
boundary
62
5
39
2
10
94.893610
20
9.163402
11
95.643540
21
8.694924
0
LINE
8
boundary
62
5
39
2
10
95.643540
20
8.694924
11
96.243138
21
8.335729
0
LINE
8
boundary
62
5
39
2
10
96.243138
20
8.335729
11
96.705498
21
8.082620
0
LINE
8
boundary
62
5
39
2
10
96.705498
20
8.082620
11
97.163775
21
7.848249
0
LINE
8
boundary
62
5
39
2
10
97.163775
20
7.848249
11
97.942518
21
7.486849
0
LINE
8
boundary
62
5
39
2
10
97.942518
20
7.486849
11
98.420206
21
7.294037
0
LINE
8
boundary
62
5
39
2
10
98.420206
20
7.294037
11
98.918264
21
7.116821
0
LINE
8
boundary
62
5
39
2
10
98.918264
20
7.116821
11
99.568586
21
6.922928
0
LINE
8
boundary
62
5
39
2
10
99.568586
20
6.922928
11
100.116076
21
6.799927
0
LINE
8
boundary
62
5
39
2
10
100.116076
20
6.799927
11
100.627944
21
6.717953
0
LINE
8
boundary
62
5
39
2
10
100.627944
20
6.717953
11
101.421107
21
6.668445
0
LINE
8
boundary
62
5
39
2
10
101.421107
20
6.668445
11
102.180871
21
6.719108
0
LINE
8
boundary
62
5
39
2
10
102.180871
20
6.719108
11
102.823630
21
6.854253
0
LINE
8
boundary
62
5
39
2
10
102.823630
20
6.854253
11
103.550921
21
7.135198
0
LINE
8
boundary
62
5
39
2
10
103.550921
20
7.135198
11
104.146794
21
7.497204
0
LINE
8
boundary
62
5
39
2
10
104.146794
20
7.497204
11
104.691029
21
7.962426
0
LINE
8
boundary
62
5
39
2
10
104.691029
20
7.962426
11
105.155584
21
8.493124
0
LINE
8
boundary
62
5
39
2
10
105.155584
20
8.493124
11
105.621992
21
9.221405
0
LINE
8
boundary
62
5
39
2
10
105.621992
20
9.221405
11
105.969739
21
9.969308
0
LINE
8
boundary
62
5
39
2
10
105.969739
20
9.969308
11
106.164976
21
10.516668
0
LINE
8
boundary
62
5
39
2
10
106.164976
20
10.516668
11
106.309425
21
11.036134
0
LINE
8
boundary
62
5
39
2
10
106.309425
20
11.036134
11
106.426825
21
11.547995
0
LINE
8
boundary
62
5
39
2
10
106.426825
20
11.547995
11
106.540943
21
12.221701
0
LINE
8
boundary
62
5
39
2
10
106.540943
20
12.221701
11
106.625397
21
12.896785
0
LINE
8
boundary
62
5
39
2
10
106.625397
20
12.896785
11
106.668817
21
13.446237
0
LINE
8
boundary
62
5
39
2
10
106.668817
20
13.446237
11
106.720993
21
14.662227
0
LINE
8
boundary
62
5
39
2
10
106.720993
20
14.662227
11
106.721847
21
15.836670
0
LINE
8
boundary
62
5
39
2
10
106.721847
20
15.836670
11
106.667578
21
17.310942
0
LINE
8
boundary
62
5
39
2
10
106.667578
20
17.310942
11
106.558727
21
18.850343
0
LINE
8
boundary
62
5
39
2
10
106.558727
20
18.850343
11
106.494533
21
19.535267
0
LINE
8
boundary
62
5
39
2
10
106.494533
20
19.535267
11
106.352631
21
20.811148
0
LINE
8
boundary
62
5
39
2
10
106.352631
20
20.811148
11
94.816057
21
20.811149
0
LINE
8
boundary
62
5
39
2
10
94.816057
20
20.811149
11
94.816057
21
23.557149
0
LINE
8
boundary
62
5
39
2
10
94.816057
20
23.557149
11
105.941717
21
23.557149
0
LINE
8
boundary
62
5
39
2
10
105.941717
20
23.557149
11
105.587071
21
25.861059
0
LINE
8
boundary
62
5
39
2
10
105.587071
20
25.861059
11
105.458745
21
26.571177
0
LINE
8
boundary
62
5
39
2
10
105.458745
20
26.571177
11
105.115310
21
28.353682
0
LINE
8
boundary
62
5
39
2
10
105.115310
20
28.353682
11
104.900511
21
29.420382
0
LINE
8
boundary
62
5
39
2
10
104.900511
20
29.420382
11
104.561304
21
31.022100
0
LINE
8
boundary
62
5
39
2
10
104.561304
20
31.022100
11
104.259789
21
32.396923
0
LINE
8
boundary
62
5
39
2
10
104.259789
20
32.396923
11
103.926319
21
33.855990
0
LINE
8
boundary
62
5
39
2
10
103.926319
20
33.855990
11
103.540484
21
35.496088
0
LINE
8
boundary
62
5
39
2
10
103.540484
20
35.496088
11
103.212005
21
36.844837
0
LINE
8
boundary
62
5
39
2
10
103.212005
20
36.844837
11
102.745263
21
38.714925
0
LINE
8
boundary
62
5
39
2
10
102.745263
20
38.714925
11
102.522016
21
39.583312
0
LINE
8
boundary
62
5
39
2
10
102.522016
20
39.583312
11
88.074052
21
39.733309
0
LINE
8
boundary
62
5
39
2
10
88.074052
20
39.733309
11
88.074053
21
42.479309
0
LINE
8
boundary
62
5
39
2
10
88.074053
20
42.479309
11
101.710104
21
42.479310
0
LINE
8
boundary
62
5
39
2
10
101.710104
20
42.479310
11
101.555426
21
43.241697
0
LINE
8
boundary
62
5
39
2
10
101.555426
20
43.241697
11
100.933349
21
45.508244
0
LINE
8
boundary
62
5
39
2
10
100.933349
20
45.508244
11
100.619340
21
46.627073
0
LINE
8
boundary
62
5
39
2
10
100.619340
20
46.627073
11
99.918055
21
49.084882
0
LINE
8
boundary
62
5
39
2
10
99.918055
20
49.084882
11
99.615994
21
50.123120
0
LINE
8
boundary
62
5
39
2
10
99.615994
20
50.123120
11
98.829939
21
52.785328
0
LINE
8
boundary
62
5
39
2
10
98.829939
20
52.785328
11
98.549358
21
53.721023
0
LINE
8
boundary
62
5
39
2
10
98.549358
20
53.721023
11
97.667190
21
56.614062
0
LINE
8
boundary
62
5
39
2
10
97.667190
20
56.614062
11
97.086245
21
58.505472
0
LINE
8
boundary
62
5
39
2
10
97.086245
20
58.505472
11
82.086852
21
58.655470
0
LINE
8
boundary
62
5
39
2
10
82.086852
20
58.655470
11
82.086852
21
61.401471
0
LINE
8
boundary
62
5
39
2
10
82.086852
20
61.401471
11
96.123237
21
61.401470
0
LINE
8
boundary
62
5
39
2
10
96.123237
20
61.401470
11
95.435285
21
63.778294
0
LINE
8
boundary
62
5
39
2
10
95.435285
20
63.778294
11
95.157104
21
64.650646
0
LINE
8
boundary
62
5
39
2
10
95.157104
20
64.650646
11
94.049145
21
68.132288
0
LINE
8
boundary
62
5
39
2
10
94.049145
20
68.132288
11
93.817391
21
68.859207
0
LINE
8
boundary
62
5
39
2
10
93.817391
20
68.859207
11
92.421721
21
73.197420
0
LINE
8
boundary
62
5
39
2
10
92.421721
20
73.197420
11
92.009514
21
74.489796
0
LINE
8
boundary
62
5
39
2
10
92.009514
20
74.489796
11
91.053385
21
77.427633
0
LINE
8
boundary
62
5
39
2
10
91.053385
20
77.427633
11
76.513655
21
77.577631
0
LINE
8
boundary
62
5
39
2
10
76.513655
20
77.577631
11
76.513654
21
80.323632
0
LINE
8
boundary
62
5
39
2
10
76.513654
20
80.323632
11
90.066771
21
80.323632
0
LINE
8
boundary
62
5
39
2
10
90.066771
20
80.323632
11
89.773173
21
81.422987
0
LINE
8
boundary
62
5
39
2
10
89.773173
20
81.422987
11
89.510577
21
82.238614
0
LINE
8
boundary
62
5
39
2
10
89.510577
20
82.238614
11
89.283654
21
82.957318
0
LINE
8
boundary
62
5
39
2
10
89.283654
20
82.957318
11
87.993593
21
86.942597
0
LINE
8
boundary
62
5
39
2
10
87.993593
20
86.942597
11
86.503510
21
91.647273
0
LINE
8
boundary
62
5
39
2
10
86.503510
20
91.647273
11
85.005830
21
96.349792
0
LINE
8
boundary
62
5
39
2
10
85.005830
20
96.349792
11
71.245489
21
96.499792
0
LINE
8
boundary
62
5
39
2
10
71.245489
20
96.499792
11
71.245489
21
99.245792
0
LINE
8
boundary
62
5
39
2
10
71.245489
20
99.245792
11
84.047720
21
99.245792
0
LINE
8
boundary
62
5
39
2
10
84.047720
20
99.245792
11
83.512993
21
101.152190
0
LINE
8
boundary
62
5
39
2
10
83.512993
20
101.152190
11
83.351889
21
101.662157
0
LINE
8
boundary
62
5
39
2
10
83.351889
20
101.662157
11
82.012782
21
106.001652
0
LINE
8
boundary
62
5
39
2
10
82.012782
20
106.001652
11
81.777606
21
106.755661
0
LINE
8
boundary
62
5
39
2
10
81.777606
20
106.755661
11
80.491646
21
110.986888
0
LINE
8
boundary
62
5
39
2
10
80.491646
20
110.986888
11
80.203587
21
111.924008
0
LINE
8
boundary
62
5
39
2
10
80.203587
20
111.924008
11
79.158469
21
115.421953
0
LINE
8
boundary
62
5
39
2
10
79.158469
20
115.421953
11
66.226899
21
115.421953
0
LINE
8
boundary
62
5
39
2
10
66.226899
20
115.421953
11
66.226899
21
118.167953
0
LINE
8
boundary
62
5
39
2
10
66.226899
20
118.167953
11
78.285637
21
118.167953
0
LINE
8
boundary
62
5
39
2
10
78.285637
20
118.167953
11
77.390050
21
121.407703
0
LINE
8
boundary
62
5
39
2
10
77.390050
20
121.407703
11
77.084176
21
122.437607
0
LINE
8
boundary
62
5
39
2
10
77.084176
20
122.437607
11
75.811948
21
126.867799
0
LINE
8
boundary
62
5
39
2
10
75.811948
20
126.867799
11
75.552968
21
127.757537
0
LINE
8
boundary
62
5
39
2
10
75.552968
20
127.757537
11
75.320269
21
128.579487
0
LINE
8
boundary
62
5
39
2
10
75.320269
20
128.579487
11
74.796016
21
130.428184
0
LINE
8
boundary
62
5
39
2
10
74.796016
20
130.428184
11
74.217211
21
132.511807
0
LINE
8
boundary
62
5
39
2
10
74.217211
20
132.511807
11
74.050754
21
133.101982
0
LINE
8
boundary
62
5
39
2
10
74.050754
20
133.101982
11
73.909965
21
133.611824
0
LINE
8
boundary
62
5
39
2
10
73.909965
20
133.611824
11
73.748934
21
134.194114
0
LINE
8
boundary
62
5
39
2
10
73.748934
20
134.194114
11
61.337032
21
134.344114
0
LINE
8
boundary
62
5
39
2
10
61.337032
20
134.344114
11
61.337033
21
137.090114
0
LINE
8
boundary
62
5
39
2
10
61.337033
20
137.090114
11
72.905047
21
137.090114
0
LINE
8
boundary
62
5
39
2
10
72.905047
20
137.090114
11
72.607797
21
138.376935
0
LINE
8
boundary
62
5
39
2
10
72.607797
20
138.376935
11
71.865146
21
141.137446
0
LINE
8
boundary
62
5
39
2
10
71.865146
20
141.137446
11
71.297109
21
143.300189
0
LINE
8
boundary
62
5
39
2
10
71.297109
20
143.300189
11
71.161942
21
143.814288
0
LINE
8
boundary
62
5
39
2
10
71.161942
20
143.814288
11
70.987380
21
144.494607
0
LINE
8
boundary
62
5
39
2
10
70.987380
20
144.494607
11
70.467760
21
146.489079
0
LINE
8
boundary
62
5
39
2
10
70.467760
20
146.489079
11
70.097899
21
147.944526
0
LINE
8
boundary
62
5
39
2
10
70.097899
20
147.944526
11
69.788899
21
149.159670
0
LINE
8
boundary
62
5
39
2
10
69.788899
20
149.159670
11
69.361194
21
150.885849
0
LINE
8
boundary
62
5
39
2
10
69.361194
20
150.885849
11
69.124867
21
151.825266
0
LINE
8
boundary
62
5
39
2
10
69.124867
20
151.825266
11
68.968651
21
152.462915
0
LINE
8
boundary
62
5
39
2
10
68.968651
20
152.462915
11
68.771808
21
153.266275
0
LINE
8
boundary
62
5
39
2
10
68.771808
20
153.266275
11
56.558963
21
153.266275
0
LINE
8
boundary
62
5
39
2
10
56.558963
20
153.266275
11
56.558963
21
156.012275
0
LINE
8
boundary
62
5
39
2
10
56.558963
20
156.012275
11
68.063597
21
156.012275
0
LINE
8
boundary
62
5
39
2
10
68.063597
20
156.012275
11
67.797966
21
157.321356
0
LINE
8
boundary
62
5
39
2
10
67.797966
20
157.321356
11
67.080007
21
160.368467
0
LINE
8
boundary
62
5
39
2
10
67.080007
20
160.368467
11
66.864416
21
161.308441
0
LINE
8
boundary
62
5
39
2
10
66.864416
20
161.308441
11
66.409835
21
163.294016
0
LINE
8
boundary
62
5
39
2
10
66.409835
20
163.294016
11
65.988505
21
165.183600
0
LINE
8
boundary
62
5
39
2
10
65.988505
20
165.183600
11
65.760685
21
166.207966
0
LINE
8
boundary
62
5
39
2
10
65.760685
20
166.207966
11
65.153138
21
169.009586
0
LINE
8
boundary
62
5
39
2
10
65.153138
20
169.009586
11
64.508584
21
171.995346
0
LINE
8
boundary
62
5
39
2
10
64.508584
20
171.995346
11
51.896780
21
172.188436
0
LINE
8
boundary
62
5
39
2
10
51.896780
20
172.188436
11
51.896780
21
174.934436
0
LINE
8
boundary
62
5
39
2
10
51.896780
20
174.934436
11
63.847209
21
174.934436
0
LINE
8
boundary
62
5
39
2
10
63.847209
20
174.934436
11
63.569407
21
176.479279
0
LINE
8
boundary
62
5
39
2
10
63.569407
20
176.479279
11
63.314254
21
177.721641
0
LINE
8
boundary
62
5
39
2
10
63.314254
20
177.721641
11
62.825754
21
180.146204
0
LINE
8
boundary
62
5
39
2
10
62.825754
20
180.146204
11
62.454923
21
182.024585
0
LINE
8
boundary
62
5
39
2
10
62.454923
20
182.024585
11
62.180983
21
183.382889
0
LINE
8
boundary
62
5
39
2
10
62.180983
20
183.382889
11
61.628603
21
186.183913
0
LINE
8
boundary
62
5
39
2
10
61.628603
20
186.183913
11
61.408056
21
187.319526
0
LINE
8
boundary
62
5
39
2
10
61.408056
20
187.319526
11
61.090934
21
188.966748
0
LINE
8
boundary
62
5
39
2
10
61.090934
20
188.966748
11
60.735144
21
190.838876
0
LINE
8
boundary
62
5
39
2
10
60.735144
20
190.838876
11
47.494923
21
191.110597
0
LINE
8
boundary
62
5
39
2
10
47.494923
20
191.110597
11
47.494923
21
193.856596
0
LINE
8
boundary
62
5
39
2
10
47.494923
20
193.856596
11
60.133469
21
193.856597
0
LINE
8
boundary
62
5
39
2
10
60.133469
20
193.856597
11
60.056757
21
194.475814
0
LINE
8
boundary
62
5
39
2
10
60.056757
20
194.475814
11
59.947641
21
195.081166
0
LINE
8
boundary
62
5
39
2
10
59.947641
20
195.081166
11
59.055612
21
199.893520
0
LINE
8
boundary
62
5
39
2
10
59.055612
20
199.893520
11
58.464242
21
203.177136
0
LINE
8
boundary
62
5
39
2
10
58.464242
20
203.177136
11
58.098958
21
205.224124
0
LINE
8
boundary
62
5
39
2
10
58.098958
20
205.224124
11
57.573893
21
208.241830
0
LINE
8
boundary
62
5
39
2
10
57.573893
20
208.241830
11
57.280465
21
209.882758
0
LINE
8
boundary
62
5
39
2
10
57.280465
20
209.882758
11
43.419885
21
210.032758
0
LINE
8
boundary
62
5
39
2
10
43.419885
20
210.032758
11
43.419886
21
212.778758
0
LINE
8
boundary
62
5
39
2
10
43.419886
20
212.778758
11
56.736477
21
212.778758
0
LINE
8
boundary
62
5
39
2
10
56.736477
20
212.778758
11
56.285325
21
215.591710
0
LINE
8
boundary
62
5
39
2
10
56.285325
20
215.591710
11
55.479382
21
220.325819
0
LINE
8
boundary
62
5
39
2
10
55.479382
20
220.325819
11
55.351956
21
221.089216
0
LINE
8
boundary
62
5
39
2
10
55.351956
20
221.089216
11
54.592712
21
225.546757
0
LINE
8
boundary
62
5
39
2
10
54.592712
20
225.546757
11
54.112442
21
228.400941
0
LINE
8
boundary
62
5
39
2
10
54.112442
20
228.400941
11
54.020215
21
228.954919
0
LINE
8
boundary
62
5
39
2
10
54.020215
20
228.954919
11
39.626459
21
228.954918
0
LINE
8
boundary
62
5
39
2
10
39.626459
20
228.954918
11
39.626459
21
231.700918
0
LINE
8
boundary
62
5
39
2
10
39.626459
20
231.700918
11
53.530183
21
231.700919
0
LINE
8
boundary
62
5
39
2
10
53.530183
20
231.700919
11
53.294102
21
233.345295
0
LINE
8
boundary
62
5
39
2
10
53.294102
20
233.345295
11
53.003759
21
235.066031
0
LINE
8
boundary
62
5
39
2
10
53.003759
20
235.066031
11
52.816142
21
236.188660
0
LINE
8
boundary
62
5
39
2
10
52.816142
20
236.188660
11
52.242068
21
239.654897
0
LINE
8
boundary
62
5
39
2
10
52.242068
20
239.654897
11
51.396491
21
244.814011
0
LINE
8
boundary
62
5
39
2
10
51.396491
20
244.814011
11
50.893670
21
247.877079
0
LINE
8
boundary
62
5
39
2
10
50.893670
20
247.877079
11
36.018802
21
247.877079
0
LINE
8
boundary
62
5
39
2
10
36.018802
20
247.877079
11
36.018802
21
250.623080
0
LINE
8
boundary
62
5
39
2
10
36.018802
20
250.623080
11
50.410120
21
250.623079
0
LINE
8
boundary
62
5
39
2
10
50.410120
20
250.623079
11
49.733800
21
255.026838
0
LINE
8
boundary
62
5
39
2
10
49.733800
20
255.026838
11
49.652924
21
255.532522
0
LINE
8
boundary
62
5
39
2
10
49.652924
20
255.532522
11
48.909833
21
260.164170
0
LINE
8
boundary
62
5
39
2
10
48.909833
20
260.164170
11
48.254600
21
264.303004
0
LINE
8
boundary
62
5
39
2
10
48.254600
20
264.303004
11
48.155335
21
264.927743
0
LINE
8
boundary
62
5
39
2
10
48.155335
20
264.927743
11
48.045924
21
265.620083
0
LINE
8
boundary
62
5
39
2
10
48.045924
20
265.620083
11
47.883050
21
266.649242
0
LINE
8
boundary
62
5
39
2
10
47.883050
20
266.649242
11
32.521719
21
266.799240
0
LINE
8
boundary
62
5
39
2
10
32.521719
20
266.799240
11
32.521719
21
269.545241
0
LINE
8
boundary
62
5
39
2
10
32.521719
20
269.545241
11
47.390699
21
269.545240
0
LINE
8
boundary
62
5
39
2
10
47.390699
20
269.545240
11
46.861197
21
273.106610
0
LINE
8
boundary
62
5
39
2
10
46.861197
20
273.106610
11
46.706271
21
274.077364
0
LINE
8
boundary
62
5
39
2
10
46.706271
20
274.077364
11
46.533377
21
275.148522
0
LINE
8
boundary
62
5
39
2
10
46.533377
20
275.148522
11
45.998527
21
278.479228
0
LINE
8
boundary
62
5
39
2
10
45.998527
20
278.479228
11
45.747160
21
280.023993
0
LINE
8
boundary
62
5
39
2
10
45.747160
20
280.023993
11
45.527655
21
281.352707
0
LINE
8
boundary
62
5
39
2
10
45.527655
20
281.352707
11
45.057643
21
284.161097
0
LINE
8
boundary
62
5
39
2
10
45.057643
20
284.161097
11
44.814649
21
285.571404
0
LINE
8
boundary
62
5
39
2
10
44.814649
20
285.571404
11
29.039525
21
285.721401
0
LINE
8
boundary
62
5
39
2
10
29.039525
20
285.721401
11
29.039525
21
288.467401
0
LINE
8
boundary
62
5
39
2
10
29.039525
20
288.467401
11
44.270920
21
288.467401
0
LINE
8
boundary
62
5
39
2
10
44.270920
20
288.467401
11
44.088057
21
289.691818
0
LINE
8
boundary
62
5
39
2
10
44.088057
20
289.691818
11
43.775205
21
291.391172
0
LINE
8
boundary
62
5
39
2
10
43.775205
20
291.391172
11
43.520452
21
292.727322
0
LINE
8
boundary
62
5
39
2
10
43.520452
20
292.727322
11
43.334394
21
293.703287
0
LINE
8
boundary
62
5
39
2
10
43.334394
20
293.703287
11
42.943691
21
295.670476
0
LINE
8
boundary
62
5
39
2
10
42.943691
20
295.670476
11
42.757064
21
296.580931
0
LINE
8
boundary
62
5
39
2
10
42.757064
20
296.580931
11
42.542278
21
297.609645
0
LINE
8
boundary
62
5
39
2
10
42.542278
20
297.609645
11
42.220636
21
299.101582
0
LINE
8
boundary
62
5
39
2
10
42.220636
20
299.101582
11
41.823732
21
300.861249
0
LINE
8
boundary
62
5
39
2
10
41.823732
20
300.861249
11
41.701107
21
301.403116
0
LINE
8
boundary
62
5
39
2
10
41.701107
20
301.403116
11
41.257268
21
303.258849
0
LINE
8
boundary
62
5
39
2
10
41.257268
20
303.258849
11
41.074443
21
303.989692
0
LINE
8
boundary
62
5
39
2
10
41.074443
20
303.989692
11
40.946368
21
304.493563
0
LINE
8
boundary
62
5
39
2
10
40.946368
20
304.493563
11
25.247461
21
304.643562
0
LINE
8
boundary
62
5
39
2
10
25.247461
20
304.643562
11
25.247462
21
307.389562
0
LINE
8
boundary
62
5
39
2
10
25.247462
20
307.389562
11
40.118271
21
307.389562
0
LINE
8
boundary
62
5
39
2
10
40.118271
20
307.389562
11
39.831379
21
308.586051
0
LINE
8
boundary
62
5
39
2
10
39.831379
20
308.586051
11
39.294303
21
310.365389
0
LINE
8
boundary
62
5
39
2
10
39.294303
20
310.365389
11
39.126351
21
310.890282
0
LINE
8
boundary
62
5
39
2
10
39.126351
20
310.890282
11
38.747589
21
312.058943
0
LINE
8
boundary
62
5
39
2
10
38.747589
20
312.058943
11
38.402709
21
313.062185
0
LINE
8
boundary
62
5
39
2
10
38.402709
20
313.062185
11
38.175515
21
313.715042
0
LINE
8
boundary
62
5
39
2
10
38.175515
20
313.715042
11
37.639631
21
315.163268
0
LINE
8
boundary
62
5
39
2
10
37.639631
20
315.163268
11
37.343911
21
315.914786
0
LINE
8
boundary
62
5
39
2
10
37.343911
20
315.914786
11
36.947540
21
316.911377
0
LINE
8
boundary
62
5
39
2
10
36.947540
20
316.911377
11
36.437468
21
318.096188
0
LINE
8
boundary
62
5
39
2
10
36.437468
20
318.096188
11
35.611571
21
319.886867
0
LINE
8
boundary
62
5
39
2
10
35.611571
20
319.886867
11
35.358427
21
320.431334
0
LINE
8
boundary
62
5
39
2
10
35.358427
20
320.431334
11
34.375867
21
322.333796
0
LINE
8
boundary
62
5
39
2
10
34.375867
20
322.333796
11
33.899869
21
323.178531
0
LINE
8
boundary
62
5
39
2
10
33.899869
20
323.178531
11
19.947955
21
323.565723
0
LINE
8
boundary
62
5
39
2
10
19.947955
20
323.565723
11
19.947956
21
326.311723
0
LINE
8
boundary
62
5
39
2
10
19.947956
20
326.311723
11
31.871971
21
326.311723
0
LINE
8
boundary
62
5
39
2
10
31.871971
20
326.311723
11
31.257075
21
327.387473
0
LINE
8
boundary
62
5
39
2
10
31.257075
20
327.387473
11
30.703745
21
328.148531
0
LINE
8
boundary
62
5
39
2
10
30.703745
20
328.148531
11
30.022158
21
329.076205
0
LINE
8
boundary
62
5
39
2
10
30.022158
20
329.076205
11
28.852762
21
330.537079
0
LINE
8
boundary
62
5
39
2
10
28.852762
20
330.537079
11
28.483753
21
330.962510
0
LINE
8
boundary
62
5
39
2
10
28.483753
20
330.962510
11
27.662655
21
331.902130
0
LINE
8
boundary
62
5
39
2
10
27.662655
20
331.902130
11
27.080847
21
332.516281
0
LINE
8
boundary
62
5
39
2
10
27.080847
20
332.516281
11
26.457286
21
333.169779
0
LINE
8
boundary
62
5
39
2
10
26.457286
20
333.169779
11
25.681375
21
333.917942
0
LINE
8
boundary
62
5
39
2
10
25.681375
20
333.917942
11
25.242178
21
334.338473
0
LINE
8
boundary
62
5
39
2
10
25.242178
20
334.338473
11
24.294590
21
335.170069
0
LINE
8
boundary
62
5
39
2
10
24.294590
20
335.170069
11
22.929148
21
336.275726
0
LINE
8
annotation
62
1
39
211
10
89.754352
20
19.784110
11
87.622558
21
19.784110
0
LINE
8
annotation
62
1
39
211
10
87.622558
20
19.784110
11
89.592406
21
22.955312
0
LINE
8
annotation
62
1
39
211
10
89.592406
20
22.955312
11
89.592406
21
22.955312
0
LINE
8
annotation
62
1
39
211
10
89.592406
20
22.955312
11
89.594761
21
22.958226
0
LINE
8
annotation
62
1
39
211
10
89.594761
20
22.958226
11
89.597019
21
22.961165
0
LINE
8
annotation
62
1
39
211
10
89.597019
20
22.961165
11
89.599195
21
22.964153
0
LINE
8
annotation
62
1
39
211
10
89.599195
20
22.964153
11
89.601305
21
22.967216
0
LINE
8
annotation
62
1
39
211
10
89.601305
20
22.967216
11
89.603363
21
22.970378
0
LINE
8
annotation
62
1
39
211
10
89.603363
20
22.970378
11
89.605383
21
22.973663
0
LINE
8
annotation
62
1
39
211
10
89.605383
20
22.973663
11
89.607381
21
22.977097
0
LINE
8
annotation
62
1
39
211
10
89.607381
20
22.977097
11
89.609372
21
22.980705
0
LINE
8
annotation
62
1
39
211
10
89.609372
20
22.980705
11
89.611370
21
22.984511
0
LINE
8
annotation
62
1
39
211
10
89.611370
20
22.984511
11
89.611370
21
22.984511
0
LINE
8
annotation
62
1
39
211
10
89.611370
20
22.984511
11
89.692704
21
23.159143
0
LINE
8
annotation
62
1
39
211
10
89.692704
20
23.159143
11
89.740219
21
23.340165
0
LINE
8
annotation
62
1
39
211
10
89.740219
20
23.340165
11
89.755077
21
23.523486
0
LINE
8
annotation
62
1
39
211
10
89.755077
20
23.523486
11
89.738444
21
23.705015
0
LINE
8
annotation
62
1
39
211
10
89.738444
20
23.705015
11
89.691484
21
23.880663
0
LINE
8
annotation
62
1
39
211
10
89.691484
20
23.880663
11
89.615361
21
24.046339
0
LINE
8
annotation
62
1
39
211
10
89.615361
20
24.046339
11
89.511240
21
24.197953
0
LINE
8
annotation
62
1
39
211
10
89.511240
20
24.197953
11
89.380285
21
24.331414
0
LINE
8
annotation
62
1
39
211
10
89.380285
20
24.331414
11
89.223661
21
24.442632
0
LINE
8
annotation
62
1
39
211
10
89.223661
20
24.442632
11
89.223661
21
24.442632
0
LINE
8
annotation
62
1
39
211
10
89.223661
20
24.442632
11
89.048544
21
24.522811
0
LINE
8
annotation
62
1
39
211
10
89.048544
20
24.522811
11
88.867244
21
24.569593
0
LINE
8
annotation
62
1
39
211
10
88.867244
20
24.569593
11
88.683817
21
24.584032
0
LINE
8
annotation
62
1
39
211
10
88.683817
20
24.584032
11
88.502315
21
24.567179
0
LINE
8
annotation
62
1
39
211
10
88.502315
20
24.567179
11
88.326791
21
24.520089
0
LINE
8
annotation
62
1
39
211
10
88.326791
20
24.520089
11
88.161298
21
24.443814
0
LINE
8
annotation
62
1
39
211
10
88.161298
20
24.443814
11
88.009890
21
24.339407
0
LINE
8
annotation
62
1
39
211
10
88.009890
20
24.339407
11
87.876620
21
24.207921
0
LINE
8
annotation
62
1
39
211
10
87.876620
20
24.207921
11
87.765540
21
24.050408
0
LINE
8
annotation
62
1
39
211
10
87.765540
20
24.050408
11
87.625568
21
23.781902
0
LINE
8
annotation
62
1
39
211
10
80.880553
20
38.706460
11
81.946450
21
38.706460
0
LINE
8
annotation
62
1
39
211
10
81.946450
20
38.706460
11
81.946450
21
38.706460
0
LINE
8
annotation
62
1
39
211
10
81.946450
20
38.706460
11
82.138154
21
38.723657
0
LINE
8
annotation
62
1
39
211
10
82.138154
20
38.723657
11
82.318541
21
38.773220
0
LINE
8
annotation
62
1
39
211
10
82.318541
20
38.773220
11
82.484611
21
38.852107
0
LINE
8
annotation
62
1
39
211
10
82.484611
20
38.852107
11
82.633363
21
38.957275
0
LINE
8
annotation
62
1
39
211
10
82.633363
20
38.957275
11
82.761797
21
39.085682
0
LINE
8
annotation
62
1
39
211
10
82.761797
20
39.085682
11
82.866912
21
39.234286
0
LINE
8
annotation
62
1
39
211
10
82.866912
20
39.234286
11
82.945710
21
39.400044
0
LINE
8
annotation
62
1
39
211
10
82.945710
20
39.400044
11
82.995188
21
39.579913
0
LINE
8
annotation
62
1
39
211
10
82.995188
20
39.579913
11
83.012348
21
39.770852
0
LINE
8
annotation
62
1
39
211
10
83.012348
20
39.770852
11
83.012348
21
40.304554
0
LINE
8
annotation
62
1
39
211
10
83.012348
20
40.304554
11
83.012348
21
40.304554
0
LINE
8
annotation
62
1
39
211
10
83.012348
20
40.304554
11
82.995188
21
40.495413
0
LINE
8
annotation
62
1
39
211
10
82.995188
20
40.495413
11
82.945710
21
40.675241
0
LINE
8
annotation
62
1
39
211
10
82.945710
20
40.675241
11
82.866912
21
40.840986
0
LINE
8
annotation
62
1
39
211
10
82.866912
20
40.840986
11
82.761797
21
40.989600
0
LINE
8
annotation
62
1
39
211
10
82.761797
20
40.989600
11
82.633363
21
41.118032
0
LINE
8
annotation
62
1
39
211
10
82.633363
20
41.118032
11
82.484611
21
41.223232
0
LINE
8
annotation
62
1
39
211
10
82.484611
20
41.223232
11
82.318541
21
41.302151
0
LINE
8
annotation
62
1
39
211
10
82.318541
20
41.302151
11
82.138154
21
41.351739
0
LINE
8
annotation
62
1
39
211
10
82.138154
20
41.351739
11
81.946450
21
41.368946
0
LINE
8
annotation
62
1
39
211
10
81.946450
20
41.368946
11
81.412749
21
41.368946
0
LINE
8
annotation
62
1
39
211
10
81.412749
20
41.368946
11
81.946450
21
41.368946
0
LINE
8
annotation
62
1
39
211
10
81.946450
20
41.368946
11
81.946450
21
41.368946
0
LINE
8
annotation
62
1
39
211
10
81.946450
20
41.368946
11
82.138154
21
41.386157
0
LINE
8
annotation
62
1
39
211
10
82.138154
20
41.386157
11
82.318541
21
41.435774
0
LINE
8
annotation
62
1
39
211
10
82.318541
20
41.435774
11
82.484611
21
41.514771
0
LINE
8
annotation
62
1
39
211
10
82.484611
20
41.514771
11
82.633363
21
41.620124
0
LINE
8
annotation
62
1
39
211
10
82.633363
20
41.620124
11
82.761797
21
41.748808
0
LINE
8
annotation
62
1
39
211
10
82.761797
20
41.748808
11
82.866912
21
41.897797
0
LINE
8
annotation
62
1
39
211
10
82.866912
20
41.897797
11
82.945710
21
42.064067
0
LINE
8
annotation
62
1
39
211
10
82.945710
20
42.064067
11
82.995188
21
42.244593
0
LINE
8
annotation
62
1
39
211
10
82.995188
20
42.244593
11
83.012348
21
42.436348
0
LINE
8
annotation
62
1
39
211
10
83.012348
20
42.436348
11
83.012348
21
42.436348
0
LINE
8
annotation
62
1
39
211
10
83.012348
20
42.436348
11
82.995188
21
42.627208
0
LINE
8
annotation
62
1
39
211
10
82.995188
20
42.627208
11
82.945710
21
42.807036
0
LINE
8
annotation
62
1
39
211
10
82.945710
20
42.807036
11
82.866912
21
42.972781
0
LINE
8
annotation
62
1
39
211
10
82.866912
20
42.972781
11
82.761797
21
43.121395
0
LINE
8
annotation
62
1
39
211
10
82.761797
20
43.121395
11
82.633363
21
43.249826
0
LINE
8
annotation
62
1
39
211
10
82.633363
20
43.249826
11
82.484611
21
43.355027
0
LINE
8
annotation
62
1
39
211
10
82.484611
20
43.355027
11
82.318541
21
43.433946
0
LINE
8
annotation
62
1
39
211
10
82.318541
20
43.433946
11
82.138154
21
43.483534
0
LINE
8
annotation
62
1
39
211
10
82.138154
20
43.483534
11
81.946450
21
43.500741
0
LINE
8
annotation
62
1
39
211
10
81.946450
20
43.500741
11
80.880553
21
43.500741
0
LINE
8
annotation
62
1
39
211
10
77.291848
20
58.695572
11
74.626653
21
58.695572
0
LINE
8
annotation
62
1
39
211
10
74.626653
20
58.695572
11
75.691045
21
62.428470
0
LINE
8
annotation
62
1
39
211
10
76.492951
20
57.628470
11
76.492951
21
59.760265
0
LINE
8
annotation
62
1
39
211
10
69.320155
20
76.550631
11
70.386052
21
76.550631
0
LINE
8
annotation
62
1
39
211
10
70.386052
20
76.550631
11
70.386052
21
76.550631
0
LINE
8
annotation
62
1
39
211
10
70.386052
20
76.550631
11
70.577360
21
76.567832
0
LINE
8
annotation
62
1
39
211
10
70.577360
20
76.567832
11
70.757537
21
76.617421
0
LINE
8
annotation
62
1
39
211
10
70.757537
20
76.617421
11
70.923544
21
76.696379
0
LINE
8
annotation
62
1
39
211
10
70.923544
20
76.696379
11
71.072346
21
76.801684
0
LINE
8
annotation
62
1
39
211
10
71.072346
20
76.801684
11
71.200903
21
76.930318
0
LINE
8
annotation
62
1
39
211
10
71.200903
20
76.930318
11
71.306180
21
77.079260
0
LINE
8
annotation
62
1
39
211
10
71.306180
20
77.079260
11
71.385138
21
77.245490
0
LINE
8
annotation
62
1
39
211
10
71.385138
20
77.245490
11
71.434741
21
77.425987
0
LINE
8
annotation
62
1
39
211
10
71.434741
20
77.425987
11
71.451950
21
77.617733
0
LINE
8
annotation
62
1
39
211
10
71.451950
20
77.617733
11
71.451950
21
78.148725
0
LINE
8
annotation
62
1
39
211
10
71.451950
20
78.148725
11
71.451950
21
78.148725
0
LINE
8
annotation
62
1
39
211
10
71.451950
20
78.148725
11
71.434751
21
78.340377
0
LINE
8
annotation
62
1
39
211
10
71.434751
20
78.340377
11
71.385173
21
78.520626
0
LINE
8
annotation
62
1
39
211
10
71.385173
20
78.520626
11
71.306247
21
78.686495
0
LINE
8
annotation
62
1
39
211
10
71.306247
20
78.686495
11
71.201002
21
78.835010
0
LINE
8
annotation
62
1
39
211
10
71.201002
20
78.835010
11
71.072469
21
78.963194
0
LINE
8
annotation
62
1
39
211
10
71.072469
20
78.963194
11
70.923678
21
79.068072
0
LINE
8
annotation
62
1
39
211
10
70.923678
20
79.068072
11
70.757658
21
79.146669
0
LINE
8
annotation
62
1
39
211
10
70.757658
20
79.146669
11
70.577439
21
79.196009
0
LINE
8
annotation
62
1
39
211
10
70.577439
20
79.196009
11
70.386052
21
79.213117
0
LINE
8
annotation
62
1
39
211
10
70.386052
20
79.213117
11
69.320155
21
79.213117
0
LINE
8
annotation
62
1
39
211
10
69.320155
20
79.213117
11
69.320155
21
81.350631
0
LINE
8
annotation
62
1
39
211
10
69.320155
20
81.350631
11
71.451950
21
81.350631
0
LINE
8
annotation
62
1
39
211
10
65.653093
20
100.272792
11
65.653093
21
100.272792
0
LINE
8
annotation
62
1
39
211
10
65.653093
20
100.272792
11
65.347740
21
100.158303
0
LINE
8
annotation
62
1
39
211
10
65.347740
20
100.158303
11
65.067539
21
100.004043
0
LINE
8
annotation
62
1
39
211
10
65.067539
20
100.004043
11
64.815366
21
99.813877
0
LINE
8
annotation
62
1
39
211
10
64.815366
20
99.813877
11
64.594097
21
99.591669
0
LINE
8
annotation
62
1
39
211
10
64.594097
20
99.591669
11
64.406608
21
99.341284
0
LINE
8
annotation
62
1
39
211
10
64.406608
20
99.341284
11
64.255777
21
99.066588
0
LINE
8
annotation
62
1
39
211
10
64.255777
20
99.066588
11
64.144479
21
98.771445
0
LINE
8
annotation
62
1
39
211
10
64.144479
20
98.771445
11
64.075591
21
98.459720
0
LINE
8
annotation
62
1
39
211
10
64.075591
20
98.459720
11
64.051989
21
98.135278
0
LINE
8
annotation
62
1
39
211
10
64.051989
20
98.135278
11
64.051989
21
96.539894
0
LINE
8
annotation
62
1
39
211
10
64.051989
20
96.539894
11
64.051989
21
96.539894
0
LINE
8
annotation
62
1
39
211
10
64.051989
20
96.539894
11
64.069198
21
96.348148
0
LINE
8
annotation
62
1
39
211
10
64.069198
20
96.348148
11
64.118801
21
96.167651
0
LINE
8
annotation
62
1
39
211
10
64.118801
20
96.167651
11
64.197759
21
96.001421
0
LINE
8
annotation
62
1
39
211
10
64.197759
20
96.001421
11
64.303036
21
95.852479
0
LINE
8
annotation
62
1
39
211
10
64.303036
20
95.852479
11
64.431594
21
95.723845
0
LINE
8
annotation
62
1
39
211
10
64.431594
20
95.723845
11
64.580395
21
95.618540
0
LINE
8
annotation
62
1
39
211
10
64.580395
20
95.618540
11
64.746403
21
95.539582
0
LINE
8
annotation
62
1
39
211
10
64.746403
20
95.539582
11
64.926579
21
95.489993
0
LINE
8
annotation
62
1
39
211
10
64.926579
20
95.489993
11
65.117887
21
95.472792
0
LINE
8
annotation
62
1
39
211
10
65.117887
20
95.472792
11
65.117887
21
95.472792
0
LINE
8
annotation
62
1
39
211
10
65.117887
20
95.472792
11
65.309591
21
95.489993
0
LINE
8
annotation
62
1
39
211
10
65.309591
20
95.489993
11
65.489978
21
95.539582
0
LINE
8
annotation
62
1
39
211
10
65.489978
20
95.539582
11
65.656048
21
95.618540
0
LINE
8
annotation
62
1
39
211
10
65.656048
20
95.618540
11
65.804799
21
95.723845
0
LINE
8
annotation
62
1
39
211
10
65.804799
20
95.723845
11
65.933233
21
95.852479
0
LINE
8
annotation
62
1
39
211
10
65.933233
20
95.852479
11
66.038349
21
96.001421
0
LINE
8
annotation
62
1
39
211
10
66.038349
20
96.001421
11
66.117146
21
96.167651
0
LINE
8
annotation
62
1
39
211
10
66.117146
20
96.167651
11
66.166625
21
96.348148
0
LINE
8
annotation
62
1
39
211
10
66.166625
20
96.348148
11
66.183784
21
96.539894
0
LINE
8
annotation
62
1
39
211
10
66.183784
20
96.539894
11
66.183784
21
97.070886
0
LINE
8
annotation
62
1
39
211
10
66.183784
20
97.070886
11
66.183784
21
97.070886
0
LINE
8
annotation
62
1
39
211
10
66.183784
20
97.070886
11
66.166625
21
97.262538
0
LINE
8
annotation
62
1
39
211
10
66.166625
20
97.262538
11
66.117146
21
97.442787
0
LINE
8
annotation
62
1
39
211
10
66.117146
20
97.442787
11
66.038349
21
97.608656
0
LINE
8
annotation
62
1
39
211
10
66.038349
20
97.608656
11
65.933233
21
97.757171
0
LINE
8
annotation
62
1
39
211
10
65.933233
20
97.757171
11
65.804799
21
97.885355
0
LINE
8
annotation
62
1
39
211
10
65.804799
20
97.885355
11
65.656048
21
97.990233
0
LINE
8
annotation
62
1
39
211
10
65.656048
20
97.990233
11
65.489978
21
98.068830
0
LINE
8
annotation
62
1
39
211
10
65.489978
20
98.068830
11
65.309591
21
98.118170
0
LINE
8
annotation
62
1
39
211
10
65.309591
20
98.118170
11
65.117887
21
98.135278
0
LINE
8
annotation
62
1
39
211
10
65.117887
20
98.135278
11
64.051989
21
98.135278
0
LINE
8
annotation
62
1
39
211
10
63.918489
20
94.872792
11
66.318489
21
94.872792
0
LINE
8
annotation
62
1
39
211
10
60.099297
20
114.394953
11
61.166398
21
119.194953
0
LINE
8
annotation
62
1
39
211
10
61.166398
20
119.194953
11
59.031894
21
119.194953
0
LINE
8
annotation
62
1
39
211
10
61.166398
20
117.057439
11
60.099297
21
117.057439
0
LINE
8
annotation
62
1
39
211
10
54.143533
20
134.381356
11
54.143533
21
134.381356
0
LINE
8
annotation
62
1
39
211
10
54.143533
20
134.381356
11
54.160742
21
134.189703
0
LINE
8
annotation
62
1
39
211
10
54.160742
20
134.189703
11
54.210345
21
134.009455
0
LINE
8
annotation
62
1
39
211
10
54.210345
20
134.009455
11
54.289303
21
133.843585
0
LINE
8
annotation
62
1
39
211
10
54.289303
20
133.843585
11
54.394580
21
133.695071
0
LINE
8
annotation
62
1
39
211
10
54.394580
20
133.695071
11
54.523138
21
133.566887
0
LINE
8
annotation
62
1
39
211
10
54.523138
20
133.566887
11
54.671939
21
133.462009
0
LINE
8
annotation
62
1
39
211
10
54.671939
20
133.462009
11
54.837947
21
133.383412
0
LINE
8
annotation
62
1
39
211
10
54.837947
20
133.383412
11
55.018123
21
133.334071
0
LINE
8
annotation
62
1
39
211
10
55.018123
20
133.334071
11
55.209431
21
133.316964
0
LINE
8
annotation
62
1
39
211
10
55.209431
20
133.316964
11
55.209431
21
133.316964
0
LINE
8
annotation
62
1
39
211
10
55.209431
20
133.316964
11
55.400739
21
133.334071
0
LINE
8
annotation
62
1
39
211
10
55.400739
20
133.334071
11
55.580915
21
133.383412
0
LINE
8
annotation
62
1
39
211
10
55.580915
20
133.383412
11
55.746923
21
133.462009
0
LINE
8
annotation
62
1
39
211
10
55.746923
20
133.462009
11
55.895724
21
133.566887
0
LINE
8
annotation
62
1
39
211
10
55.895724
20
133.566887
11
56.024282
21
133.695071
0
LINE
8
annotation
62
1
39
211
10
56.024282
20
133.695071
11
56.129558
21
133.843585
0
LINE
8
annotation
62
1
39
211
10
56.129558
20
133.843585
11
56.208517
21
134.009455
0
LINE
8
annotation
62
1
39
211
10
56.208517
20
134.009455
11
56.258119
21
134.189703
0
LINE
8
annotation
62
1
39
211
10
56.258119
20
134.189703
11
56.275328
21
134.381356
0
LINE
8
annotation
62
1
39
211
10
56.275328
20
134.381356
11
56.275328
21
134.912348
0
LINE
8
annotation
62
1
39
211
10
56.275328
20
134.912348
11
56.275328
21
134.912348
0
LINE
8
annotation
62
1
39
211
10
56.275328
20
134.912348
11
56.258129
21
135.104093
0
LINE
8
annotation
62
1
39
211
10
56.258129
20
135.104093
11
56.208551
21
135.284591
0
LINE
8
annotation
62
1
39
211
10
56.208551
20
135.284591
11
56.129625
21
135.450821
0
LINE
8
annotation
62
1
39
211
10
56.129625
20
135.450821
11
56.024381
21
135.599763
0
LINE
8
annotation
62
1
39
211
10
56.024381
20
135.599763
11
55.895848
21
135.728396
0
LINE
8
annotation
62
1
39
211
10
55.895848
20
135.728396
11
55.747056
21
135.833702
0
LINE
8
annotation
62
1
39
211
10
55.747056
20
135.833702
11
55.581036
21
135.912659
0
LINE
8
annotation
62
1
39
211
10
55.581036
20
135.912659
11
55.400818
21
135.962249
0
LINE
8
annotation
62
1
39
211
10
55.400818
20
135.962249
11
55.209431
21
135.979449
0
LINE
8
annotation
62
1
39
211
10
55.209431
20
135.979449
11
55.209431
21
135.979449
0
LINE
8
annotation
62
1
39
211
10
55.209431
20
135.979449
11
55.018044
21
135.962239
0
LINE
8
annotation
62
1
39
211
10
55.018044
20
135.962239
11
54.837825
21
135.912625
0
LINE
8
annotation
62
1
39
211
10
54.837825
20
135.912625
11
54.671805
21
135.833635
0
LINE
8
annotation
62
1
39
211
10
54.671805
20
135.833635
11
54.523014
21
135.728297
0
LINE
8
annotation
62
1
39
211
10
54.523014
20
135.728297
11
54.394481
21
135.599639
0
LINE
8
annotation
62
1
39
211
10
54.394481
20
135.599639
11
54.289236
21
135.450687
0
LINE
8
annotation
62
1
39
211
10
54.289236
20
135.450687
11
54.210310
21
135.284470
0
LINE
8
annotation
62
1
39
211
10
54.210310
20
135.284470
11
54.160733
21
135.104014
0
LINE
8
annotation
62
1
39
211
10
54.160733
20
135.104014
11
54.143533
21
134.912348
0
LINE
8
annotation
62
1
39
211
10
54.143533
20
134.912348
11
54.143533
21
134.381356
0
LINE
8
annotation
62
1
39
211
10
56.275328
20
137.046852
11
56.275328
21
137.046852
0
LINE
8
annotation
62
1
39
211
10
56.275328
20
137.046852
11
56.258129
21
137.237712
0
LINE
8
annotation
62
1
39
211
10
56.258129
20
137.237712
11
56.208551
21
137.417539
0
LINE
8
annotation
62
1
39
211
10
56.208551
20
137.417539
11
56.129625
21
137.583285
0
LINE
8
annotation
62
1
39
211
10
56.129625
20
137.583285
11
56.024381
21
137.731898
0
LINE
8
annotation
62
1
39
211
10
56.024381
20
137.731898
11
55.895848
21
137.860330
0
LINE
8
annotation
62
1
39
211
10
55.895848
20
137.860330
11
55.747056
21
137.965530
0
LINE
8
annotation
62
1
39
211
10
55.747056
20
137.965530
11
55.581036
21
138.044449
0
LINE
8
annotation
62
1
39
211
10
55.581036
20
138.044449
11
55.400818
21
138.094037
0
LINE
8
annotation
62
1
39
211
10
55.400818
20
138.094037
11
55.209431
21
138.111244
0
LINE
8
annotation
62
1
39
211
10
55.209431
20
138.111244
11
55.209431
21
138.111244
0
LINE
8
annotation
62
1
39
211
10
55.209431
20
138.111244
11
55.018044
21
138.094037
0
LINE
8
annotation
62
1
39
211
10
55.018044
20
138.094037
11
54.837825
21
138.044449
0
LINE
8
annotation
62
1
39
211
10
54.837825
20
138.044449
11
54.671805
21
137.965530
0
LINE
8
annotation
62
1
39
211
10
54.671805
20
137.965530
11
54.523014
21
137.860330
0
LINE
8
annotation
62
1
39
211
10
54.523014
20
137.860330
11
54.394481
21
137.731898
0
LINE
8
annotation
62
1
39
211
10
54.394481
20
137.731898
11
54.289236
21
137.583285
0
LINE
8
annotation
62
1
39
211
10
54.289236
20
137.583285
11
54.210310
21
137.417539
0
LINE
8
annotation
62
1
39
211
10
54.210310
20
137.417539
11
54.160733
21
137.237712
0
LINE
8
annotation
62
1
39
211
10
54.160733
20
137.237712
11
54.143533
21
137.046852
0
LINE
8
annotation
62
1
39
211
10
54.143533
20
137.046852
11
54.143533
21
137.046852
0
LINE
8
annotation
62
1
39
211
10
54.143533
20
137.046852
11
54.160742
21
136.855096
0
LINE
8
annotation
62
1
39
211
10
54.160742
20
136.855096
11
54.210345
21
136.674571
0
LINE
8
annotation
62
1
39
211
10
54.210345
20
136.674571
11
54.289303
21
136.508301
0
LINE
8
annotation
62
1
39
211
10
54.289303
20
136.508301
11
54.394580
21
136.359312
0
LINE
8
annotation
62
1
39
211
10
54.394580
20
136.359312
11
54.523138
21
136.230628
0
LINE
8
annotation
62
1
39
211
10
54.523138
20
136.230628
11
54.671939
21
136.125275
0
LINE
8
annotation
62
1
39
211
10
54.671939
20
136.125275
11
54.837947
21
136.046277
0
LINE
8
annotation
62
1
39
211
10
54.837947
20
136.046277
11
55.018123
21
135.996661
0
LINE
8
annotation
62
1
39
211
10
55.018123
20
135.996661
11
55.209431
21
135.979449
0
LINE
8
annotation
62
1
39
211
10
55.209431
20
135.979449
11
55.209431
21
135.979449
0
LINE
8
annotation
62
1
39
211
10
55.209431
20
135.979449
11
55.400739
21
135.996661
0
LINE
8
annotation
62
1
39
211
10
55.400739
20
135.996661
11
55.580915
21
136.046277
0
LINE
8
annotation
62
1
39
211
10
55.580915
20
136.046277
11
55.746923
21
136.125275
0
LINE
8
annotation
62
1
39
211
10
55.746923
20
136.125275
11
55.895724
21
136.230628
0
LINE
8
annotation
62
1
39
211
10
55.895724
20
136.230628
11
56.024282
21
136.359312
0
LINE
8
annotation
62
1
39
211
10
56.024282
20
136.359312
11
56.129558
21
136.508301
0
LINE
8
annotation
62
1
39
211
10
56.129558
20
136.508301
11
56.208517
21
136.674571
0
LINE
8
annotation
62
1
39
211
10
56.208517
20
136.674571
11
56.258119
21
136.855096
0
LINE
8
annotation
62
1
39
211
10
56.258119
20
136.855096
11
56.275328
21
137.046852
0
LINE
8
annotation
62
1
39
211
10
49.897659
20
152.239275
11
49.897659
21
152.239275
0
LINE
8
annotation
62
1
39
211
10
49.897659
20
152.239275
11
50.202474
21
152.352864
0
LINE
8
annotation
62
1
39
211
10
50.202474
20
152.352864
11
50.482257
21
152.506400
0
LINE
8
annotation
62
1
39
211
10
50.482257
20
152.506400
11
50.734116
21
152.695972
0
LINE
8
annotation
62
1
39
211
10
50.734116
20
152.695972
11
50.955159
21
152.917667
0
LINE
8
annotation
62
1
39
211
10
50.955159
20
152.917667
11
51.142496
21
153.167573
0
LINE
8
annotation
62
1
39
211
10
51.142496
20
153.167573
11
51.293236
21
153.441778
0
LINE
8
annotation
62
1
39
211
10
51.293236
20
153.441778
11
51.404487
21
153.736370
0
LINE
8
annotation
62
1
39
211
10
51.404487
20
153.736370
11
51.473358
21
154.047438
0
LINE
8
annotation
62
1
39
211
10
51.473358
20
154.047438
11
51.496957
21
154.371070
0
LINE
8
annotation
62
1
39
211
10
51.496957
20
154.371070
11
51.496957
21
155.971872
0
LINE
8
annotation
62
1
39
211
10
51.496957
20
155.971872
11
51.496957
21
155.971872
0
LINE
8
annotation
62
1
39
211
10
51.496957
20
155.971872
11
51.479797
21
156.163628
0
LINE
8
annotation
62
1
39
211
10
51.479797
20
156.163628
11
51.430319
21
156.344154
0
LINE
8
annotation
62
1
39
211
10
51.430319
20
156.344154
11
51.351522
21
156.510423
0
LINE
8
annotation
62
1
39
211
10
51.351522
20
156.510423
11
51.246406
21
156.659413
0
LINE
8
annotation
62
1
39
211
10
51.246406
20
156.659413
11
51.117972
21
156.788096
0
LINE
8
annotation
62
1
39
211
10
51.117972
20
156.788096
11
50.969220
21
156.893449
0
LINE
8
annotation
62
1
39
211
10
50.969220
20
156.893449
11
50.803151
21
156.972447
0
LINE
8
annotation
62
1
39
211
10
50.803151
20
156.972447
11
50.622764
21
157.022064
0
LINE
8
annotation
62
1
39
211
10
50.622764
20
157.022064
11
50.431060
21
157.039275
0
LINE
8
annotation
62
1
39
211
10
50.431060
20
157.039275
11
50.431060
21
157.039275
0
LINE
8
annotation
62
1
39
211
10
50.431060
20
157.039275
11
50.239752
21
157.022064
0
LINE
8
annotation
62
1
39
211
10
50.239752
20
157.022064
11
50.059575
21
156.972447
0
LINE
8
annotation
62
1
39
211
10
50.059575
20
156.972447
11
49.893568
21
156.893449
0
LINE
8
annotation
62
1
39
211
10
49.893568
20
156.893449
11
49.744766
21
156.788096
0
LINE
8
annotation
62
1
39
211
10
49.744766
20
156.788096
11
49.616209
21
156.659413
0
LINE
8
annotation
62
1
39
211
10
49.616209
20
156.659413
11
49.510932
21
156.510423
0
LINE
8
annotation
62
1
39
211
10
49.510932
20
156.510423
11
49.431974
21
156.344154
0
LINE
8
annotation
62
1
39
211
10
49.431974
20
156.344154
11
49.382371
21
156.163628
0
LINE
8
annotation
62
1
39
211
10
49.382371
20
156.163628
11
49.365162
21
155.971872
0
LINE
8
annotation
62
1
39
211
10
49.365162
20
155.971872
11
49.365162
21
155.438171
0
LINE
8
annotation
62
1
39
211
10
49.365162
20
155.438171
11
49.365162
21
155.438171
0
LINE
8
annotation
62
1
39
211
10
49.365162
20
155.438171
11
49.382371
21
155.246426
0
LINE
8
annotation
62
1
39
211
10
49.382371
20
155.246426
11
49.431974
21
155.065928
0
LINE
8
annotation
62
1
39
211
10
49.431974
20
155.065928
11
49.510932
21
154.899698
0
LINE
8
annotation
62
1
39
211
10
49.510932
20
154.899698
11
49.616209
21
154.750757
0
LINE
8
annotation
62
1
39
211
10
49.616209
20
154.750757
11
49.744766
21
154.622123
0
LINE
8
annotation
62
1
39
211
10
49.744766
20
154.622123
11
49.893568
21
154.516817
0
LINE
8
annotation
62
1
39
211
10
49.893568
20
154.516817
11
50.059575
21
154.437860
0
LINE
8
annotation
62
1
39
211
10
50.059575
20
154.437860
11
50.239752
21
154.388271
0
LINE
8
annotation
62
1
39
211
10
50.239752
20
154.388271
11
50.431060
21
154.371070
0
LINE
8
annotation
62
1
39
211
10
50.431060
20
154.371070
11
51.496957
21
154.371070
0
LINE
8
annotation
62
1
39
211
10
49.231963
20
151.639275
11
51.631963
21
151.639275
0
LINE
8
annotation
62
1
39
211
10
44.395924
20
171.252576
11
44.395924
21
175.870296
0
LINE
8
annotation
62
1
39
211
10
44.395924
20
175.870296
11
43.369345
21
174.843428
0
LINE
8
annotation
62
1
39
211
10
46.869152
20
171.313485
11
46.869152
21
171.313485
0
LINE
8
annotation
62
1
39
211
10
46.869152
20
171.313485
11
46.976474
21
171.273366
0
LINE
8
annotation
62
1
39
211
10
46.976474
20
171.273366
11
47.086541
21
171.253434
0
LINE
8
annotation
62
1
39
211
10
47.086541
20
171.253434
11
47.196866
21
171.252876
0
LINE
8
annotation
62
1
39
211
10
47.196866
20
171.252876
11
47.304960
21
171.270881
0
LINE
8
annotation
62
1
39
211
10
47.304960
20
171.270881
11
47.408334
21
171.306635
0
LINE
8
annotation
62
1
39
211
10
47.408334
20
171.306635
11
47.504501
21
171.359326
0
LINE
8
annotation
62
1
39
211
10
47.504501
20
171.359326
11
47.590973
21
171.428140
0
LINE
8
annotation
62
1
39
211
10
47.590973
20
171.428140
11
47.665260
21
171.512265
0
LINE
8
annotation
62
1
39
211
10
47.665260
20
171.512265
11
47.724876
21
171.610889
0
LINE
8
annotation
62
1
39
211
10
47.724876
20
171.610889
11
47.724876
21
171.610889
0
LINE
8
annotation
62
1
39
211
10
47.724876
20
171.610889
11
47.902745
21
172.027236
0
LINE
8
annotation
62
1
39
211
10
47.902745
20
172.027236
11
48.036147
21
172.455634
0
LINE
8
annotation
62
1
39
211
10
48.036147
20
172.455634
11
48.125082
21
172.892666
0
LINE
8
annotation
62
1
39
211
10
48.125082
20
172.892666
11
48.169549
21
173.334919
0
LINE
8
annotation
62
1
39
211
10
48.169549
20
173.334919
11
48.169549
21
173.778976
0
LINE
8
annotation
62
1
39
211
10
48.169549
20
173.778976
11
48.125082
21
174.221421
0
LINE
8
annotation
62
1
39
211
10
48.125082
20
174.221421
11
48.036147
21
174.658840
0
LINE
8
annotation
62
1
39
211
10
48.036147
20
174.658840
11
47.902745
21
175.087817
0
LINE
8
annotation
62
1
39
211
10
47.902745
20
175.087817
11
47.724876
21
175.504936
0
LINE
8
annotation
62
1
39
211
10
47.724876
20
175.504936
11
47.724876
21
175.504936
0
LINE
8
annotation
62
1
39
211
10
47.724876
20
175.504936
11
47.702256
21
175.547032
0
LINE
8
annotation
62
1
39
211
10
47.702256
20
175.547032
11
47.676611
21
175.587279
0
LINE
8
annotation
62
1
39
211
10
47.676611
20
175.587279
11
47.648136
21
175.625479
0
LINE
8
annotation
62
1
39
211
10
47.648136
20
175.625479
11
47.617021
21
175.661433
0
LINE
8
annotation
62
1
39
211
10
47.617021
20
175.661433
11
47.583462
21
175.694944
0
LINE
8
annotation
62
1
39
211
10
47.583462
20
175.694944
11
47.547650
21
175.725814
0
LINE
8
annotation
62
1
39
211
10
47.547650
20
175.725814
11
47.509778
21
175.753846
0
LINE
8
annotation
62
1
39
211
10
47.509778
20
175.753846
11
47.470041
21
175.778841
0
LINE
8
annotation
62
1
39
211
10
47.470041
20
175.778841
11
47.428630
21
175.800602
0
LINE
8
annotation
62
1
39
211
10
47.428630
20
175.800602
11
47.428630
21
175.800602
0
LINE
8
annotation
62
1
39
211
10
47.428630
20
175.800602
11
47.320457
21
175.841591
0
LINE
8
annotation
62
1
39
211
10
47.320457
20
175.841591
11
47.209745
21
175.862205
0
LINE
8
annotation
62
1
39
211
10
47.209745
20
175.862205
11
47.098954
21
175.863260
0
LINE
8
annotation
62
1
39
211
10
47.098954
20
175.863260
11
46.990544
21
175.845574
0
LINE
8
annotation
62
1
39
211
10
46.990544
20
175.845574
11
46.886976
21
175.809965
0
LINE
8
annotation
62
1
39
211
10
46.886976
20
175.809965
11
46.790707
21
175.757250
0
LINE
8
annotation
62
1
39
211
10
46.790707
20
175.757250
11
46.704199
21
175.688247
0
LINE
8
annotation
62
1
39
211
10
46.704199
20
175.688247
11
46.629910
21
175.603774
0
LINE
8
annotation
62
1
39
211
10
46.629910
20
175.603774
11
46.570301
21
175.504647
0
LINE
8
annotation
62
1
39
211
10
46.570301
20
175.504647
11
46.570301
21
175.504647
0
LINE
8
annotation
62
1
39
211
10
46.570301
20
175.504647
11
46.393289
21
175.088385
0
LINE
8
annotation
62
1
39
211
10
46.393289
20
175.088385
11
46.260531
21
174.660052
0
LINE
8
annotation
62
1
39
211
10
46.260531
20
174.660052
11
46.172025
21
174.223062
0
LINE
8
annotation
62
1
39
211
10
46.172025
20
174.223062
11
46.127772
21
173.780831
0
LINE
8
annotation
62
1
39
211
10
46.127772
20
173.780831
11
46.127772
21
173.336774
0
LINE
8
annotation
62
1
39
211
10
46.127772
20
173.336774
11
46.172025
21
172.894307
0
LINE
8
annotation
62
1
39
211
10
46.172025
20
172.894307
11
46.260531
21
172.456846
0
LINE
8
annotation
62
1
39
211
10
46.260531
20
172.456846
11
46.393289
21
172.027804
0
LINE
8
annotation
62
1
39
211
10
46.393289
20
172.027804
11
46.570301
21
171.610599
0
LINE
8
annotation
62
1
39
211
10
46.570301
20
171.610599
11
46.570301
21
171.610599
0
LINE
8
annotation
62
1
39
211
10
46.570301
20
171.610599
11
46.592838
21
171.568587
0
LINE
8
annotation
62
1
39
211
10
46.592838
20
171.568587
11
46.618293
21
171.528541
0
LINE
8
annotation
62
1
39
211
10
46.618293
20
171.528541
11
46.646558
21
171.490583
0
LINE
8
annotation
62
1
39
211
10
46.646558
20
171.490583
11
46.677526
21
171.454834
0
LINE
8
annotation
62
1
39
211
10
46.677526
20
171.454834
11
46.711089
21
171.421416
0
LINE
8
annotation
62
1
39
211
10
46.711089
20
171.421416
11
46.747141
21
171.390451
0
LINE
8
annotation
62
1
39
211
10
46.747141
20
171.390451
11
46.785573
21
171.362059
0
LINE
8
annotation
62
1
39
211
10
46.785573
20
171.362059
11
46.826280
21
171.336364
0
LINE
8
annotation
62
1
39
211
10
46.826280
20
171.336364
11
46.869152
21
171.313485
0
LINE
8
annotation
62
1
39
211
10
40.467471
20
190.083597
11
40.467471
21
194.883597
0
LINE
8
annotation
62
1
39
211
10
40.467471
20
194.883597
11
39.400370
21
193.816194
0
LINE
8
annotation
62
1
39
211
10
43.334573
20
190.083597
11
43.334573
21
194.883597
0
LINE
8
annotation
62
1
39
211
10
43.334573
20
194.883597
11
42.267471
21
193.816194
0
LINE
8
annotation
62
1
39
211
10
35.916947
20
209.101583
11
35.916947
21
213.709932
0
LINE
8
annotation
62
1
39
211
10
35.916947
20
213.709932
11
34.892452
21
212.685148
0
LINE
8
annotation
62
1
39
211
10
39.691960
20
209.101545
11
37.645282
21
209.101545
0
LINE
8
annotation
62
1
39
211
10
37.645282
20
209.101545
11
39.536479
21
212.146131
0
LINE
8
annotation
62
1
39
211
10
39.536479
20
212.146131
11
39.536479
21
212.146131
0
LINE
8
annotation
62
1
39
211
10
39.536479
20
212.146131
11
39.538740
21
212.148929
0
LINE
8
annotation
62
1
39
211
10
39.538740
20
212.148929
11
39.540908
21
212.151750
0
LINE
8
annotation
62
1
39
211
10
39.540908
20
212.151750
11
39.542998
21
212.154619
0
LINE
8
annotation
62
1
39
211
10
39.542998
20
212.154619
11
39.545023
21
212.157559
0
LINE
8
annotation
62
1
39
211
10
39.545023
20
212.157559
11
39.546999
21
212.160595
0
LINE
8
annotation
62
1
39
211
10
39.546999
20
212.160595
11
39.548938
21
212.163749
0
LINE
8
annotation
62
1
39
211
10
39.548938
20
212.163749
11
39.550857
21
212.167046
0
LINE
8
annotation
62
1
39
211
10
39.550857
20
212.167046
11
39.552768
21
212.170510
0
LINE
8
annotation
62
1
39
211
10
39.552768
20
212.170510
11
39.554686
21
212.174164
0
LINE
8
annotation
62
1
39
211
10
39.554686
20
212.174164
11
39.554686
21
212.174164
0
LINE
8
annotation
62
1
39
211
10
39.554686
20
212.174164
11
39.632773
21
212.341823
0
LINE
8
annotation
62
1
39
211
10
39.632773
20
212.341823
11
39.678390
21
212.515617
0
LINE
8
annotation
62
1
39
211
10
39.678390
20
212.515617
11
39.692656
21
212.691619
0
LINE
8
annotation
62
1
39
211
10
39.692656
20
212.691619
11
39.676687
21
212.865900
0
LINE
8
annotation
62
1
39
211
10
39.676687
20
212.865900
11
39.631601
21
213.034535
0
LINE
8
annotation
62
1
39
211
10
39.631601
20
213.034535
11
39.558518
21
213.193596
0
LINE
8
annotation
62
1
39
211
10
39.558518
20
213.193596
11
39.458554
21
213.339156
0
LINE
8
annotation
62
1
39
211
10
39.458554
20
213.339156
11
39.332828
21
213.467289
0
LINE
8
annotation
62
1
39
211
10
39.332828
20
213.467289
11
39.182458
21
213.574066
0
LINE
8
annotation
62
1
39
211
10
39.182458
20
213.574066
11
39.182458
21
213.574066
0
LINE
8
annotation
62
1
39
211
10
39.182458
20
213.574066
11
39.014332
21
213.651044
0
LINE
8
annotation
62
1
39
211
10
39.014332
20
213.651044
11
38.840272
21
213.695958
0
LINE
8
annotation
62
1
39
211
10
38.840272
20
213.695958
11
38.664168
21
213.709820
0
LINE
8
annotation
62
1
39
211
10
38.664168
20
213.709820
11
38.489913
21
213.693640
0
LINE
8
annotation
62
1
39
211
10
38.489913
20
213.693640
11
38.321397
21
213.648430
0
LINE
8
annotation
62
1
39
211
10
38.321397
20
213.648430
11
38.162512
21
213.575201
0
LINE
8
annotation
62
1
39
211
10
38.162512
20
213.575201
11
38.017149
21
213.474962
0
LINE
8
annotation
62
1
39
211
10
38.017149
20
213.474962
11
37.889200
21
213.348726
0
LINE
8
annotation
62
1
39
211
10
37.889200
20
213.348726
11
37.782555
21
213.197503
0
LINE
8
annotation
62
1
39
211
10
37.782555
20
213.197503
11
37.648172
21
212.939717
0
LINE
8
annotation
62
1
39
211
10
32.123669
20
228.023410
11
32.123669
21
232.632427
0
LINE
8
annotation
62
1
39
211
10
32.123669
20
232.632427
11
31.099025
21
231.607495
0
LINE
8
annotation
62
1
39
211
10
33.851906
20
228.023554
11
34.875393
21
228.023554
0
LINE
8
annotation
62
1
39
211
10
34.875393
20
228.023554
11
34.875393
21
228.023554
0
LINE
8
annotation
62
1
39
211
10
34.875393
20
228.023554
11
35.059470
21
228.040067
0
LINE
8
annotation
62
1
39
211
10
35.059470
20
228.040067
11
35.232680
21
228.087658
0
LINE
8
annotation
62
1
39
211
10
35.232680
20
228.087658
11
35.392141
21
228.163406
0
LINE
8
annotation
62
1
39
211
10
35.392141
20
228.163406
11
35.534975
21
228.264390
0
LINE
8
annotation
62
1
39
211
10
35.534975
20
228.264390
11
35.658299
21
228.387688
0
LINE
8
annotation
62
1
39
211
10
35.658299
20
228.387688
11
35.759232
21
228.530379
0
LINE
8
annotation
62
1
39
211
10
35.759232
20
228.530379
11
35.834894
21
228.689542
0
LINE
8
annotation
62
1
39
211
10
35.834894
20
228.689542
11
35.882404
21
228.862255
0
LINE
8
annotation
62
1
39
211
10
35.882404
20
228.862255
11
35.898881
21
229.045597
0
LINE
8
annotation
62
1
39
211
10
35.898881
20
229.045597
11
35.898881
21
229.558063
0
LINE
8
annotation
62
1
39
211
10
35.898881
20
229.558063
11
35.898881
21
229.558063
0
LINE
8
annotation
62
1
39
211
10
35.898881
20
229.558063
11
35.882404
21
229.741329
0
LINE
8
annotation
62
1
39
211
10
35.882404
20
229.741329
11
35.834894
21
229.914001
0
LINE
8
annotation
62
1
39
211
10
35.834894
20
229.914001
11
35.759232
21
230.073152
0
LINE
8
annotation
62
1
39
211
10
35.759232
20
230.073152
11
35.658299
21
230.215852
0
LINE
8
annotation
62
1
39
211
10
35.658299
20
230.215852
11
35.534975
21
230.339174
0
LINE
8
annotation
62
1
39
211
10
35.534975
20
230.339174
11
35.392141
21
230.440189
0
LINE
8
annotation
62
1
39
211
10
35.392141
20
230.440189
11
35.232680
21
230.515968
0
LINE
8
annotation
62
1
39
211
10
35.232680
20
230.515968
11
35.059470
21
230.563583
0
LINE
8
annotation
62
1
39
211
10
35.059470
20
230.563583
11
34.875393
21
230.580105
0
LINE
8
annotation
62
1
39
211
10
34.875393
20
230.580105
11
34.362927
21
230.580105
0
LINE
8
annotation
62
1
39
211
10
34.362927
20
230.580105
11
34.875393
21
230.580105
0
LINE
8
annotation
62
1
39
211
10
34.875393
20
230.580105
11
34.875393
21
230.580105
0
LINE
8
annotation
62
1
39
211
10
34.875393
20
230.580105
11
35.059470
21
230.596632
0
LINE
8
annotation
62
1
39
211
10
35.059470
20
230.596632
11
35.232680
21
230.644274
0
LINE
8
annotation
62
1
39
211
10
35.232680
20
230.644274
11
35.392141
21
230.720129
0
LINE
8
annotation
62
1
39
211
10
35.392141
20
230.720129
11
35.534975
21
230.821290
0
LINE
8
annotation
62
1
39
211
10
35.534975
20
230.821290
11
35.658299
21
230.944853
0
LINE
8
annotation
62
1
39
211
10
35.658299
20
230.944853
11
35.759232
21
231.087915
0
LINE
8
annotation
62
1
39
211
10
35.759232
20
231.087915
11
35.834894
21
231.247569
0
LINE
8
annotation
62
1
39
211
10
35.834894
20
231.247569
11
35.882404
21
231.420912
0
LINE
8
annotation
62
1
39
211
10
35.882404
20
231.420912
11
35.898881
21
231.605038
0
LINE
8
annotation
62
1
39
211
10
35.898881
20
231.605038
11
35.898881
21
231.605038
0
LINE
8
annotation
62
1
39
211
10
35.898881
20
231.605038
11
35.882404
21
231.788304
0
LINE
8
annotation
62
1
39
211
10
35.882404
20
231.788304
11
35.834894
21
231.960976
0
LINE
8
annotation
62
1
39
211
10
35.834894
20
231.960976
11
35.759232
21
232.120127
0
LINE
8
annotation
62
1
39
211
10
35.759232
20
232.120127
11
35.658299
21
232.262827
0
LINE
8
annotation
62
1
39
211
10
35.658299
20
232.262827
11
35.534975
21
232.386149
0
LINE
8
annotation
62
1
39
211
10
35.534975
20
232.386149
11
35.392141
21
232.487164
0
LINE
8
annotation
62
1
39
211
10
35.392141
20
232.487164
11
35.232680
21
232.562943
0
LINE
8
annotation
62
1
39
211
10
35.232680
20
232.562943
11
35.059470
21
232.610558
0
LINE
8
annotation
62
1
39
211
10
35.059470
20
232.610558
11
34.875393
21
232.627080
0
LINE
8
annotation
62
1
39
211
10
34.875393
20
232.627080
11
33.851906
21
232.627080
0
LINE
8
annotation
62
1
39
211
10
28.417262
20
247.167762
11
28.417262
21
251.332397
0
LINE
8
annotation
62
1
39
211
10
28.417262
20
251.332397
11
27.491411
21
250.406284
0
LINE
8
annotation
62
1
39
211
10
32.291280
20
248.093613
11
29.978870
21
248.093613
0
LINE
8
annotation
62
1
39
211
10
29.978870
20
248.093613
11
30.902372
21
251.332397
0
LINE
8
annotation
62
1
39
211
10
31.598132
20
247.167762
11
31.598132
21
249.017376
0
LINE
8
annotation
62
1
39
211
10
25.018929
20
265.867732
11
25.018929
21
270.476749
0
LINE
8
annotation
62
1
39
211
10
25.018929
20
270.476749
11
23.994285
21
269.451816
0
LINE
8
annotation
62
1
39
211
10
26.747166
20
265.867732
11
27.770653
21
265.867732
0
LINE
8
annotation
62
1
39
211
10
27.770653
20
265.867732
11
27.770653
21
265.867732
0
LINE
8
annotation
62
1
39
211
10
27.770653
20
265.867732
11
27.954349
21
265.884248
0
LINE
8
annotation
62
1
39
211
10
27.954349
20
265.884248
11
28.127357
21
265.931864
0
LINE
8
annotation
62
1
39
211
10
28.127357
20
265.931864
11
28.286759
21
266.007680
0
LINE
8
annotation
62
1
39
211
10
28.286759
20
266.007680
11
28.429640
21
266.108796
0
LINE
8
annotation
62
1
39
211
10
28.429640
20
266.108796
11
28.553083
21
266.232311
0
LINE
8
annotation
62
1
39
211
10
28.553083
20
266.232311
11
28.654171
21
266.375327
0
LINE
8
annotation
62
1
39
211
10
28.654171
20
266.375327
11
28.729987
21
266.534943
0
LINE
8
annotation
62
1
39
211
10
28.729987
20
266.534943
11
28.777616
21
266.708259
0
LINE
8
annotation
62
1
39
211
10
28.777616
20
266.708259
11
28.794141
21
266.892375
0
LINE
8
annotation
62
1
39
211
10
28.794141
20
266.892375
11
28.794141
21
267.402240
0
LINE
8
annotation
62
1
39
211
10
28.794141
20
267.402240
11
28.794141
21
267.402240
0
LINE
8
annotation
62
1
39
211
10
28.794141
20
267.402240
11
28.777626
21
267.586267
0
LINE
8
annotation
62
1
39
211
10
28.777626
20
267.586267
11
28.730021
21
267.759344
0
LINE
8
annotation
62
1
39
211
10
28.730021
20
267.759344
11
28.654235
21
267.918614
0
LINE
8
annotation
62
1
39
211
10
28.654235
20
267.918614
11
28.553178
21
268.061219
0
LINE
8
annotation
62
1
39
211
10
28.553178
20
268.061219
11
28.429759
21
268.184303
0
LINE
8
annotation
62
1
39
211
10
28.429759
20
268.184303
11
28.286888
21
268.285008
0
LINE
8
annotation
62
1
39
211
10
28.286888
20
268.285008
11
28.127473
21
268.360478
0
LINE
8
annotation
62
1
39
211
10
28.127473
20
268.360478
11
27.954425
21
268.407855
0
LINE
8
annotation
62
1
39
211
10
27.954425
20
268.407855
11
27.770653
21
268.424282
0
LINE
8
annotation
62
1
39
211
10
27.770653
20
268.424282
11
26.747166
21
268.424282
0
LINE
8
annotation
62
1
39
211
10
26.747166
20
268.424282
11
26.747166
21
270.476749
0
LINE
8
annotation
62
1
39
211
10
26.747166
20
270.476749
11
28.794141
21
270.476749
0
LINE
8
annotation
62
1
39
211
10
21.536735
20
284.789893
11
21.536735
21
289.398910
0
LINE
8
annotation
62
1
39
211
10
21.536735
20
289.398910
11
20.512092
21
288.373977
0
LINE
8
annotation
62
1
39
211
10
24.802371
20
289.398910
11
24.802371
21
289.398910
0
LINE
8
annotation
62
1
39
211
10
24.802371
20
289.398910
11
24.509168
21
289.288976
0
LINE
8
annotation
62
1
39
211
10
24.509168
20
289.288976
11
24.240115
21
289.140854
0
LINE
8
annotation
62
1
39
211
10
24.240115
20
289.140854
11
23.997975
21
288.958254
0
LINE
8
annotation
62
1
39
211
10
23.997975
20
288.958254
11
23.785510
21
288.744887
0
LINE
8
annotation
62
1
39
211
10
23.785510
20
288.744887
11
23.605482
21
288.504465
0
LINE
8
annotation
62
1
39
211
10
23.605482
20
288.504465
11
23.460652
21
288.240698
0
LINE
8
annotation
62
1
39
211
10
23.460652
20
288.240698
11
23.353782
21
287.957298
0
LINE
8
annotation
62
1
39
211
10
23.353782
20
287.957298
11
23.287635
21
287.657976
0
LINE
8
annotation
62
1
39
211
10
23.287635
20
287.657976
11
23.264972
21
287.346443
0
LINE
8
annotation
62
1
39
211
10
23.264972
20
287.346443
11
23.264972
21
285.814536
0
LINE
8
annotation
62
1
39
211
10
23.264972
20
285.814536
11
23.264972
21
285.814536
0
LINE
8
annotation
62
1
39
211
10
23.264972
20
285.814536
11
23.281497
21
285.630420
0
LINE
8
annotation
62
1
39
211
10
23.281497
20
285.630420
11
23.329125
21
285.457104
0
LINE
8
annotation
62
1
39
211
10
23.329125
20
285.457104
11
23.404942
21
285.297488
0
LINE
8
annotation
62
1
39
211
10
23.404942
20
285.297488
11
23.506030
21
285.154472
0
LINE
8
annotation
62
1
39
211
10
23.506030
20
285.154472
11
23.629473
21
285.030957
0
LINE
8
annotation
62
1
39
211
10
23.629473
20
285.030957
11
23.772354
21
284.929841
0
LINE
8
annotation
62
1
39
211
10
23.772354
20
284.929841
11
23.931756
21
284.854025
0
LINE
8
annotation
62
1
39
211
10
23.931756
20
284.854025
11
24.104764
21
284.806409
0
LINE
8
annotation
62
1
39
211
10
24.104764
20
284.806409
11
24.288460
21
284.789893
0
LINE
8
annotation
62
1
39
211
10
24.288460
20
284.789893
11
24.288460
21
284.789893
0
LINE
8
annotation
62
1
39
211
10
24.288460
20
284.789893
11
24.472536
21
284.806409
0
LINE
8
annotation
62
1
39
211
10
24.472536
20
284.806409
11
24.645746
21
284.854025
0
LINE
8
annotation
62
1
39
211
10
24.645746
20
284.854025
11
24.805208
21
284.929841
0
LINE
8
annotation
62
1
39
211
10
24.805208
20
284.929841
11
24.948041
21
285.030957
0
LINE
8
annotation
62
1
39
211
10
24.948041
20
285.030957
11
25.071365
21
285.154472
0
LINE
8
annotation
62
1
39
211
10
25.071365
20
285.154472
11
25.172298
21
285.297488
0
LINE
8
annotation
62
1
39
211
10
25.172298
20
285.297488
11
25.247960
21
285.457104
0
LINE
8
annotation
62
1
39
211
10
25.247960
20
285.457104
11
25.295470
21
285.630420
0
LINE
8
annotation
62
1
39
211
10
25.295470
20
285.630420
11
25.311947
21
285.814536
0
LINE
8
annotation
62
1
39
211
10
25.311947
20
285.814536
11
25.311947
21
286.324401
0
LINE
8
annotation
62
1
39
211
10
25.311947
20
286.324401
11
25.311947
21
286.324401
0
LINE
8
annotation
62
1
39
211
10
25.311947
20
286.324401
11
25.295470
21
286.508428
0
LINE
8
annotation
62
1
39
211
10
25.295470
20
286.508428
11
25.247960
21
286.681505
0
LINE
8
annotation
62
1
39
211
10
25.247960
20
286.681505
11
25.172298
21
286.840775
0
LINE
8
annotation
62
1
39
211
10
25.172298
20
286.840775
11
25.071365
21
286.983380
0
LINE
8
annotation
62
1
39
211
10
25.071365
20
286.983380
11
24.948041
21
287.106464
0
LINE
8
annotation
62
1
39
211
10
24.948041
20
287.106464
11
24.805208
21
287.207169
0
LINE
8
annotation
62
1
39
211
10
24.805208
20
287.207169
11
24.645746
21
287.282639
0
LINE
8
annotation
62
1
39
211
10
24.645746
20
287.282639
11
24.472536
21
287.330016
0
LINE
8
annotation
62
1
39
211
10
24.472536
20
287.330016
11
24.288460
21
287.346443
0
LINE
8
annotation
62
1
39
211
10
24.288460
20
287.346443
11
23.264972
21
287.346443
0
LINE
8
annotation
62
1
39
211
10
23.136783
20
284.213765
11
25.441292
21
284.213765
0
LINE
8
annotation
62
1
39
211
10
17.744117
20
303.713302
11
17.744117
21
308.319823
0
LINE
8
annotation
62
1
39
211
10
17.744117
20
308.319823
11
16.720028
21
307.295445
0
LINE
8
annotation
62
1
39
211
10
20.495651
20
303.713302
11
21.519739
21
308.319823
0
LINE
8
annotation
62
1
39
211
10
21.519739
20
308.319823
11
19.471273
21
308.319823
0
LINE
8
annotation
62
1
39
211
10
21.519739
20
306.268468
11
20.495651
21
306.268468
0
LINE
8
annotation
62
1
39
211
10
12.445166
20
322.634214
11
12.445166
21
327.243232
0
LINE
8
annotation
62
1
39
211
10
12.445166
20
327.243232
11
11.420522
21
326.218299
0
LINE
8
annotation
62
1
39
211
10
14.173403
20
323.656112
11
14.173403
21
323.656112
0
LINE
8
annotation
62
1
39
211
10
14.173403
20
323.656112
11
14.189927
21
323.472085
0
LINE
8
annotation
62
1
39
211
10
14.189927
20
323.472085
11
14.237556
21
323.299008
0
LINE
8
annotation
62
1
39
211
10
14.237556
20
323.299008
11
14.313372
21
323.139738
0
LINE
8
annotation
62
1
39
211
10
14.313372
20
323.139738
11
14.414460
21
322.997133
0
LINE
8
annotation
62
1
39
211
10
14.414460
20
322.997133
11
14.537903
21
322.874049
0
LINE
8
annotation
62
1
39
211
10
14.537903
20
322.874049
11
14.680784
21
322.773344
0
LINE
8
annotation
62
1
39
211
10
14.680784
20
322.773344
11
14.840186
21
322.697874
0
LINE
8
annotation
62
1
39
211
10
14.840186
20
322.697874
11
15.013194
21
322.650497
0
LINE
8
annotation
62
1
39
211
10
15.013194
20
322.650497
11
15.196890
21
322.634070
0
LINE
8
annotation
62
1
39
211
10
15.196890
20
322.634070
11
15.196890
21
322.634070
0
LINE
8
annotation
62
1
39
211
10
15.196890
20
322.634070
11
15.380586
21
322.650497
0
LINE
8
annotation
62
1
39
211
10
15.380586
20
322.650497
11
15.553594
21
322.697874
0
LINE
8
annotation
62
1
39
211
10
15.553594
20
322.697874
11
15.712996
21
322.773344
0
LINE
8
annotation
62
1
39
211
10
15.712996
20
322.773344
11
15.855877
21
322.874049
0
LINE
8
annotation
62
1
39
211
10
15.855877
20
322.874049
11
15.979320
21
322.997133
0
LINE
8
annotation
62
1
39
211
10
15.979320
20
322.997133
11
16.080408
21
323.139738
0
LINE
8
annotation
62
1
39
211
10
16.080408
20
323.139738
11
16.156224
21
323.299008
0
LINE
8
annotation
62
1
39
211
10
16.156224
20
323.299008
11
16.203853
21
323.472085
0
LINE
8
annotation
62
1
39
211
10
16.203853
20
323.472085
11
16.220377
21
323.656112
0
LINE
8
annotation
62
1
39
211
10
16.220377
20
323.656112
11
16.220377
21
324.165977
0
LINE
8
annotation
62
1
39
211
10
16.220377
20
324.165977
11
16.220377
21
324.165977
0
LINE
8
annotation
62
1
39
211
10
16.220377
20
324.165977
11
16.203863
21
324.350093
0
LINE
8
annotation
62
1
39
211
10
16.203863
20
324.350093
11
16.156258
21
324.523409
0
LINE
8
annotation
62
1
39
211
10
16.156258
20
324.523409
11
16.080472
21
324.683025
0
LINE
8
annotation
62
1
39
211
10
16.080472
20
324.683025
11
15.979415
21
324.826041
0
LINE
8
annotation
62
1
39
211
10
15.979415
20
324.826041
11
15.855996
21
324.949556
0
LINE
8
annotation
62
1
39
211
10
15.855996
20
324.949556
11
15.713125
21
325.050672
0
LINE
8
annotation
62
1
39
211
10
15.713125
20
325.050672
11
15.553710
21
325.126488
0
LINE
8
annotation
62
1
39
211
10
15.553710
20
325.126488
11
15.380662
21
325.174104
0
LINE
8
annotation
62
1
39
211
10
15.380662
20
325.174104
11
15.196890
21
325.190621
0
LINE
8
annotation
62
1
39
211
10
15.196890
20
325.190621
11
15.196890
21
325.190621
0
LINE
8
annotation
62
1
39
211
10
15.196890
20
325.190621
11
15.013118
21
325.174095
0
LINE
8
annotation
62
1
39
211
10
15.013118
20
325.174095
11
14.840070
21
325.126455
0
LINE
8
annotation
62
1
39
211
10
14.840070
20
325.126455
11
14.680656
21
325.050608
0
LINE
8
annotation
62
1
39
211
10
14.680656
20
325.050608
11
14.537784
21
324.949461
0
LINE
8
annotation
62
1
39
211
10
14.537784
20
324.949461
11
14.414365
21
324.825922
0
LINE
8
annotation
62
1
39
211
10
14.414365
20
324.825922
11
14.313308
21
324.682897
0
LINE
8
annotation
62
1
39
211
10
14.313308
20
324.682897
11
14.237523
21
324.523293
0
LINE
8
annotation
62
1
39
211
10
14.237523
20
324.523293
11
14.189917
21
324.350017
0
LINE
8
annotation
62
1
39
211
10
14.189917
20
324.350017
11
14.173403
21
324.165977
0
LINE
8
annotation
62
1
39
211
10
14.173403
20
324.165977
11
14.173403
21
323.656112
0
LINE
8
annotation
62
1
39
211
10
16.220377
20
326.215553
11
16.220377
21
326.215553
0
LINE
8
annotation
62
1
39
211
10
16.220377
20
326.215553
11
16.203863
21
326.398819
0
LINE
8
annotation
62
1
39
211
10
16.203863
20
326.398819
11
16.156258
21
326.571492
0
LINE
8
annotation
62
1
39
211
10
16.156258
20
326.571492
11
16.080472
21
326.730642
0
LINE
8
annotation
62
1
39
211
10
16.080472
20
326.730642
11
15.979415
21
326.873343
0
LINE
8
annotation
62
1
39
211
10
15.979415
20
326.873343
11
15.855996
21
326.996665
0
LINE
8
annotation
62
1
39
211
10
15.855996
20
326.996665
11
15.713125
21
327.097679
0
LINE
8
annotation
62
1
39
211
10
15.713125
20
327.097679
11
15.553710
21
327.173458
0
LINE
8
annotation
62
1
39
211
10
15.553710
20
327.173458
11
15.380662
21
327.221073
0
LINE
8
annotation
62
1
39
211
10
15.380662
20
327.221073
11
15.196890
21
327.237596
0
LINE
8
annotation
62
1
39
211
10
15.196890
20
327.237596
11
15.196890
21
327.237596
0
LINE
8
annotation
62
1
39
211
10
15.196890
20
327.237596
11
15.013118
21
327.221073
0
LINE
8
annotation
62
1
39
211
10
15.013118
20
327.221073
11
14.840070
21
327.173458
0
LINE
8
annotation
62
1
39
211
10
14.840070
20
327.173458
11
14.680656
21
327.097679
0
LINE
8
annotation
62
1
39
211
10
14.680656
20
327.097679
11
14.537784
21
326.996665
0
LINE
8
annotation
62
1
39
211
10
14.537784
20
326.996665
11
14.414365
21
326.873343
0
LINE
8
annotation
62
1
39
211
10
14.414365
20
326.873343
11
14.313308
21
326.730642
0
LINE
8
annotation
62
1
39
211
10
14.313308
20
326.730642
11
14.237523
21
326.571492
0
LINE
8
annotation
62
1
39
211
10
14.237523
20
326.571492
11
14.189917
21
326.398819
0
LINE
8
annotation
62
1
39
211
10
14.189917
20
326.398819
11
14.173403
21
326.215553
0
LINE
8
annotation
62
1
39
211
10
14.173403
20
326.215553
11
14.173403
21
326.215553
0
LINE
8
annotation
62
1
39
211
10
14.173403
20
326.215553
11
14.189927
21
326.031427
0
LINE
8
annotation
62
1
39
211
10
14.189927
20
326.031427
11
14.237556
21
325.858084
0
LINE
8
annotation
62
1
39
211
10
14.237556
20
325.858084
11
14.313372
21
325.698430
0
LINE
8
annotation
62
1
39
211
10
14.313372
20
325.698430
11
14.414460
21
325.555369
0
LINE
8
annotation
62
1
39
211
10
14.414460
20
325.555369
11
14.537903
21
325.431805
0
LINE
8
annotation
62
1
39
211
10
14.537903
20
325.431805
11
14.680784
21
325.330644
0
LINE
8
annotation
62
1
39
211
10
14.680784
20
325.330644
11
14.840186
21
325.254790
0
LINE
8
annotation
62
1
39
211
10
14.840186
20
325.254790
11
15.013194
21
325.207147
0
LINE
8
annotation
62
1
39
211
10
15.013194
20
325.207147
11
15.196890
21
325.190621
0
LINE
8
annotation
62
1
39
211
10
15.196890
20
325.190621
11
15.196890
21
325.190621
0
LINE
8
annotation
62
1
39
211
10
15.196890
20
325.190621
11
15.380586
21
325.207147
0
LINE
8
annotation
62
1
39
211
10
15.380586
20
325.207147
11
15.553594
21
325.254790
0
LINE
8
annotation
62
1
39
211
10
15.553594
20
325.254790
11
15.712996
21
325.330644
0
LINE
8
annotation
62
1
39
211
10
15.712996
20
325.330644
11
15.855877
21
325.431805
0
LINE
8
annotation
62
1
39
211
10
15.855877
20
325.431805
11
15.979320
21
325.555369
0
LINE
8
annotation
62
1
39
211
10
15.979320
20
325.555369
11
16.080408
21
325.698430
0
LINE
8
annotation
62
1
39
211
10
16.080408
20
325.698430
11
16.156224
21
325.858084
0
LINE
8
annotation
62
1
39
211
10
16.156224
20
325.858084
11
16.203853
21
326.031427
0
LINE
8
annotation
62
1
39
211
10
16.203853
20
326.031427
11
16.220377
21
326.215553
0
LINE
8
annotation
62
1
39
211
10
22.663063
20
293.025970
11
19.327928
21
293.025970
0
LINE
8
annotation
62
1
39
211
10
19.327928
20
293.025970
11
22.663063
21
299.032528
0
LINE
8
annotation
62
1
39
211
10
22.663063
20
299.032528
11
19.327928
21
299.032528
0
LINE
8
annotation
62
1
39
211
10
28.200370
20
296.029249
11
24.916087
21
296.029249
0
LINE
8
annotation
62
1
39
211
10
31.787787
20
293.025970
11
31.787787
21
299.032528
0
LINE
8
annotation
62
1
39
211
10
31.787787
20
299.032528
11
30.452453
21
297.696817
0
LINE
8
annotation
62
1
39
211
10
35.375581
20
293.025970
11
36.710916
21
299.032528
0
LINE
8
annotation
62
1
39
211
10
36.710916
20
299.032528
11
34.039870
21
299.032528
0
LINE
8
annotation
62
1
39
211
10
36.710916
20
296.357715
11
35.375581
21
296.357715
0
LINE
8
boundary
62
5
39
2
10
120.184594
20
7.349916
11
121.264200
21
7.772203
0
LINE
8
boundary
62
5
39
2
10
121.264200
20
7.772203
11
122.251473
21
8.236067
0
LINE
8
boundary
62
5
39
2
10
122.251473
20
8.236067
11
123.640643
21
8.987713
0
LINE
8
boundary
62
5
39
2
10
123.640643
20
8.987713
11
124.836825
21
9.743796
0
LINE
8
boundary
62
5
39
2
10
124.836825
20
9.743796
11
126.045493
21
10.603229
0
LINE
8
boundary
62
5
39
2
10
126.045493
20
10.603229
11
127.260981
21
11.564928
0
LINE
8
boundary
62
5
39
2
10
127.260981
20
11.564928
11
127.729144
21
11.972125
0
LINE
8
boundary
62
5
39
2
10
127.729144
20
11.972125
11
128.477691
21
12.627751
0
LINE
8
boundary
62
5
39
2
10
128.477691
20
12.627751
11
129.111114
21
13.233159
0
LINE
8
boundary
62
5
39
2
10
129.111114
20
13.233159
11
129.690019
21
13.790377
0
LINE
8
boundary
62
5
39
2
10
129.690019
20
13.790377
11
130.504162
21
14.642254
0
LINE
8
boundary
62
5
39
2
10
130.504162
20
14.642254
11
130.892442
21
15.051471
0
LINE
8
boundary
62
5
39
2
10
130.892442
20
15.051471
11
131.899038
21
16.201796
0
LINE
8
boundary
62
5
39
2
10
131.899038
20
16.201796
11
133.029841
21
17.594326
0
LINE
8
boundary
62
5
39
2
10
133.029841
20
17.594326
11
134.382951
21
19.404056
0
LINE
8
boundary
62
5
39
2
10
134.382951
20
19.404056
11
135.488633
21
21.036826
0
LINE
8
boundary
62
5
39
2
10
135.488633
20
21.036826
11
135.977045
21
21.819646
0
LINE
8
boundary
62
5
39
2
10
135.977045
20
21.819646
11
136.557090
21
22.758368
0
LINE
8
boundary
62
5
39
2
10
136.557090
20
22.758368
11
137.262184
21
23.996847
0
LINE
8
boundary
62
5
39
2
10
137.262184
20
23.996847
11
137.583189
21
24.566576
0
LINE
8
boundary
62
5
39
2
10
137.583189
20
24.566576
11
138.491304
21
26.321379
0
LINE
8
boundary
62
5
39
2
10
138.491304
20
26.321379
11
139.421717
21
28.289113
0
LINE
8
boundary
62
5
39
2
10
139.421717
20
28.289113
11
140.054464
21
29.752428
0
LINE
8
boundary
62
5
39
2
10
140.054464
20
29.752428
11
140.645216
21
31.223028
0
LINE
8
boundary
62
5
39
2
10
140.645216
20
31.223028
11
141.137671
21
32.531648
0
LINE
8
boundary
62
5
39
2
10
141.137671
20
32.531648
11
141.364105
21
33.135857
0
LINE
8
boundary
62
5
39
2
10
141.364105
20
33.135857
11
141.612979
21
33.864464
0
LINE
8
boundary
62
5
39
2
10
141.612979
20
33.864464
11
141.933122
21
34.783611
0
LINE
8
boundary
62
5
39
2
10
141.933122
20
34.783611
11
142.476747
21
36.468829
0
LINE
8
boundary
62
5
39
2
10
142.476747
20
36.468829
11
142.693094
21
37.186783
0
LINE
8
boundary
62
5
39
2
10
142.693094
20
37.186783
11
142.938271
21
38.000773
0
LINE
8
boundary
62
5
39
2
10
142.938271
20
38.000773
11
143.342609
21
39.419353
0
LINE
8
boundary
62
5
39
2
10
143.342609
20
39.419353
11
143.492290
21
39.938402
0
LINE
8
boundary
62
5
39
2
10
143.492290
20
39.938402
11
143.735007
21
40.858826
0
LINE
8
boundary
62
5
39
2
10
143.735007
20
40.858826
11
143.968543
21
41.722520
0
LINE
8
boundary
62
5
39
2
10
143.968543
20
41.722520
11
144.116246
21
42.319110
0
LINE
8
boundary
62
5
39
2
10
144.116246
20
42.319110
11
144.426146
21
43.538712
0
LINE
8
boundary
62
5
39
2
10
144.426146
20
43.538712
11
144.759137
21
44.936804
0
LINE
8
boundary
62
5
39
2
10
144.759137
20
44.936804
11
145.187573
21
46.814139
0
LINE
8
boundary
62
5
39
2
10
145.187573
20
46.814139
11
145.522107
21
48.347027
0
LINE
8
boundary
62
5
39
2
10
145.522107
20
48.347027
11
145.700529
21
49.160642
0
LINE
8
boundary
62
5
39
2
10
145.700529
20
49.160642
11
145.849875
21
49.899029
0
LINE
8
boundary
62
5
39
2
10
145.849875
20
49.899029
11
146.098479
21
51.091603
0
LINE
8
boundary
62
5
39
2
10
146.098479
20
51.091603
11
146.485620
21
53.050666
0
LINE
8
boundary
62
5
39
2
10
146.485620
20
53.050666
11
146.790036
21
54.662592
0
LINE
8
boundary
62
5
39
2
10
146.790036
20
54.662592
11
147.088759
21
56.281923
0
LINE
8
boundary
62
5
39
2
10
147.088759
20
56.281923
11
147.231531
21
57.044619
0
LINE
8
boundary
62
5
39
2
10
147.231531
20
57.044619
11
147.438705
21
58.241543
0
LINE
8
boundary
62
5
39
2
10
147.438705
20
58.241543
11
147.773526
21
60.110789
0
LINE
8
boundary
62
5
39
2
10
147.773526
20
60.110789
11
148.043436
21
61.703842
0
LINE
8
boundary
62
5
39
2
10
148.043436
20
61.703842
11
148.234035
21
62.831657
0
LINE
8
boundary
62
5
39
2
10
148.234035
20
62.831657
11
148.618750
21
65.165641
0
LINE
8
boundary
62
5
39
2
10
148.618750
20
65.165641
11
148.829558
21
66.420317
0
LINE
8
boundary
62
5
39
2
10
148.829558
20
66.420317
11
149.006393
21
67.538375
0
LINE
8
boundary
62
5
39
2
10
149.006393
20
67.538375
11
149.352895
21
69.665674
0
LINE
8
boundary
62
5
39
2
10
149.352895
20
69.665674
11
149.528427
21
70.775330
0
LINE
8
boundary
62
5
39
2
10
149.528427
20
70.775330
11
149.782847
21
72.390833
0
LINE
8
boundary
62
5
39
2
10
149.782847
20
72.390833
11
149.877063
21
72.973523
0
LINE
8
boundary
62
5
39
2
10
149.877063
20
72.973523
11
150.170323
21
74.860247
0
LINE
8
boundary
62
5
39
2
10
150.170323
20
74.860247
11
150.406423
21
76.345359
0
LINE
8
boundary
62
5
39
2
10
150.406423
20
76.345359
11
150.565340
21
77.372842
0
LINE
8
boundary
62
5
39
2
10
150.565340
20
77.372842
11
150.945004
21
79.783350
0
LINE
8
boundary
62
5
39
2
10
150.945004
20
79.783350
11
151.034980
21
80.357753
0
LINE
8
boundary
62
5
39
2
10
151.034980
20
80.357753
11
151.369930
21
82.511493
0
LINE
8
boundary
62
5
39
2
10
151.369930
20
82.511493
11
151.493082
21
83.292991
0
LINE
8
boundary
62
5
39
2
10
151.493082
20
83.292991
11
151.780755
21
85.132027
0
LINE
8
boundary
62
5
39
2
10
151.780755
20
85.132027
11
152.055593
21
86.875012
0
LINE
8
boundary
62
5
39
2
10
152.055593
20
86.875012
11
152.202356
21
87.802116
0
LINE
8
boundary
62
5
39
2
10
152.202356
20
87.802116
11
152.631278
21
90.504952
0
LINE
8
boundary
62
5
39
2
10
152.631278
20
90.504952
11
153.070292
21
93.266291
0
LINE
8
boundary
62
5
39
2
10
153.070292
20
93.266291
11
153.230274
21
94.275941
0
LINE
8
boundary
62
5
39
2
10
153.230274
20
94.275941
11
153.518733
21
96.061164
0
LINE
8
boundary
62
5
39
2
10
153.518733
20
96.061164
11
153.845597
21
98.102124
0
LINE
8
boundary
62
5
39
2
10
153.845597
20
98.102124
11
153.979000
21
98.913824
0
LINE
8
boundary
62
5
39
2
10
153.979000
20
98.913824
11
154.362539
21
101.278933
0
LINE
8
boundary
62
5
39
2
10
154.362539
20
101.278933
11
154.449406
21
101.820031
0
LINE
8
boundary
62
5
39
2
10
154.449406
20
101.820031
11
154.926594
21
104.753952
0
LINE
8
boundary
62
5
39
2
10
154.926594
20
104.753952
11
155.129627
21
106.021638
0
LINE
8
boundary
62
5
39
2
10
155.129627
20
106.021638
11
155.415568
21
107.747939
0
LINE
8
boundary
62
5
39
2
10
155.415568
20
107.747939
11
155.799833
21
110.114819
0
LINE
8
boundary
62
5
39
2
10
155.799833
20
110.114819
11
155.915990
21
110.803720
0
LINE
8
boundary
62
5
39
2
10
155.915990
20
110.803720
11
156.248465
21
112.819533
0
LINE
8
boundary
62
5
39
2
10
156.248465
20
112.819533
11
156.426040
21
113.907885
0
LINE
8
boundary
62
5
39
2
10
156.426040
20
113.907885
11
156.944838
21
117.045891
0
LINE
8
boundary
62
5
39
2
10
156.944838
20
117.045891
11
157.193076
21
118.575718
0
LINE
8
boundary
62
5
39
2
10
157.193076
20
118.575718
11
157.475777
21
120.243399
0
LINE
8
boundary
62
5
39
2
10
157.475777
20
120.243399
11
157.921441
21
122.937325
0
LINE
8
boundary
62
5
39
2
10
157.921441
20
122.937325
11
158.018971
21
123.500174
0
LINE
8
boundary
62
5
39
2
10
158.018971
20
123.500174
11
158.296693
21
125.142784
0
LINE
8
boundary
62
5
39
2
10
158.296693
20
125.142784
11
158.572563
21
126.795053
0
LINE
8
boundary
62
5
39
2
10
158.572563
20
126.795053
11
158.669201
21
127.388351
0
LINE
8
boundary
62
5
39
2
10
158.669201
20
127.388351
11
159.137164
21
130.124661
0
LINE
8
boundary
62
5
39
2
10
159.137164
20
130.124661
11
159.437798
21
131.926046
0
LINE
8
boundary
62
5
39
2
10
159.437798
20
131.926046
11
159.715395
21
133.507406
0
LINE
8
boundary
62
5
39
2
10
159.715395
20
133.507406
11
160.235616
21
136.542120
0
LINE
8
boundary
62
5
39
2
10
160.235616
20
136.542120
11
160.509275
21
138.083483
0
LINE
8
boundary
62
5
39
2
10
160.509275
20
138.083483
11
160.911811
21
140.398165
0
LINE
8
boundary
62
5
39
2
10
160.911811
20
140.398165
11
161.055290
21
141.242173
0
LINE
8
boundary
62
5
39
2
10
161.055290
20
141.242173
11
161.529748
21
143.886748
0
LINE
8
boundary
62
5
39
2
10
161.529748
20
143.886748
11
161.904084
21
146.018239
0
LINE
8
boundary
62
5
39
2
10
161.904084
20
146.018239
11
162.163566
21
147.417409
0
LINE
8
boundary
62
5
39
2
10
162.163566
20
147.417409
11
162.790198
21
150.863490
0
LINE
8
boundary
62
5
39
2
10
162.790198
20
150.863490
11
163.477297
21
154.558418
0
LINE
8
boundary
62
5
39
2
10
163.477297
20
154.558418
11
163.700625
21
155.784344
0
LINE
8
boundary
62
5
39
2
10
163.700625
20
155.784344
11
164.157933
21
158.157269
0
LINE
8
boundary
62
5
39
2
10
164.157933
20
158.157269
11
164.653089
21
160.767317
0
LINE
8
boundary
62
5
39
2
10
164.653089
20
160.767317
11
164.857023
21
161.783778
0
LINE
8
boundary
62
5
39
2
10
164.857023
20
161.783778
11
165.383450
21
164.443397
0
LINE
8
boundary
62
5
39
2
10
165.383450
20
164.443397
11
165.573894
21
165.424588
0
LINE
8
boundary
62
5
39
2
10
165.573894
20
165.424588
11
166.027745
21
167.707004
0
LINE
8
boundary
62
5
39
2
10
166.027745
20
167.707004
11
166.156422
21
168.355800
0
LINE
8
boundary
62
5
39
2
10
166.156422
20
168.355800
11
166.459150
21
169.833383
0
LINE
8
boundary
62
5
39
2
10
166.459150
20
169.833383
11
166.678443
21
170.913489
0
LINE
8
boundary
62
5
39
2
10
166.678443
20
170.913489
11
166.898903
21
171.965288
0
LINE
8
boundary
62
5
39
2
10
166.898903
20
171.965288
11
167.214536
21
173.483322
0
LINE
8
boundary
62
5
39
2
10
167.214536
20
173.483322
11
167.347277
21
174.102149
0
LINE
8
boundary
62
5
39
2
10
167.347277
20
174.102149
11
167.765371
21
176.064933
0
LINE
8
boundary
62
5
39
2
10
167.765371
20
176.064933
11
167.990877
21
177.096847
0
LINE
8
boundary
62
5
39
2
10
167.990877
20
177.096847
11
168.265672
21
178.385231
0
LINE
8
boundary
62
5
39
2
10
168.265672
20
178.385231
11
168.732294
21
180.527532
0
LINE
8
boundary
62
5
39
2
10
168.732294
20
180.527532
11
168.892861
21
181.265407
0
LINE
8
boundary
62
5
39
2
10
168.892861
20
181.265407
11
169.208257
21
182.671865
0
LINE
8
boundary
62
5
39
2
10
169.208257
20
182.671865
11
169.478342
21
183.880804
0
LINE
8
boundary
62
5
39
2
10
169.478342
20
183.880804
11
169.693868
21
184.817655
0
LINE
8
boundary
62
5
39
2
10
169.693868
20
184.817655
11
170.081087
21
186.505362
0
LINE
8
boundary
62
5
39
2
10
170.081087
20
186.505362
11
170.666696
21
188.989150
0
LINE
8
boundary
62
5
39
2
10
170.666696
20
188.989150
11
171.142881
21
190.998604
0
LINE
8
boundary
62
5
39
2
10
171.142881
20
190.998604
11
171.328413
21
191.780236
0
LINE
8
boundary
62
5
39
2
10
171.328413
20
191.780236
11
171.622323
21
192.983021
0
LINE
8
boundary
62
5
39
2
10
171.622323
20
192.983021
11
172.047772
21
194.723370
0
LINE
8
boundary
62
5
39
2
10
172.047772
20
194.723370
11
172.291638
21
195.692244
0
LINE
8
boundary
62
5
39
2
10
172.291638
20
195.692244
11
172.629584
21
197.055820
0
LINE
8
boundary
62
5
39
2
10
172.629584
20
197.055820
11
172.782886
21
197.673656
0
LINE
8
boundary
62
5
39
2
10
172.782886
20
197.673656
11
173.141184
21
199.079714
0
LINE
8
boundary
62
5
39
2
10
173.141184
20
199.079714
11
173.536931
21
200.629917
0
LINE
8
boundary
62
5
39
2
10
173.536931
20
200.629917
11
173.919286
21
202.089057
0
LINE
8
boundary
62
5
39
2
10
173.919286
20
202.089057
11
174.182025
21
203.107738
0
LINE
8
boundary
62
5
39
2
10
174.182025
20
203.107738
11
174.708133
21
205.107420
0
LINE
8
boundary
62
5
39
2
10
174.708133
20
205.107420
11
175.091866
21
206.553631
0
LINE
8
boundary
62
5
39
2
10
175.091866
20
206.553631
11
175.240142
21
207.100844
0
LINE
8
boundary
62
5
39
2
10
175.240142
20
207.100844
11
175.541054
21
208.207448
0
LINE
8
boundary
62
5
39
2
10
175.541054
20
208.207448
11
175.775459
21
209.084605
0
LINE
8
boundary
62
5
39
2
10
175.775459
20
209.084605
11
176.312770
21
211.057668
0
LINE
8
boundary
62
5
39
2
10
176.312770
20
211.057668
11
176.703581
21
212.480917
0
LINE
8
boundary
62
5
39
2
10
176.703581
20
212.480917
11
176.855278
21
213.023533
0
LINE
8
boundary
62
5
39
2
10
176.855278
20
213.023533
11
177.151232
21
214.077492
0
LINE
8
boundary
62
5
39
2
10
177.151232
20
214.077492
11
177.399827
21
214.978980
0
LINE
8
boundary
62
5
39
2
10
177.399827
20
214.978980
11
177.945342
21
216.923367
0
LINE
8
boundary
62
5
39
2
10
177.945342
20
216.923367
11
178.362205
21
218.396182
0
LINE
8
boundary
62
5
39
2
10
178.362205
20
218.396182
11
178.746483
21
219.728772
0
LINE
8
boundary
62
5
39
2
10
178.746483
20
219.728772
11
179.045847
21
220.784607
0
LINE
8
boundary
62
5
39
2
10
179.045847
20
220.784607
11
179.205191
21
221.343641
0
LINE
8
boundary
62
5
39
2
10
179.205191
20
221.343641
11
179.596851
21
222.698498
0
LINE
8
boundary
62
5
39
2
10
179.596851
20
222.698498
11
180.057205
21
224.282053
0
LINE
8
boundary
62
5
39
2
10
180.057205
20
224.282053
11
180.325241
21
225.188874
0
LINE
8
boundary
62
5
39
2
10
180.325241
20
225.188874
11
180.705122
21
226.495816
0
LINE
8
boundary
62
5
39
2
10
180.705122
20
226.495816
11
180.913188
21
227.207342
0
LINE
8
boundary
62
5
39
2
10
180.913188
20
227.207342
11
181.259282
21
228.377152
0
LINE
8
boundary
62
5
39
2
10
181.259282
20
228.377152
11
181.778360
21
230.120572
0
LINE
8
boundary
62
5
39
2
10
181.778360
20
230.120572
11
182.370307
21
232.106219
0
LINE
8
boundary
62
5
39
2
10
182.370307
20
232.106219
11
182.642102
21
233.014530
0
LINE
8
boundary
62
5
39
2
10
182.642102
20
233.014530
11
183.059418
21
234.387259
0
LINE
8
boundary
62
5
39
2
10
183.059418
20
234.387259
11
183.427507
21
235.586461
0
LINE
8
boundary
62
5
39
2
10
183.427507
20
235.586461
11
183.873521
21
237.070722
0
LINE
8
boundary
62
5
39
2
10
183.873521
20
237.070722
11
184.382595
21
238.748284
0
LINE
8
boundary
62
5
39
2
10
184.382595
20
238.748284
11
184.685711
21
239.727988
0
LINE
8
boundary
62
5
39
2
10
184.685711
20
239.727988
11
184.948643
21
240.569022
0
LINE
8
boundary
62
5
39
2
10
184.948643
20
240.569022
11
185.492964
21
242.347841
0
LINE
8
boundary
62
5
39
2
10
185.492964
20
242.347841
11
186.125340
21
244.392545
0
LINE
8
boundary
62
5
39
2
10
186.125340
20
244.392545
11
186.299579
21
244.947196
0
LINE
8
boundary
62
5
39
2
10
186.299579
20
244.947196
11
187.328544
21
248.269274
0
LINE
8
boundary
62
5
39
2
10
187.328544
20
248.269274
11
187.847473
21
249.923753
0
LINE
8
boundary
62
5
39
2
10
187.847473
20
249.923753
11
188.414296
21
251.719101
0
LINE
8
boundary
62
5
39
2
10
188.414296
20
251.719101
11
189.382251
21
254.732368
0
LINE
8
boundary
62
5
39
2
10
189.382251
20
254.732368
11
189.575187
21
255.351807
0
LINE
8
boundary
62
5
39
2
10
189.575187
20
255.351807
11
190.554934
21
258.454380
0
LINE
8
boundary
62
5
39
2
10
190.554934
20
258.454380
11
191.257292
21
260.637633
0
LINE
8
boundary
62
5
39
2
10
191.257292
20
260.637633
11
191.612768
21
261.744221
0
LINE
8
boundary
62
5
39
2
10
191.612768
20
261.744221
11
192.216597
21
263.588792
0
LINE
8
boundary
62
5
39
2
10
192.216597
20
263.588792
11
192.653350
21
264.975405
0
LINE
8
boundary
62
5
39
2
10
192.653350
20
264.975405
11
192.915971
21
265.792899
0
LINE
8
boundary
62
5
39
2
10
192.915971
20
265.792899
11
193.666276
21
268.142497
0
LINE
8
boundary
62
5
39
2
10
193.666276
20
268.142497
11
194.533021
21
270.802986
0
LINE
8
boundary
62
5
39
2
10
194.533021
20
270.802986
11
194.940847
21
272.051505
0
LINE
8
boundary
62
5
39
2
10
194.940847
20
272.051505
11
195.550243
21
273.968652
0
LINE
8
boundary
62
5
39
2
10
195.550243
20
273.968652
11
196.097331
21
275.661507
0
LINE
8
boundary
62
5
39
2
10
196.097331
20
275.661507
11
196.370310
21
276.515324
0
LINE
8
boundary
62
5
39
2
10
196.370310
20
276.515324
11
196.683525
21
277.478792
0
LINE
8
boundary
62
5
39
2
10
196.683525
20
277.478792
11
197.167588
21
279.014257
0
LINE
8
boundary
62
5
39
2
10
197.167588
20
279.014257
11
197.600573
21
280.364302
0
LINE
8
boundary
62
5
39
2
10
197.600573
20
280.364302
11
197.985033
21
281.583861
0
LINE
8
boundary
62
5
39
2
10
197.985033
20
281.583861
11
198.356705
21
282.740696
0
LINE
8
boundary
62
5
39
2
10
198.356705
20
282.740696
11
198.820703
21
284.235002
0
LINE
8
boundary
62
5
39
2
10
198.820703
20
284.235002
11
199.316770
21
285.801602
0
LINE
8
boundary
62
5
39
2
10
199.316770
20
285.801602
11
199.638505
21
286.844679
0
LINE
8
boundary
62
5
39
2
10
199.638505
20
286.844679
11
199.953347
21
287.845335
0
LINE
8
boundary
62
5
39
2
10
199.953347
20
287.845335
11
200.424182
21
289.397511
0
LINE
8
boundary
62
5
39
2
10
200.424182
20
289.397511
11
200.924231
21
291.012407
0
LINE
8
boundary
62
5
39
2
10
200.924231
20
291.012407
11
201.192716
21
291.911887
0
LINE
8
boundary
62
5
39
2
10
201.192716
20
291.911887
11
201.458849
21
292.784886
0
LINE
8
boundary
62
5
39
2
10
201.458849
20
292.784886
11
201.856712
21
294.137994
0
LINE
8
boundary
62
5
39
2
10
201.856712
20
294.137994
11
202.414496
21
295.998921
0
LINE
8
boundary
62
5
39
2
10
202.414496
20
295.998921
11
203.049421
21
298.237864
0
LINE
8
boundary
62
5
39
2
10
203.049421
20
298.237864
11
203.519569
21
299.868592
0
LINE
8
boundary
62
5
39
2
10
203.519569
20
299.868592
11
203.770721
21
300.762107
0
LINE
8
boundary
62
5
39
2
10
203.770721
20
300.762107
11
204.155916
21
302.192962
0
LINE
8
boundary
62
5
39
2
10
204.155916
20
302.192962
11
204.444569
21
303.240901
0
LINE
8
boundary
62
5
39
2
10
204.444569
20
303.240901
11
204.674751
21
304.112776
0
LINE
8
boundary
62
5
39
2
10
204.674751
20
304.112776
11
204.998968
21
305.311881
0
LINE
8
boundary
62
5
39
2
10
204.998968
20
305.311881
11
205.173115
21
305.996267
0
LINE
8
boundary
62
5
39
2
10
205.173115
20
305.996267
11
205.303998
21
306.497495
0
LINE
8
boundary
62
5
39
2
10
205.303998
20
306.497495
11
205.634200
21
307.824711
0
LINE
8
boundary
62
5
39
2
10
205.634200
20
307.824711
11
206.095249
21
309.628351
0
LINE
8
boundary
62
5
39
2
10
206.095249
20
309.628351
11
206.499116
21
311.369960
0
LINE
8
boundary
62
5
39
2
10
206.499116
20
311.369960
11
206.791353
21
312.592396
0
LINE
8
boundary
62
5
39
2
10
206.791353
20
312.592396
11
207.063468
21
313.779903
0
LINE
8
boundary
62
5
39
2
10
207.063468
20
313.779903
11
207.266687
21
314.737201
0
LINE
8
boundary
62
5
39
2
10
207.266687
20
314.737201
11
207.414360
21
315.407630
0
LINE
8
boundary
62
5
39
2
10
207.414360
20
315.407630
11
207.605341
21
316.341955
0
LINE
8
boundary
62
5
39
2
10
207.605341
20
316.341955
11
207.891923
21
317.690313
0
LINE
8
boundary
62
5
39
2
10
207.891923
20
317.690313
11
208.161268
21
319.126589
0
LINE
8
boundary
62
5
39
2
10
208.161268
20
319.126589
11
208.360691
21
320.170210
0
LINE
8
boundary
62
5
39
2
10
208.360691
20
320.170210
11
208.587317
21
321.531973
0
LINE
8
boundary
62
5
39
2
10
208.587317
20
321.531973
11
208.758794
21
322.543280
0
LINE
8
boundary
62
5
39
2
10
208.758794
20
322.543280
11
208.933428
21
323.784149
0
LINE
8
boundary
62
5
39
2
10
208.933428
20
323.784149
11
209.080520
21
324.804727
0
LINE
8
boundary
62
5
39
2
10
209.080520
20
324.804727
11
209.196571
21
325.875129
0
LINE
8
boundary
62
5
39
2
10
209.196571
20
325.875129
11
209.301512
21
326.798773
0
LINE
8
boundary
62
5
39
2
10
209.301512
20
326.798773
11
209.370137
21
327.693191
0
LINE
8
boundary
62
5
39
2
10
209.370137
20
327.693191
11
209.433789
21
328.484154
0
LINE
8
boundary
62
5
39
2
10
209.433789
20
328.484154
11
209.464278
21
329.247624
0
LINE
8
boundary
62
5
39
2
10
209.464278
20
329.247624
11
209.497844
21
329.953360
0
LINE
8
boundary
62
5
39
2
10
209.497844
20
329.953360
11
209.500375
21
330.688387
0
LINE
8
boundary
62
5
39
2
10
209.500375
20
330.688387
11
209.506607
21
331.348749
0
LINE
8
boundary
62
5
39
2
10
209.506607
20
331.348749
11
209.483321
21
331.945692
0
LINE
8
boundary
62
5
39
2
10
209.483321
20
331.945692
11
209.455473
21
332.602374
0
LINE
8
boundary
62
5
39
2
10
209.455473
20
332.602374
11
209.389609
21
333.323546
0
LINE
8
boundary
62
5
39
2
10
209.389609
20
333.323546
11
209.305602
21
333.991888
0
LINE
8
boundary
62
5
39
2
10
209.305602
20
333.991888
11
209.194218
21
334.592751
0
LINE
8
boundary
62
5
39
2
10
209.194218
20
334.592751
11
209.066016
21
335.147672
0
LINE
8
boundary
62
5
39
2
10
209.066016
20
335.147672
11
208.918414
21
335.653897
0
LINE
8
boundary
62
5
39
2
10
208.918414
20
335.653897
11
208.672323
21
336.294012
0
LINE
8
boundary
62
5
39
2
10
208.672323
20
336.294012
11
208.373007
21
336.924138
0
LINE
8
boundary
62
5
39
2
10
208.373007
20
336.924138
11
208.007658
21
337.483572
0
LINE
8
boundary
62
5
39
2
10
208.007658
20
337.483572
11
207.691138
21
337.884803
0
LINE
8
boundary
62
5
39
2
10
207.691138
20
337.884803
11
207.324193
21
338.251830
0
LINE
8
boundary
62
5
39
2
10
207.324193
20
338.251830
11
206.898242
21
338.613921
0
LINE
8
boundary
62
5
39
2
10
206.898242
20
338.613921
11
206.379572
21
338.918580
0
LINE
8
boundary
62
5
39
2
10
206.379572
20
338.918580
11
205.736314
21
339.185940
0
LINE
8
boundary
62
5
39
2
10
205.736314
20
339.185940
11
205.065827
21
339.345765
0
LINE
8
boundary
62
5
39
2
10
205.065827
20
339.345765
11
204.329957
21
339.412949
0
LINE
8
boundary
62
5
39
2
10
204.329957
20
339.412949
11
203.808342
21
339.404752
0
LINE
8
boundary
62
5
39
2
10
203.808342
20
339.404752
11
203.098413
21
339.322350
0
LINE
8
boundary
62
5
39
2
10
203.098413
20
339.322350
11
202.550537
21
339.215606
0
LINE
8
boundary
62
5
39
2
10
202.550537
20
339.215606
11
201.916648
21
339.045548
0
LINE
8
boundary
62
5
39
2
10
201.916648
20
339.045548
11
201.422425
21
338.883338
0
LINE
8
boundary
62
5
39
2
10
201.422425
20
338.883338
11
200.852833
21
338.664176
0
LINE
8
boundary
62
5
39
2
10
200.852833
20
338.664176
11
200.226941
21
338.389492
0
LINE
8
boundary
62
5
39
2
10
200.226941
20
338.389492
11
199.731267
21
338.146488
0
LINE
8
boundary
62
5
39
2
10
199.731267
20
338.146488
11
199.227002
21
337.878811
0
LINE
8
boundary
62
5
39
2
10
199.227002
20
337.878811
11
198.714784
21
337.586745
0
LINE
8
boundary
62
5
39
2
10
198.714784
20
337.586745
11
198.171612
21
337.247036
0
LINE
8
boundary
62
5
39
2
10
198.171612
20
337.247036
11
197.668866
21
336.930033
0
LINE
8
boundary
62
5
39
2
10
197.668866
20
336.930033
11
196.760731
21
336.292212
0
LINE
8
boundary
62
5
39
2
10
196.760731
20
336.292212
11
196.163068
21
335.838781
0
LINE
8
boundary
62
5
39
2
10
196.163068
20
335.838781
11
195.504294
21
335.322146
0
LINE
8
boundary
62
5
39
2
10
195.504294
20
335.322146
11
194.392784
21
334.366912
0
LINE
8
boundary
62
5
39
2
10
194.392784
20
334.366912
11
193.607305
21
333.632328
0
LINE
8
boundary
62
5
39
2
10
193.607305
20
333.632328
11
192.616941
21
332.652907
0
LINE
8
boundary
62
5
39
2
10
192.616941
20
332.652907
11
192.145609
21
332.171192
0
LINE
8
boundary
62
5
39
2
10
192.145609
20
332.171192
11
191.016536
21
330.922416
0
LINE
8
boundary
62
5
39
2
10
191.016536
20
330.922416
11
190.099438
21
329.826752
0
LINE
8
boundary
62
5
39
2
10
190.099438
20
329.826752
11
189.579534
21
329.178430
0
LINE
8
boundary
62
5
39
2
10
189.579534
20
329.178430
11
188.780402
21
328.147729
0
LINE
8
boundary
62
5
39
2
10
188.780402
20
328.147729
11
188.251805
21
327.418877
0
LINE
8
boundary
62
5
39
2
10
188.251805
20
327.418877
11
187.677239
21
326.628964
0
LINE
8
boundary
62
5
39
2
10
187.677239
20
326.628964
11
186.970019
21
325.594255
0
LINE
8
boundary
62
5
39
2
10
186.970019
20
325.594255
11
197.394336
21
325.444255
0
LINE
8
boundary
62
5
39
2
10
197.394336
20
325.444255
11
197.394336
21
322.698254
0
LINE
8
boundary
62
5
39
2
10
197.394336
20
322.698254
11
185.112749
21
322.698254
0
LINE
8
boundary
62
5
39
2
10
185.112749
20
322.698254
11
184.466752
21
321.634630
0
LINE
8
boundary
62
5
39
2
10
184.466752
20
321.634630
11
183.422606
21
319.815600
0
LINE
8
boundary
62
5
39
2
10
183.422606
20
319.815600
11
182.524885
21
318.168184
0
LINE
8
boundary
62
5
39
2
10
182.524885
20
318.168184
11
181.415466
21
316.036196
0
LINE
8
boundary
62
5
39
2
10
181.415466
20
316.036196
11
180.580487
21
314.340619
0
LINE
8
boundary
62
5
39
2
10
180.580487
20
314.340619
11
180.321251
21
313.805489
0
LINE
8
boundary
62
5
39
2
10
180.321251
20
313.805489
11
179.500702
21
312.053056
0
LINE
8
boundary
62
5
39
2
10
179.500702
20
312.053056
11
178.613595
21
310.071866
0
LINE
8
boundary
62
5
39
2
10
178.613595
20
310.071866
11
177.680760
21
307.890004
0
LINE
8
boundary
62
5
39
2
10
177.680760
20
307.890004
11
177.202693
21
306.717500
0
LINE
8
boundary
62
5
39
2
10
177.202693
20
306.717500
11
190.656403
21
306.567501
0
LINE
8
boundary
62
5
39
2
10
190.656403
20
306.567501
11
190.656403
21
303.821501
0
LINE
8
boundary
62
5
39
2
10
190.656403
20
303.821501
11
176.050391
21
303.821501
0
LINE
8
boundary
62
5
39
2
10
176.050391
20
303.821501
11
175.522472
21
302.416260
0
LINE
8
boundary
62
5
39
2
10
175.522472
20
302.416260
11
175.121791
21
301.353959
0
LINE
8
boundary
62
5
39
2
10
175.121791
20
301.353959
11
174.685610
21
300.151043
0
LINE
8
boundary
62
5
39
2
10
174.685610
20
300.151043
11
174.311586
21
299.100309
0
LINE
8
boundary
62
5
39
2
10
174.311586
20
299.100309
11
173.952666
21
298.053790
0
LINE
8
boundary
62
5
39
2
10
173.952666
20
298.053790
11
173.521772
21
296.811126
0
LINE
8
boundary
62
5
39
2
10
173.521772
20
296.811126
11
173.124884
21
295.623098
0
LINE
8
boundary
62
5
39
2
10
173.124884
20
295.623098
11
172.374399
21
293.316150
0
LINE
8
boundary
62
5
39
2
10
172.374399
20
293.316150
11
171.748677
21
291.327256
0
LINE
8
boundary
62
5
39
2
10
171.748677
20
291.327256
11
171.267907
21
289.750683
0
LINE
8
boundary
62
5
39
2
10
171.267907
20
289.750683
11
170.705187
21
287.840747
0
LINE
8
boundary
62
5
39
2
10
170.705187
20
287.840747
11
184.680186
21
287.690747
0
LINE
8
boundary
62
5
39
2
10
184.680186
20
287.690747
11
184.680186
21
284.944747
0
LINE
8
boundary
62
5
39
2
10
184.680186
20
284.944747
11
169.853303
21
284.944747
0
LINE
8
boundary
62
5
39
2
10
169.853303
20
284.944747
11
169.547948
21
283.879141
0
LINE
8
boundary
62
5
39
2
10
169.547948
20
283.879141
11
169.154806
21
282.456307
0
LINE
8
boundary
62
5
39
2
10
169.154806
20
282.456307
11
168.915823
21
281.614762
0
LINE
8
boundary
62
5
39
2
10
168.915823
20
281.614762
11
168.457949
21
279.937248
0
LINE
8
boundary
62
5
39
2
10
168.457949
20
279.937248
11
168.262695
21
279.223347
0
LINE
8
boundary
62
5
39
2
10
168.262695
20
279.223347
11
168.130182
21
278.717733
0
LINE
8
boundary
62
5
39
2
10
168.130182
20
278.717733
11
167.632004
21
276.879815
0
LINE
8
boundary
62
5
39
2
10
167.632004
20
276.879815
11
167.112723
21
274.892427
0
LINE
8
boundary
62
5
39
2
10
167.112723
20
274.892427
11
166.965787
21
274.340325
0
LINE
8
boundary
62
5
39
2
10
166.965787
20
274.340325
11
166.619343
21
273.016066
0
LINE
8
boundary
62
5
39
2
10
166.619343
20
273.016066
11
166.306510
21
271.793316
0
LINE
8
boundary
62
5
39
2
10
166.306510
20
271.793316
11
166.087841
21
270.928568
0
LINE
8
boundary
62
5
39
2
10
166.087841
20
270.928568
11
165.827400
21
269.916902
0
LINE
8
boundary
62
5
39
2
10
165.827400
20
269.916902
11
165.672113
21
269.302366
0
LINE
8
boundary
62
5
39
2
10
165.672113
20
269.302366
11
179.111292
21
268.813994
0
LINE
8
boundary
62
5
39
2
10
179.111292
20
268.813994
11
179.111292
21
266.067993
0
LINE
8
boundary
62
5
39
2
10
179.111292
20
266.067993
11
164.865269
21
266.067993
0
LINE
8
boundary
62
5
39
2
10
164.865269
20
266.067993
11
164.667722
21
265.275825
0
LINE
8
boundary
62
5
39
2
10
164.667722
20
265.275825
11
164.465576
21
264.453095
0
LINE
8
boundary
62
5
39
2
10
164.465576
20
264.453095
11
164.287119
21
263.723977
0
LINE
8
boundary
62
5
39
2
10
164.287119
20
263.723977
11
163.951621
21
262.333200
0
LINE
8
boundary
62
5
39
2
10
163.951621
20
262.333200
11
163.532448
21
260.608332
0
LINE
8
boundary
62
5
39
2
10
163.532448
20
260.608332
11
163.326954
21
259.751503
0
LINE
8
boundary
62
5
39
2
10
163.326954
20
259.751503
11
163.157760
21
259.041917
0
LINE
8
boundary
62
5
39
2
10
163.157760
20
259.041917
11
162.802828
21
257.537208
0
LINE
8
boundary
62
5
39
2
10
162.802828
20
257.537208
11
162.411929
21
255.890785
0
LINE
8
boundary
62
5
39
2
10
162.411929
20
255.890785
11
162.238355
21
255.153471
0
LINE
8
boundary
62
5
39
2
10
162.238355
20
255.153471
11
162.040019
21
254.305112
0
LINE
8
boundary
62
5
39
2
10
162.040019
20
254.305112
11
161.708764
21
252.877702
0
LINE
8
boundary
62
5
39
2
10
161.708764
20
252.877702
11
161.578146
21
252.308407
0
LINE
8
boundary
62
5
39
2
10
161.578146
20
252.308407
11
161.298605
21
251.111131
0
LINE
8
boundary
62
5
39
2
10
161.298605
20
251.111131
11
161.062020
21
250.087239
0
LINE
8
boundary
62
5
39
2
10
161.062020
20
250.087239
11
173.856743
21
249.937239
0
LINE
8
boundary
62
5
39
2
10
173.856743
20
249.937239
11
173.856743
21
247.191239
0
LINE
8
boundary
62
5
39
2
10
173.856743
20
247.191239
11
160.398553
21
247.191239
0
LINE
8
boundary
62
5
39
2
10
160.398553
20
247.191239
11
160.266533
21
246.609688
0
LINE
8
boundary
62
5
39
2
10
160.266533
20
246.609688
11
159.724261
21
244.246351
0
LINE
8
boundary
62
5
39
2
10
159.724261
20
244.246351
11
159.477240
21
243.168122
0
LINE
8
boundary
62
5
39
2
10
159.477240
20
243.168122
11
159.140281
21
241.677797
0
LINE
8
boundary
62
5
39
2
10
159.140281
20
241.677797
11
158.639747
21
239.461816
0
LINE
8
boundary
62
5
39
2
10
158.639747
20
239.461816
11
158.360664
21
238.211913
0
LINE
8
boundary
62
5
39
2
10
158.360664
20
238.211913
11
157.966136
21
236.480772
0
LINE
8
boundary
62
5
39
2
10
157.966136
20
236.480772
11
157.803433
21
235.769133
0
LINE
8
boundary
62
5
39
2
10
157.803433
20
235.769133
11
157.369528
21
233.848427
0
LINE
8
boundary
62
5
39
2
10
157.369528
20
233.848427
11
156.969321
21
232.083150
0
LINE
8
boundary
62
5
39
2
10
156.969321
20
232.083150
11
156.773401
21
231.210486
0
LINE
8
boundary
62
5
39
2
10
156.773401
20
231.210486
11
168.856906
21
231.060485
0
LINE
8
boundary
62
5
39
2
10
168.856906
20
231.060485
11
168.856906
21
228.314486
0
LINE
8
boundary
62
5
39
2
10
168.856906
20
228.314486
11
156.118506
21
228.314485
0
LINE
8
boundary
62
5
39
2
10
156.118506
20
228.314485
11
155.616075
21
226.111623
0
LINE
8
boundary
62
5
39
2
10
155.616075
20
226.111623
11
155.297514
21
224.722294
0
LINE
8
boundary
62
5
39
2
10
155.297514
20
224.722294
11
155.050727
21
223.639397
0
LINE
8
boundary
62
5
39
2
10
155.050727
20
223.639397
11
154.536536
21
221.394818
0
LINE
8
boundary
62
5
39
2
10
154.536536
20
221.394818
11
153.899201
21
218.647635
0
LINE
8
boundary
62
5
39
2
10
153.899201
20
218.647635
11
153.601822
21
217.373874
0
LINE
8
boundary
62
5
39
2
10
153.601822
20
217.373874
11
153.312671
21
216.132263
0
LINE
8
boundary
62
5
39
2
10
153.312671
20
216.132263
11
152.743872
21
213.704269
0
LINE
8
boundary
62
5
39
2
10
152.743872
20
213.704269
11
152.418683
21
212.333732
0
LINE
8
boundary
62
5
39
2
10
152.418683
20
212.333732
11
163.988491
21
212.183732
0
LINE
8
boundary
62
5
39
2
10
163.988491
20
212.183732
11
163.988491
21
209.437732
0
LINE
8
boundary
62
5
39
2
10
163.988491
20
209.437732
11
151.727467
21
209.437732
0
LINE
8
boundary
62
5
39
2
10
151.727467
20
209.437732
11
151.431345
21
208.204769
0
LINE
8
boundary
62
5
39
2
10
151.431345
20
208.204769
11
151.294370
21
207.634816
0
LINE
8
boundary
62
5
39
2
10
151.294370
20
207.634816
11
150.990047
21
206.374151
0
LINE
8
boundary
62
5
39
2
10
150.990047
20
206.374151
11
150.654136
21
204.987799
0
LINE
8
boundary
62
5
39
2
10
150.654136
20
204.987799
11
150.192183
21
203.107072
0
LINE
8
boundary
62
5
39
2
10
150.192183
20
203.107072
11
149.817985
21
201.592680
0
LINE
8
boundary
62
5
39
2
10
149.817985
20
201.592680
11
149.643363
21
200.888697
0
LINE
8
boundary
62
5
39
2
10
149.643363
20
200.888697
11
149.441872
21
200.078187
0
LINE
8
boundary
62
5
39
2
10
149.441872
20
200.078187
11
149.188854
21
199.063423
0
LINE
8
boundary
62
5
39
2
10
149.188854
20
199.063423
11
149.063830
21
198.563583
0
LINE
8
boundary
62
5
39
2
10
149.063830
20
198.563583
11
148.731974
21
197.239956
0
LINE
8
boundary
62
5
39
2
10
148.731974
20
197.239956
11
148.445665
21
196.104395
0
LINE
8
boundary
62
5
39
2
10
148.445665
20
196.104395
11
148.299940
21
195.530962
0
LINE
8
boundary
62
5
39
2
10
148.299940
20
195.530962
11
147.910677
21
194.008294
0
LINE
8
boundary
62
5
39
2
10
147.910677
20
194.008294
11
147.769326
21
193.456978
0
LINE
8
boundary
62
5
39
2
10
147.769326
20
193.456978
11
159.234481
21
193.306978
0
LINE
8
boundary
62
5
39
2
10
159.234481
20
193.306978
11
159.234481
21
190.560978
0
LINE
8
boundary
62
5
39
2
10
159.234481
20
190.560978
11
147.021636
21
190.560978
0
LINE
8
boundary
62
5
39
2
10
147.021636
20
190.560978
11
146.867119
21
189.964582
0
LINE
8
boundary
62
5
39
2
10
146.867119
20
189.964582
11
146.730519
21
189.440859
0
LINE
8
boundary
62
5
39
2
10
146.730519
20
189.440859
11
146.394486
21
188.151033
0
LINE
8
boundary
62
5
39
2
10
146.394486
20
188.151033
11
146.011092
21
186.687092
0
LINE
8
boundary
62
5
39
2
10
146.011092
20
186.687092
11
145.528800
21
184.863052
0
LINE
8
boundary
62
5
39
2
10
145.528800
20
184.863052
11
145.122728
21
183.332308
0
LINE
8
boundary
62
5
39
2
10
145.122728
20
183.332308
11
144.961972
21
182.725086
0
LINE
8
boundary
62
5
39
2
10
144.961972
20
182.725086
11
144.715734
21
181.801146
0
LINE
8
boundary
62
5
39
2
10
144.715734
20
181.801146
11
144.482167
21
180.921190
0
LINE
8
boundary
62
5
39
2
10
144.482167
20
180.921190
11
144.307984
21
180.269370
0
LINE
8
boundary
62
5
39
2
10
144.307984
20
180.269370
11
144.002097
21
179.119348
0
LINE
8
boundary
62
5
39
2
10
144.002097
20
179.119348
11
143.522020
21
177.319378
0
LINE
8
boundary
62
5
39
2
10
143.522020
20
177.319378
11
143.310534
21
176.527128
0
LINE
8
boundary
62
5
39
2
10
143.310534
20
176.527128
11
143.079533
21
175.665733
0
LINE
8
boundary
62
5
39
2
10
143.079533
20
175.665733
11
142.788514
21
174.580225
0
LINE
8
boundary
62
5
39
2
10
142.788514
20
174.580225
11
154.598049
21
174.430224
0
LINE
8
boundary
62
5
39
2
10
154.598049
20
174.430224
11
154.598049
21
171.684224
0
LINE
8
boundary
62
5
39
2
10
154.598049
20
171.684224
11
142.011918
21
171.684225
0
LINE
8
boundary
62
5
39
2
10
142.011918
20
171.684225
11
141.602019
21
170.144566
0
LINE
8
boundary
62
5
39
2
10
141.602019
20
170.144566
11
141.296043
21
169.003213
0
LINE
8
boundary
62
5
39
2
10
141.296043
20
169.003213
11
140.648641
21
166.565920
0
LINE
8
boundary
62
5
39
2
10
140.648641
20
166.565920
11
140.326829
21
165.352534
0
LINE
8
boundary
62
5
39
2
10
140.326829
20
165.352534
11
139.843448
21
163.536194
0
LINE
8
boundary
62
5
39
2
10
139.843448
20
163.536194
11
139.700647
21
162.993872
0
LINE
8
boundary
62
5
39
2
10
139.700647
20
162.993872
11
139.113591
21
160.775797
0
LINE
8
boundary
62
5
39
2
10
139.113591
20
160.775797
11
138.760073
21
159.425174
0
LINE
8
boundary
62
5
39
2
10
138.760073
20
159.425174
11
138.387001
21
158.005656
0
LINE
8
boundary
62
5
39
2
10
138.387001
20
158.005656
11
137.828299
21
155.855479
0
LINE
8
boundary
62
5
39
2
10
137.828299
20
155.855479
11
150.223507
21
155.553470
0
LINE
8
boundary
62
5
39
2
10
150.223507
20
155.553470
11
150.223507
21
152.807471
0
LINE
8
boundary
62
5
39
2
10
150.223507
20
152.807471
11
137.041010
21
152.807470
0
LINE
8
boundary
62
5
39
2
10
137.041010
20
152.807470
11
136.905764
21
152.283197
0
LINE
8
boundary
62
5
39
2
10
136.905764
20
152.283197
11
136.255854
21
149.747056
0
LINE
8
boundary
62
5
39
2
10
136.255854
20
149.747056
11
135.992631
21
148.709024
0
LINE
8
boundary
62
5
39
2
10
135.992631
20
148.709024
11
135.567364
21
147.030555
0
LINE
8
boundary
62
5
39
2
10
135.567364
20
147.030555
11
135.089682
21
145.125925
0
LINE
8
boundary
62
5
39
2
10
135.089682
20
145.125925
11
134.883822
21
144.303131
0
LINE
8
boundary
62
5
39
2
10
134.883822
20
144.303131
11
134.231831
21
141.671967
0
LINE
8
boundary
62
5
39
2
10
134.231831
20
141.671967
11
133.525036
21
138.793581
0
LINE
8
boundary
62
5
39
2
10
133.525036
20
138.793581
11
133.313810
21
137.924780
0
LINE
8
boundary
62
5
39
2
10
133.313810
20
137.924780
11
133.048183
21
136.826716
0
LINE
8
boundary
62
5
39
2
10
133.048183
20
136.826716
11
146.179113
21
136.676717
0
LINE
8
boundary
62
5
39
2
10
146.179113
20
136.676717
11
146.179113
21
133.930717
0
LINE
8
boundary
62
5
39
2
10
146.179113
20
133.930717
11
132.352309
21
133.930717
0
LINE
8
boundary
62
5
39
2
10
132.352309
20
133.930717
11
132.224376
21
133.394415
0
LINE
8
boundary
62
5
39
2
10
132.224376
20
133.394415
11
131.748057
21
131.383894
0
LINE
8
boundary
62
5
39
2
10
131.748057
20
131.383894
11
131.333714
21
129.616201
0
LINE
8
boundary
62
5
39
2
10
131.333714
20
129.616201
11
131.089648
21
128.576309
0
LINE
8
boundary
62
5
39
2
10
131.089648
20
128.576309
11
130.478982
21
125.941756
0
LINE
8
boundary
62
5
39
2
10
130.478982
20
125.941756
11
129.872453
21
123.292600
0
LINE
8
boundary
62
5
39
2
10
129.872453
20
123.292600
11
129.700943
21
122.538769
0
LINE
8
boundary
62
5
39
2
10
129.700943
20
122.538769
11
129.269593
21
120.628178
0
LINE
8
boundary
62
5
39
2
10
129.269593
20
120.628178
11
129.026312
21
119.548123
0
LINE
8
boundary
62
5
39
2
10
129.026312
20
119.548123
11
128.670190
21
117.949961
0
LINE
8
boundary
62
5
39
2
10
128.670190
20
117.949961
11
142.420897
21
117.799963
0
LINE
8
boundary
62
5
39
2
10
142.420897
20
117.799963
11
142.420897
21
115.053963
0
LINE
8
boundary
62
5
39
2
10
142.420897
20
115.053963
11
128.028595
21
115.053963
0
LINE
8
boundary
62
5
39
2
10
128.028595
20
115.053963
11
127.685319
21
113.499995
0
LINE
8
boundary
62
5
39
2
10
127.685319
20
113.499995
11
127.479547
21
112.552719
0
LINE
8
boundary
62
5
39
2
10
127.479547
20
112.552719
11
127.018234
21
110.444538
0
LINE
8
boundary
62
5
39
2
10
127.018234
20
110.444538
11
126.888217
21
109.838487
0
LINE
8
boundary
62
5
39
2
10
126.888217
20
109.838487
11
126.353008
21
107.369666
0
LINE
8
boundary
62
5
39
2
10
126.353008
20
107.369666
11
125.887098
21
105.197155
0
LINE
8
boundary
62
5
39
2
10
125.887098
20
105.197155
11
125.712991
21
104.385911
0
LINE
8
boundary
62
5
39
2
10
125.712991
20
104.385911
11
124.694583
21
99.570830
0
LINE
8
boundary
62
5
39
2
10
124.694583
20
99.570830
11
124.587265
21
99.073209
0
LINE
8
boundary
62
5
39
2
10
124.587265
20
99.073209
11
138.852421
21
98.923209
0
LINE
8
boundary
62
5
39
2
10
138.852421
20
98.923209
11
138.852421
21
96.177209
0
LINE
8
boundary
62
5
39
2
10
138.852421
20
96.177209
11
123.978321
21
96.177209
0
LINE
8
boundary
62
5
39
2
10
123.978321
20
96.177209
11
123.671649
21
94.698046
0
LINE
8
boundary
62
5
39
2
10
123.671649
20
94.698046
11
123.047546
21
91.767052
0
LINE
8
boundary
62
5
39
2
10
123.047546
20
91.767052
11
122.659776
21
89.860122
0
LINE
8
boundary
62
5
39
2
10
122.659776
20
89.860122
11
121.731030
21
85.440992
0
LINE
8
boundary
62
5
39
2
10
121.731030
20
85.440992
11
121.418634
21
83.931141
0
LINE
8
boundary
62
5
39
2
10
121.418634
20
83.931141
11
121.258928
21
83.158644
0
LINE
8
boundary
62
5
39
2
10
121.258928
20
83.158644
11
120.824192
21
81.047108
0
LINE
8
boundary
62
5
39
2
10
120.824192
20
81.047108
11
120.647561
21
80.196455
0
LINE
8
boundary
62
5
39
2
10
120.647561
20
80.196455
11
135.392382
21
80.046456
0
LINE
8
boundary
62
5
39
2
10
135.392382
20
80.046456
11
135.392382
21
77.300455
0
LINE
8
boundary
62
5
39
2
10
135.392382
20
77.300455
11
120.052715
21
77.300455
0
LINE
8
boundary
62
5
39
2
10
120.052715
20
77.300455
11
119.767640
21
75.928661
0
LINE
8
boundary
62
5
39
2
10
119.767640
20
75.928661
11
119.527869
21
74.740615
0
LINE
8
boundary
62
5
39
2
10
119.527869
20
74.740615
11
119.279332
21
73.552606
0
LINE
8
boundary
62
5
39
2
10
119.279332
20
73.552606
11
119.098505
21
72.650739
0
LINE
8
boundary
62
5
39
2
10
119.098505
20
72.650739
11
118.792412
21
71.180057
0
LINE
8
boundary
62
5
39
2
10
118.792412
20
71.180057
11
118.670639
21
70.568587
0
LINE
8
boundary
62
5
39
2
10
118.670639
20
70.568587
11
118.307211
21
68.812792
0
LINE
8
boundary
62
5
39
2
10
118.307211
20
68.812792
11
117.824114
21
66.452666
0
LINE
8
boundary
62
5
39
2
10
117.824114
20
66.452666
11
117.406060
21
64.388239
0
LINE
8
boundary
62
5
39
2
10
117.406060
20
64.388239
11
116.995648
21
62.358327
0
LINE
8
boundary
62
5
39
2
10
116.995648
20
62.358327
11
116.875548
21
61.783084
0
LINE
8
boundary
62
5
39
2
10
116.875548
20
61.783084
11
116.793485
21
61.169702
0
LINE
8
boundary
62
5
39
2
10
116.793485
20
61.169702
11
131.949484
21
61.169702
0
LINE
8
boundary
62
5
39
2
10
131.949484
20
61.169702
11
131.949484
21
58.423702
0
LINE
8
boundary
62
5
39
2
10
131.949484
20
58.423702
11
116.200801
21
58.423701
0
LINE
8
boundary
62
5
39
2
10
116.200801
20
58.423701
11
115.944725
21
57.175360
0
LINE
8
boundary
62
5
39
2
10
115.944725
20
57.175360
11
115.785082
21
56.359734
0
LINE
8
boundary
62
5
39
2
10
115.785082
20
56.359734
11
115.487776
21
54.901311
0
LINE
8
boundary
62
5
39
2
10
115.487776
20
54.901311
11
115.389816
21
54.395608
0
LINE
8
boundary
62
5
39
2
10
115.389816
20
54.395608
11
115.037697
21
52.651216
0
LINE
8
boundary
62
5
39
2
10
115.037697
20
52.651216
11
114.746533
21
51.184705
0
LINE
8
boundary
62
5
39
2
10
114.746533
20
51.184705
11
114.619091
21
50.535109
0
LINE
8
boundary
62
5
39
2
10
114.619091
20
50.535109
11
114.436587
21
49.614311
0
LINE
8
boundary
62
5
39
2
10
114.436587
20
49.614311
11
114.171304
21
48.253724
0
LINE
8
boundary
62
5
39
2
10
114.171304
20
48.253724
11
113.757128
21
46.112409
0
LINE
8
boundary
62
5
39
2
10
113.757128
20
46.112409
11
113.649045
21
45.536393
0
LINE
8
boundary
62
5
39
2
10
113.649045
20
45.536393
11
113.353415
21
44.006000
0
LINE
8
boundary
62
5
39
2
10
113.353415
20
44.006000
11
113.165352
21
43.007627
0
LINE
8
boundary
62
5
39
2
10
113.165352
20
43.007627
11
113.060369
21
42.442948
0
LINE
8
boundary
62
5
39
2
10
113.060369
20
42.442948
11
128.193258
21
42.292948
0
LINE
8
boundary
62
5
39
2
10
128.193258
20
42.292948
11
128.193258
21
39.546948
0
LINE
8
boundary
62
5
39
2
10
128.193258
20
39.546948
11
112.530747
21
39.546948
0
LINE
8
boundary
62
5
39
2
10
112.530747
20
39.546948
11
112.410649
21
38.866430
0
LINE
8
boundary
62
5
39
2
10
112.410649
20
38.866430
11
112.248601
21
37.973354
0
LINE
8
boundary
62
5
39
2
10
112.248601
20
37.973354
11
112.129150
21
37.274089
0
LINE
8
boundary
62
5
39
2
10
112.129150
20
37.274089
11
111.915250
21
36.056448
0
LINE
8
boundary
62
5
39
2
10
111.915250
20
36.056448
11
111.600936
21
34.188911
0
LINE
8
boundary
62
5
39
2
10
111.600936
20
34.188911
11
111.365452
21
32.693693
0
LINE
8
boundary
62
5
39
2
10
111.365452
20
32.693693
11
111.103034
21
30.944373
0
LINE
8
boundary
62
5
39
2
10
111.103034
20
30.944373
11
110.969652
21
30.066034
0
LINE
8
boundary
62
5
39
2
10
110.969652
20
30.066034
11
110.848530
21
29.167126
0
LINE
8
boundary
62
5
39
2
10
110.848530
20
29.167126
11
110.664751
21
27.842642
0
LINE
8
boundary
62
5
39
2
10
110.664751
20
27.842642
11
110.437479
21
25.991568
0
LINE
8
boundary
62
5
39
2
10
110.437479
20
25.991568
11
110.251233
21
24.180339
0
LINE
8
boundary
62
5
39
2
10
110.251233
20
24.180339
11
110.191474
21
23.566193
0
LINE
8
boundary
62
5
39
2
10
110.191474
20
23.566193
11
122.937087
21
23.416194
0
LINE
8
boundary
62
5
39
2
10
122.937087
20
23.416194
11
122.937087
21
20.670194
0
LINE
8
boundary
62
5
39
2
10
122.937087
20
20.670194
11
109.987456
21
20.670194
0
LINE
8
boundary
62
5
39
2
10
109.987456
20
20.670194
11
109.948861
21
20.027981
0
LINE
8
boundary
62
5
39
2
10
109.948861
20
20.027981
11
109.906893
21
18.553012
0
LINE
8
boundary
62
5
39
2
10
109.906893
20
18.553012
11
109.917524
21
17.102166
0
LINE
8
boundary
62
5
39
2
10
109.917524
20
17.102166
11
109.968259
21
15.883939
0
LINE
8
boundary
62
5
39
2
10
109.968259
20
15.883939
11
109.997320
21
15.330005
0
LINE
8
boundary
62
5
39
2
10
109.997320
20
15.330005
11
110.057400
21
14.731243
0
LINE
8
boundary
62
5
39
2
10
110.057400
20
14.731243
11
110.133016
21
13.987045
0
LINE
8
boundary
62
5
39
2
10
110.133016
20
13.987045
11
110.330299
21
12.755369
0
LINE
8
boundary
62
5
39
2
10
110.330299
20
12.755369
11
110.518970
21
11.945047
0
LINE
8
boundary
62
5
39
2
10
110.518970
20
11.945047
11
110.864560
21
10.820165
0
LINE
8
boundary
62
5
39
2
10
110.864560
20
10.820165
11
111.197310
21
10.029733
0
LINE
8
boundary
62
5
39
2
10
111.197310
20
10.029733
11
111.583254
21
9.314836
0
LINE
8
boundary
62
5
39
2
10
111.583254
20
9.314836
11
112.025656
21
8.677899
0
LINE
8
boundary
62
5
39
2
10
112.025656
20
8.677899
11
112.528097
21
8.121638
0
LINE
8
boundary
62
5
39
2
10
112.528097
20
8.121638
11
112.939782
21
7.750795
0
LINE
8
boundary
62
5
39
2
10
112.939782
20
7.750795
11
113.622676
21
7.310897
0
LINE
8
boundary
62
5
39
2
10
113.622676
20
7.310897
11
114.379593
21
6.984157
0
LINE
8
boundary
62
5
39
2
10
114.379593
20
6.984157
11
115.206118
21
6.769756
0
LINE
8
boundary
62
5
39
2
10
115.206118
20
6.769756
11
116.062739
21
6.671300
0
LINE
8
boundary
62
5
39
2
10
116.062739
20
6.671300
11
116.980332
21
6.674368
0
LINE
8
boundary
62
5
39
2
10
116.980332
20
6.674368
11
117.961885
21
6.781597
0
LINE
8
boundary
62
5
39
2
10
117.961885
20
6.781597
11
119.005034
21
6.997274
0
LINE
8
boundary
62
5
39
2
10
119.005034
20
6.997274
11
120.106921
21
7.325924
0
LINE
8
boundary
62
5
39
2
10
120.106921
20
7.325924
11
120.184594
21
7.349916
0
LINE
8
annotation
62
1
39
211
10
127.997588
20
20.707436
11
127.997588
21
20.707436
0
LINE
8
annotation
62
1
39
211
10
127.997588
20
20.707436
11
128.014797
21
20.515783
0
LINE
8
annotation
62
1
39
211
10
128.014797
20
20.515783
11
128.064399
21
20.335535
0
LINE
8
annotation
62
1
39
211
10
128.064399
20
20.335535
11
128.143357
21
20.169665
0
LINE
8
annotation
62
1
39
211
10
128.143357
20
20.169665
11
128.248634
21
20.021151
0
LINE
8
annotation
62
1
39
211
10
128.248634
20
20.021151
11
128.377192
21
19.892967
0
LINE
8
annotation
62
1
39
211
10
128.377192
20
19.892967
11
128.525993
21
19.788089
0
LINE
8
annotation
62
1
39
211
10
128.525993
20
19.788089
11
128.692001
21
19.709492
0
LINE
8
annotation
62
1
39
211
10
128.692001
20
19.709492
11
128.872177
21
19.660151
0
LINE
8
annotation
62
1
39
211
10
128.872177
20
19.660151
11
129.063485
21
19.643044
0
LINE
8
annotation
62
1
39
211
10
129.063485
20
19.643044
11
129.063485
21
19.643044
0
LINE
8
annotation
62
1
39
211
10
129.063485
20
19.643044
11
129.254793
21
19.660151
0
LINE
8
annotation
62
1
39
211
10
129.254793
20
19.660151
11
129.434969
21
19.709492
0
LINE
8
annotation
62
1
39
211
10
129.434969
20
19.709492
11
129.600977
21
19.788089
0
LINE
8
annotation
62
1
39
211
10
129.600977
20
19.788089
11
129.749778
21
19.892967
0
LINE
8
annotation
62
1
39
211
10
129.749778
20
19.892967
11
129.878336
21
20.021151
0
LINE
8
annotation
62
1
39
211
10
129.878336
20
20.021151
11
129.983613
21
20.169665
0
LINE
8
annotation
62
1
39
211
10
129.983613
20
20.169665
11
130.062571
21
20.335535
0
LINE
8
annotation
62
1
39
211
10
130.062571
20
20.335535
11
130.112173
21
20.515783
0
LINE
8
annotation
62
1
39
211
10
130.112173
20
20.515783
11
130.129382
21
20.707436
0
LINE
8
annotation
62
1
39
211
10
130.129382
20
20.707436
11
130.129382
21
21.238428
0
LINE
8
annotation
62
1
39
211
10
130.129382
20
21.238428
11
130.129382
21
21.238428
0
LINE
8
annotation
62
1
39
211
10
130.129382
20
21.238428
11
130.112183
21
21.430173
0
LINE
8
annotation
62
1
39
211
10
130.112183
20
21.430173
11
130.062606
21
21.610671
0
LINE
8
annotation
62
1
39
211
10
130.062606
20
21.610671
11
129.983679
21
21.776901
0
LINE
8
annotation
62
1
39
211
10
129.983679
20
21.776901
11
129.878435
21
21.925843
0
LINE
8
annotation
62
1
39
211
10
129.878435
20
21.925843
11
129.749902
21
22.054476
0
LINE
8
annotation
62
1
39
211
10
129.749902
20
22.054476
11
129.601111
21
22.159782
0
LINE
8
annotation
62
1
39
211
10
129.601111
20
22.159782
11
129.435091
21
22.238739
0
LINE
8
annotation
62
1
39
211
10
129.435091
20
22.238739
11
129.254872
21
22.288329
0
LINE
8
annotation
62
1
39
211
10
129.254872
20
22.288329
11
129.063485
21
22.305529
0
LINE
8
annotation
62
1
39
211
10
129.063485
20
22.305529
11
129.063485
21
22.305529
0
LINE
8
annotation
62
1
39
211
10
129.063485
20
22.305529
11
128.872098
21
22.288319
0
LINE
8
annotation
62
1
39
211
10
128.872098
20
22.288319
11
128.691879
21
22.238705
0
LINE
8
annotation
62
1
39
211
10
128.691879
20
22.238705
11
128.525859
21
22.159715
0
LINE
8
annotation
62
1
39
211
10
128.525859
20
22.159715
11
128.377068
21
22.054377
0
LINE
8
annotation
62
1
39
211
10
128.377068
20
22.054377
11
128.248535
21
21.925719
0
LINE
8
annotation
62
1
39
211
10
128.248535
20
21.925719
11
128.143290
21
21.776767
0
LINE
8
annotation
62
1
39
211
10
128.143290
20
21.776767
11
128.064364
21
21.610550
0
LINE
8
annotation
62
1
39
211
10
128.064364
20
21.610550
11
128.014787
21
21.430094
0
LINE
8
annotation
62
1
39
211
10
128.014787
20
21.430094
11
127.997588
21
21.238428
0
LINE
8
annotation
62
1
39
211
10
127.997588
20
21.238428
11
127.997588
21
20.707436
0
LINE
8
annotation
62
1
39
211
10
130.129382
20
23.372932
11
130.129382
21
23.372932
0
LINE
8
annotation
62
1
39
211
10
130.129382
20
23.372932
11
130.112183
21
23.563792
0
LINE
8
annotation
62
1
39
211
10
130.112183
20
23.563792
11
130.062606
21
23.743619
0
LINE
8
annotation
62
1
39
211
10
130.062606
20
23.743619
11
129.983679
21
23.909365
0
LINE
8
annotation
62
1
39
211
10
129.983679
20
23.909365
11
129.878435
21
24.057978
0
LINE
8
annotation
62
1
39
211
10
129.878435
20
24.057978
11
129.749902
21
24.186410
0
LINE
8
annotation
62
1
39
211
10
129.749902
20
24.186410
11
129.601111
21
24.291610
0
LINE
8
annotation
62
1
39
211
10
129.601111
20
24.291610
11
129.435091
21
24.370529
0
LINE
8
annotation
62
1
39
211
10
129.435091
20
24.370529
11
129.254872
21
24.420117
0
LINE
8
annotation
62
1
39
211
10
129.254872
20
24.420117
11
129.063485
21
24.437324
0
LINE
8
annotation
62
1
39
211
10
129.063485
20
24.437324
11
129.063485
21
24.437324
0
LINE
8
annotation
62
1
39
211
10
129.063485
20
24.437324
11
128.872098
21
24.420117
0
LINE
8
annotation
62
1
39
211
10
128.872098
20
24.420117
11
128.691879
21
24.370529
0
LINE
8
annotation
62
1
39
211
10
128.691879
20
24.370529
11
128.525859
21
24.291610
0
LINE
8
annotation
62
1
39
211
10
128.525859
20
24.291610
11
128.377068
21
24.186410
0
LINE
8
annotation
62
1
39
211
10
128.377068
20
24.186410
11
128.248535
21
24.057978
0
LINE
8
annotation
62
1
39
211
10
128.248535
20
24.057978
11
128.143290
21
23.909365
0
LINE
8
annotation
62
1
39
211
10
128.143290
20
23.909365
11
128.064364
21
23.743619
0
LINE
8
annotation
62
1
39
211
10
128.064364
20
23.743619
11
128.014787
21
23.563792
0
LINE
8
annotation
62
1
39
211
10
128.014787
20
23.563792
11
127.997588
21
23.372932
0
LINE
8
annotation
62
1
39
211
10
127.997588
20
23.372932
11
127.997588
21
23.372932
0
LINE
8
annotation
62
1
39
211
10
127.997588
20
23.372932
11
128.014797
21
23.181176
0
LINE
8
annotation
62
1
39
211
10
128.014797
20
23.181176
11
128.064399
21
23.000651
0
LINE
8
annotation
62
1
39
211
10
128.064399
20
23.000651
11
128.143357
21
22.834381
0
LINE
8
annotation
62
1
39
211
10
128.143357
20
22.834381
11
128.248634
21
22.685392
0
LINE
8
annotation
62
1
39
211
10
128.248634
20
22.685392
11
128.377192
21
22.556708
0
LINE
8
annotation
62
1
39
211
10
128.377192
20
22.556708
11
128.525993
21
22.451355
0
LINE
8
annotation
62
1
39
211
10
128.525993
20
22.451355
11
128.692001
21
22.372357
0
LINE
8
annotation
62
1
39
211
10
128.692001
20
22.372357
11
128.872177
21
22.322741
0
LINE
8
annotation
62
1
39
211
10
128.872177
20
22.322741
11
129.063485
21
22.305529
0
LINE
8
annotation
62
1
39
211
10
129.063485
20
22.305529
11
129.063485
21
22.305529
0
LINE
8
annotation
62
1
39
211
10
129.063485
20
22.305529
11
129.254793
21
22.322741
0
LINE
8
annotation
62
1
39
211
10
129.254793
20
22.322741
11
129.434969
21
22.372357
0
LINE
8
annotation
62
1
39
211
10
129.434969
20
22.372357
11
129.600977
21
22.451355
0
LINE
8
annotation
62
1
39
211
10
129.600977
20
22.451355
11
129.749778
21
22.556708
0
LINE
8
annotation
62
1
39
211
10
129.749778
20
22.556708
11
129.878336
21
22.685392
0
LINE
8
annotation
62
1
39
211
10
129.878336
20
22.685392
11
129.983613
21
22.834381
0
LINE
8
annotation
62
1
39
211
10
129.983613
20
22.834381
11
130.062571
21
23.000651
0
LINE
8
annotation
62
1
39
211
10
130.062571
20
23.000651
11
130.112173
21
23.181176
0
LINE
8
annotation
62
1
39
211
10
130.112173
20
23.181176
11
130.129382
21
23.372932
0
LINE
8
annotation
62
1
39
211
10
133.785955
20
38.519948
11
133.785955
21
38.519948
0
LINE
8
annotation
62
1
39
211
10
133.785955
20
38.519948
11
134.090770
21
38.633537
0
LINE
8
annotation
62
1
39
211
10
134.090770
20
38.633537
11
134.370552
21
38.787073
0
LINE
8
annotation
62
1
39
211
10
134.370552
20
38.787073
11
134.622411
21
38.976645
0
LINE
8
annotation
62
1
39
211
10
134.622411
20
38.976645
11
134.843455
21
39.198339
0
LINE
8
annotation
62
1
39
211
10
134.843455
20
39.198339
11
135.030792
21
39.448245
0
LINE
8
annotation
62
1
39
211
10
135.030792
20
39.448245
11
135.181531
21
39.722451
0
LINE
8
annotation
62
1
39
211
10
135.181531
20
39.722451
11
135.292782
21
40.017043
0
LINE
8
annotation
62
1
39
211
10
135.292782
20
40.017043
11
135.361653
21
40.328111
0
LINE
8
annotation
62
1
39
211
10
135.361653
20
40.328111
11
135.385252
21
40.651743
0
LINE
8
annotation
62
1
39
211
10
135.385252
20
40.651743
11
135.385252
21
42.252545
0
LINE
8
annotation
62
1
39
211
10
135.385252
20
42.252545
11
135.385252
21
42.252545
0
LINE
8
annotation
62
1
39
211
10
135.385252
20
42.252545
11
135.368093
21
42.444301
0
LINE
8
annotation
62
1
39
211
10
135.368093
20
42.444301
11
135.318614
21
42.624826
0
LINE
8
annotation
62
1
39
211
10
135.318614
20
42.624826
11
135.239817
21
42.791096
0
LINE
8
annotation
62
1
39
211
10
135.239817
20
42.791096
11
135.134701
21
42.940086
0
LINE
8
annotation
62
1
39
211
10
135.134701
20
42.940086
11
135.006268
21
43.068769
0
LINE
8
annotation
62
1
39
211
10
135.006268
20
43.068769
11
134.857516
21
43.174122
0
LINE
8
annotation
62
1
39
211
10
134.857516
20
43.174122
11
134.691446
21
43.253120
0
LINE
8
annotation
62
1
39
211
10
134.691446
20
43.253120
11
134.511059
21
43.302737
0
LINE
8
annotation
62
1
39
211
10
134.511059
20
43.302737
11
134.319355
21
43.319948
0
LINE
8
annotation
62
1
39
211
10
134.319355
20
43.319948
11
134.319355
21
43.319948
0
LINE
8
annotation
62
1
39
211
10
134.319355
20
43.319948
11
134.128047
21
43.302737
0
LINE
8
annotation
62
1
39
211
10
134.128047
20
43.302737
11
133.947871
21
43.253120
0
LINE
8
annotation
62
1
39
211
10
133.947871
20
43.253120
11
133.781863
21
43.174122
0
LINE
8
annotation
62
1
39
211
10
133.781863
20
43.174122
11
133.633062
21
43.068769
0
LINE
8
annotation
62
1
39
211
10
133.633062
20
43.068769
11
133.504504
21
42.940086
0
LINE
8
annotation
62
1
39
211
10
133.504504
20
42.940086
11
133.399227
21
42.791096
0
LINE
8
annotation
62
1
39
211
10
133.399227
20
42.791096
11
133.320269
21
42.624826
0
LINE
8
annotation
62
1
39
211
10
133.320269
20
42.624826
11
133.270667
21
42.444301
0
LINE
8
annotation
62
1
39
211
10
133.270667
20
42.444301
11
133.253458
21
42.252545
0
LINE
8
annotation
62
1
39
211
10
133.253458
20
42.252545
11
133.253458
21
41.718844
0
LINE
8
annotation
62
1
39
211
10
133.253458
20
41.718844
11
133.253458
21
41.718844
0
LINE
8
annotation
62
1
39
211
10
133.253458
20
41.718844
11
133.270667
21
41.527099
0
LINE
8
annotation
62
1
39
211
10
133.270667
20
41.527099
11
133.320269
21
41.346601
0
LINE
8
annotation
62
1
39
211
10
133.320269
20
41.346601
11
133.399227
21
41.180371
0
LINE
8
annotation
62
1
39
211
10
133.399227
20
41.180371
11
133.504504
21
41.031429
0
LINE
8
annotation
62
1
39
211
10
133.504504
20
41.031429
11
133.633062
21
40.902796
0
LINE
8
annotation
62
1
39
211
10
133.633062
20
40.902796
11
133.781863
21
40.797490
0
LINE
8
annotation
62
1
39
211
10
133.781863
20
40.797490
11
133.947871
21
40.718533
0
LINE
8
annotation
62
1
39
211
10
133.947871
20
40.718533
11
134.128047
21
40.668943
0
LINE
8
annotation
62
1
39
211
10
134.128047
20
40.668943
11
134.319355
21
40.651743
0
LINE
8
annotation
62
1
39
211
10
134.319355
20
40.651743
11
135.385252
21
40.651743
0
LINE
8
annotation
62
1
39
211
10
133.120258
20
37.919948
11
135.520258
21
37.919948
0
LINE
8
annotation
62
1
39
211
10
136.702628
20
57.487842
11
136.702628
21
62.105561
0
LINE
8
annotation
62
1
39
211
10
136.702628
20
62.105561
11
135.676050
21
61.078694
0
LINE
8
annotation
62
1
39
211
10
139.175857
20
57.548751
11
139.175857
21
57.548751
0
LINE
8
annotation
62
1
39
211
10
139.175857
20
57.548751
11
139.283178
21
57.508631
0
LINE
8
annotation
62
1
39
211
10
139.283178
20
57.508631
11
139.393245
21
57.488699
0
LINE
8
annotation
62
1
39
211
10
139.393245
20
57.488699
11
139.503570
21
57.488142
0
LINE
8
annotation
62
1
39
211
10
139.503570
20
57.488142
11
139.611664
21
57.506147
0
LINE
8
annotation
62
1
39
211
10
139.611664
20
57.506147
11
139.715038
21
57.541901
0
LINE
8
annotation
62
1
39
211
10
139.715038
20
57.541901
11
139.811206
21
57.594591
0
LINE
8
annotation
62
1
39
211
10
139.811206
20
57.594591
11
139.897677
21
57.663406
0
LINE
8
annotation
62
1
39
211
10
139.897677
20
57.663406
11
139.971965
21
57.747531
0
LINE
8
annotation
62
1
39
211
10
139.971965
20
57.747531
11
140.031580
21
57.846155
0
LINE
8
annotation
62
1
39
211
10
140.031580
20
57.846155
11
140.031580
21
57.846155
0
LINE
8
annotation
62
1
39
211
10
140.031580
20
57.846155
11
140.209449
21
58.262502
0
LINE
8
annotation
62
1
39
211
10
140.209449
20
58.262502
11
140.342851
21
58.690899
0
LINE
8
annotation
62
1
39
211
10
140.342851
20
58.690899
11
140.431786
21
59.127932
0
LINE
8
annotation
62
1
39
211
10
140.431786
20
59.127932
11
140.476253
21
59.570185
0
LINE
8
annotation
62
1
39
211
10
140.476253
20
59.570185
11
140.476253
21
60.014241
0
LINE
8
annotation
62
1
39
211
10
140.476253
20
60.014241
11
140.431786
21
60.456687
0
LINE
8
annotation
62
1
39
211
10
140.431786
20
60.456687
11
140.342851
21
60.894106
0
LINE
8
annotation
62
1
39
211
10
140.342851
20
60.894106
11
140.209449
21
61.323083
0
LINE
8
annotation
62
1
39
211
10
140.209449
20
61.323083
11
140.031580
21
61.740202
0
LINE
8
annotation
62
1
39
211
10
140.031580
20
61.740202
11
140.031580
21
61.740202
0
LINE
8
annotation
62
1
39
211
10
140.031580
20
61.740202
11
140.008960
21
61.782298
0
LINE
8
annotation
62
1
39
211
10
140.008960
20
61.782298
11
139.983316
21
61.822545
0
LINE
8
annotation
62
1
39
211
10
139.983316
20
61.822545
11
139.954840
21
61.860744
0
LINE
8
annotation
62
1
39
211
10
139.954840
20
61.860744
11
139.923725
21
61.896699
0
LINE
8
annotation
62
1
39
211
10
139.923725
20
61.896699
11
139.890166
21
61.930210
0
LINE
8
annotation
62
1
39
211
10
139.890166
20
61.930210
11
139.854354
21
61.961080
0
LINE
8
annotation
62
1
39
211
10
139.854354
20
61.961080
11
139.816483
21
61.989112
0
LINE
8
annotation
62
1
39
211
10
139.816483
20
61.989112
11
139.776745
21
62.014107
0
LINE
8
annotation
62
1
39
211
10
139.776745
20
62.014107
11
139.735334
21
62.035868
0
LINE
8
annotation
62
1
39
211
10
139.735334
20
62.035868
11
139.735334
21
62.035868
0
LINE
8
annotation
62
1
39
211
10
139.735334
20
62.035868
11
139.627161
21
62.076857
0
LINE
8
annotation
62
1
39
211
10
139.627161
20
62.076857
11
139.516449
21
62.097471
0
LINE
8
annotation
62
1
39
211
10
139.516449
20
62.097471
11
139.405658
21
62.098526
0
LINE
8
annotation
62
1
39
211
10
139.405658
20
62.098526
11
139.297249
21
62.080840
0
LINE
8
annotation
62
1
39
211
10
139.297249
20
62.080840
11
139.193680
21
62.045231
0
LINE
8
annotation
62
1
39
211
10
139.193680
20
62.045231
11
139.097411
21
61.992516
0
LINE
8
annotation
62
1
39
211
10
139.097411
20
61.992516
11
139.010903
21
61.923513
0
LINE
8
annotation
62
1
39
211
10
139.010903
20
61.923513
11
138.936614
21
61.839039
0
LINE
8
annotation
62
1
39
211
10
138.936614
20
61.839039
11
138.877005
21
61.739912
0
LINE
8
annotation
62
1
39
211
10
138.877005
20
61.739912
11
138.877005
21
61.739912
0
LINE
8
annotation
62
1
39
211
10
138.877005
20
61.739912
11
138.699994
21
61.323651
0
LINE
8
annotation
62
1
39
211
10
138.699994
20
61.323651
11
138.567235
21
60.895318
0
LINE
8
annotation
62
1
39
211
10
138.567235
20
60.895318
11
138.478729
21
60.458328
0
LINE
8
annotation
62
1
39
211
10
138.478729
20
60.458328
11
138.434476
21
60.016097
0
LINE
8
annotation
62
1
39
211
10
138.434476
20
60.016097
11
138.434476
21
59.572040
0
LINE
8
annotation
62
1
39
211
10
138.434476
20
59.572040
11
138.478729
21
59.129573
0
LINE
8
annotation
62
1
39
211
10
138.478729
20
59.129573
11
138.567235
21
58.692111
0
LINE
8
annotation
62
1
39
211
10
138.567235
20
58.692111
11
138.699994
21
58.263070
0
LINE
8
annotation
62
1
39
211
10
138.699994
20
58.263070
11
138.877005
21
57.845865
0
LINE
8
annotation
62
1
39
211
10
138.877005
20
57.845865
11
138.877005
21
57.845865
0
LINE
8
annotation
62
1
39
211
10
138.877005
20
57.845865
11
138.899543
21
57.803853
0
LINE
8
annotation
62
1
39
211
10
138.899543
20
57.803853
11
138.924997
21
57.763807
0
LINE
8
annotation
62
1
39
211
10
138.924997
20
57.763807
11
138.953262
21
57.725848
0
LINE
8
annotation
62
1
39
211
10
138.953262
20
57.725848
11
138.984230
21
57.690099
0
LINE
8
annotation
62
1
39
211
10
138.984230
20
57.690099
11
139.017793
21
57.656682
0
LINE
8
annotation
62
1
39
211
10
139.017793
20
57.656682
11
139.053845
21
57.625716
0
LINE
8
annotation
62
1
39
211
10
139.053845
20
57.625716
11
139.092277
21
57.597325
0
LINE
8
annotation
62
1
39
211
10
139.092277
20
57.597325
11
139.132984
21
57.571629
0
LINE
8
annotation
62
1
39
211
10
139.132984
20
57.571629
11
139.175857
21
57.548751
0
LINE
8
annotation
62
1
39
211
10
140.618931
20
76.273455
11
140.618931
21
81.073455
0
LINE
8
annotation
62
1
39
211
10
140.618931
20
81.073455
11
139.551829
21
80.006053
0
LINE
8
annotation
62
1
39
211
10
143.486032
20
76.273455
11
143.486032
21
81.073455
0
LINE
8
annotation
62
1
39
211
10
143.486032
20
81.073455
11
142.418931
21
80.006053
0
LINE
8
annotation
62
1
39
211
10
143.603483
20
95.246035
11
143.603483
21
99.854384
0
LINE
8
annotation
62
1
39
211
10
143.603483
20
99.854384
11
142.578988
21
98.829600
0
LINE
8
annotation
62
1
39
211
10
147.378495
20
95.245997
11
145.331817
21
95.245997
0
LINE
8
annotation
62
1
39
211
10
145.331817
20
95.245997
11
147.223015
21
98.290583
0
LINE
8
annotation
62
1
39
211
10
147.223015
20
98.290583
11
147.223015
21
98.290583
0
LINE
8
annotation
62
1
39
211
10
147.223015
20
98.290583
11
147.225276
21
98.293380
0
LINE
8
annotation
62
1
39
211
10
147.225276
20
98.293380
11
147.227444
21
98.296202
0
LINE
8
annotation
62
1
39
211
10
147.227444
20
98.296202
11
147.229533
21
98.299071
0
LINE
8
annotation
62
1
39
211
10
147.229533
20
98.299071
11
147.231559
21
98.302011
0
LINE
8
annotation
62
1
39
211
10
147.231559
20
98.302011
11
147.233534
21
98.305046
0
LINE
8
annotation
62
1
39
211
10
147.233534
20
98.305046
11
147.235474
21
98.308201
0
LINE
8
annotation
62
1
39
211
10
147.235474
20
98.308201
11
147.237392
21
98.311498
0
LINE
8
annotation
62
1
39
211
10
147.237392
20
98.311498
11
147.239303
21
98.314961
0
LINE
8
annotation
62
1
39
211
10
147.239303
20
98.314961
11
147.241222
21
98.318615
0
LINE
8
annotation
62
1
39
211
10
147.241222
20
98.318615
11
147.241222
21
98.318615
0
LINE
8
annotation
62
1
39
211
10
147.241222
20
98.318615
11
147.319309
21
98.486275
0
LINE
8
annotation
62
1
39
211
10
147.319309
20
98.486275
11
147.364926
21
98.660069
0
LINE
8
annotation
62
1
39
211
10
147.364926
20
98.660069
11
147.379191
21
98.836070
0
LINE
8
annotation
62
1
39
211
10
147.379191
20
98.836070
11
147.363222
21
99.010352
0
LINE
8
annotation
62
1
39
211
10
147.363222
20
99.010352
11
147.318137
21
99.178987
0
LINE
8
annotation
62
1
39
211
10
147.318137
20
99.178987
11
147.245054
21
99.338048
0
LINE
8
annotation
62
1
39
211
10
147.245054
20
99.338048
11
147.145090
21
99.483608
0
LINE
8
annotation
62
1
39
211
10
147.145090
20
99.483608
11
147.019364
21
99.611740
0
LINE
8
annotation
62
1
39
211
10
147.019364
20
99.611740
11
146.868993
21
99.718518
0
LINE
8
annotation
62
1
39
211
10
146.868993
20
99.718518
11
146.868993
21
99.718518
0
LINE
8
annotation
62
1
39
211
10
146.868993
20
99.718518
11
146.700867
21
99.795495
0
LINE
8
annotation
62
1
39
211
10
146.700867
20
99.795495
11
146.526807
21
99.840410
0
LINE
8
annotation
62
1
39
211
10
146.526807
20
99.840410
11
146.350704
21
99.854271
0
LINE
8
annotation
62
1
39
211
10
146.350704
20
99.854271
11
146.176448
21
99.838092
0
LINE
8
annotation
62
1
39
211
10
146.176448
20
99.838092
11
146.007932
21
99.792882
0
LINE
8
annotation
62
1
39
211
10
146.007932
20
99.792882
11
145.849047
21
99.719652
0
LINE
8
annotation
62
1
39
211
10
145.849047
20
99.719652
11
145.703684
21
99.619414
0
LINE
8
annotation
62
1
39
211
10
145.703684
20
99.619414
11
145.575735
21
99.493178
0
LINE
8
annotation
62
1
39
211
10
145.575735
20
99.493178
11
145.469091
21
99.341954
0
LINE
8
annotation
62
1
39
211
10
145.469091
20
99.341954
11
145.334707
21
99.084169
0
LINE
8
annotation
62
1
39
211
10
147.172107
20
114.122454
11
147.172107
21
118.731472
0
LINE
8
annotation
62
1
39
211
10
147.172107
20
118.731472
11
146.147463
21
117.706539
0
LINE
8
annotation
62
1
39
211
10
148.900344
20
114.122599
11
149.923831
21
114.122599
0
LINE
8
annotation
62
1
39
211
10
149.923831
20
114.122599
11
149.923831
21
114.122599
0
LINE
8
annotation
62
1
39
211
10
149.923831
20
114.122599
11
150.107908
21
114.139112
0
LINE
8
annotation
62
1
39
211
10
150.107908
20
114.139112
11
150.281118
21
114.186703
0
LINE
8
annotation
62
1
39
211
10
150.281118
20
114.186703
11
150.440580
21
114.262451
0
LINE
8
annotation
62
1
39
211
10
150.440580
20
114.262451
11
150.583413
21
114.363435
0
LINE
8
annotation
62
1
39
211
10
150.583413
20
114.363435
11
150.706737
21
114.486733
0
LINE
8
annotation
62
1
39
211
10
150.706737
20
114.486733
11
150.807670
21
114.629423
0
LINE
8
annotation
62
1
39
211
10
150.807670
20
114.629423
11
150.883332
21
114.788586
0
LINE
8
annotation
62
1
39
211
10
150.883332
20
114.788586
11
150.930842
21
114.961299
0
LINE
8
annotation
62
1
39
211
10
150.930842
20
114.961299
11
150.947319
21
115.144641
0
LINE
8
annotation
62
1
39
211
10
150.947319
20
115.144641
11
150.947319
21
115.657107
0
LINE
8
annotation
62
1
39
211
10
150.947319
20
115.657107
11
150.947319
21
115.657107
0
LINE
8
annotation
62
1
39
211
10
150.947319
20
115.657107
11
150.930842
21
115.840373
0
LINE
8
annotation
62
1
39
211
10
150.930842
20
115.840373
11
150.883332
21
116.013046
0
LINE
8
annotation
62
1
39
211
10
150.883332
20
116.013046
11
150.807670
21
116.172196
0
LINE
8
annotation
62
1
39
211
10
150.807670
20
116.172196
11
150.706737
21
116.314897
0
LINE
8
annotation
62
1
39
211
10
150.706737
20
116.314897
11
150.583413
21
116.438219
0
LINE
8
annotation
62
1
39
211
10
150.583413
20
116.438219
11
150.440580
21
116.539233
0
LINE
8
annotation
62
1
39
211
10
150.440580
20
116.539233
11
150.281118
21
116.615012
0
LINE
8
annotation
62
1
39
211
10
150.281118
20
116.615012
11
150.107908
21
116.662627
0
LINE
8
annotation
62
1
39
211
10
150.107908
20
116.662627
11
149.923831
21
116.679150
0
LINE
8
annotation
62
1
39
211
10
149.923831
20
116.679150
11
149.411365
21
116.679150
0
LINE
8
annotation
62
1
39
211
10
149.411365
20
116.679150
11
149.923831
21
116.679150
0
LINE
8
annotation
62
1
39
211
10
149.923831
20
116.679150
11
149.923831
21
116.679150
0
LINE
8
annotation
62
1
39
211
10
149.923831
20
116.679150
11
150.107908
21
116.695676
0
LINE
8
annotation
62
1
39
211
10
150.107908
20
116.695676
11
150.281118
21
116.743319
0
LINE
8
annotation
62
1
39
211
10
150.281118
20
116.743319
11
150.440580
21
116.819173
0
LINE
8
annotation
62
1
39
211
10
150.440580
20
116.819173
11
150.583413
21
116.920334
0
LINE
8
annotation
62
1
39
211
10
150.583413
20
116.920334
11
150.706737
21
117.043898
0
LINE
8
annotation
62
1
39
211
10
150.706737
20
117.043898
11
150.807670
21
117.186959
0
LINE
8
annotation
62
1
39
211
10
150.807670
20
117.186959
11
150.883332
21
117.346613
0
LINE
8
annotation
62
1
39
211
10
150.883332
20
117.346613
11
150.930842
21
117.519956
0
LINE
8
annotation
62
1
39
211
10
150.930842
20
117.519956
11
150.947319
21
117.704082
0
LINE
8
annotation
62
1
39
211
10
150.947319
20
117.704082
11
150.947319
21
117.704082
0
LINE
8
annotation
62
1
39
211
10
150.947319
20
117.704082
11
150.930842
21
117.887348
0
LINE
8
annotation
62
1
39
211
10
150.930842
20
117.887348
11
150.883332
21
118.060021
0
LINE
8
annotation
62
1
39
211
10
150.883332
20
118.060021
11
150.807670
21
118.219171
0
LINE
8
annotation
62
1
39
211
10
150.807670
20
118.219171
11
150.706737
21
118.361872
0
LINE
8
annotation
62
1
39
211
10
150.706737
20
118.361872
11
150.583413
21
118.485194
0
LINE
8
annotation
62
1
39
211
10
150.583413
20
118.485194
11
150.440580
21
118.586208
0
LINE
8
annotation
62
1
39
211
10
150.440580
20
118.586208
11
150.281118
21
118.661987
0
LINE
8
annotation
62
1
39
211
10
150.281118
20
118.661987
11
150.107908
21
118.709602
0
LINE
8
annotation
62
1
39
211
10
150.107908
20
118.709602
11
149.923831
21
118.726124
0
LINE
8
annotation
62
1
39
211
10
149.923831
20
118.726124
11
148.900344
21
118.726124
0
LINE
8
annotation
62
1
39
211
10
150.831573
20
133.221399
11
150.831573
21
137.386035
0
LINE
8
annotation
62
1
39
211
10
150.831573
20
137.386035
11
149.905721
21
136.459922
0
LINE
8
annotation
62
1
39
211
10
154.705590
20
134.147251
11
152.393181
21
134.147251
0
LINE
8
annotation
62
1
39
211
10
152.393181
20
134.147251
11
153.316682
21
137.386035
0
LINE
8
annotation
62
1
39
211
10
154.012442
20
133.221399
11
154.012442
21
135.071013
0
LINE
8
annotation
62
1
39
211
10
154.974717
20
151.875962
11
154.974717
21
156.484979
0
LINE
8
annotation
62
1
39
211
10
154.974717
20
156.484979
11
153.950073
21
155.460047
0
LINE
8
annotation
62
1
39
211
10
156.702954
20
151.875962
11
157.726441
21
151.875962
0
LINE
8
annotation
62
1
39
211
10
157.726441
20
151.875962
11
157.726441
21
151.875962
0
LINE
8
annotation
62
1
39
211
10
157.726441
20
151.875962
11
157.910137
21
151.892478
0
LINE
8
annotation
62
1
39
211
10
157.910137
20
151.892478
11
158.083145
21
151.940094
0
LINE
8
annotation
62
1
39
211
10
158.083145
20
151.940094
11
158.242547
21
152.015910
0
LINE
8
annotation
62
1
39
211
10
158.242547
20
152.015910
11
158.385428
21
152.117026
0
LINE
8
annotation
62
1
39
211
10
158.385428
20
152.117026
11
158.508871
21
152.240542
0
LINE
8
annotation
62
1
39
211
10
158.508871
20
152.240542
11
158.609959
21
152.383557
0
LINE
8
annotation
62
1
39
211
10
158.609959
20
152.383557
11
158.685776
21
152.543173
0
LINE
8
annotation
62
1
39
211
10
158.685776
20
152.543173
11
158.733404
21
152.716489
0
LINE
8
annotation
62
1
39
211
10
158.733404
20
152.716489
11
158.749929
21
152.900605
0
LINE
8
annotation
62
1
39
211
10
158.749929
20
152.900605
11
158.749929
21
153.410470
0
LINE
8
annotation
62
1
39
211
10
158.749929
20
153.410470
11
158.749929
21
153.410470
0
LINE
8
annotation
62
1
39
211
10
158.749929
20
153.410470
11
158.733414
21
153.594498
0
LINE
8
annotation
62
1
39
211
10
158.733414
20
153.594498
11
158.685809
21
153.767574
0
LINE
8
annotation
62
1
39
211
10
158.685809
20
153.767574
11
158.610023
21
153.926844
0
LINE
8
annotation
62
1
39
211
10
158.610023
20
153.926844
11
158.508966
21
154.069449
0
LINE
8
annotation
62
1
39
211
10
158.508966
20
154.069449
11
158.385547
21
154.192533
0
LINE
8
annotation
62
1
39
211
10
158.385547
20
154.192533
11
158.242676
21
154.293239
0
LINE
8
annotation
62
1
39
211
10
158.242676
20
154.293239
11
158.083262
21
154.368708
0
LINE
8
annotation
62
1
39
211
10
158.083262
20
154.368708
11
157.910214
21
154.416085
0
LINE
8
annotation
62
1
39
211
10
157.910214
20
154.416085
11
157.726441
21
154.432513
0
LINE
8
annotation
62
1
39
211
10
157.726441
20
154.432513
11
156.702954
21
154.432513
0
LINE
8
annotation
62
1
39
211
10
156.702954
20
154.432513
11
156.702954
21
156.484979
0
LINE
8
annotation
62
1
39
211
10
156.702954
20
156.484979
11
158.749929
21
156.484979
0
LINE
8
annotation
62
1
39
211
10
159.349259
20
170.752716
11
159.349259
21
175.361733
0
LINE
8
annotation
62
1
39
211
10
159.349259
20
175.361733
11
158.324616
21
174.336800
0
LINE
8
annotation
62
1
39
211
10
162.614895
20
175.361733
11
162.614895
21
175.361733
0
LINE
8
annotation
62
1
39
211
10
162.614895
20
175.361733
11
162.321692
21
175.251799
0
LINE
8
annotation
62
1
39
211
10
162.321692
20
175.251799
11
162.052639
21
175.103677
0
LINE
8
annotation
62
1
39
211
10
162.052639
20
175.103677
11
161.810499
21
174.921077
0
LINE
8
annotation
62
1
39
211
10
161.810499
20
174.921077
11
161.598034
21
174.707710
0
LINE
8
annotation
62
1
39
211
10
161.598034
20
174.707710
11
161.418006
21
174.467288
0
LINE
8
annotation
62
1
39
211
10
161.418006
20
174.467288
11
161.273176
21
174.203521
0
LINE
8
annotation
62
1
39
211
10
161.273176
20
174.203521
11
161.166306
21
173.920121
0
LINE
8
annotation
62
1
39
211
10
161.166306
20
173.920121
11
161.100159
21
173.620799
0
LINE
8
annotation
62
1
39
211
10
161.100159
20
173.620799
11
161.077496
21
173.309266
0
LINE
8
annotation
62
1
39
211
10
161.077496
20
173.309266
11
161.077496
21
171.777359
0
LINE
8
annotation
62
1
39
211
10
161.077496
20
171.777359
11
161.077496
21
171.777359
0
LINE
8
annotation
62
1
39
211
10
161.077496
20
171.777359
11
161.094021
21
171.593243
0
LINE
8
annotation
62
1
39
211
10
161.094021
20
171.593243
11
161.141649
21
171.419927
0
LINE
8
annotation
62
1
39
211
10
161.141649
20
171.419927
11
161.217466
21
171.260311
0
LINE
8
annotation
62
1
39
211
10
161.217466
20
171.260311
11
161.318554
21
171.117295
0
LINE
8
annotation
62
1
39
211
10
161.318554
20
171.117295
11
161.441997
21
170.993780
0
LINE
8
annotation
62
1
39
211
10
161.441997
20
170.993780
11
161.584878
21
170.892664
0
LINE
8
annotation
62
1
39
211
10
161.584878
20
170.892664
11
161.744280
21
170.816848
0
LINE
8
annotation
62
1
39
211
10
161.744280
20
170.816848
11
161.917288
21
170.769232
0
LINE
8
annotation
62
1
39
211
10
161.917288
20
170.769232
11
162.100984
21
170.752716
0
LINE
8
annotation
62
1
39
211
10
162.100984
20
170.752716
11
162.100984
21
170.752716
0
LINE
8
annotation
62
1
39
211
10
162.100984
20
170.752716
11
162.285060
21
170.769232
0
LINE
8
annotation
62
1
39
211
10
162.285060
20
170.769232
11
162.458270
21
170.816848
0
LINE
8
annotation
62
1
39
211
10
162.458270
20
170.816848
11
162.617732
21
170.892664
0
LINE
8
annotation
62
1
39
211
10
162.617732
20
170.892664
11
162.760565
21
170.993780
0
LINE
8
annotation
62
1
39
211
10
162.760565
20
170.993780
11
162.883889
21
171.117295
0
LINE
8
annotation
62
1
39
211
10
162.883889
20
171.117295
11
162.984822
21
171.260311
0
LINE
8
annotation
62
1
39
211
10
162.984822
20
171.260311
11
163.060484
21
171.419927
0
LINE
8
annotation
62
1
39
211
10
163.060484
20
171.419927
11
163.107994
21
171.593243
0
LINE
8
annotation
62
1
39
211
10
163.107994
20
171.593243
11
163.124471
21
171.777359
0
LINE
8
annotation
62
1
39
211
10
163.124471
20
171.777359
11
163.124471
21
172.287224
0
LINE
8
annotation
62
1
39
211
10
163.124471
20
172.287224
11
163.124471
21
172.287224
0
LINE
8
annotation
62
1
39
211
10
163.124471
20
172.287224
11
163.107994
21
172.471251
0
LINE
8
annotation
62
1
39
211
10
163.107994
20
172.471251
11
163.060484
21
172.644328
0
LINE
8
annotation
62
1
39
211
10
163.060484
20
172.644328
11
162.984822
21
172.803598
0
LINE
8
annotation
62
1
39
211
10
162.984822
20
172.803598
11
162.883889
21
172.946203
0
LINE
8
annotation
62
1
39
211
10
162.883889
20
172.946203
11
162.760565
21
173.069287
0
LINE
8
annotation
62
1
39
211
10
162.760565
20
173.069287
11
162.617732
21
173.169992
0
LINE
8
annotation
62
1
39
211
10
162.617732
20
173.169992
11
162.458270
21
173.245462
0
LINE
8
annotation
62
1
39
211
10
162.458270
20
173.245462
11
162.285060
21
173.292839
0
LINE
8
annotation
62
1
39
211
10
162.285060
20
173.292839
11
162.100984
21
173.309266
0
LINE
8
annotation
62
1
39
211
10
162.100984
20
173.309266
11
161.077496
21
173.309266
0
LINE
8
annotation
62
1
39
211
10
160.949307
20
170.176588
11
163.253816
21
170.176588
0
LINE
8
annotation
62
1
39
211
10
163.985136
20
189.630718
11
163.985136
21
194.237239
0
LINE
8
annotation
62
1
39
211
10
163.985136
20
194.237239
11
162.961048
21
193.212861
0
LINE
8
annotation
62
1
39
211
10
166.736670
20
189.630718
11
167.760759
21
194.237239
0
LINE
8
annotation
62
1
39
211
10
167.760759
20
194.237239
11
165.712293
21
194.237239
0
LINE
8
annotation
62
1
39
211
10
167.760759
20
192.185884
11
166.736670
21
192.185884
0
LINE
8
annotation
62
1
39
211
10
168.739701
20
208.506223
11
168.739701
21
213.115241
0
LINE
8
annotation
62
1
39
211
10
168.739701
20
213.115241
11
167.715057
21
212.090308
0
LINE
8
annotation
62
1
39
211
10
170.467938
20
209.528121
11
170.467938
21
209.528121
0
LINE
8
annotation
62
1
39
211
10
170.467938
20
209.528121
11
170.484462
21
209.344094
0
LINE
8
annotation
62
1
39
211
10
170.484462
20
209.344094
11
170.532091
21
209.171017
0
LINE
8
annotation
62
1
39
211
10
170.532091
20
209.171017
11
170.607908
21
209.011747
0
LINE
8
annotation
62
1
39
211
10
170.607908
20
209.011747
11
170.708996
21
208.869142
0
LINE
8
annotation
62
1
39
211
10
170.708996
20
208.869142
11
170.832439
21
208.746058
0
LINE
8
annotation
62
1
39
211
10
170.832439
20
208.746058
11
170.975319
21
208.645353
0
LINE
8
annotation
62
1
39
211
10
170.975319
20
208.645353
11
171.134722
21
208.569883
0
LINE
8
annotation
62
1
39
211
10
171.134722
20
208.569883
11
171.307729
21
208.522506
0
LINE
8
annotation
62
1
39
211
10
171.307729
20
208.522506
11
171.491425
21
208.506079
0
LINE
8
annotation
62
1
39
211
10
171.491425
20
208.506079
11
171.491425
21
208.506079
0
LINE
8
annotation
62
1
39
211
10
171.491425
20
208.506079
11
171.675122
21
208.522506
0
LINE
8
annotation
62
1
39
211
10
171.675122
20
208.522506
11
171.848129
21
208.569883
0
LINE
8
annotation
62
1
39
211
10
171.848129
20
208.569883
11
172.007532
21
208.645353
0
LINE
8
annotation
62
1
39
211
10
172.007532
20
208.645353
11
172.150412
21
208.746058
0
LINE
8
annotation
62
1
39
211
10
172.150412
20
208.746058
11
172.273855
21
208.869142
0
LINE
8
annotation
62
1
39
211
10
172.273855
20
208.869142
11
172.374943
21
209.011747
0
LINE
8
annotation
62
1
39
211
10
172.374943
20
209.011747
11
172.450760
21
209.171017
0
LINE
8
annotation
62
1
39
211
10
172.450760
20
209.171017
11
172.498389
21
209.344094
0
LINE
8
annotation
62
1
39
211
10
172.498389
20
209.344094
11
172.514913
21
209.528121
0
LINE
8
annotation
62
1
39
211
10
172.514913
20
209.528121
11
172.514913
21
210.037986
0
LINE
8
annotation
62
1
39
211
10
172.514913
20
210.037986
11
172.514913
21
210.037986
0
LINE
8
annotation
62
1
39
211
10
172.514913
20
210.037986
11
172.498398
21
210.222102
0
LINE
8
annotation
62
1
39
211
10
172.498398
20
210.222102
11
172.450793
21
210.395418
0
LINE
8
annotation
62
1
39
211
10
172.450793
20
210.395418
11
172.375007
21
210.555034
0
LINE
8
annotation
62
1
39
211
10
172.375007
20
210.555034
11
172.273950
21
210.698050
0
LINE
8
annotation
62
1
39
211
10
172.273950
20
210.698050
11
172.150531
21
210.821565
0
LINE
8
annotation
62
1
39
211
10
172.150531
20
210.821565
11
172.007660
21
210.922681
0
LINE
8
annotation
62
1
39
211
10
172.007660
20
210.922681
11
171.848246
21
210.998497
0
LINE
8
annotation
62
1
39
211
10
171.848246
20
210.998497
11
171.675198
21
211.046113
0
LINE
8
annotation
62
1
39
211
10
171.675198
20
211.046113
11
171.491425
21
211.062630
0
LINE
8
annotation
62
1
39
211
10
171.491425
20
211.062630
11
171.491425
21
211.062630
0
LINE
8
annotation
62
1
39
211
10
171.491425
20
211.062630
11
171.307653
21
211.046104
0
LINE
8
annotation
62
1
39
211
10
171.307653
20
211.046104
11
171.134605
21
210.998464
0
LINE
8
annotation
62
1
39
211
10
171.134605
20
210.998464
11
170.975191
21
210.922617
0
LINE
8
annotation
62
1
39
211
10
170.975191
20
210.922617
11
170.832320
21
210.821470
0
LINE
8
annotation
62
1
39
211
10
170.832320
20
210.821470
11
170.708901
21
210.697931
0
LINE
8
annotation
62
1
39
211
10
170.708901
20
210.697931
11
170.607844
21
210.554906
0
LINE
8
annotation
62
1
39
211
10
170.607844
20
210.554906
11
170.532058
21
210.395302
0
LINE
8
annotation
62
1
39
211
10
170.532058
20
210.395302
11
170.484453
21
210.222026
0
LINE
8
annotation
62
1
39
211
10
170.484453
20
210.222026
11
170.467938
21
210.037986
0
LINE
8
annotation
62
1
39
211
10
170.467938
20
210.037986
11
170.467938
21
209.528121
0
LINE
8
annotation
62
1
39
211
10
172.514913
20
212.087562
11
172.514913
21
212.087562
0
LINE
8
annotation
62
1
39
211
10
172.514913
20
212.087562
11
172.498398
21
212.270828
0
LINE
8
annotation
62
1
39
211
10
172.498398
20
212.270828
11
172.450793
21
212.443501
0
LINE
8
annotation
62
1
39
211
10
172.450793
20
212.443501
11
172.375007
21
212.602651
0
LINE
8
annotation
62
1
39
211
10
172.375007
20
212.602651
11
172.273950
21
212.745352
0
LINE
8
annotation
62
1
39
211
10
172.273950
20
212.745352
11
172.150531
21
212.868673
0
LINE
8
annotation
62
1
39
211
10
172.150531
20
212.868673
11
172.007660
21
212.969688
0
LINE
8
annotation
62
1
39
211
10
172.007660
20
212.969688
11
171.848246
21
213.045467
0
LINE
8
annotation
62
1
39
211
10
171.848246
20
213.045467
11
171.675198
21
213.093082
0
LINE
8
annotation
62
1
39
211
10
171.675198
20
213.093082
11
171.491425
21
213.109604
0
LINE
8
annotation
62
1
39
211
10
171.491425
20
213.109604
11
171.491425
21
213.109604
0
LINE
8
annotation
62
1
39
211
10
171.491425
20
213.109604
11
171.307653
21
213.093082
0
LINE
8
annotation
62
1
39
211
10
171.307653
20
213.093082
11
171.134605
21
213.045467
0
LINE
8
annotation
62
1
39
211
10
171.134605
20
213.045467
11
170.975191
21
212.969688
0
LINE
8
annotation
62
1
39
211
10
170.975191
20
212.969688
11
170.832320
21
212.868673
0
LINE
8
annotation
62
1
39
211
10
170.832320
20
212.868673
11
170.708901
21
212.745352
0
LINE
8
annotation
62
1
39
211
10
170.708901
20
212.745352
11
170.607844
21
212.602651
0
LINE
8
annotation
62
1
39
211
10
170.607844
20
212.602651
11
170.532058
21
212.443501
0
LINE
8
annotation
62
1
39
211
10
170.532058
20
212.443501
11
170.484453
21
212.270828
0
LINE
8
annotation
62
1
39
211
10
170.484453
20
212.270828
11
170.467938
21
212.087562
0
LINE
8
annotation
62
1
39
211
10
170.467938
20
212.087562
11
170.467938
21
212.087562
0
LINE
8
annotation
62
1
39
211
10
170.467938
20
212.087562
11
170.484462
21
211.903436
0
LINE
8
annotation
62
1
39
211
10
170.484462
20
211.903436
11
170.532091
21
211.730093
0
LINE
8
annotation
62
1
39
211
10
170.532091
20
211.730093
11
170.607908
21
211.570439
0
LINE
8
annotation
62
1
39
211
10
170.607908
20
211.570439
11
170.708996
21
211.427378
0
LINE
8
annotation
62
1
39
211
10
170.708996
20
211.427378
11
170.832439
21
211.303814
0
LINE
8
annotation
62
1
39
211
10
170.832439
20
211.303814
11
170.975319
21
211.202653
0
LINE
8
annotation
62
1
39
211
10
170.975319
20
211.202653
11
171.134722
21
211.126799
0
LINE
8
annotation
62
1
39
211
10
171.134722
20
211.126799
11
171.307729
21
211.079156
0
LINE
8
annotation
62
1
39
211
10
171.307729
20
211.079156
11
171.491425
21
211.062630
0
LINE
8
annotation
62
1
39
211
10
171.491425
20
211.062630
11
171.491425
21
211.062630
0
LINE
8
annotation
62
1
39
211
10
171.491425
20
211.062630
11
171.675122
21
211.079156
0
LINE
8
annotation
62
1
39
211
10
171.675122
20
211.079156
11
171.848129
21
211.126799
0
LINE
8
annotation
62
1
39
211
10
171.848129
20
211.126799
11
172.007532
21
211.202653
0
LINE
8
annotation
62
1
39
211
10
172.007532
20
211.202653
11
172.150412
21
211.303814
0
LINE
8
annotation
62
1
39
211
10
172.150412
20
211.303814
11
172.273855
21
211.427378
0
LINE
8
annotation
62
1
39
211
10
172.273855
20
211.427378
11
172.374943
21
211.570439
0
LINE
8
annotation
62
1
39
211
10
172.374943
20
211.570439
11
172.450760
21
211.730093
0
LINE
8
annotation
62
1
39
211
10
172.450760
20
211.730093
11
172.498389
21
211.903436
0
LINE
8
annotation
62
1
39
211
10
172.498389
20
211.903436
11
172.514913
21
212.087562
0
LINE
8
annotation
62
1
39
211
10
173.608116
20
227.382977
11
173.608116
21
231.991994
0
LINE
8
annotation
62
1
39
211
10
173.608116
20
231.991994
11
172.583473
21
230.967062
0
LINE
8
annotation
62
1
39
211
10
175.847375
20
227.382977
11
175.847375
21
227.382977
0
LINE
8
annotation
62
1
39
211
10
175.847375
20
227.382977
11
176.140062
21
227.492047
0
LINE
8
annotation
62
1
39
211
10
176.140062
20
227.492047
11
176.408712
21
227.639474
0
LINE
8
annotation
62
1
39
211
10
176.408712
20
227.639474
11
176.650550
21
227.821503
0
LINE
8
annotation
62
1
39
211
10
176.650550
20
227.821503
11
176.862799
21
228.034377
0
LINE
8
annotation
62
1
39
211
10
176.862799
20
228.034377
11
177.042682
21
228.274340
0
LINE
8
annotation
62
1
39
211
10
177.042682
20
228.274340
11
177.187424
21
228.537635
0
LINE
8
annotation
62
1
39
211
10
177.187424
20
228.537635
11
177.294248
21
228.820506
0
LINE
8
annotation
62
1
39
211
10
177.294248
20
228.820506
11
177.360379
21
229.119197
0
LINE
8
annotation
62
1
39
211
10
177.360379
20
229.119197
11
177.383039
21
229.429952
0
LINE
8
annotation
62
1
39
211
10
177.383039
20
229.429952
11
177.383039
21
230.967062
0
LINE
8
annotation
62
1
39
211
10
177.383039
20
230.967062
11
177.383039
21
230.967062
0
LINE
8
annotation
62
1
39
211
10
177.383039
20
230.967062
11
177.366562
21
231.151188
0
LINE
8
annotation
62
1
39
211
10
177.366562
20
231.151188
11
177.319053
21
231.324531
0
LINE
8
annotation
62
1
39
211
10
177.319053
20
231.324531
11
177.243391
21
231.484185
0
LINE
8
annotation
62
1
39
211
10
177.243391
20
231.484185
11
177.142457
21
231.627246
0
LINE
8
annotation
62
1
39
211
10
177.142457
20
231.627246
11
177.019134
21
231.750810
0
LINE
8
annotation
62
1
39
211
10
177.019134
20
231.750810
11
176.876300
21
231.851971
0
LINE
8
annotation
62
1
39
211
10
176.876300
20
231.851971
11
176.716838
21
231.927825
0
LINE
8
annotation
62
1
39
211
10
176.716838
20
231.927825
11
176.543629
21
231.975468
0
LINE
8
annotation
62
1
39
211
10
176.543629
20
231.975468
11
176.359552
21
231.991994
0
LINE
8
annotation
62
1
39
211
10
176.359552
20
231.991994
11
176.359552
21
231.991994
0
LINE
8
annotation
62
1
39
211
10
176.359552
20
231.991994
11
176.175856
21
231.975468
0
LINE
8
annotation
62
1
39
211
10
176.175856
20
231.975468
11
176.002848
21
231.927825
0
LINE
8
annotation
62
1
39
211
10
176.002848
20
231.927825
11
175.843446
21
231.851971
0
LINE
8
annotation
62
1
39
211
10
175.843446
20
231.851971
11
175.700565
21
231.750810
0
LINE
8
annotation
62
1
39
211
10
175.700565
20
231.750810
11
175.577122
21
231.627246
0
LINE
8
annotation
62
1
39
211
10
175.577122
20
231.627246
11
175.476034
21
231.484185
0
LINE
8
annotation
62
1
39
211
10
175.476034
20
231.484185
11
175.400218
21
231.324531
0
LINE
8
annotation
62
1
39
211
10
175.400218
20
231.324531
11
175.352589
21
231.151188
0
LINE
8
annotation
62
1
39
211
10
175.352589
20
231.151188
11
175.336064
21
230.967062
0
LINE
8
annotation
62
1
39
211
10
175.336064
20
230.967062
11
175.336064
21
230.454595
0
LINE
8
annotation
62
1
39
211
10
175.336064
20
230.454595
11
175.336064
21
230.454595
0
LINE
8
annotation
62
1
39
211
10
175.336064
20
230.454595
11
175.352589
21
230.270479
0
LINE
8
annotation
62
1
39
211
10
175.352589
20
230.270479
11
175.400218
21
230.097163
0
LINE
8
annotation
62
1
39
211
10
175.400218
20
230.097163
11
175.476034
21
229.937547
0
LINE
8
annotation
62
1
39
211
10
175.476034
20
229.937547
11
175.577122
21
229.794532
0
LINE
8
annotation
62
1
39
211
10
175.577122
20
229.794532
11
175.700565
21
229.671016
0
LINE
8
annotation
62
1
39
211
10
175.700565
20
229.671016
11
175.843446
21
229.569900
0
LINE
8
annotation
62
1
39
211
10
175.843446
20
229.569900
11
176.002848
21
229.494084
0
LINE
8
annotation
62
1
39
211
10
176.002848
20
229.494084
11
176.175856
21
229.446468
0
LINE
8
annotation
62
1
39
211
10
176.175856
20
229.446468
11
176.359552
21
229.429952
0
LINE
8
annotation
62
1
39
211
10
176.359552
20
229.429952
11
177.383039
21
229.429952
0
LINE
8
annotation
62
1
39
211
10
175.208165
20
226.806850
11
177.512673
21
226.806850
0
LINE
8
annotation
62
1
39
211
10
179.273528
20
246.661615
11
177.583553
21
246.661615
0
LINE
8
annotation
62
1
39
211
10
177.583553
20
246.661615
11
179.145145
21
249.175577
0
LINE
8
annotation
62
1
39
211
10
179.145145
20
249.175577
11
179.145145
21
249.175577
0
LINE
8
annotation
62
1
39
211
10
179.145145
20
249.175577
11
179.147012
21
249.177887
0
LINE
8
annotation
62
1
39
211
10
179.147012
20
249.177887
11
179.148802
21
249.180217
0
LINE
8
annotation
62
1
39
211
10
179.148802
20
249.180217
11
179.150527
21
249.182586
0
LINE
8
annotation
62
1
39
211
10
179.150527
20
249.182586
11
179.152200
21
249.185014
0
LINE
8
annotation
62
1
39
211
10
179.152200
20
249.185014
11
179.153831
21
249.187520
0
LINE
8
annotation
62
1
39
211
10
179.153831
20
249.187520
11
179.155433
21
249.190125
0
LINE
8
annotation
62
1
39
211
10
179.155433
20
249.190125
11
179.157017
21
249.192848
0
LINE
8
annotation
62
1
39
211
10
179.157017
20
249.192848
11
179.158595
21
249.195707
0
LINE
8
annotation
62
1
39
211
10
179.158595
20
249.195707
11
179.160179
21
249.198725
0
LINE
8
annotation
62
1
39
211
10
179.160179
20
249.198725
11
179.160179
21
249.198725
0
LINE
8
annotation
62
1
39
211
10
179.160179
20
249.198725
11
179.224656
21
249.337164
0
LINE
8
annotation
62
1
39
211
10
179.224656
20
249.337164
11
179.262323
21
249.480668
0
LINE
8
annotation
62
1
39
211
10
179.262323
20
249.480668
11
179.274102
21
249.625995
0
LINE
8
annotation
62
1
39
211
10
179.274102
20
249.625995
11
179.260916
21
249.769902
0
LINE
8
annotation
62
1
39
211
10
179.260916
20
249.769902
11
179.223689
21
249.909147
0
LINE
8
annotation
62
1
39
211
10
179.223689
20
249.909147
11
179.163343
21
250.040486
0
LINE
8
annotation
62
1
39
211
10
179.163343
20
250.040486
11
179.080801
21
250.160677
0
LINE
8
annotation
62
1
39
211
10
179.080801
20
250.160677
11
178.976987
21
250.266478
0
LINE
8
annotation
62
1
39
211
10
178.976987
20
250.266478
11
178.852824
21
250.354646
0
LINE
8
annotation
62
1
39
211
10
178.852824
20
250.354646
11
178.852824
21
250.354646
0
LINE
8
annotation
62
1
39
211
10
178.852824
20
250.354646
11
178.714000
21
250.418208
0
LINE
8
annotation
62
1
39
211
10
178.714000
20
250.418208
11
178.570275
21
250.455294
0
LINE
8
annotation
62
1
39
211
10
178.570275
20
250.455294
11
178.424864
21
250.466740
0
LINE
8
annotation
62
1
39
211
10
178.424864
20
250.466740
11
178.280978
21
250.453380
0
LINE
8
annotation
62
1
39
211
10
178.280978
20
250.453380
11
178.141832
21
250.416050
0
LINE
8
annotation
62
1
39
211
10
178.141832
20
250.416050
11
178.010638
21
250.355583
0
LINE
8
annotation
62
1
39
211
10
178.010638
20
250.355583
11
177.890610
21
250.272814
0
LINE
8
annotation
62
1
39
211
10
177.890610
20
250.272814
11
177.784960
21
250.168579
0
LINE
8
annotation
62
1
39
211
10
177.784960
20
250.168579
11
177.696902
21
250.043712
0
LINE
8
annotation
62
1
39
211
10
177.696902
20
250.043712
11
177.585940
21
249.830854
0
LINE
8
annotation
62
1
39
211
10
181.311974
20
246.711838
11
181.311974
21
246.711838
0
LINE
8
annotation
62
1
39
211
10
181.311974
20
246.711838
11
181.400411
21
246.678778
0
LINE
8
annotation
62
1
39
211
10
181.400411
20
246.678778
11
181.491111
21
246.662353
0
LINE
8
annotation
62
1
39
211
10
181.491111
20
246.662353
11
181.582023
21
246.661894
0
LINE
8
annotation
62
1
39
211
10
181.582023
20
246.661894
11
181.671097
21
246.676730
0
LINE
8
annotation
62
1
39
211
10
181.671097
20
246.676730
11
181.756282
21
246.706193
0
LINE
8
annotation
62
1
39
211
10
181.756282
20
246.706193
11
181.835527
21
246.749612
0
LINE
8
annotation
62
1
39
211
10
181.835527
20
246.749612
11
181.906783
21
246.806318
0
LINE
8
annotation
62
1
39
211
10
181.906783
20
246.806318
11
181.967999
21
246.875641
0
LINE
8
annotation
62
1
39
211
10
181.967999
20
246.875641
11
182.017124
21
246.956911
0
LINE
8
annotation
62
1
39
211
10
182.017124
20
246.956911
11
182.017124
21
246.956911
0
LINE
8
annotation
62
1
39
211
10
182.017124
20
246.956911
11
182.163696
21
247.299997
0
LINE
8
annotation
62
1
39
211
10
182.163696
20
247.299997
11
182.273625
21
247.653014
0
LINE
8
annotation
62
1
39
211
10
182.273625
20
247.653014
11
182.346910
21
248.013147
0
LINE
8
annotation
62
1
39
211
10
182.346910
20
248.013147
11
182.383553
21
248.377580
0
LINE
8
annotation
62
1
39
211
10
182.383553
20
248.377580
11
182.383553
21
248.743501
0
LINE
8
annotation
62
1
39
211
10
182.383553
20
248.743501
11
182.346910
21
249.108094
0
LINE
8
annotation
62
1
39
211
10
182.346910
20
249.108094
11
182.273625
21
249.468545
0
LINE
8
annotation
62
1
39
211
10
182.273625
20
249.468545
11
182.163696
21
249.822039
0
LINE
8
annotation
62
1
39
211
10
182.163696
20
249.822039
11
182.017124
21
250.165762
0
LINE
8
annotation
62
1
39
211
10
182.017124
20
250.165762
11
182.017124
21
250.165762
0
LINE
8
annotation
62
1
39
211
10
182.017124
20
250.165762
11
181.998485
21
250.200451
0
LINE
8
annotation
62
1
39
211
10
181.998485
20
250.200451
11
181.977353
21
250.233616
0
LINE
8
annotation
62
1
39
211
10
181.977353
20
250.233616
11
181.953888
21
250.265094
0
LINE
8
annotation
62
1
39
211
10
181.953888
20
250.265094
11
181.928248
21
250.294721
0
LINE
8
annotation
62
1
39
211
10
181.928248
20
250.294721
11
181.900594
21
250.322336
0
LINE
8
annotation
62
1
39
211
10
181.900594
20
250.322336
11
181.871083
21
250.347774
0
LINE
8
annotation
62
1
39
211
10
181.871083
20
250.347774
11
181.839876
21
250.370874
0
LINE
8
annotation
62
1
39
211
10
181.839876
20
250.370874
11
181.807130
21
250.391471
0
LINE
8
annotation
62
1
39
211
10
181.807130
20
250.391471
11
181.773006
21
250.409403
0
LINE
8
annotation
62
1
39
211
10
181.773006
20
250.409403
11
181.773006
21
250.409403
0
LINE
8
annotation
62
1
39
211
10
181.773006
20
250.409403
11
181.683867
21
250.443179
0
LINE
8
annotation
62
1
39
211
10
181.683867
20
250.443179
11
181.592636
21
250.460166
0
LINE
8
annotation
62
1
39
211
10
181.592636
20
250.460166
11
181.501340
21
250.461035
0
LINE
8
annotation
62
1
39
211
10
181.501340
20
250.461035
11
181.412006
21
250.446461
0
LINE
8
annotation
62
1
39
211
10
181.412006
20
250.446461
11
181.326661
21
250.417118
0
LINE
8
annotation
62
1
39
211
10
181.326661
20
250.417118
11
181.247332
21
250.373679
0
LINE
8
annotation
62
1
39
211
10
181.247332
20
250.373679
11
181.176046
21
250.316818
0
LINE
8
annotation
62
1
39
211
10
181.176046
20
250.316818
11
181.114829
21
250.247208
0
LINE
8
annotation
62
1
39
211
10
181.114829
20
250.247208
11
181.065708
21
250.165523
0
LINE
8
annotation
62
1
39
211
10
181.065708
20
250.165523
11
181.065708
21
250.165523
0
LINE
8
annotation
62
1
39
211
10
181.065708
20
250.165523
11
180.919844
21
249.822507
0
LINE
8
annotation
62
1
39
211
10
180.919844
20
249.822507
11
180.810446
21
249.469543
0
LINE
8
annotation
62
1
39
211
10
180.810446
20
249.469543
11
180.737513
21
249.109446
0
LINE
8
annotation
62
1
39
211
10
180.737513
20
249.109446
11
180.701047
21
248.745030
0
LINE
8
annotation
62
1
39
211
10
180.701047
20
248.745030
11
180.701047
21
248.379109
0
LINE
8
annotation
62
1
39
211
10
180.701047
20
248.379109
11
180.737513
21
248.014499
0
LINE
8
annotation
62
1
39
211
10
180.737513
20
248.014499
11
180.810446
21
247.654013
0
LINE
8
annotation
62
1
39
211
10
180.810446
20
247.654013
11
180.919844
21
247.300466
0
LINE
8
annotation
62
1
39
211
10
180.919844
20
247.300466
11
181.065708
21
246.956672
0
LINE
8
annotation
62
1
39
211
10
181.065708
20
246.956672
11
181.065708
21
246.956672
0
LINE
8
annotation
62
1
39
211
10
181.065708
20
246.956672
11
181.084280
21
246.922052
0
LINE
8
annotation
62
1
39
211
10
181.084280
20
246.922052
11
181.105256
21
246.889052
0
LINE
8
annotation
62
1
39
211
10
181.105256
20
246.889052
11
181.128548
21
246.857773
0
LINE
8
annotation
62
1
39
211
10
181.128548
20
246.857773
11
181.154066
21
246.828315
0
LINE
8
annotation
62
1
39
211
10
181.154066
20
246.828315
11
181.181724
21
246.800777
0
LINE
8
annotation
62
1
39
211
10
181.181724
20
246.800777
11
181.211432
21
246.775260
0
LINE
8
annotation
62
1
39
211
10
181.211432
20
246.775260
11
181.243101
21
246.751865
0
LINE
8
annotation
62
1
39
211
10
181.243101
20
246.751865
11
181.276645
21
246.730691
0
LINE
8
annotation
62
1
39
211
10
181.276645
20
246.730691
11
181.311974
21
246.711838
0
LINE
8
annotation
62
1
39
211
10
184.884740
20
265.136781
11
182.838062
21
265.136781
0
LINE
8
annotation
62
1
39
211
10
182.838062
20
265.136781
11
184.729260
21
268.181367
0
LINE
8
annotation
62
1
39
211
10
184.729260
20
268.181367
11
184.729260
21
268.181367
0
LINE
8
annotation
62
1
39
211
10
184.729260
20
268.181367
11
184.731521
21
268.184164
0
LINE
8
annotation
62
1
39
211
10
184.731521
20
268.184164
11
184.733689
21
268.186986
0
LINE
8
annotation
62
1
39
211
10
184.733689
20
268.186986
11
184.735778
21
268.189855
0
LINE
8
annotation
62
1
39
211
10
184.735778
20
268.189855
11
184.737804
21
268.192795
0
LINE
8
annotation
62
1
39
211
10
184.737804
20
268.192795
11
184.739779
21
268.195830
0
LINE
8
annotation
62
1
39
211
10
184.739779
20
268.195830
11
184.741719
21
268.198985
0
LINE
8
annotation
62
1
39
211
10
184.741719
20
268.198985
11
184.743637
21
268.202282
0
LINE
8
annotation
62
1
39
211
10
184.743637
20
268.202282
11
184.745548
21
268.205746
0
LINE
8
annotation
62
1
39
211
10
184.745548
20
268.205746
11
184.747467
21
268.209399
0
LINE
8
annotation
62
1
39
211
10
184.747467
20
268.209399
11
184.747467
21
268.209399
0
LINE
8
annotation
62
1
39
211
10
184.747467
20
268.209399
11
184.825554
21
268.377059
0
LINE
8
annotation
62
1
39
211
10
184.825554
20
268.377059
11
184.871171
21
268.550853
0
LINE
8
annotation
62
1
39
211
10
184.871171
20
268.550853
11
184.885436
21
268.726854
0
LINE
8
annotation
62
1
39
211
10
184.885436
20
268.726854
11
184.869467
21
268.901136
0
LINE
8
annotation
62
1
39
211
10
184.869467
20
268.901136
11
184.824382
21
269.069771
0
LINE
8
annotation
62
1
39
211
10
184.824382
20
269.069771
11
184.751298
21
269.228832
0
LINE
8
annotation
62
1
39
211
10
184.751298
20
269.228832
11
184.651335
21
269.374392
0
LINE
8
annotation
62
1
39
211
10
184.651335
20
269.374392
11
184.525609
21
269.502524
0
LINE
8
annotation
62
1
39
211
10
184.525609
20
269.502524
11
184.375238
21
269.609302
0
LINE
8
annotation
62
1
39
211
10
184.375238
20
269.609302
11
184.375238
21
269.609302
0
LINE
8
annotation
62
1
39
211
10
184.375238
20
269.609302
11
184.207112
21
269.686279
0
LINE
8
annotation
62
1
39
211
10
184.207112
20
269.686279
11
184.033052
21
269.731194
0
LINE
8
annotation
62
1
39
211
10
184.033052
20
269.731194
11
183.856948
21
269.745056
0
LINE
8
annotation
62
1
39
211
10
183.856948
20
269.745056
11
183.682693
21
269.728876
0
LINE
8
annotation
62
1
39
211
10
183.682693
20
269.728876
11
183.514177
21
269.683666
0
LINE
8
annotation
62
1
39
211
10
183.514177
20
269.683666
11
183.355292
21
269.610436
0
LINE
8
annotation
62
1
39
211
10
183.355292
20
269.610436
11
183.209929
21
269.510198
0
LINE
8
annotation
62
1
39
211
10
183.209929
20
269.510198
11
183.081980
21
269.383962
0
LINE
8
annotation
62
1
39
211
10
183.081980
20
269.383962
11
182.975336
21
269.232739
0
LINE
8
annotation
62
1
39
211
10
182.975336
20
269.232739
11
182.840952
21
268.974953
0
LINE
8
annotation
62
1
39
211
10
187.637859
20
265.136819
11
187.637859
21
269.745168
0
LINE
8
annotation
62
1
39
211
10
187.637859
20
269.745168
11
186.613364
21
268.720384
0
LINE
8
annotation
62
1
39
211
10
190.094144
20
284.418306
11
188.406996
21
284.418306
0
LINE
8
annotation
62
1
39
211
10
188.406996
20
284.418306
11
189.965976
21
286.928062
0
LINE
8
annotation
62
1
39
211
10
189.965976
20
286.928062
11
189.965976
21
286.928062
0
LINE
8
annotation
62
1
39
211
10
189.965976
20
286.928062
11
189.967840
21
286.930369
0
LINE
8
annotation
62
1
39
211
10
189.967840
20
286.930369
11
189.969627
21
286.932694
0
LINE
8
annotation
62
1
39
211
10
189.969627
20
286.932694
11
189.971349
21
286.935059
0
LINE
8
annotation
62
1
39
211
10
189.971349
20
286.935059
11
189.973019
21
286.937483
0
LINE
8
annotation
62
1
39
211
10
189.973019
20
286.937483
11
189.974647
21
286.939985
0
LINE
8
annotation
62
1
39
211
10
189.974647
20
286.939985
11
189.976246
21
286.942586
0
LINE
8
annotation
62
1
39
211
10
189.976246
20
286.942586
11
189.977828
21
286.945304
0
LINE
8
annotation
62
1
39
211
10
189.977828
20
286.945304
11
189.979403
21
286.948159
0
LINE
8
annotation
62
1
39
211
10
189.979403
20
286.948159
11
189.980984
21
286.951171
0
LINE
8
annotation
62
1
39
211
10
189.980984
20
286.951171
11
189.980984
21
286.951171
0
LINE
8
annotation
62
1
39
211
10
189.980984
20
286.951171
11
190.045354
21
287.089378
0
LINE
8
annotation
62
1
39
211
10
190.045354
20
287.089378
11
190.082958
21
287.232643
0
LINE
8
annotation
62
1
39
211
10
190.082958
20
287.232643
11
190.094717
21
287.377727
0
LINE
8
annotation
62
1
39
211
10
190.094717
20
287.377727
11
190.081554
21
287.521393
0
LINE
8
annotation
62
1
39
211
10
190.081554
20
287.521393
11
190.044388
21
287.660404
0
LINE
8
annotation
62
1
39
211
10
190.044388
20
287.660404
11
189.984143
21
287.791524
0
LINE
8
annotation
62
1
39
211
10
189.984143
20
287.791524
11
189.901740
21
287.911514
0
LINE
8
annotation
62
1
39
211
10
189.901740
20
287.911514
11
189.798099
21
288.017138
0
LINE
8
annotation
62
1
39
211
10
189.798099
20
288.017138
11
189.674144
21
288.105159
0
LINE
8
annotation
62
1
39
211
10
189.674144
20
288.105159
11
189.674144
21
288.105159
0
LINE
8
annotation
62
1
39
211
10
189.674144
20
288.105159
11
189.535552
21
288.168614
0
LINE
8
annotation
62
1
39
211
10
189.535552
20
288.168614
11
189.392068
21
288.205638
0
LINE
8
annotation
62
1
39
211
10
189.392068
20
288.205638
11
189.246900
21
288.217065
0
LINE
8
annotation
62
1
39
211
10
189.246900
20
288.217065
11
189.103255
21
288.203728
0
LINE
8
annotation
62
1
39
211
10
189.103255
20
288.203728
11
188.964341
21
288.166460
0
LINE
8
annotation
62
1
39
211
10
188.964341
20
288.166460
11
188.833367
21
288.106094
0
LINE
8
annotation
62
1
39
211
10
188.833367
20
288.106094
11
188.713539
21
288.023464
0
LINE
8
annotation
62
1
39
211
10
188.713539
20
288.023464
11
188.608066
21
287.919403
0
LINE
8
annotation
62
1
39
211
10
188.608066
20
287.919403
11
188.520156
21
287.794745
0
LINE
8
annotation
62
1
39
211
10
188.520156
20
287.794745
11
188.409379
21
287.582243
0
LINE
8
annotation
62
1
39
211
10
193.206423
20
284.418306
11
191.519275
21
284.418306
0
LINE
8
annotation
62
1
39
211
10
191.519275
20
284.418306
11
193.078255
21
286.928062
0
LINE
8
annotation
62
1
39
211
10
193.078255
20
286.928062
11
193.078255
21
286.928062
0
LINE
8
annotation
62
1
39
211
10
193.078255
20
286.928062
11
193.080119
21
286.930369
0
LINE
8
annotation
62
1
39
211
10
193.080119
20
286.930369
11
193.081906
21
286.932694
0
LINE
8
annotation
62
1
39
211
10
193.081906
20
286.932694
11
193.083628
21
286.935059
0
LINE
8
annotation
62
1
39
211
10
193.083628
20
286.935059
11
193.085298
21
286.937483
0
LINE
8
annotation
62
1
39
211
10
193.085298
20
286.937483
11
193.086926
21
286.939985
0
LINE
8
annotation
62
1
39
211
10
193.086926
20
286.939985
11
193.088525
21
286.942586
0
LINE
8
annotation
62
1
39
211
10
193.088525
20
286.942586
11
193.090107
21
286.945304
0
LINE
8
annotation
62
1
39
211
10
193.090107
20
286.945304
11
193.091682
21
286.948159
0
LINE
8
annotation
62
1
39
211
10
193.091682
20
286.948159
11
193.093263
21
286.951171
0
LINE
8
annotation
62
1
39
211
10
193.093263
20
286.951171
11
193.093263
21
286.951171
0
LINE
8
annotation
62
1
39
211
10
193.093263
20
286.951171
11
193.157633
21
287.089378
0
LINE
8
annotation
62
1
39
211
10
193.157633
20
287.089378
11
193.195237
21
287.232643
0
LINE
8
annotation
62
1
39
211
10
193.195237
20
287.232643
11
193.206996
21
287.377727
0
LINE
8
annotation
62
1
39
211
10
193.206996
20
287.377727
11
193.193833
21
287.521393
0
LINE
8
annotation
62
1
39
211
10
193.193833
20
287.521393
11
193.156667
21
287.660404
0
LINE
8
annotation
62
1
39
211
10
193.156667
20
287.660404
11
193.096422
21
287.791524
0
LINE
8
annotation
62
1
39
211
10
193.096422
20
287.791524
11
193.014019
21
287.911514
0
LINE
8
annotation
62
1
39
211
10
193.014019
20
287.911514
11
192.910378
21
288.017138
0
LINE
8
annotation
62
1
39
211
10
192.910378
20
288.017138
11
192.786423
21
288.105159
0
LINE
8
annotation
62
1
39
211
10
192.786423
20
288.105159
11
192.786423
21
288.105159
0
LINE
8
annotation
62
1
39
211
10
192.786423
20
288.105159
11
192.647831
21
288.168614
0
LINE
8
annotation
62
1
39
211
10
192.647831
20
288.168614
11
192.504347
21
288.205638
0
LINE
8
annotation
62
1
39
211
10
192.504347
20
288.205638
11
192.359179
21
288.217065
0
LINE
8
annotation
62
1
39
211
10
192.359179
20
288.217065
11
192.215534
21
288.203728
0
LINE
8
annotation
62
1
39
211
10
192.215534
20
288.203728
11
192.076620
21
288.166460
0
LINE
8
annotation
62
1
39
211
10
192.076620
20
288.166460
11
191.945646
21
288.106094
0
LINE
8
annotation
62
1
39
211
10
191.945646
20
288.106094
11
191.825818
21
288.023464
0
LINE
8
annotation
62
1
39
211
10
191.825818
20
288.023464
11
191.720345
21
287.919403
0
LINE
8
annotation
62
1
39
211
10
191.720345
20
287.919403
11
191.632435
21
287.794745
0
LINE
8
annotation
62
1
39
211
10
191.632435
20
287.794745
11
191.521658
21
287.582243
0
LINE
8
annotation
62
1
39
211
10
196.070562
20
303.294832
11
194.383213
21
303.294832
0
LINE
8
annotation
62
1
39
211
10
194.383213
20
303.294832
11
195.942379
21
305.804889
0
LINE
8
annotation
62
1
39
211
10
195.942379
20
305.804889
11
195.942379
21
305.804889
0
LINE
8
annotation
62
1
39
211
10
195.942379
20
305.804889
11
195.944243
21
305.807196
0
LINE
8
annotation
62
1
39
211
10
195.944243
20
305.807196
11
195.946030
21
305.809522
0
LINE
8
annotation
62
1
39
211
10
195.946030
20
305.809522
11
195.947753
21
305.811887
0
LINE
8
annotation
62
1
39
211
10
195.947753
20
305.811887
11
195.949423
21
305.814311
0
LINE
8
annotation
62
1
39
211
10
195.949423
20
305.814311
11
195.951051
21
305.816814
0
LINE
8
annotation
62
1
39
211
10
195.951051
20
305.816814
11
195.952651
21
305.819414
0
LINE
8
annotation
62
1
39
211
10
195.952651
20
305.819414
11
195.954232
21
305.822132
0
LINE
8
annotation
62
1
39
211
10
195.954232
20
305.822132
11
195.955808
21
305.824988
0
LINE
8
annotation
62
1
39
211
10
195.955808
20
305.824988
11
195.957389
21
305.828000
0
LINE
8
annotation
62
1
39
211
10
195.957389
20
305.828000
11
195.957389
21
305.828000
0
LINE
8
annotation
62
1
39
211
10
195.957389
20
305.828000
11
196.021767
21
305.966224
0
LINE
8
annotation
62
1
39
211
10
196.021767
20
305.966224
11
196.059375
21
306.109506
0
LINE
8
annotation
62
1
39
211
10
196.059375
20
306.109506
11
196.071136
21
306.254607
0
LINE
8
annotation
62
1
39
211
10
196.071136
20
306.254607
11
196.057971
21
306.398291
0
LINE
8
annotation
62
1
39
211
10
196.057971
20
306.398291
11
196.020801
21
306.537319
0
LINE
8
annotation
62
1
39
211
10
196.020801
20
306.537319
11
195.960548
21
306.668454
0
LINE
8
annotation
62
1
39
211
10
195.960548
20
306.668454
11
195.878135
21
306.788459
0
LINE
8
annotation
62
1
39
211
10
195.878135
20
306.788459
11
195.774482
21
306.894095
0
LINE
8
annotation
62
1
39
211
10
195.774482
20
306.894095
11
195.650512
21
306.982126
0
LINE
8
annotation
62
1
39
211
10
195.650512
20
306.982126
11
195.650512
21
306.982126
0
LINE
8
annotation
62
1
39
211
10
195.650512
20
306.982126
11
195.511904
21
307.045589
0
LINE
8
annotation
62
1
39
211
10
195.511904
20
307.045589
11
195.368402
21
307.082618
0
LINE
8
annotation
62
1
39
211
10
195.368402
20
307.082618
11
195.223217
21
307.094046
0
LINE
8
annotation
62
1
39
211
10
195.223217
20
307.094046
11
195.079555
21
307.080707
0
LINE
8
annotation
62
1
39
211
10
195.079555
20
307.080707
11
194.940625
21
307.043434
0
LINE
8
annotation
62
1
39
211
10
194.940625
20
307.043434
11
194.809635
21
306.983061
0
LINE
8
annotation
62
1
39
211
10
194.809635
20
306.983061
11
194.689793
21
306.900422
0
LINE
8
annotation
62
1
39
211
10
194.689793
20
306.900422
11
194.584307
21
306.796348
0
LINE
8
annotation
62
1
39
211
10
194.584307
20
306.796348
11
194.496386
21
306.671675
0
LINE
8
annotation
62
1
39
211
10
194.496386
20
306.671675
11
194.385596
21
306.459148
0
LINE
8
annotation
62
1
39
211
10
197.495577
20
303.294982
11
198.339252
21
303.294982
0
LINE
8
annotation
62
1
39
211
10
198.339252
20
303.294982
11
198.339252
21
303.294982
0
LINE
8
annotation
62
1
39
211
10
198.339252
20
303.294982
11
198.490989
21
303.308594
0
LINE
8
annotation
62
1
39
211
10
198.490989
20
303.308594
11
198.633768
21
303.347824
0
LINE
8
annotation
62
1
39
211
10
198.633768
20
303.347824
11
198.765215
21
303.410264
0
LINE
8
annotation
62
1
39
211
10
198.765215
20
303.410264
11
198.882954
21
303.493507
0
LINE
8
annotation
62
1
39
211
10
198.882954
20
303.493507
11
198.984611
21
303.595143
0
LINE
8
annotation
62
1
39
211
10
198.984611
20
303.595143
11
199.067812
21
303.712765
0
LINE
8
annotation
62
1
39
211
10
199.067812
20
303.712765
11
199.130181
21
303.843965
0
LINE
8
annotation
62
1
39
211
10
199.130181
20
303.843965
11
199.169344
21
303.986334
0
LINE
8
annotation
62
1
39
211
10
199.169344
20
303.986334
11
199.182926
21
304.137466
0
LINE
8
annotation
62
1
39
211
10
199.182926
20
304.137466
11
199.182926
21
304.559898
0
LINE
8
annotation
62
1
39
211
10
199.182926
20
304.559898
11
199.182926
21
304.559898
0
LINE
8
annotation
62
1
39
211
10
199.182926
20
304.559898
11
199.169344
21
304.710967
0
LINE
8
annotation
62
1
39
211
10
199.169344
20
304.710967
11
199.130181
21
304.853303
0
LINE
8
annotation
62
1
39
211
10
199.130181
20
304.853303
11
199.067812
21
304.984493
0
LINE
8
annotation
62
1
39
211
10
199.067812
20
304.984493
11
198.984611
21
305.102123
0
LINE
8
annotation
62
1
39
211
10
198.984611
20
305.102123
11
198.882954
21
305.203779
0
LINE
8
annotation
62
1
39
211
10
198.882954
20
305.203779
11
198.765215
21
305.287047
0
LINE
8
annotation
62
1
39
211
10
198.765215
20
305.287047
11
198.633768
21
305.349512
0
LINE
8
annotation
62
1
39
211
10
198.633768
20
305.349512
11
198.490989
21
305.388762
0
LINE
8
annotation
62
1
39
211
10
198.490989
20
305.388762
11
198.339252
21
305.402382
0
LINE
8
annotation
62
1
39
211
10
198.339252
20
305.402382
11
197.916819
21
305.402382
0
LINE
8
annotation
62
1
39
211
10
197.916819
20
305.402382
11
198.339252
21
305.402382
0
LINE
8
annotation
62
1
39
211
10
198.339252
20
305.402382
11
198.339252
21
305.402382
0
LINE
8
annotation
62
1
39
211
10
198.339252
20
305.402382
11
198.490989
21
305.416005
0
LINE
8
annotation
62
1
39
211
10
198.490989
20
305.416005
11
198.633768
21
305.455277
0
LINE
8
annotation
62
1
39
211
10
198.633768
20
305.455277
11
198.765215
21
305.517805
0
LINE
8
annotation
62
1
39
211
10
198.765215
20
305.517805
11
198.882954
21
305.601194
0
LINE
8
annotation
62
1
39
211
10
198.882954
20
305.601194
11
198.984611
21
305.703049
0
LINE
8
annotation
62
1
39
211
10
198.984611
20
305.703049
11
199.067812
21
305.820976
0
LINE
8
annotation
62
1
39
211
10
199.067812
20
305.820976
11
199.130181
21
305.952581
0
LINE
8
annotation
62
1
39
211
10
199.130181
20
305.952581
11
199.169344
21
306.095470
0
LINE
8
annotation
62
1
39
211
10
199.169344
20
306.095470
11
199.182926
21
306.247248
0
LINE
8
annotation
62
1
39
211
10
199.182926
20
306.247248
11
199.182926
21
306.247248
0
LINE
8
annotation
62
1
39
211
10
199.182926
20
306.247248
11
199.169344
21
306.398316
0
LINE
8
annotation
62
1
39
211
10
199.169344
20
306.398316
11
199.130181
21
306.540652
0
LINE
8
annotation
62
1
39
211
10
199.130181
20
306.540652
11
199.067812
21
306.671842
0
LINE
8
annotation
62
1
39
211
10
199.067812
20
306.671842
11
198.984611
21
306.789472
0
LINE
8
annotation
62
1
39
211
10
198.984611
20
306.789472
11
198.882954
21
306.891128
0
LINE
8
annotation
62
1
39
211
10
198.882954
20
306.891128
11
198.765215
21
306.974396
0
LINE
8
annotation
62
1
39
211
10
198.765215
20
306.974396
11
198.633768
21
307.036862
0
LINE
8
annotation
62
1
39
211
10
198.633768
20
307.036862
11
198.490989
21
307.076111
0
LINE
8
annotation
62
1
39
211
10
198.490989
20
307.076111
11
198.339252
21
307.089731
0
LINE
8
annotation
62
1
39
211
10
198.339252
20
307.089731
11
197.495577
21
307.089731
0
LINE
8
annotation
62
1
39
211
10
202.672095
20
322.325167
11
201.121161
21
322.325167
0
LINE
8
annotation
62
1
39
211
10
201.121161
20
322.325167
11
202.554275
21
324.632295
0
LINE
8
annotation
62
1
39
211
10
202.554275
20
324.632295
11
202.554275
21
324.632295
0
LINE
8
annotation
62
1
39
211
10
202.554275
20
324.632295
11
202.555988
21
324.634415
0
LINE
8
annotation
62
1
39
211
10
202.555988
20
324.634415
11
202.557631
21
324.636553
0
LINE
8
annotation
62
1
39
211
10
202.557631
20
324.636553
11
202.559214
21
324.638727
0
LINE
8
annotation
62
1
39
211
10
202.559214
20
324.638727
11
202.560749
21
324.640955
0
LINE
8
annotation
62
1
39
211
10
202.560749
20
324.640955
11
202.562246
21
324.643256
0
LINE
8
annotation
62
1
39
211
10
202.562246
20
324.643256
11
202.563716
21
324.645646
0
LINE
8
annotation
62
1
39
211
10
202.563716
20
324.645646
11
202.565169
21
324.648145
0
LINE
8
annotation
62
1
39
211
10
202.565169
20
324.648145
11
202.566618
21
324.650769
0
LINE
8
annotation
62
1
39
211
10
202.566618
20
324.650769
11
202.568071
21
324.653538
0
LINE
8
annotation
62
1
39
211
10
202.568071
20
324.653538
11
202.568071
21
324.653538
0
LINE
8
annotation
62
1
39
211
10
202.568071
20
324.653538
11
202.627244
21
324.780587
0
LINE
8
annotation
62
1
39
211
10
202.627244
20
324.780587
11
202.661812
21
324.912285
0
LINE
8
annotation
62
1
39
211
10
202.661812
20
324.912285
11
202.672622
21
325.045655
0
LINE
8
annotation
62
1
39
211
10
202.672622
20
325.045655
11
202.660521
21
325.177723
0
LINE
8
annotation
62
1
39
211
10
202.660521
20
325.177723
11
202.626356
21
325.305511
0
LINE
8
annotation
62
1
39
211
10
202.626356
20
325.305511
11
202.570975
21
325.426044
0
LINE
8
annotation
62
1
39
211
10
202.570975
20
325.426044
11
202.495225
21
325.536347
0
LINE
8
annotation
62
1
39
211
10
202.495225
20
325.536347
11
202.399952
21
325.633443
0
LINE
8
annotation
62
1
39
211
10
202.399952
20
325.633443
11
202.286004
21
325.714357
0
LINE
8
annotation
62
1
39
211
10
202.286004
20
325.714357
11
202.286004
21
325.714357
0
LINE
8
annotation
62
1
39
211
10
202.286004
20
325.714357
11
202.158601
21
325.772689
0
LINE
8
annotation
62
1
39
211
10
202.158601
20
325.772689
11
202.026702
21
325.806724
0
LINE
8
annotation
62
1
39
211
10
202.026702
20
325.806724
11
201.893254
21
325.817229
0
LINE
8
annotation
62
1
39
211
10
201.893254
20
325.817229
11
201.761207
21
325.804968
0
LINE
8
annotation
62
1
39
211
10
201.761207
20
325.804968
11
201.633508
21
325.770709
0
LINE
8
annotation
62
1
39
211
10
201.633508
20
325.770709
11
201.513108
21
325.715217
0
LINE
8
annotation
62
1
39
211
10
201.513108
20
325.715217
11
201.402955
21
325.639258
0
LINE
8
annotation
62
1
39
211
10
201.402955
20
325.639258
11
201.305998
21
325.543599
0
LINE
8
annotation
62
1
39
211
10
201.305998
20
325.543599
11
201.225185
21
325.429005
0
LINE
8
annotation
62
1
39
211
10
201.225185
20
325.429005
11
201.123351
21
325.233660
0
LINE
8
annotation
62
1
39
211
10
205.920898
20
323.101538
11
203.981903
21
323.101538
0
LINE
8
annotation
62
1
39
211
10
203.981903
20
323.101538
11
204.756274
21
325.817314
0
LINE
8
annotation
62
1
39
211
10
205.339681
20
322.325196
11
205.339681
21
323.876129
0
LINE
8
annotation
62
1
39
211
10
127.888828
20
53.843763
11
125.891132
21
50.954278
0
LINE
8
annotation
62
1
39
211
10
125.891132
20
50.954278
11
123.893060
21
53.843763
0
LINE
8
annotation
62
1
39
211
10
125.891132
20
51.186804
11
125.891132
21
47.853303
0
LINE
8
annotation
62
1
39
211
10
133.411137
20
50.848533
11
130.135861
21
50.848533
0
LINE
8
annotation
62
1
39
211
10
136.321001
20
47.853491
11
136.321001
21
47.853491
0
LINE
8
annotation
62
1
39
211
10
136.321001
20
47.853491
11
136.701390
21
47.995243
0
LINE
8
annotation
62
1
39
211
10
136.701390
20
47.995243
11
137.050540
21
48.186846
0
LINE
8
annotation
62
1
39
211
10
137.050540
20
48.186846
11
137.364843
21
48.423419
0
LINE
8
annotation
62
1
39
211
10
137.364843
20
48.423419
11
137.640691
21
48.700079
0
LINE
8
annotation
62
1
39
211
10
137.640691
20
48.700079
11
137.874475
21
49.011945
0
LINE
8
annotation
62
1
39
211
10
137.874475
20
49.011945
11
138.062589
21
49.354135
0
LINE
8
annotation
62
1
39
211
10
138.062589
20
49.354135
11
138.201422
21
49.721768
0
LINE
8
annotation
62
1
39
211
10
138.201422
20
49.721768
11
138.287368
21
50.109960
0
LINE
8
annotation
62
1
39
211
10
138.287368
20
50.109960
11
138.316819
21
50.513831
0
LINE
8
annotation
62
1
39
211
10
138.316819
20
50.513831
11
138.316819
21
52.511527
0
LINE
8
annotation
62
1
39
211
10
138.316819
20
52.511527
11
138.316819
21
52.511527
0
LINE
8
annotation
62
1
39
211
10
138.316819
20
52.511527
11
138.295405
21
52.750826
0
LINE
8
annotation
62
1
39
211
10
138.295405
20
52.750826
11
138.233659
21
52.976109
0
LINE
8
annotation
62
1
39
211
10
138.233659
20
52.976109
11
138.135325
21
53.183603
0
LINE
8
annotation
62
1
39
211
10
138.135325
20
53.183603
11
138.004148
21
53.369532
0
LINE
8
annotation
62
1
39
211
10
138.004148
20
53.369532
11
137.843871
21
53.530121
0
LINE
8
annotation
62
1
39
211
10
137.843871
20
53.530121
11
137.658238
21
53.661595
0
LINE
8
annotation
62
1
39
211
10
137.658238
20
53.661595
11
137.450994
21
53.760178
0
LINE
8
annotation
62
1
39
211
10
137.450994
20
53.760178
11
137.225883
21
53.822097
0
LINE
8
annotation
62
1
39
211
10
137.225883
20
53.822097
11
136.986649
21
53.843575
0
LINE
8
annotation
62
1
39
211
10
136.986649
20
53.843575
11
136.986649
21
53.843575
0
LINE
8
annotation
62
1
39
211
10
136.986649
20
53.843575
11
136.747909
21
53.822097
0
LINE
8
annotation
62
1
39
211
10
136.747909
20
53.822097
11
136.523061
21
53.760178
0
LINE
8
annotation
62
1
39
211
10
136.523061
20
53.760178
11
136.315895
21
53.661595
0
LINE
8
annotation
62
1
39
211
10
136.315895
20
53.661595
11
136.130200
21
53.530121
0
LINE
8
annotation
62
1
39
211
10
136.130200
20
53.530121
11
135.969769
21
53.369532
0
LINE
8
annotation
62
1
39
211
10
135.969769
20
53.369532
11
135.838390
21
53.183603
0
LINE
8
annotation
62
1
39
211
10
135.838390
20
53.183603
11
135.739855
21
52.976109
0
LINE
8
annotation
62
1
39
211
10
135.739855
20
52.976109
11
135.677955
21
52.750826
0
LINE
8
annotation
62
1
39
211
10
135.677955
20
52.750826
11
135.656479
21
52.511527
0
LINE
8
annotation
62
1
39
211
10
135.656479
20
52.511527
11
135.656479
21
51.845503
0
LINE
8
annotation
62
1
39
211
10
135.656479
20
51.845503
11
135.656479
21
51.845503
0
LINE
8
annotation
62
1
39
211
10
135.656479
20
51.845503
11
135.677955
21
51.606217
0
LINE
8
annotation
62
1
39
211
10
135.677955
20
51.606217
11
135.739855
21
51.380968
0
LINE
8
annotation
62
1
39
211
10
135.739855
20
51.380968
11
135.838390
21
51.173524
0
LINE
8
annotation
62
1
39
211
10
135.838390
20
51.173524
11
135.969769
21
50.987655
0
LINE
8
annotation
62
1
39
211
10
135.969769
20
50.987655
11
136.130200
21
50.827128
0
LINE
8
annotation
62
1
39
211
10
136.130200
20
50.827128
11
136.315895
21
50.695714
0
LINE
8
annotation
62
1
39
211
10
136.315895
20
50.695714
11
136.523061
21
50.597180
0
LINE
8
annotation
62
1
39
211
10
136.523061
20
50.597180
11
136.747909
21
50.535296
0
LINE
8
annotation
62
1
39
211
10
136.747909
20
50.535296
11
136.986649
21
50.513831
0
LINE
8
annotation
62
1
39
211
10
136.986649
20
50.513831
11
138.316819
21
50.513831
0
LINE
8
annotation
62
1
39
211
10
135.490255
20
47.104730
11
138.485297
21
47.104730
0
LINE
8
boundary
62
5
39
2
10
253.657104
20
191.511142
11
253.221709
21
195.761609
0
LINE
8
boundary
62
5
39
2
10
253.221709
20
195.761609
11
252.850759
21
199.329518
0
LINE
8
boundary
62
5
39
2
10
252.850759
20
199.329518
11
252.698576
21
200.809253
0
LINE
8
boundary
62
5
39
2
10
252.698576
20
200.809253
11
252.380392
21
203.816877
0
LINE
8
boundary
62
5
39
2
10
252.380392
20
203.816877
11
236.805846
21
203.966874
0
LINE
8
boundary
62
5
39
2
10
236.805846
20
203.966874
11
236.805846
21
206.712874
0
LINE
8
boundary
62
5
39
2
10
236.805846
20
206.712874
11
252.041217
21
206.712874
0
LINE
8
boundary
62
5
39
2
10
252.041217
20
206.712874
11
251.889243
21
208.307268
0
LINE
8
boundary
62
5
39
2
10
251.889243
20
208.307268
11
251.434781
21
212.385310
0
LINE
8
boundary
62
5
39
2
10
251.434781
20
212.385310
11
250.915865
21
216.780857
0
LINE
8
boundary
62
5
39
2
10
250.915865
20
216.780857
11
250.788203
21
217.869719
0
LINE
8
boundary
62
5
39
2
10
250.788203
20
217.869719
11
250.499179
21
220.171141
0
LINE
8
boundary
62
5
39
2
10
250.499179
20
220.171141
11
250.172871
21
222.739036
0
LINE
8
boundary
62
5
39
2
10
250.172871
20
222.739036
11
234.151744
21
222.889035
0
LINE
8
boundary
62
5
39
2
10
234.151744
20
222.889035
11
234.151744
21
225.635035
0
LINE
8
boundary
62
5
39
2
10
234.151744
20
225.635035
11
249.752355
21
225.635035
0
LINE
8
boundary
62
5
39
2
10
249.752355
20
225.635035
11
249.436450
21
228.190513
0
LINE
8
boundary
62
5
39
2
10
249.436450
20
228.190513
11
248.977456
21
231.340777
0
LINE
8
boundary
62
5
39
2
10
248.977456
20
231.340777
11
248.730211
21
233.040814
0
LINE
8
boundary
62
5
39
2
10
248.730211
20
233.040814
11
248.002873
21
237.678570
0
LINE
8
boundary
62
5
39
2
10
248.002873
20
237.678570
11
247.323822
21
241.661198
0
LINE
8
boundary
62
5
39
2
10
247.323822
20
241.661198
11
231.527604
21
241.811196
0
LINE
8
boundary
62
5
39
2
10
231.527604
20
241.811196
11
231.527604
21
244.557196
0
LINE
8
boundary
62
5
39
2
10
231.527604
20
244.557196
11
246.763451
21
244.557196
0
LINE
8
boundary
62
5
39
2
10
246.763451
20
244.557196
11
246.475314
21
246.270794
0
LINE
8
boundary
62
5
39
2
10
246.475314
20
246.270794
11
246.186217
21
247.766930
0
LINE
8
boundary
62
5
39
2
10
246.186217
20
247.766930
11
245.842648
21
249.448494
0
LINE
8
boundary
62
5
39
2
10
245.842648
20
249.448494
11
245.635971
21
250.457064
0
LINE
8
boundary
62
5
39
2
10
245.635971
20
250.457064
11
245.194845
21
252.489679
0
LINE
8
boundary
62
5
39
2
10
245.194845
20
252.489679
11
245.069514
21
253.065311
0
LINE
8
boundary
62
5
39
2
10
245.069514
20
253.065311
11
244.680374
21
254.763660
0
LINE
8
boundary
62
5
39
2
10
244.680374
20
254.763660
11
244.189835
21
256.813709
0
LINE
8
boundary
62
5
39
2
10
244.189835
20
256.813709
11
243.728874
21
258.637086
0
LINE
8
boundary
62
5
39
2
10
243.728874
20
258.637086
11
243.259644
21
260.403688
0
LINE
8
boundary
62
5
39
2
10
243.259644
20
260.403688
11
228.446991
21
260.733356
0
LINE
8
boundary
62
5
39
2
10
228.446991
20
260.733356
11
228.446991
21
263.479357
0
LINE
8
boundary
62
5
39
2
10
228.446991
20
263.479357
11
242.326985
21
263.479357
0
LINE
8
boundary
62
5
39
2
10
242.326985
20
263.479357
11
242.096667
21
264.417730
0
LINE
8
boundary
62
5
39
2
10
242.096667
20
264.417730
11
241.778752
21
265.443787
0
LINE
8
boundary
62
5
39
2
10
241.778752
20
265.443787
11
241.540163
21
266.177418
0
LINE
8
boundary
62
5
39
2
10
241.540163
20
266.177418
11
241.258833
21
267.038609
0
LINE
8
boundary
62
5
39
2
10
241.258833
20
267.038609
11
240.968933
21
267.883260
0
LINE
8
boundary
62
5
39
2
10
240.968933
20
267.883260
11
240.724807
21
268.591510
0
LINE
8
boundary
62
5
39
2
10
240.724807
20
268.591510
11
240.382177
21
269.536722
0
LINE
8
boundary
62
5
39
2
10
240.382177
20
269.536722
11
240.176094
21
270.102910
0
LINE
8
boundary
62
5
39
2
10
240.176094
20
270.102910
11
239.779145
21
271.138891
0
LINE
8
boundary
62
5
39
2
10
239.779145
20
271.138891
11
239.159016
21
272.691078
0
LINE
8
boundary
62
5
39
2
10
239.159016
20
272.691078
11
238.520977
21
274.194391
0
LINE
8
boundary
62
5
39
2
10
238.520977
20
274.194391
11
237.864195
21
275.649913
0
LINE
8
boundary
62
5
39
2
10
237.864195
20
275.649913
11
237.237160
21
276.956295
0
LINE
8
boundary
62
5
39
2
10
237.237160
20
276.956295
11
236.541270
21
278.316629
0
LINE
8
boundary
62
5
39
2
10
236.541270
20
278.316629
11
235.892215
21
279.505517
0
LINE
8
boundary
62
5
39
2
10
235.892215
20
279.505517
11
224.050236
21
279.655517
0
LINE
8
boundary
62
5
39
2
10
224.050236
20
279.655517
11
224.050236
21
282.401517
0
LINE
8
boundary
62
5
39
2
10
224.050236
20
282.401517
11
234.049855
21
282.401518
0
LINE
8
boundary
62
5
39
2
10
234.049855
20
282.401518
11
233.770125
21
283.005071
0
LINE
8
boundary
62
5
39
2
10
233.770125
20
283.005071
11
233.393499
21
283.552333
0
LINE
8
boundary
62
5
39
2
10
233.393499
20
283.552333
11
232.795842
21
284.418697
0
LINE
8
boundary
62
5
39
2
10
232.795842
20
284.418697
11
232.320665
21
285.058505
0
LINE
8
boundary
62
5
39
2
10
232.320665
20
285.058505
11
231.802529
21
285.754416
0
LINE
8
boundary
62
5
39
2
10
231.802529
20
285.754416
11
231.234540
21
286.462255
0
LINE
8
boundary
62
5
39
2
10
231.234540
20
286.462255
11
230.794020
21
287.009765
0
LINE
8
boundary
62
5
39
2
10
230.794020
20
287.009765
11
230.141719
21
287.760413
0
LINE
8
boundary
62
5
39
2
10
230.141719
20
287.760413
11
229.774223
21
288.182053
0
LINE
8
boundary
62
5
39
2
10
229.774223
20
288.182053
11
229.048728
21
288.950343
0
LINE
8
boundary
62
5
39
2
10
229.048728
20
288.950343
11
227.961930
21
290.029995
0
LINE
8
boundary
62
5
39
2
10
227.961930
20
290.029995
11
226.887450
21
290.997963
0
LINE
8
boundary
62
5
39
2
10
226.887450
20
290.997963
11
225.831083
21
291.853521
0
LINE
8
boundary
62
5
39
2
10
225.831083
20
291.853521
11
224.798271
21
292.596557
0
LINE
8
boundary
62
5
39
2
10
224.798271
20
292.596557
11
223.794106
21
293.227459
0
LINE
8
boundary
62
5
39
2
10
223.794106
20
293.227459
11
222.823130
21
293.747389
0
LINE
8
boundary
62
5
39
2
10
222.823130
20
293.747389
11
221.889452
21
294.157985
0
LINE
8
boundary
62
5
39
2
10
221.889452
20
294.157985
11
220.996606
21
294.461484
0
LINE
8
boundary
62
5
39
2
10
220.996606
20
294.461484
11
220.147583
21
294.660671
0
LINE
8
boundary
62
5
39
2
10
220.147583
20
294.660671
11
219.344797
21
294.758773
0
LINE
8
boundary
62
5
39
2
10
219.344797
20
294.758773
11
218.590099
21
294.759464
0
LINE
8
boundary
62
5
39
2
10
218.590099
20
294.759464
11
217.884710
21
294.666895
0
LINE
8
boundary
62
5
39
2
10
217.884710
20
294.666895
11
217.229249
21
294.485631
0
LINE
8
boundary
62
5
39
2
10
217.229249
20
294.485631
11
216.683165
21
294.256826
0
LINE
8
boundary
62
5
39
2
10
216.683165
20
294.256826
11
216.070352
21
293.865256
0
LINE
8
boundary
62
5
39
2
10
216.070352
20
293.865256
11
215.570114
21
293.422197
0
LINE
8
boundary
62
5
39
2
10
215.570114
20
293.422197
11
215.119834
21
292.907724
0
LINE
8
boundary
62
5
39
2
10
215.119834
20
292.907724
11
214.717256
21
292.328060
0
LINE
8
boundary
62
5
39
2
10
214.717256
20
292.328060
11
214.372384
21
291.719016
0
LINE
8
boundary
62
5
39
2
10
214.372384
20
291.719016
11
214.051875
21
290.967561
0
LINE
8
boundary
62
5
39
2
10
214.051875
20
290.967561
11
213.782866
21
290.194141
0
LINE
8
boundary
62
5
39
2
10
213.782866
20
290.194141
11
213.606597
21
289.625691
0
LINE
8
boundary
62
5
39
2
10
213.606597
20
289.625691
11
213.418168
21
288.820704
0
LINE
8
boundary
62
5
39
2
10
213.418168
20
288.820704
11
213.181158
21
287.592692
0
LINE
8
boundary
62
5
39
2
10
213.181158
20
287.592692
11
213.085224
21
287.013730
0
LINE
8
boundary
62
5
39
2
10
213.085224
20
287.013730
11
212.956705
21
285.927562
0
LINE
8
boundary
62
5
39
2
10
212.956705
20
285.927562
11
212.838673
21
284.624258
0
LINE
8
boundary
62
5
39
2
10
212.838673
20
284.624258
11
212.785461
21
283.918270
0
LINE
8
boundary
62
5
39
2
10
212.785461
20
283.918270
11
212.745196
21
282.990918
0
LINE
8
boundary
62
5
39
2
10
212.745196
20
282.990918
11
212.710709
21
282.202023
0
LINE
8
boundary
62
5
39
2
10
212.710709
20
282.202023
11
212.696841
21
281.371490
0
LINE
8
boundary
62
5
39
2
10
212.696841
20
281.371490
11
212.681607
21
280.381682
0
LINE
8
boundary
62
5
39
2
10
212.681607
20
280.381682
11
212.689878
21
279.079497
0
LINE
8
boundary
62
5
39
2
10
212.689878
20
279.079497
11
212.693910
21
278.461381
0
LINE
8
boundary
62
5
39
2
10
212.693910
20
278.461381
11
212.708355
21
277.902268
0
LINE
8
boundary
62
5
39
2
10
212.708355
20
277.902268
11
212.729157
21
277.096293
0
LINE
8
boundary
62
5
39
2
10
212.729157
20
277.096293
11
212.744394
21
276.449548
0
LINE
8
boundary
62
5
39
2
10
212.744394
20
276.449548
11
212.800453
21
275.060206
0
LINE
8
boundary
62
5
39
2
10
212.800453
20
275.060206
11
212.828372
21
274.350902
0
LINE
8
boundary
62
5
39
2
10
212.828372
20
274.350902
11
212.875512
21
273.491334
0
LINE
8
boundary
62
5
39
2
10
212.875512
20
273.491334
11
212.945164
21
272.182831
0
LINE
8
boundary
62
5
39
2
10
212.945164
20
272.182831
11
213.009849
21
271.200736
0
LINE
8
boundary
62
5
39
2
10
213.009849
20
271.200736
11
213.067296
21
270.283215
0
LINE
8
boundary
62
5
39
2
10
213.067296
20
270.283215
11
213.184508
21
268.623313
0
LINE
8
boundary
62
5
39
2
10
213.184508
20
268.623313
11
213.253630
21
267.643508
0
LINE
8
boundary
62
5
39
2
10
213.253630
20
267.643508
11
213.310186
21
266.958562
0
LINE
8
boundary
62
5
39
2
10
213.310186
20
266.958562
11
213.441905
21
265.301397
0
LINE
8
boundary
62
5
39
2
10
213.441905
20
265.301397
11
213.590645
21
263.557354
0
LINE
8
boundary
62
5
39
2
10
213.590645
20
263.557354
11
213.643884
21
262.907449
0
LINE
8
boundary
62
5
39
2
10
213.643884
20
262.907449
11
213.744026
21
261.822918
0
LINE
8
boundary
62
5
39
2
10
213.744026
20
261.822918
11
213.862488
21
260.489198
0
LINE
8
boundary
62
5
39
2
10
213.862488
20
260.489198
11
213.996791
21
259.077163
0
LINE
8
boundary
62
5
39
2
10
213.996791
20
259.077163
11
214.175461
21
257.201379
0
LINE
8
boundary
62
5
39
2
10
214.175461
20
257.201379
11
214.326503
21
255.665881
0
LINE
8
boundary
62
5
39
2
10
214.326503
20
255.665881
11
214.393318
21
254.971288
0
LINE
8
boundary
62
5
39
2
10
214.393318
20
254.971288
11
214.481327
21
254.125467
0
LINE
8
boundary
62
5
39
2
10
214.481327
20
254.125467
11
214.580974
21
253.126391
0
LINE
8
boundary
62
5
39
2
10
214.580974
20
253.126391
11
214.639820
21
252.578630
0
LINE
8
boundary
62
5
39
2
10
214.639820
20
252.578630
11
214.773215
21
251.283192
0
LINE
8
boundary
62
5
39
2
10
214.773215
20
251.283192
11
214.958927
21
249.541616
0
LINE
8
boundary
62
5
39
2
10
214.958927
20
249.541616
11
215.119198
21
248.054435
0
LINE
8
boundary
62
5
39
2
10
215.119198
20
248.054435
11
215.203048
21
247.256350
0
LINE
8
boundary
62
5
39
2
10
215.203048
20
247.256350
11
215.360844
21
245.745772
0
LINE
8
boundary
62
5
39
2
10
215.360844
20
245.745772
11
215.497961
21
244.603412
0
LINE
8
boundary
62
5
39
2
10
215.497961
20
244.603412
11
215.571541
21
243.924367
0
LINE
8
boundary
62
5
39
2
10
215.571541
20
243.924367
11
215.666207
21
243.074715
0
LINE
8
boundary
62
5
39
2
10
215.666207
20
243.074715
11
215.779355
21
242.092495
0
LINE
8
boundary
62
5
39
2
10
215.779355
20
242.092495
11
215.898425
21
241.050010
0
LINE
8
boundary
62
5
39
2
10
215.898425
20
241.050010
11
215.991799
21
240.259625
0
LINE
8
boundary
62
5
39
2
10
215.991799
20
240.259625
11
216.132573
21
239.058916
0
LINE
8
boundary
62
5
39
2
10
216.132573
20
239.058916
11
216.209775
21
238.422252
0
LINE
8
boundary
62
5
39
2
10
216.209775
20
238.422252
11
216.369803
21
237.093907
0
LINE
8
boundary
62
5
39
2
10
216.369803
20
237.093907
11
216.434157
21
236.577112
0
LINE
8
boundary
62
5
39
2
10
216.434157
20
236.577112
11
216.611213
21
235.147966
0
LINE
8
boundary
62
5
39
2
10
216.611213
20
235.147966
11
216.857827
21
233.214774
0
LINE
8
boundary
62
5
39
2
10
216.857827
20
233.214774
11
217.110609
21
231.288555
0
LINE
8
boundary
62
5
39
2
10
217.110609
20
231.288555
11
217.370378
21
229.364795
0
LINE
8
boundary
62
5
39
2
10
217.370378
20
229.364795
11
217.637804
21
227.439976
0
LINE
8
boundary
62
5
39
2
10
217.637804
20
227.439976
11
217.913399
21
225.511047
0
LINE
8
boundary
62
5
39
2
10
217.913399
20
225.511047
11
218.197616
21
223.575341
0
LINE
8
boundary
62
5
39
2
10
218.197616
20
223.575341
11
218.490879
21
221.630503
0
LINE
8
boundary
62
5
39
2
10
218.490879
20
221.630503
11
218.793532
21
219.674596
0
LINE
8
boundary
62
5
39
2
10
218.793532
20
219.674596
11
219.105873
21
217.706019
0
LINE
8
boundary
62
5
39
2
10
219.105873
20
217.706019
11
219.428177
21
215.723326
0
LINE
8
boundary
62
5
39
2
10
219.428177
20
215.723326
11
220.172665
21
211.331191
0
LINE
8
boundary
62
5
39
2
10
220.172665
20
211.331191
11
220.444703
21
209.754107
0
LINE
8
boundary
62
5
39
2
10
220.444703
20
209.754107
11
221.116109
21
206.032131
0
LINE
8
boundary
62
5
39
2
10
221.116109
20
206.032131
11
221.458644
21
204.155327
0
LINE
8
boundary
62
5
39
2
10
221.458644
20
204.155327
11
221.972421
21
201.441868
0
LINE
8
boundary
62
5
39
2
10
221.972421
20
201.441868
11
222.267206
21
199.899734
0
LINE
8
boundary
62
5
39
2
10
222.267206
20
199.899734
11
222.797265
21
197.208137
0
LINE
8
boundary
62
5
39
2
10
222.797265
20
197.208137
11
223.115302
21
195.606022
0
LINE
8
boundary
62
5
39
2
10
223.115302
20
195.606022
11
223.677075
21
192.858603
0
LINE
8
boundary
62
5
39
2
10
223.677075
20
192.858603
11
224.001374
21
191.283052
0
LINE
8
boundary
62
5
39
2
10
224.001374
20
191.283052
11
224.300073
21
189.861406
0
LINE
8
boundary
62
5
39
2
10
224.300073
20
189.861406
11
224.458193
21
189.113210
0
LINE
8
boundary
62
5
39
2
10
224.458193
20
189.113210
11
224.773082
21
187.640877
0
LINE
8
boundary
62
5
39
2
10
224.773082
20
187.640877
11
224.923959
21
186.939134
0
LINE
8
boundary
62
5
39
2
10
224.923959
20
186.939134
11
225.258967
21
185.399924
0
LINE
8
boundary
62
5
39
2
10
225.258967
20
185.399924
11
225.398511
21
184.761798
0
LINE
8
boundary
62
5
39
2
10
225.398511
20
184.761798
11
225.758126
21
183.137841
0
LINE
8
boundary
62
5
39
2
10
225.758126
20
183.137841
11
225.881694
21
182.582150
0
LINE
8
boundary
62
5
39
2
10
225.881694
20
182.582150
11
226.271005
21
180.853792
0
LINE
8
boundary
62
5
39
2
10
226.271005
20
180.853792
11
226.797895
21
178.547159
0
LINE
8
boundary
62
5
39
2
10
226.797895
20
178.547159
11
227.338592
21
176.217897
0
LINE
8
boundary
62
5
39
2
10
227.338592
20
176.217897
11
227.892726
21
173.866143
0
LINE
8
boundary
62
5
39
2
10
227.892726
20
173.866143
11
228.413961
21
171.674036
0
LINE
8
boundary
62
5
39
2
10
228.413961
20
171.674036
11
228.937916
21
169.493929
0
LINE
8
boundary
62
5
39
2
10
228.937916
20
169.493929
11
229.182622
21
168.487273
0
LINE
8
boundary
62
5
39
2
10
229.182622
20
168.487273
11
229.823239
21
165.857930
0
LINE
8
boundary
62
5
39
2
10
229.823239
20
165.857930
11
230.338890
21
163.767896
0
LINE
8
boundary
62
5
39
2
10
230.338890
20
163.767896
11
230.721961
21
162.218240
0
LINE
8
boundary
62
5
39
2
10
230.721961
20
162.218240
11
231.566685
21
158.835976
0
LINE
8
boundary
62
5
39
2
10
231.566685
20
158.835976
11
231.796807
21
157.921381
0
LINE
8
boundary
62
5
39
2
10
231.796807
20
157.921381
11
232.542804
21
154.933989
0
LINE
8
boundary
62
5
39
2
10
232.542804
20
154.933989
11
232.868512
21
153.634938
0
LINE
8
boundary
62
5
39
2
10
232.868512
20
153.634938
11
233.457989
21
151.289076
0
LINE
8
boundary
62
5
39
2
10
233.457989
20
151.289076
11
234.241638
21
148.176778
0
LINE
8
boundary
62
5
39
2
10
234.241638
20
148.176778
11
234.378020
21
147.636189
0
LINE
8
boundary
62
5
39
2
10
234.378020
20
147.636189
11
234.627844
21
146.645952
0
LINE
8
boundary
62
5
39
2
10
234.627844
20
146.645952
11
235.289727
21
143.983622
0
LINE
8
boundary
62
5
39
2
10
235.289727
20
143.983622
11
235.681245
21
142.403004
0
LINE
8
boundary
62
5
39
2
10
235.681245
20
142.403004
11
236.197719
21
140.322756
0
LINE
8
boundary
62
5
39
2
10
236.197719
20
140.322756
11
236.991253
21
137.108934
0
LINE
8
boundary
62
5
39
2
10
236.991253
20
137.108934
11
237.179606
21
136.328908
0
LINE
8
boundary
62
5
39
2
10
237.179606
20
136.328908
11
237.987771
21
132.972968
0
LINE
8
boundary
62
5
39
2
10
237.987771
20
132.972968
11
238.717213
21
129.912488
0
LINE
8
boundary
62
5
39
2
10
238.717213
20
129.912488
11
238.869050
21
129.276741
0
LINE
8
boundary
62
5
39
2
10
238.869050
20
129.276741
11
239.063904
21
128.453028
0
LINE
8
boundary
62
5
39
2
10
239.063904
20
128.453028
11
239.301911
21
127.424128
0
LINE
8
boundary
62
5
39
2
10
239.301911
20
127.424128
11
239.728634
21
125.567860
0
LINE
8
boundary
62
5
39
2
10
239.728634
20
125.567860
11
239.919384
21
124.731121
0
LINE
8
boundary
62
5
39
2
10
239.919384
20
124.731121
11
240.153860
21
123.705205
0
LINE
8
boundary
62
5
39
2
10
240.153860
20
123.705205
11
240.468298
21
122.317086
0
LINE
8
boundary
62
5
39
2
10
240.468298
20
122.317086
11
240.944600
21
120.204435
0
LINE
8
boundary
62
5
39
2
10
240.944600
20
120.204435
11
241.407292
21
118.080914
0
LINE
8
boundary
62
5
39
2
10
241.407292
20
118.080914
11
241.545764
21
117.438906
0
LINE
8
boundary
62
5
39
2
10
241.545764
20
117.438906
11
241.814883
21
116.193049
0
LINE
8
boundary
62
5
39
2
10
241.814883
20
116.193049
11
242.075121
21
114.976995
0
LINE
8
boundary
62
5
39
2
10
242.075121
20
114.976995
11
242.220788
21
114.297066
0
LINE
8
boundary
62
5
39
2
10
242.220788
20
114.297066
11
242.601499
21
112.503394
0
LINE
8
boundary
62
5
39
2
10
242.601499
20
112.503394
11
243.018606
21
110.480792
0
LINE
8
boundary
62
5
39
2
10
243.018606
20
110.480792
11
243.408673
21
108.559219
0
LINE
8
boundary
62
5
39
2
10
243.408673
20
108.559219
11
243.620155
21
107.509408
0
LINE
8
boundary
62
5
39
2
10
243.620155
20
107.509408
11
243.797531
21
106.628210
0
LINE
8
boundary
62
5
39
2
10
243.797531
20
106.628210
11
244.124249
21
104.994421
0
LINE
8
boundary
62
5
39
2
10
244.124249
20
104.994421
11
244.390972
21
103.653334
0
LINE
8
boundary
62
5
39
2
10
244.390972
20
103.653334
11
245.082911
21
100.044607
0
LINE
8
boundary
62
5
39
2
10
245.082911
20
100.044607
11
245.527168
21
97.723562
0
LINE
8
boundary
62
5
39
2
10
245.527168
20
97.723562
11
245.684667
21
96.898096
0
LINE
8
boundary
62
5
39
2
10
245.684667
20
96.898096
11
245.813531
21
96.218386
0
LINE
8
boundary
62
5
39
2
10
245.813531
20
96.218386
11
246.008743
21
95.183988
0
LINE
8
boundary
62
5
39
2
10
246.008743
20
95.183988
11
246.782618
21
90.979765
0
LINE
8
boundary
62
5
39
2
10
246.782618
20
90.979765
11
247.123959
21
89.135080
0
LINE
8
boundary
62
5
39
2
10
247.123959
20
89.135080
11
247.545303
21
86.846011
0
LINE
8
boundary
62
5
39
2
10
247.545303
20
86.846011
11
247.720267
21
85.871497
0
LINE
8
boundary
62
5
39
2
10
247.720267
20
85.871497
11
248.180516
21
83.313910
0
LINE
8
boundary
62
5
39
2
10
248.180516
20
83.313910
11
248.485693
21
81.640598
0
LINE
8
boundary
62
5
39
2
10
248.485693
20
81.640598
11
248.646634
21
80.745758
0
LINE
8
boundary
62
5
39
2
10
248.646634
20
80.745758
11
248.982720
21
78.910449
0
LINE
8
boundary
62
5
39
2
10
248.982720
20
78.910449
11
249.114198
21
78.174583
0
LINE
8
boundary
62
5
39
2
10
249.114198
20
78.174583
11
249.575515
21
75.611896
0
LINE
8
boundary
62
5
39
2
10
249.575515
20
75.611896
11
249.894540
21
73.873554
0
LINE
8
boundary
62
5
39
2
10
249.894540
20
73.873554
11
250.045555
21
73.039473
0
LINE
8
boundary
62
5
39
2
10
250.045555
20
73.039473
11
250.327724
21
71.517303
0
LINE
8
boundary
62
5
39
2
10
250.327724
20
71.517303
11
250.517862
21
70.471249
0
LINE
8
boundary
62
5
39
2
10
250.517862
20
70.471249
11
250.630789
21
69.865170
0
LINE
8
boundary
62
5
39
2
10
250.630789
20
69.865170
11
250.989748
21
67.913704
0
LINE
8
boundary
62
5
39
2
10
250.989748
20
67.913704
11
251.397497
21
65.756212
0
LINE
8
boundary
62
5
39
2
10
251.397497
20
65.756212
11
251.599496
21
64.693206
0
LINE
8
boundary
62
5
39
2
10
251.599496
20
64.693206
11
251.899404
21
63.110628
0
LINE
8
boundary
62
5
39
2
10
251.899404
20
63.110628
11
252.205686
21
61.533072
0
LINE
8
boundary
62
5
39
2
10
252.205686
20
61.533072
11
252.311826
21
60.983390
0
LINE
8
boundary
62
5
39
2
10
252.311826
20
60.983390
11
252.416805
21
60.453772
0
LINE
8
boundary
62
5
39
2
10
252.416805
20
60.453772
11
252.724500
21
58.885082
0
LINE
8
boundary
62
5
39
2
10
252.724500
20
58.885082
11
253.068582
21
57.177165
0
LINE
8
boundary
62
5
39
2
10
253.068582
20
57.177165
11
253.218468
21
56.440241
0
LINE
8
boundary
62
5
39
2
10
253.218468
20
56.440241
11
253.570406
21
54.722662
0
LINE
8
boundary
62
5
39
2
10
253.570406
20
54.722662
11
254.002986
21
52.672006
0
LINE
8
boundary
62
5
39
2
10
254.002986
20
52.672006
11
254.444135
21
50.629470
0
LINE
8
boundary
62
5
39
2
10
254.444135
20
50.629470
11
254.796376
21
49.048825
0
LINE
8
boundary
62
5
39
2
10
254.796376
20
49.048825
11
255.036350
21
47.990198
0
LINE
8
boundary
62
5
39
2
10
255.036350
20
47.990198
11
255.353348
21
46.610788
0
LINE
8
boundary
62
5
39
2
10
255.353348
20
46.610788
11
255.583567
21
45.641164
0
LINE
8
boundary
62
5
39
2
10
255.583567
20
45.641164
11
255.823007
21
44.635213
0
LINE
8
boundary
62
5
39
2
10
255.823007
20
44.635213
11
256.196344
21
43.116869
0
LINE
8
boundary
62
5
39
2
10
256.196344
20
43.116869
11
256.378719
21
42.386825
0
LINE
8
boundary
62
5
39
2
10
256.378719
20
42.386825
11
256.797364
21
40.755267
0
LINE
8
boundary
62
5
39
2
10
256.797364
20
40.755267
11
257.181144
21
39.308564
0
LINE
8
boundary
62
5
39
2
10
257.181144
20
39.308564
11
257.532516
21
38.025187
0
LINE
8
boundary
62
5
39
2
10
257.532516
20
38.025187
11
257.827642
21
36.966098
0
LINE
8
boundary
62
5
39
2
10
257.827642
20
36.966098
11
257.996617
21
36.379663
0
LINE
8
boundary
62
5
39
2
10
257.996617
20
36.379663
11
258.363630
21
35.124978
0
LINE
8
boundary
62
5
39
2
10
258.363630
20
35.124978
11
258.828906
21
33.585423
0
LINE
8
boundary
62
5
39
2
10
258.828906
20
33.585423
11
259.108607
21
32.697365
0
LINE
8
boundary
62
5
39
2
10
259.108607
20
32.697365
11
259.489091
21
31.512474
0
LINE
8
boundary
62
5
39
2
10
259.489091
20
31.512474
11
259.677138
21
30.945199
0
LINE
8
boundary
62
5
39
2
10
259.677138
20
30.945199
11
260.077272
21
29.768193
0
LINE
8
boundary
62
5
39
2
10
260.077272
20
29.768193
11
260.546534
21
28.429422
0
LINE
8
boundary
62
5
39
2
10
260.546534
20
28.429422
11
261.029429
21
27.121016
0
LINE
8
boundary
62
5
39
2
10
261.029429
20
27.121016
11
261.315466
21
26.361747
0
LINE
8
boundary
62
5
39
2
10
261.315466
20
26.361747
11
261.963290
21
24.740588
0
LINE
8
boundary
62
5
39
2
10
261.963290
20
24.740588
11
262.348471
21
23.809064
0
LINE
8
boundary
62
5
39
2
10
262.348471
20
23.809064
11
262.634647
21
23.146965
0
LINE
8
boundary
62
5
39
2
10
262.634647
20
23.146965
11
263.286235
21
21.677070
0
LINE
8
boundary
62
5
39
2
10
263.286235
20
21.677070
11
264.045338
21
20.105764
0
LINE
8
boundary
62
5
39
2
10
264.045338
20
20.105764
11
264.785644
21
18.678828
0
LINE
8
boundary
62
5
39
2
10
264.785644
20
18.678828
11
265.227700
21
17.857213
0
LINE
8
boundary
62
5
39
2
10
265.227700
20
17.857213
11
265.551695
21
17.296568
0
LINE
8
boundary
62
5
39
2
10
265.551695
20
17.296568
11
266.237189
21
16.130405
0
LINE
8
boundary
62
5
39
2
10
266.237189
20
16.130405
11
266.754390
21
15.330065
0
LINE
8
boundary
62
5
39
2
10
266.754390
20
15.330065
11
267.161228
21
14.713594
0
LINE
8
boundary
62
5
39
2
10
267.161228
20
14.713594
11
268.004878
21
13.551659
0
LINE
8
boundary
62
5
39
2
10
268.004878
20
13.551659
11
268.323325
21
13.122383
0
LINE
8
boundary
62
5
39
2
10
268.323325
20
13.122383
11
268.874034
21
12.454531
0
LINE
8
boundary
62
5
39
2
10
268.874034
20
12.454531
11
269.395503
21
11.825325
0
LINE
8
boundary
62
5
39
2
10
269.395503
20
11.825325
11
269.766731
21
11.426773
0
LINE
8
boundary
62
5
39
2
10
269.766731
20
11.426773
11
270.478769
21
10.663278
0
LINE
8
boundary
62
5
39
2
10
270.478769
20
10.663278
11
271.565788
21
9.639534
0
LINE
8
boundary
62
5
39
2
10
271.565788
20
9.639534
11
272.561136
21
8.839570
0
LINE
8
boundary
62
5
39
2
10
272.561136
20
8.839570
11
273.520633
21
8.183646
0
LINE
8
boundary
62
5
39
2
10
273.520633
20
8.183646
11
274.490091
21
7.629906
0
LINE
8
boundary
62
5
39
2
10
274.490091
20
7.629906
11
275.125961
21
7.316332
0
LINE
8
boundary
62
5
39
2
10
275.125961
20
7.316332
11
275.626102
21
7.115869
0
LINE
8
boundary
62
5
39
2
10
275.626102
20
7.115869
11
276.122851
21
6.950869
0
LINE
8
boundary
62
5
39
2
10
276.122851
20
6.950869
11
276.615380
21
6.822781
0
LINE
8
boundary
62
5
39
2
10
276.615380
20
6.822781
11
277.270639
21
6.704427
0
LINE
8
boundary
62
5
39
2
10
277.270639
20
6.704427
11
277.899632
21
6.669480
0
LINE
8
boundary
62
5
39
2
10
277.899632
20
6.669480
11
278.429020
21
6.694798
0
LINE
8
boundary
62
5
39
2
10
278.429020
20
6.694798
11
278.983466
21
6.796110
0
LINE
8
boundary
62
5
39
2
10
278.983466
20
6.796110
11
279.506978
21
6.949871
0
LINE
8
boundary
62
5
39
2
10
279.506978
20
6.949871
11
280.291943
21
7.346405
0
LINE
8
boundary
62
5
39
2
10
280.291943
20
7.346405
11
280.698572
21
7.653623
0
LINE
8
boundary
62
5
39
2
10
280.698572
20
7.653623
11
281.087515
21
8.029442
0
LINE
8
boundary
62
5
39
2
10
281.087515
20
8.029442
11
281.458552
21
8.472277
0
LINE
8
boundary
62
5
39
2
10
281.458552
20
8.472277
11
281.809951
21
8.986141
0
LINE
8
boundary
62
5
39
2
10
281.809951
20
8.986141
11
282.139791
21
9.575618
0
LINE
8
boundary
62
5
39
2
10
282.139791
20
9.575618
11
282.648802
21
10.800629
0
LINE
8
boundary
62
5
39
2
10
282.648802
20
10.800629
11
283.078529
21
12.430075
0
LINE
8
boundary
62
5
39
2
10
283.078529
20
12.430075
11
283.224142
21
13.242108
0
LINE
8
boundary
62
5
39
2
10
283.224142
20
13.242108
11
283.330191
21
14.014515
0
LINE
8
boundary
62
5
39
2
10
283.330191
20
14.014515
11
283.390019
21
14.595265
0
LINE
8
boundary
62
5
39
2
10
283.390019
20
14.595265
11
274.947820
21
14.745265
0
LINE
8
boundary
62
5
39
2
10
274.947820
20
14.745265
11
274.947821
21
17.491265
0
LINE
8
boundary
62
5
39
2
10
274.947821
20
17.491265
11
283.498136
21
17.491265
0
LINE
8
boundary
62
5
39
2
10
283.498136
20
17.491265
11
283.506939
21
18.142923
0
LINE
8
boundary
62
5
39
2
10
283.506939
20
18.142923
11
283.460767
21
19.455967
0
LINE
8
boundary
62
5
39
2
10
283.460767
20
19.455967
11
283.421517
21
20.112365
0
LINE
8
boundary
62
5
39
2
10
283.421517
20
20.112365
11
283.385038
21
20.725692
0
LINE
8
boundary
62
5
39
2
10
283.385038
20
20.725692
11
283.286122
21
21.955157
0
LINE
8
boundary
62
5
39
2
10
283.286122
20
21.955157
11
283.126248
21
23.479366
0
LINE
8
boundary
62
5
39
2
10
283.126248
20
23.479366
11
283.010252
21
24.417494
0
LINE
8
boundary
62
5
39
2
10
283.010252
20
24.417494
11
282.942851
21
24.961713
0
LINE
8
boundary
62
5
39
2
10
282.942851
20
24.961713
11
282.819053
21
25.845338
0
LINE
8
boundary
62
5
39
2
10
282.819053
20
25.845338
11
282.721631
21
26.519639
0
LINE
8
boundary
62
5
39
2
10
282.721631
20
26.519639
11
282.538921
21
27.642909
0
LINE
8
boundary
62
5
39
2
10
282.538921
20
27.642909
11
282.317793
21
29.000027
0
LINE
8
boundary
62
5
39
2
10
282.317793
20
29.000027
11
282.169835
21
29.812699
0
LINE
8
boundary
62
5
39
2
10
282.169835
20
29.812699
11
281.831520
21
31.649699
0
LINE
8
boundary
62
5
39
2
10
281.831520
20
31.649699
11
281.457692
21
33.517428
0
LINE
8
boundary
62
5
39
2
10
281.457692
20
33.517428
11
269.798984
21
33.667426
0
LINE
8
boundary
62
5
39
2
10
269.798984
20
33.667426
11
269.798984
21
36.413426
0
LINE
8
boundary
62
5
39
2
10
269.798984
20
36.413426
11
280.807446
21
36.413426
0
LINE
8
boundary
62
5
39
2
10
280.807446
20
36.413426
11
280.633383
21
37.422572
0
LINE
8
boundary
62
5
39
2
10
280.633383
20
37.422572
11
280.502281
21
38.001640
0
LINE
8
boundary
62
5
39
2
10
280.502281
20
38.001640
11
279.927069
21
40.555513
0
LINE
8
boundary
62
5
39
2
10
279.927069
20
40.555513
11
279.532559
21
42.231770
0
LINE
8
boundary
62
5
39
2
10
279.532559
20
42.231770
11
279.158178
21
43.839108
0
LINE
8
boundary
62
5
39
2
10
279.158178
20
43.839108
11
278.501687
21
46.555762
0
LINE
8
boundary
62
5
39
2
10
278.501687
20
46.555762
11
278.330833
21
47.273491
0
LINE
8
boundary
62
5
39
2
10
278.330833
20
47.273491
11
277.568682
21
50.376250
0
LINE
8
boundary
62
5
39
2
10
277.568682
20
50.376250
11
277.420755
21
50.974638
0
LINE
8
boundary
62
5
39
2
10
277.420755
20
50.974638
11
277.057688
21
52.439588
0
LINE
8
boundary
62
5
39
2
10
277.057688
20
52.439588
11
265.232667
21
52.589587
0
LINE
8
boundary
62
5
39
2
10
265.232667
20
52.589587
11
265.232667
21
55.335587
0
LINE
8
boundary
62
5
39
2
10
265.232667
20
55.335587
11
276.287257
21
55.335587
0
LINE
8
boundary
62
5
39
2
10
276.287257
20
55.335587
11
275.541343
21
58.535357
0
LINE
8
boundary
62
5
39
2
10
275.541343
20
58.535357
11
275.145564
21
60.097608
0
LINE
8
boundary
62
5
39
2
10
275.145564
20
60.097608
11
274.525604
21
62.612868
0
LINE
8
boundary
62
5
39
2
10
274.525604
20
62.612868
11
273.976198
21
64.798708
0
LINE
8
boundary
62
5
39
2
10
273.976198
20
64.798708
11
273.474092
21
66.859803
0
LINE
8
boundary
62
5
39
2
10
273.474092
20
66.859803
11
272.796944
21
69.589494
0
LINE
8
boundary
62
5
39
2
10
272.796944
20
69.589494
11
272.390670
21
71.285785
0
LINE
8
boundary
62
5
39
2
10
272.390670
20
71.285785
11
261.092344
21
71.511747
0
LINE
8
boundary
62
5
39
2
10
261.092344
20
71.511747
11
261.092344
21
74.257747
0
LINE
8
boundary
62
5
39
2
10
261.092344
20
74.257747
11
271.619732
21
74.257748
0
LINE
8
boundary
62
5
39
2
10
271.619732
20
74.257748
11
271.279078
21
75.903306
0
LINE
8
boundary
62
5
39
2
10
271.279078
20
75.903306
11
270.440517
21
79.423810
0
LINE
8
boundary
62
5
39
2
10
270.440517
20
79.423810
11
270.142911
21
80.728461
0
LINE
8
boundary
62
5
39
2
10
270.142911
20
80.728461
11
269.278606
21
84.456614
0
LINE
8
boundary
62
5
39
2
10
269.278606
20
84.456614
11
268.984900
21
85.770112
0
LINE
8
boundary
62
5
39
2
10
268.984900
20
85.770112
11
268.704223
21
86.999226
0
LINE
8
boundary
62
5
39
2
10
268.704223
20
86.999226
11
268.546498
21
87.709430
0
LINE
8
boundary
62
5
39
2
10
268.546498
20
87.709430
11
268.134669
21
89.558140
0
LINE
8
boundary
62
5
39
2
10
268.134669
20
89.558140
11
267.977620
21
90.283910
0
LINE
8
boundary
62
5
39
2
10
267.977620
20
90.283910
11
257.226101
21
90.433908
0
LINE
8
boundary
62
5
39
2
10
257.226101
20
90.433908
11
257.226101
21
93.179909
0
LINE
8
boundary
62
5
39
2
10
257.226101
20
93.179909
11
267.312771
21
93.179908
0
LINE
8
boundary
62
5
39
2
10
267.312771
20
93.179908
11
267.023353
21
94.719507
0
LINE
8
boundary
62
5
39
2
10
267.023353
20
94.719507
11
266.822348
21
95.680779
0
LINE
8
boundary
62
5
39
2
10
266.822348
20
95.680779
11
266.478679
21
97.320522
0
LINE
8
boundary
62
5
39
2
10
266.478679
20
97.320522
11
266.012587
21
99.617523
0
LINE
8
boundary
62
5
39
2
10
266.012587
20
99.617523
11
265.822412
21
100.574209
0
LINE
8
boundary
62
5
39
2
10
265.822412
20
100.574209
11
265.423081
21
102.556838
0
LINE
8
boundary
62
5
39
2
10
265.423081
20
102.556838
11
265.238029
21
103.507981
0
LINE
8
boundary
62
5
39
2
10
265.238029
20
103.507981
11
264.910344
21
105.190174
0
LINE
8
boundary
62
5
39
2
10
264.910344
20
105.190174
11
264.503202
21
107.357546
0
LINE
8
boundary
62
5
39
2
10
264.503202
20
107.357546
11
264.219296
21
108.908047
0
LINE
8
boundary
62
5
39
2
10
264.219296
20
108.908047
11
253.538976
21
109.356070
0
LINE
8
boundary
62
5
39
2
10
253.538976
20
109.356070
11
253.538976
21
112.102069
0
LINE
8
boundary
62
5
39
2
10
253.538976
20
112.102069
11
263.601705
21
112.102069
0
LINE
8
boundary
62
5
39
2
10
263.601705
20
112.102069
11
263.402045
21
113.431101
0
LINE
8
boundary
62
5
39
2
10
263.402045
20
113.431101
11
263.028381
21
115.620706
0
LINE
8
boundary
62
5
39
2
10
263.028381
20
115.620706
11
262.897673
21
116.387374
0
LINE
8
boundary
62
5
39
2
10
262.897673
20
116.387374
11
262.619133
21
118.090706
0
LINE
8
boundary
62
5
39
2
10
262.619133
20
118.090706
11
262.406801
21
119.347695
0
LINE
8
boundary
62
5
39
2
10
262.406801
20
119.347695
11
261.926647
21
122.309890
0
LINE
8
boundary
62
5
39
2
10
261.926647
20
122.309890
11
261.763570
21
123.353260
0
LINE
8
boundary
62
5
39
2
10
261.763570
20
123.353260
11
261.465093
21
125.273331
0
LINE
8
boundary
62
5
39
2
10
261.465093
20
125.273331
11
261.204484
21
127.008164
0
LINE
8
boundary
62
5
39
2
10
261.204484
20
127.008164
11
261.021172
21
128.236835
0
LINE
8
boundary
62
5
39
2
10
261.021172
20
128.236835
11
249.883946
21
128.278230
0
LINE
8
boundary
62
5
39
2
10
249.883946
20
128.278230
11
249.883946
21
131.024230
0
LINE
8
boundary
62
5
39
2
10
249.883946
20
131.024230
11
260.587233
21
131.024230
0
LINE
8
boundary
62
5
39
2
10
260.587233
20
131.024230
11
260.224442
21
133.858285
0
LINE
8
boundary
62
5
39
2
10
260.224442
20
133.858285
11
259.769628
21
137.109664
0
LINE
8
boundary
62
5
39
2
10
259.769628
20
137.109664
11
259.680322
21
137.766435
0
LINE
8
boundary
62
5
39
2
10
259.680322
20
137.766435
11
259.372987
21
140.054959
0
LINE
8
boundary
62
5
39
2
10
259.372987
20
140.054959
11
259.212447
21
141.277384
0
LINE
8
boundary
62
5
39
2
10
259.212447
20
141.277384
11
258.990237
21
142.993352
0
LINE
8
boundary
62
5
39
2
10
258.990237
20
142.993352
11
258.766766
21
144.753763
0
LINE
8
boundary
62
5
39
2
10
258.766766
20
144.753763
11
258.620567
21
145.923685
0
LINE
8
boundary
62
5
39
2
10
258.620567
20
145.923685
11
258.463776
21
147.200391
0
LINE
8
boundary
62
5
39
2
10
258.463776
20
147.200391
11
246.284921
21
147.200391
0
LINE
8
boundary
62
5
39
2
10
246.284921
20
147.200391
11
246.284921
21
149.946391
0
LINE
8
boundary
62
5
39
2
10
246.284921
20
149.946391
11
258.104055
21
149.946391
0
LINE
8
boundary
62
5
39
2
10
258.104055
20
149.946391
11
257.935445
21
151.600764
0
LINE
8
boundary
62
5
39
2
10
257.935445
20
151.600764
11
257.808200
21
152.718275
0
LINE
8
boundary
62
5
39
2
10
257.808200
20
152.718275
11
257.237962
21
157.527892
0
LINE
8
boundary
62
5
39
2
10
257.237962
20
157.527892
11
257.036381
21
159.292521
0
LINE
8
boundary
62
5
39
2
10
257.036381
20
159.292521
11
256.594287
21
163.240297
0
LINE
8
boundary
62
5
39
2
10
256.594287
20
163.240297
11
256.280634
21
166.122552
0
LINE
8
boundary
62
5
39
2
10
256.280634
20
166.122552
11
242.822444
21
166.122552
0
LINE
8
boundary
62
5
39
2
10
242.822444
20
166.122552
11
242.822444
21
168.868552
0
LINE
8
boundary
62
5
39
2
10
242.822444
20
168.868552
11
255.960714
21
168.868552
0
LINE
8
boundary
62
5
39
2
10
255.960714
20
168.868552
11
255.437413
21
174.131800
0
LINE
8
boundary
62
5
39
2
10
255.437413
20
174.131800
11
255.285030
21
175.639916
0
LINE
8
boundary
62
5
39
2
10
255.285030
20
175.639916
11
254.837317
21
179.936149
0
LINE
8
boundary
62
5
39
2
10
254.837317
20
179.936149
11
254.527612
21
182.956468
0
LINE
8
boundary
62
5
39
2
10
254.527612
20
182.956468
11
254.330908
21
184.894715
0
LINE
8
boundary
62
5
39
2
10
254.330908
20
184.894715
11
239.655361
21
185.044713
0
LINE
8
boundary
62
5
39
2
10
239.655361
20
185.044713
11
239.655361
21
187.790713
0
LINE
8
boundary
62
5
39
2
10
239.655361
20
187.790713
11
254.013022
21
187.790713
0
LINE
8
boundary
62
5
39
2
10
254.013022
20
187.790713
11
253.913677
21
189.027388
0
LINE
8
boundary
62
5
39
2
10
253.913677
20
189.027388
11
253.751678
21
190.597773
0
LINE
8
boundary
62
5
39
2
10
253.751678
20
190.597773
11
253.657104
21
191.511142
0
LINE
8
annotation
62
1
39
211
10
269.715247
20
13.876890
11
269.715247
21
18.359640
0
LINE
8
annotation
62
1
39
211
10
269.715247
20
18.359640
11
268.718675
21
17.362786
0
LINE
8
annotation
62
1
39
211
10
264.737279
20
32.640387
11
262.605484
21
32.640387
0
LINE
8
annotation
62
1
39
211
10
262.605484
20
32.640387
11
264.575332
21
35.811590
0
LINE
8
annotation
62
1
39
211
10
264.575332
20
35.811590
11
264.575332
21
35.811590
0
LINE
8
annotation
62
1
39
211
10
264.575332
20
35.811590
11
264.577687
21
35.814503
0
LINE
8
annotation
62
1
39
211
10
264.577687
20
35.814503
11
264.579946
21
35.817442
0
LINE
8
annotation
62
1
39
211
10
264.579946
20
35.817442
11
264.582122
21
35.820430
0
LINE
8
annotation
62
1
39
211
10
264.582122
20
35.820430
11
264.584232
21
35.823493
0
LINE
8
annotation
62
1
39
211
10
264.584232
20
35.823493
11
264.586289
21
35.826655
0
LINE
8
annotation
62
1
39
211
10
264.586289
20
35.826655
11
264.588310
21
35.829940
0
LINE
8
annotation
62
1
39
211
10
264.588310
20
35.829940
11
264.590308
21
35.833375
0
LINE
8
annotation
62
1
39
211
10
264.590308
20
35.833375
11
264.592298
21
35.836982
0
LINE
8
annotation
62
1
39
211
10
264.592298
20
35.836982
11
264.594296
21
35.840788
0
LINE
8
annotation
62
1
39
211
10
264.594296
20
35.840788
11
264.594296
21
35.840788
0
LINE
8
annotation
62
1
39
211
10
264.594296
20
35.840788
11
264.675631
21
36.015420
0
LINE
8
annotation
62
1
39
211
10
264.675631
20
36.015420
11
264.723145
21
36.196442
0
LINE
8
annotation
62
1
39
211
10
264.723145
20
36.196442
11
264.738004
21
36.379763
0
LINE
8
annotation
62
1
39
211
10
264.738004
20
36.379763
11
264.721371
21
36.561292
0
LINE
8
annotation
62
1
39
211
10
264.721371
20
36.561292
11
264.674410
21
36.736940
0
LINE
8
annotation
62
1
39
211
10
264.674410
20
36.736940
11
264.598288
21
36.902616
0
LINE
8
annotation
62
1
39
211
10
264.598288
20
36.902616
11
264.494167
21
37.054230
0
LINE
8
annotation
62
1
39
211
10
264.494167
20
37.054230
11
264.363212
21
37.187691
0
LINE
8
annotation
62
1
39
211
10
264.363212
20
37.187691
11
264.206588
21
37.298909
0
LINE
8
annotation
62
1
39
211
10
264.206588
20
37.298909
11
264.206588
21
37.298909
0
LINE
8
annotation
62
1
39
211
10
264.206588
20
37.298909
11
264.031470
21
37.379088
0
LINE
8
annotation
62
1
39
211
10
264.031470
20
37.379088
11
263.850171
21
37.425870
0
LINE
8
annotation
62
1
39
211
10
263.850171
20
37.425870
11
263.666744
21
37.440309
0
LINE
8
annotation
62
1
39
211
10
263.666744
20
37.440309
11
263.485241
21
37.423456
0
LINE
8
annotation
62
1
39
211
10
263.485241
20
37.423456
11
263.309717
21
37.376366
0
LINE
8
annotation
62
1
39
211
10
263.309717
20
37.376366
11
263.144225
21
37.300091
0
LINE
8
annotation
62
1
39
211
10
263.144225
20
37.300091
11
262.992817
21
37.195684
0
LINE
8
annotation
62
1
39
211
10
262.992817
20
37.195684
11
262.859546
21
37.064198
0
LINE
8
annotation
62
1
39
211
10
262.859546
20
37.064198
11
262.748467
21
36.906685
0
LINE
8
annotation
62
1
39
211
10
262.748467
20
36.906685
11
262.608494
21
36.638179
0
LINE
8
annotation
62
1
39
211
10
258.039167
20
51.562737
11
259.105065
21
51.562737
0
LINE
8
annotation
62
1
39
211
10
259.105065
20
51.562737
11
259.105065
21
51.562737
0
LINE
8
annotation
62
1
39
211
10
259.105065
20
51.562737
11
259.296769
21
51.579934
0
LINE
8
annotation
62
1
39
211
10
259.296769
20
51.579934
11
259.477156
21
51.629497
0
LINE
8
annotation
62
1
39
211
10
259.477156
20
51.629497
11
259.643226
21
51.708384
0
LINE
8
annotation
62
1
39
211
10
259.643226
20
51.708384
11
259.791977
21
51.813552
0
LINE
8
annotation
62
1
39
211
10
259.791977
20
51.813552
11
259.920411
21
51.941959
0
LINE
8
annotation
62
1
39
211
10
259.920411
20
51.941959
11
260.025527
21
52.090563
0
LINE
8
annotation
62
1
39
211
10
260.025527
20
52.090563
11
260.104324
21
52.256321
0
LINE
8
annotation
62
1
39
211
10
260.104324
20
52.256321
11
260.153803
21
52.436190
0
LINE
8
annotation
62
1
39
211
10
260.153803
20
52.436190
11
260.170962
21
52.627129
0
LINE
8
annotation
62
1
39
211
10
260.170962
20
52.627129
11
260.170962
21
53.160831
0
LINE
8
annotation
62
1
39
211
10
260.170962
20
53.160831
11
260.170962
21
53.160831
0
LINE
8
annotation
62
1
39
211
10
260.170962
20
53.160831
11
260.153803
21
53.351690
0
LINE
8
annotation
62
1
39
211
10
260.153803
20
53.351690
11
260.104324
21
53.531518
0
LINE
8
annotation
62
1
39
211
10
260.104324
20
53.531518
11
260.025527
21
53.697263
0
LINE
8
annotation
62
1
39
211
10
260.025527
20
53.697263
11
259.920411
21
53.845877
0
LINE
8
annotation
62
1
39
211
10
259.920411
20
53.845877
11
259.791977
21
53.974309
0
LINE
8
annotation
62
1
39
211
10
259.791977
20
53.974309
11
259.643226
21
54.079509
0
LINE
8
annotation
62
1
39
211
10
259.643226
20
54.079509
11
259.477156
21
54.158428
0
LINE
8
annotation
62
1
39
211
10
259.477156
20
54.158428
11
259.296769
21
54.208016
0
LINE
8
annotation
62
1
39
211
10
259.296769
20
54.208016
11
259.105065
21
54.225223
0
LINE
8
annotation
62
1
39
211
10
259.105065
20
54.225223
11
258.571364
21
54.225223
0
LINE
8
annotation
62
1
39
211
10
258.571364
20
54.225223
11
259.105065
21
54.225223
0
LINE
8
annotation
62
1
39
211
10
259.105065
20
54.225223
11
259.105065
21
54.225223
0
LINE
8
annotation
62
1
39
211
10
259.105065
20
54.225223
11
259.296769
21
54.242434
0
LINE
8
annotation
62
1
39
211
10
259.296769
20
54.242434
11
259.477156
21
54.292051
0
LINE
8
annotation
62
1
39
211
10
259.477156
20
54.292051
11
259.643226
21
54.371049
0
LINE
8
annotation
62
1
39
211
10
259.643226
20
54.371049
11
259.791977
21
54.476402
0
LINE
8
annotation
62
1
39
211
10
259.791977
20
54.476402
11
259.920411
21
54.605085
0
LINE
8
annotation
62
1
39
211
10
259.920411
20
54.605085
11
260.025527
21
54.754075
0
LINE
8
annotation
62
1
39
211
10
260.025527
20
54.754075
11
260.104324
21
54.920344
0
LINE
8
annotation
62
1
39
211
10
260.104324
20
54.920344
11
260.153803
21
55.100870
0
LINE
8
annotation
62
1
39
211
10
260.153803
20
55.100870
11
260.170962
21
55.292626
0
LINE
8
annotation
62
1
39
211
10
260.170962
20
55.292626
11
260.170962
21
55.292626
0
LINE
8
annotation
62
1
39
211
10
260.170962
20
55.292626
11
260.153803
21
55.483485
0
LINE
8
annotation
62
1
39
211
10
260.153803
20
55.483485
11
260.104324
21
55.663313
0
LINE
8
annotation
62
1
39
211
10
260.104324
20
55.663313
11
260.025527
21
55.829058
0
LINE
8
annotation
62
1
39
211
10
260.025527
20
55.829058
11
259.920411
21
55.977672
0
LINE
8
annotation
62
1
39
211
10
259.920411
20
55.977672
11
259.791977
21
56.106104
0
LINE
8
annotation
62
1
39
211
10
259.791977
20
56.106104
11
259.643226
21
56.211304
0
LINE
8
annotation
62
1
39
211
10
259.643226
20
56.211304
11
259.477156
21
56.290223
0
LINE
8
annotation
62
1
39
211
10
259.477156
20
56.290223
11
259.296769
21
56.339811
0
LINE
8
annotation
62
1
39
211
10
259.296769
20
56.339811
11
259.105065
21
56.357018
0
LINE
8
annotation
62
1
39
211
10
259.105065
20
56.357018
11
258.039167
21
56.357018
0
LINE
8
annotation
62
1
39
211
10
256.297339
20
71.551849
11
253.632144
21
71.551849
0
LINE
8
annotation
62
1
39
211
10
253.632144
20
71.551849
11
254.696536
21
75.284748
0
LINE
8
annotation
62
1
39
211
10
255.498443
20
70.484748
11
255.498443
21
72.616542
0
LINE
8
annotation
62
1
39
211
10
250.032602
20
89.406908
11
251.098499
21
89.406908
0
LINE
8
annotation
62
1
39
211
10
251.098499
20
89.406908
11
251.098499
21
89.406908
0
LINE
8
annotation
62
1
39
211
10
251.098499
20
89.406908
11
251.289807
21
89.424109
0
LINE
8
annotation
62
1
39
211
10
251.289807
20
89.424109
11
251.469983
21
89.473698
0
LINE
8
annotation
62
1
39
211
10
251.469983
20
89.473698
11
251.635991
21
89.552656
0
LINE
8
annotation
62
1
39
211
10
251.635991
20
89.552656
11
251.784792
21
89.657961
0
LINE
8
annotation
62
1
39
211
10
251.784792
20
89.657961
11
251.913350
21
89.786595
0
LINE
8
annotation
62
1
39
211
10
251.913350
20
89.786595
11
252.018627
21
89.935537
0
LINE
8
annotation
62
1
39
211
10
252.018627
20
89.935537
11
252.097585
21
90.101767
0
LINE
8
annotation
62
1
39
211
10
252.097585
20
90.101767
11
252.147187
21
90.282264
0
LINE
8
annotation
62
1
39
211
10
252.147187
20
90.282264
11
252.164396
21
90.474010
0
LINE
8
annotation
62
1
39
211
10
252.164396
20
90.474010
11
252.164396
21
91.005002
0
LINE
8
annotation
62
1
39
211
10
252.164396
20
91.005002
11
252.164396
21
91.005002
0
LINE
8
annotation
62
1
39
211
10
252.164396
20
91.005002
11
252.147197
21
91.196655
0
LINE
8
annotation
62
1
39
211
10
252.147197
20
91.196655
11
252.097620
21
91.376903
0
LINE
8
annotation
62
1
39
211
10
252.097620
20
91.376903
11
252.018694
21
91.542773
0
LINE
8
annotation
62
1
39
211
10
252.018694
20
91.542773
11
251.913449
21
91.691287
0
LINE
8
annotation
62
1
39
211
10
251.913449
20
91.691287
11
251.784916
21
91.819471
0
LINE
8
annotation
62
1
39
211
10
251.784916
20
91.819471
11
251.636125
21
91.924349
0
LINE
8
annotation
62
1
39
211
10
251.636125
20
91.924349
11
251.470105
21
92.002946
0
LINE
8
annotation
62
1
39
211
10
251.470105
20
92.002946
11
251.289886
21
92.052286
0
LINE
8
annotation
62
1
39
211
10
251.289886
20
92.052286
11
251.098499
21
92.069394
0
LINE
8
annotation
62
1
39
211
10
251.098499
20
92.069394
11
250.032602
21
92.069394
0
LINE
8
annotation
62
1
39
211
10
250.032602
20
92.069394
11
250.032602
21
94.206908
0
LINE
8
annotation
62
1
39
211
10
250.032602
20
94.206908
11
252.164396
21
94.206908
0
LINE
8
annotation
62
1
39
211
10
247.946580
20
113.129069
11
247.946580
21
113.129069
0
LINE
8
annotation
62
1
39
211
10
247.946580
20
113.129069
11
247.641227
21
113.014580
0
LINE
8
annotation
62
1
39
211
10
247.641227
20
113.014580
11
247.361026
21
112.860320
0
LINE
8
annotation
62
1
39
211
10
247.361026
20
112.860320
11
247.108853
21
112.670154
0
LINE
8
annotation
62
1
39
211
10
247.108853
20
112.670154
11
246.887584
21
112.447946
0
LINE
8
annotation
62
1
39
211
10
246.887584
20
112.447946
11
246.700095
21
112.197561
0
LINE
8
annotation
62
1
39
211
10
246.700095
20
112.197561
11
246.549264
21
111.922865
0
LINE
8
annotation
62
1
39
211
10
246.549264
20
111.922865
11
246.437966
21
111.627722
0
LINE
8
annotation
62
1
39
211
10
246.437966
20
111.627722
11
246.369078
21
111.315997
0
LINE
8
annotation
62
1
39
211
10
246.369078
20
111.315997
11
246.345476
21
110.991555
0
LINE
8
annotation
62
1
39
211
10
246.345476
20
110.991555
11
246.345476
21
109.396171
0
LINE
8
annotation
62
1
39
211
10
246.345476
20
109.396171
11
246.345476
21
109.396171
0
LINE
8
annotation
62
1
39
211
10
246.345476
20
109.396171
11
246.362685
21
109.204425
0
LINE
8
annotation
62
1
39
211
10
246.362685
20
109.204425
11
246.412288
21
109.023928
0
LINE
8
annotation
62
1
39
211
10
246.412288
20
109.023928
11
246.491246
21
108.857698
0
LINE
8
annotation
62
1
39
211
10
246.491246
20
108.857698
11
246.596523
21
108.708756
0
LINE
8
annotation
62
1
39
211
10
246.596523
20
108.708756
11
246.725080
21
108.580122
0
LINE
8
annotation
62
1
39
211
10
246.725080
20
108.580122
11
246.873882
21
108.474817
0
LINE
8
annotation
62
1
39
211
10
246.873882
20
108.474817
11
247.039889
21
108.395859
0
LINE
8
annotation
62
1
39
211
10
247.039889
20
108.395859
11
247.220066
21
108.346270
0
LINE
8
annotation
62
1
39
211
10
247.220066
20
108.346270
11
247.411374
21
108.329069
0
LINE
8
annotation
62
1
39
211
10
247.411374
20
108.329069
11
247.411374
21
108.329069
0
LINE
8
annotation
62
1
39
211
10
247.411374
20
108.329069
11
247.603078
21
108.346270
0
LINE
8
annotation
62
1
39
211
10
247.603078
20
108.346270
11
247.783465
21
108.395859
0
LINE
8
annotation
62
1
39
211
10
247.783465
20
108.395859
11
247.949534
21
108.474817
0
LINE
8
annotation
62
1
39
211
10
247.949534
20
108.474817
11
248.098286
21
108.580122
0
LINE
8
annotation
62
1
39
211
10
248.098286
20
108.580122
11
248.226720
21
108.708756
0
LINE
8
annotation
62
1
39
211
10
248.226720
20
108.708756
11
248.331836
21
108.857698
0
LINE
8
annotation
62
1
39
211
10
248.331836
20
108.857698
11
248.410633
21
109.023928
0
LINE
8
annotation
62
1
39
211
10
248.410633
20
109.023928
11
248.460111
21
109.204425
0
LINE
8
annotation
62
1
39
211
10
248.460111
20
109.204425
11
248.477271
21
109.396171
0
LINE
8
annotation
62
1
39
211
10
248.477271
20
109.396171
11
248.477271
21
109.927163
0
LINE
8
annotation
62
1
39
211
10
248.477271
20
109.927163
11
248.477271
21
109.927163
0
LINE
8
annotation
62
1
39
211
10
248.477271
20
109.927163
11
248.460111
21
110.118815
0
LINE
8
annotation
62
1
39
211
10
248.460111
20
110.118815
11
248.410633
21
110.299064
0
LINE
8
annotation
62
1
39
211
10
248.410633
20
110.299064
11
248.331836
21
110.464933
0
LINE
8
annotation
62
1
39
211
10
248.331836
20
110.464933
11
248.226720
21
110.613448
0
LINE
8
annotation
62
1
39
211
10
248.226720
20
110.613448
11
248.098286
21
110.741632
0
LINE
8
annotation
62
1
39
211
10
248.098286
20
110.741632
11
247.949534
21
110.846510
0
LINE
8
annotation
62
1
39
211
10
247.949534
20
110.846510
11
247.783465
21
110.925107
0
LINE
8
annotation
62
1
39
211
10
247.783465
20
110.925107
11
247.603078
21
110.974447
0
LINE
8
annotation
62
1
39
211
10
247.603078
20
110.974447
11
247.411374
21
110.991555
0
LINE
8
annotation
62
1
39
211
10
247.411374
20
110.991555
11
246.345476
21
110.991555
0
LINE
8
annotation
62
1
39
211
10
246.211976
20
107.729069
11
248.611976
21
107.729069
0
LINE
8
annotation
62
1
39
211
10
243.756344
20
127.251230
11
244.823445
21
132.051230
0
LINE
8
annotation
62
1
39
211
10
244.823445
20
132.051230
11
242.688941
21
132.051230
0
LINE
8
annotation
62
1
39
211
10
244.823445
20
129.913716
11
243.756344
21
129.913716
0
LINE
8
annotation
62
1
39
211
10
239.091422
20
147.237633
11
239.091422
21
147.237633
0
LINE
8
annotation
62
1
39
211
10
239.091422
20
147.237633
11
239.108631
21
147.045980
0
LINE
8
annotation
62
1
39
211
10
239.108631
20
147.045980
11
239.158233
21
146.865732
0
LINE
8
annotation
62
1
39
211
10
239.158233
20
146.865732
11
239.237192
21
146.699862
0
LINE
8
annotation
62
1
39
211
10
239.237192
20
146.699862
11
239.342468
21
146.551348
0
LINE
8
annotation
62
1
39
211
10
239.342468
20
146.551348
11
239.471026
21
146.423164
0
LINE
8
annotation
62
1
39
211
10
239.471026
20
146.423164
11
239.619827
21
146.318286
0
LINE
8
annotation
62
1
39
211
10
239.619827
20
146.318286
11
239.785835
21
146.239689
0
LINE
8
annotation
62
1
39
211
10
239.785835
20
146.239689
11
239.966011
21
146.190349
0
LINE
8
annotation
62
1
39
211
10
239.966011
20
146.190349
11
240.157319
21
146.173241
0
LINE
8
annotation
62
1
39
211
10
240.157319
20
146.173241
11
240.157319
21
146.173241
0
LINE
8
annotation
62
1
39
211
10
240.157319
20
146.173241
11
240.348627
21
146.190349
0
LINE
8
annotation
62
1
39
211
10
240.348627
20
146.190349
11
240.528803
21
146.239689
0
LINE
8
annotation
62
1
39
211
10
240.528803
20
146.239689
11
240.694811
21
146.318286
0
LINE
8
annotation
62
1
39
211
10
240.694811
20
146.318286
11
240.843612
21
146.423164
0
LINE
8
annotation
62
1
39
211
10
240.843612
20
146.423164
11
240.972170
21
146.551348
0
LINE
8
annotation
62
1
39
211
10
240.972170
20
146.551348
11
241.077447
21
146.699862
0
LINE
8
annotation
62
1
39
211
10
241.077447
20
146.699862
11
241.156405
21
146.865732
0
LINE
8
annotation
62
1
39
211
10
241.156405
20
146.865732
11
241.206007
21
147.045980
0
LINE
8
annotation
62
1
39
211
10
241.206007
20
147.045980
11
241.223217
21
147.237633
0
LINE
8
annotation
62
1
39
211
10
241.223217
20
147.237633
11
241.223217
21
147.768625
0
LINE
8
annotation
62
1
39
211
10
241.223217
20
147.768625
11
241.223217
21
147.768625
0
LINE
8
annotation
62
1
39
211
10
241.223217
20
147.768625
11
241.206017
21
147.960371
0
LINE
8
annotation
62
1
39
211
10
241.206017
20
147.960371
11
241.156440
21
148.140868
0
LINE
8
annotation
62
1
39
211
10
241.156440
20
148.140868
11
241.077514
21
148.307098
0
LINE
8
annotation
62
1
39
211
10
241.077514
20
148.307098
11
240.972269
21
148.456040
0
LINE
8
annotation
62
1
39
211
10
240.972269
20
148.456040
11
240.843736
21
148.584673
0
LINE
8
annotation
62
1
39
211
10
240.843736
20
148.584673
11
240.694945
21
148.689979
0
LINE
8
annotation
62
1
39
211
10
240.694945
20
148.689979
11
240.528925
21
148.768936
0
LINE
8
annotation
62
1
39
211
10
240.528925
20
148.768936
11
240.348706
21
148.818526
0
LINE
8
annotation
62
1
39
211
10
240.348706
20
148.818526
11
240.157319
21
148.835727
0
LINE
8
annotation
62
1
39
211
10
240.157319
20
148.835727
11
240.157319
21
148.835727
0
LINE
8
annotation
62
1
39
211
10
240.157319
20
148.835727
11
239.965932
21
148.818516
0
LINE
8
annotation
62
1
39
211
10
239.965932
20
148.818516
11
239.785714
21
148.768902
0
LINE
8
annotation
62
1
39
211
10
239.785714
20
148.768902
11
239.619694
21
148.689912
0
LINE
8
annotation
62
1
39
211
10
239.619694
20
148.689912
11
239.470902
21
148.584574
0
LINE
8
annotation
62
1
39
211
10
239.470902
20
148.584574
11
239.342369
21
148.455916
0
LINE
8
annotation
62
1
39
211
10
239.342369
20
148.455916
11
239.237125
21
148.306964
0
LINE
8
annotation
62
1
39
211
10
239.237125
20
148.306964
11
239.158199
21
148.140747
0
LINE
8
annotation
62
1
39
211
10
239.158199
20
148.140747
11
239.108621
21
147.960291
0
LINE
8
annotation
62
1
39
211
10
239.108621
20
147.960291
11
239.091422
21
147.768625
0
LINE
8
annotation
62
1
39
211
10
239.091422
20
147.768625
11
239.091422
21
147.237633
0
LINE
8
annotation
62
1
39
211
10
241.223217
20
149.903129
11
241.223217
21
149.903129
0
LINE
8
annotation
62
1
39
211
10
241.223217
20
149.903129
11
241.206017
21
150.093989
0
LINE
8
annotation
62
1
39
211
10
241.206017
20
150.093989
11
241.156440
21
150.273816
0
LINE
8
annotation
62
1
39
211
10
241.156440
20
150.273816
11
241.077514
21
150.439562
0
LINE
8
annotation
62
1
39
211
10
241.077514
20
150.439562
11
240.972269
21
150.588175
0
LINE
8
annotation
62
1
39
211
10
240.972269
20
150.588175
11
240.843736
21
150.716607
0
LINE
8
annotation
62
1
39
211
10
240.843736
20
150.716607
11
240.694945
21
150.821807
0
LINE
8
annotation
62
1
39
211
10
240.694945
20
150.821807
11
240.528925
21
150.900726
0
LINE
8
annotation
62
1
39
211
10
240.528925
20
150.900726
11
240.348706
21
150.950314
0
LINE
8
annotation
62
1
39
211
10
240.348706
20
150.950314
11
240.157319
21
150.967521
0
LINE
8
annotation
62
1
39
211
10
240.157319
20
150.967521
11
240.157319
21
150.967521
0
LINE
8
annotation
62
1
39
211
10
240.157319
20
150.967521
11
239.965932
21
150.950314
0
LINE
8
annotation
62
1
39
211
10
239.965932
20
150.950314
11
239.785714
21
150.900726
0
LINE
8
annotation
62
1
39
211
10
239.785714
20
150.900726
11
239.619694
21
150.821807
0
LINE
8
annotation
62
1
39
211
10
239.619694
20
150.821807
11
239.470902
21
150.716607
0
LINE
8
annotation
62
1
39
211
10
239.470902
20
150.716607
11
239.342369
21
150.588175
0
LINE
8
annotation
62
1
39
211
10
239.342369
20
150.588175
11
239.237125
21
150.439562
0
LINE
8
annotation
62
1
39
211
10
239.237125
20
150.439562
11
239.158199
21
150.273816
0
LINE
8
annotation
62
1
39
211
10
239.158199
20
150.273816
11
239.108621
21
150.093989
0
LINE
8
annotation
62
1
39
211
10
239.108621
20
150.093989
11
239.091422
21
149.903129
0
LINE
8
annotation
62
1
39
211
10
239.091422
20
149.903129
11
239.091422
21
149.903129
0
LINE
8
annotation
62
1
39
211
10
239.091422
20
149.903129
11
239.108631
21
149.711373
0
LINE
8
annotation
62
1
39
211
10
239.108631
20
149.711373
11
239.158233
21
149.530848
0
LINE
8
annotation
62
1
39
211
10
239.158233
20
149.530848
11
239.237192
21
149.364578
0
LINE
8
annotation
62
1
39
211
10
239.237192
20
149.364578
11
239.342468
21
149.215589
0
LINE
8
annotation
62
1
39
211
10
239.342468
20
149.215589
11
239.471026
21
149.086905
0
LINE
8
annotation
62
1
39
211
10
239.471026
20
149.086905
11
239.619827
21
148.981552
0
LINE
8
annotation
62
1
39
211
10
239.619827
20
148.981552
11
239.785835
21
148.902555
0
LINE
8
annotation
62
1
39
211
10
239.785835
20
148.902555
11
239.966011
21
148.852938
0
LINE
8
annotation
62
1
39
211
10
239.966011
20
148.852938
11
240.157319
21
148.835727
0
LINE
8
annotation
62
1
39
211
10
240.157319
20
148.835727
11
240.157319
21
148.835727
0
LINE
8
annotation
62
1
39
211
10
240.157319
20
148.835727
11
240.348627
21
148.852938
0
LINE
8
annotation
62
1
39
211
10
240.348627
20
148.852938
11
240.528803
21
148.902555
0
LINE
8
annotation
62
1
39
211
10
240.528803
20
148.902555
11
240.694811
21
148.981552
0
LINE
8
annotation
62
1
39
211
10
240.694811
20
148.981552
11
240.843612
21
149.086905
0
LINE
8
annotation
62
1
39
211
10
240.843612
20
149.086905
11
240.972170
21
149.215589
0
LINE
8
annotation
62
1
39
211
10
240.972170
20
149.215589
11
241.077447
21
149.364578
0
LINE
8
annotation
62
1
39
211
10
241.077447
20
149.364578
11
241.156405
21
149.530848
0
LINE
8
annotation
62
1
39
211
10
241.156405
20
149.530848
11
241.206007
21
149.711373
0
LINE
8
annotation
62
1
39
211
10
241.206007
20
149.711373
11
241.223217
21
149.903129
0
LINE
8
annotation
62
1
39
211
10
236.161140
20
165.095552
11
236.161140
21
165.095552
0
LINE
8
annotation
62
1
39
211
10
236.161140
20
165.095552
11
236.465956
21
165.209141
0
LINE
8
annotation
62
1
39
211
10
236.465956
20
165.209141
11
236.745738
21
165.362677
0
LINE
8
annotation
62
1
39
211
10
236.745738
20
165.362677
11
236.997597
21
165.552249
0
LINE
8
annotation
62
1
39
211
10
236.997597
20
165.552249
11
237.218640
21
165.773944
0
LINE
8
annotation
62
1
39
211
10
237.218640
20
165.773944
11
237.405978
21
166.023850
0
LINE
8
annotation
62
1
39
211
10
237.405978
20
166.023850
11
237.556717
21
166.298055
0
LINE
8
annotation
62
1
39
211
10
237.556717
20
166.298055
11
237.667968
21
166.592648
0
LINE
8
annotation
62
1
39
211
10
237.667968
20
166.592648
11
237.736839
21
166.903716
0
LINE
8
annotation
62
1
39
211
10
237.736839
20
166.903716
11
237.760438
21
167.227347
0
LINE
8
annotation
62
1
39
211
10
237.760438
20
167.227347
11
237.760438
21
168.828150
0
LINE
8
annotation
62
1
39
211
10
237.760438
20
168.828150
11
237.760438
21
168.828150
0
LINE
8
annotation
62
1
39
211
10
237.760438
20
168.828150
11
237.743279
21
169.019905
0
LINE
8
annotation
62
1
39
211
10
237.743279
20
169.019905
11
237.693800
21
169.200431
0
LINE
8
annotation
62
1
39
211
10
237.693800
20
169.200431
11
237.615003
21
169.366701
0
LINE
8
annotation
62
1
39
211
10
237.615003
20
169.366701
11
237.509887
21
169.515690
0
LINE
8
annotation
62
1
39
211
10
237.509887
20
169.515690
11
237.381453
21
169.644373
0
LINE
8
annotation
62
1
39
211
10
237.381453
20
169.644373
11
237.232701
21
169.749727
0
LINE
8
annotation
62
1
39
211
10
237.232701
20
169.749727
11
237.066632
21
169.828724
0
LINE
8
annotation
62
1
39
211
10
237.066632
20
169.828724
11
236.886245
21
169.878341
0
LINE
8
annotation
62
1
39
211
10
236.886245
20
169.878341
11
236.694541
21
169.895552
0
LINE
8
annotation
62
1
39
211
10
236.694541
20
169.895552
11
236.694541
21
169.895552
0
LINE
8
annotation
62
1
39
211
10
236.694541
20
169.895552
11
236.503233
21
169.878341
0
LINE
8
annotation
62
1
39
211
10
236.503233
20
169.878341
11
236.323057
21
169.828724
0
LINE
8
annotation
62
1
39
211
10
236.323057
20
169.828724
11
236.157049
21
169.749727
0
LINE
8
annotation
62
1
39
211
10
236.157049
20
169.749727
11
236.008248
21
169.644373
0
LINE
8
annotation
62
1
39
211
10
236.008248
20
169.644373
11
235.879690
21
169.515690
0
LINE
8
annotation
62
1
39
211
10
235.879690
20
169.515690
11
235.774413
21
169.366701
0
LINE
8
annotation
62
1
39
211
10
235.774413
20
169.366701
11
235.695455
21
169.200431
0
LINE
8
annotation
62
1
39
211
10
235.695455
20
169.200431
11
235.645852
21
169.019905
0
LINE
8
annotation
62
1
39
211
10
235.645852
20
169.019905
11
235.628643
21
168.828150
0
LINE
8
annotation
62
1
39
211
10
235.628643
20
168.828150
11
235.628643
21
168.294448
0
LINE
8
annotation
62
1
39
211
10
235.628643
20
168.294448
11
235.628643
21
168.294448
0
LINE
8
annotation
62
1
39
211
10
235.628643
20
168.294448
11
235.645852
21
168.102703
0
LINE
8
annotation
62
1
39
211
10
235.645852
20
168.102703
11
235.695455
21
167.922205
0
LINE
8
annotation
62
1
39
211
10
235.695455
20
167.922205
11
235.774413
21
167.755975
0
LINE
8
annotation
62
1
39
211
10
235.774413
20
167.755975
11
235.879690
21
167.607034
0
LINE
8
annotation
62
1
39
211
10
235.879690
20
167.607034
11
236.008248
21
167.478400
0
LINE
8
annotation
62
1
39
211
10
236.008248
20
167.478400
11
236.157049
21
167.373094
0
LINE
8
annotation
62
1
39
211
10
236.157049
20
167.373094
11
236.323057
21
167.294137
0
LINE
8
annotation
62
1
39
211
10
236.323057
20
167.294137
11
236.503233
21
167.244548
0
LINE
8
annotation
62
1
39
211
10
236.503233
20
167.244548
11
236.694541
21
167.227347
0
LINE
8
annotation
62
1
39
211
10
236.694541
20
167.227347
11
237.760438
21
167.227347
0
LINE
8
annotation
62
1
39
211
10
235.495444
20
164.495552
11
237.895444
21
164.495552
0
LINE
8
annotation
62
1
39
211
10
232.154505
20
184.108853
11
232.154505
21
188.726573
0
LINE
8
annotation
62
1
39
211
10
232.154505
20
188.726573
11
231.127927
21
187.699705
0
LINE
8
annotation
62
1
39
211
10
234.627734
20
184.169762
11
234.627734
21
184.169762
0
LINE
8
annotation
62
1
39
211
10
234.627734
20
184.169762
11
234.735055
21
184.129643
0
LINE
8
annotation
62
1
39
211
10
234.735055
20
184.129643
11
234.845122
21
184.109711
0
LINE
8
annotation
62
1
39
211
10
234.845122
20
184.109711
11
234.955447
21
184.109153
0
LINE
8
annotation
62
1
39
211
10
234.955447
20
184.109153
11
235.063541
21
184.127158
0
LINE
8
annotation
62
1
39
211
10
235.063541
20
184.127158
11
235.166915
21
184.162912
0
LINE
8
annotation
62
1
39
211
10
235.166915
20
184.162912
11
235.263083
21
184.215603
0
LINE
8
annotation
62
1
39
211
10
235.263083
20
184.215603
11
235.349554
21
184.284417
0
LINE
8
annotation
62
1
39
211
10
235.349554
20
184.284417
11
235.423842
21
184.368542
0
LINE
8
annotation
62
1
39
211
10
235.423842
20
184.368542
11
235.483457
21
184.467166
0
LINE
8
annotation
62
1
39
211
10
235.483457
20
184.467166
11
235.483457
21
184.467166
0
LINE
8
annotation
62
1
39
211
10
235.483457
20
184.467166
11
235.661326
21
184.883513
0
LINE
8
annotation
62
1
39
211
10
235.661326
20
184.883513
11
235.794728
21
185.311911
0
LINE
8
annotation
62
1
39
211
10
235.794728
20
185.311911
11
235.883663
21
185.748944
0
LINE
8
annotation
62
1
39
211
10
235.883663
20
185.748944
11
235.928130
21
186.191196
0
LINE
8
annotation
62
1
39
211
10
235.928130
20
186.191196
11
235.928130
21
186.635253
0
LINE
8
annotation
62
1
39
211
10
235.928130
20
186.635253
11
235.883663
21
187.077698
0
LINE
8
annotation
62
1
39
211
10
235.883663
20
187.077698
11
235.794728
21
187.515117
0
LINE
8
annotation
62
1
39
211
10
235.794728
20
187.515117
11
235.661326
21
187.944094
0
LINE
8
annotation
62
1
39
211
10
235.661326
20
187.944094
11
235.483457
21
188.361213
0
LINE
8
annotation
62
1
39
211
10
235.483457
20
188.361213
11
235.483457
21
188.361213
0
LINE
8
annotation
62
1
39
211
10
235.483457
20
188.361213
11
235.460837
21
188.403310
0
LINE
8
annotation
62
1
39
211
10
235.460837
20
188.403310
11
235.435193
21
188.443556
0
LINE
8
annotation
62
1
39
211
10
235.435193
20
188.443556
11
235.406717
21
188.481756
0
LINE
8
annotation
62
1
39
211
10
235.406717
20
188.481756
11
235.375602
21
188.517710
0
LINE
8
annotation
62
1
39
211
10
235.375602
20
188.517710
11
235.342043
21
188.551221
0
LINE
8
annotation
62
1
39
211
10
235.342043
20
188.551221
11
235.306231
21
188.582091
0
LINE
8
annotation
62
1
39
211
10
235.306231
20
188.582091
11
235.268360
21
188.610123
0
LINE
8
annotation
62
1
39
211
10
235.268360
20
188.610123
11
235.228622
21
188.635118
0
LINE
8
annotation
62
1
39
211
10
235.228622
20
188.635118
11
235.187211
21
188.656879
0
LINE
8
annotation
62
1
39
211
10
235.187211
20
188.656879
11
235.187211
21
188.656879
0
LINE
8
annotation
62
1
39
211
10
235.187211
20
188.656879
11
235.079038
21
188.697869
0
LINE
8
annotation
62
1
39
211
10
235.079038
20
188.697869
11
234.968326
21
188.718482
0
LINE
8
annotation
62
1
39
211
10
234.968326
20
188.718482
11
234.857535
21
188.719537
0
LINE
8
annotation
62
1
39
211
10
234.857535
20
188.719537
11
234.749126
21
188.701851
0
LINE
8
annotation
62
1
39
211
10
234.749126
20
188.701851
11
234.645557
21
188.666242
0
LINE
8
annotation
62
1
39
211
10
234.645557
20
188.666242
11
234.549288
21
188.613527
0
LINE
8
annotation
62
1
39
211
10
234.549288
20
188.613527
11
234.462780
21
188.544524
0
LINE
8
annotation
62
1
39
211
10
234.462780
20
188.544524
11
234.388491
21
188.460051
0
LINE
8
annotation
62
1
39
211
10
234.388491
20
188.460051
11
234.328882
21
188.360924
0
LINE
8
annotation
62
1
39
211
10
234.328882
20
188.360924
11
234.328882
21
188.360924
0
LINE
8
annotation
62
1
39
211
10
234.328882
20
188.360924
11
234.151871
21
187.944662
0
LINE
8
annotation
62
1
39
211
10
234.151871
20
187.944662
11
234.019112
21
187.516329
0
LINE
8
annotation
62
1
39
211
10
234.019112
20
187.516329
11
233.930606
21
187.079339
0
LINE
8
annotation
62
1
39
211
10
233.930606
20
187.079339
11
233.886353
21
186.637108
0
LINE
8
annotation
62
1
39
211
10
233.886353
20
186.637108
11
233.886353
21
186.193052
0
LINE
8
annotation
62
1
39
211
10
233.886353
20
186.193052
11
233.930606
21
185.750585
0
LINE
8
annotation
62
1
39
211
10
233.930606
20
185.750585
11
234.019112
21
185.313123
0
LINE
8
annotation
62
1
39
211
10
234.019112
20
185.313123
11
234.151871
21
184.884082
0
LINE
8
annotation
62
1
39
211
10
234.151871
20
184.884082
11
234.328882
21
184.466876
0
LINE
8
annotation
62
1
39
211
10
234.328882
20
184.466876
11
234.328882
21
184.466876
0
LINE
8
annotation
62
1
39
211
10
234.328882
20
184.466876
11
234.351420
21
184.424864
0
LINE
8
annotation
62
1
39
211
10
234.351420
20
184.424864
11
234.376874
21
184.384818
0
LINE
8
annotation
62
1
39
211
10
234.376874
20
184.384818
11
234.405139
21
184.346860
0
LINE
8
annotation
62
1
39
211
10
234.405139
20
184.346860
11
234.436107
21
184.311111
0
LINE
8
annotation
62
1
39
211
10
234.436107
20
184.311111
11
234.469670
21
184.277693
0
LINE
8
annotation
62
1
39
211
10
234.469670
20
184.277693
11
234.505722
21
184.246728
0
LINE
8
annotation
62
1
39
211
10
234.505722
20
184.246728
11
234.544154
21
184.218336
0
LINE
8
annotation
62
1
39
211
10
234.544154
20
184.218336
11
234.584861
21
184.192641
0
LINE
8
annotation
62
1
39
211
10
234.584861
20
184.192641
11
234.627734
21
184.169762
0
LINE
8
annotation
62
1
39
211
10
229.778394
20
202.939874
11
229.778394
21
207.739874
0
LINE
8
annotation
62
1
39
211
10
229.778394
20
207.739874
11
228.711293
21
206.672471
0
LINE
8
annotation
62
1
39
211
10
232.645496
20
202.939874
11
232.645496
21
207.739874
0
LINE
8
annotation
62
1
39
211
10
232.645496
20
207.739874
11
231.578394
21
206.672471
0
LINE
8
annotation
62
1
39
211
10
226.648806
20
221.957860
11
226.648806
21
226.566209
0
LINE
8
annotation
62
1
39
211
10
226.648806
20
226.566209
11
225.624311
21
225.541425
0
LINE
8
annotation
62
1
39
211
10
230.423818
20
221.957823
11
228.377140
21
221.957823
0
LINE
8
annotation
62
1
39
211
10
228.377140
20
221.957823
11
230.268338
21
225.002408
0
LINE
8
annotation
62
1
39
211
10
230.268338
20
225.002408
11
230.268338
21
225.002408
0
LINE
8
annotation
62
1
39
211
10
230.268338
20
225.002408
11
230.270599
21
225.005206
0
LINE
8
annotation
62
1
39
211
10
230.270599
20
225.005206
11
230.272767
21
225.008027
0
LINE
8
annotation
62
1
39
211
10
230.272767
20
225.008027
11
230.274856
21
225.010896
0
LINE
8
annotation
62
1
39
211
10
230.274856
20
225.010896
11
230.276882
21
225.013836
0
LINE
8
annotation
62
1
39
211
10
230.276882
20
225.013836
11
230.278857
21
225.016872
0
LINE
8
annotation
62
1
39
211
10
230.278857
20
225.016872
11
230.280797
21
225.020026
0
LINE
8
annotation
62
1
39
211
10
230.280797
20
225.020026
11
230.282715
21
225.023323
0
LINE
8
annotation
62
1
39
211
10
230.282715
20
225.023323
11
230.284626
21
225.026787
0
LINE
8
annotation
62
1
39
211
10
230.284626
20
225.026787
11
230.286545
21
225.030441
0
LINE
8
annotation
62
1
39
211
10
230.286545
20
225.030441
11
230.286545
21
225.030441
0
LINE
8
annotation
62
1
39
211
10
230.286545
20
225.030441
11
230.364632
21
225.198100
0
LINE
8
annotation
62
1
39
211
10
230.364632
20
225.198100
11
230.410249
21
225.371894
0
LINE
8
annotation
62
1
39
211
10
230.410249
20
225.371894
11
230.424514
21
225.547896
0
LINE
8
annotation
62
1
39
211
10
230.424514
20
225.547896
11
230.408545
21
225.722177
0
LINE
8
annotation
62
1
39
211
10
230.408545
20
225.722177
11
230.363460
21
225.890812
0
LINE
8
annotation
62
1
39
211
10
230.363460
20
225.890812
11
230.290376
21
226.049873
0
LINE
8
annotation
62
1
39
211
10
230.290376
20
226.049873
11
230.190413
21
226.195433
0
LINE
8
annotation
62
1
39
211
10
230.190413
20
226.195433
11
230.064687
21
226.323566
0
LINE
8
annotation
62
1
39
211
10
230.064687
20
226.323566
11
229.914316
21
226.430343
0
LINE
8
annotation
62
1
39
211
10
229.914316
20
226.430343
11
229.914316
21
226.430343
0
LINE
8
annotation
62
1
39
211
10
229.914316
20
226.430343
11
229.746190
21
226.507321
0
LINE
8
annotation
62
1
39
211
10
229.746190
20
226.507321
11
229.572130
21
226.552235
0
LINE
8
annotation
62
1
39
211
10
229.572130
20
226.552235
11
229.396026
21
226.566097
0
LINE
8
annotation
62
1
39
211
10
229.396026
20
226.566097
11
229.221771
21
226.549918
0
LINE
8
annotation
62
1
39
211
10
229.221771
20
226.549918
11
229.053255
21
226.504708
0
LINE
8
annotation
62
1
39
211
10
229.053255
20
226.504708
11
228.894370
21
226.431478
0
LINE
8
annotation
62
1
39
211
10
228.894370
20
226.431478
11
228.749007
21
226.331239
0
LINE
8
annotation
62
1
39
211
10
228.749007
20
226.331239
11
228.621058
21
226.205003
0
LINE
8
annotation
62
1
39
211
10
228.621058
20
226.205003
11
228.514414
21
226.053780
0
LINE
8
annotation
62
1
39
211
10
228.514414
20
226.053780
11
228.380030
21
225.795994
0
LINE
8
annotation
62
1
39
211
10
224.024814
20
240.879687
11
224.024814
21
245.488704
0
LINE
8
annotation
62
1
39
211
10
224.024814
20
245.488704
11
223.000170
21
244.463772
0
LINE
8
annotation
62
1
39
211
10
225.753051
20
240.879831
11
226.776538
21
240.879831
0
LINE
8
annotation
62
1
39
211
10
226.776538
20
240.879831
11
226.776538
21
240.879831
0
LINE
8
annotation
62
1
39
211
10
226.776538
20
240.879831
11
226.960615
21
240.896344
0
LINE
8
annotation
62
1
39
211
10
226.960615
20
240.896344
11
227.133825
21
240.943936
0
LINE
8
annotation
62
1
39
211
10
227.133825
20
240.943936
11
227.293287
21
241.019684
0
LINE
8
annotation
62
1
39
211
10
227.293287
20
241.019684
11
227.436120
21
241.120667
0
LINE
8
annotation
62
1
39
211
10
227.436120
20
241.120667
11
227.559444
21
241.243965
0
LINE
8
annotation
62
1
39
211
10
227.559444
20
241.243965
11
227.660377
21
241.386656
0
LINE
8
annotation
62
1
39
211
10
227.660377
20
241.386656
11
227.736039
21
241.545819
0
LINE
8
annotation
62
1
39
211
10
227.736039
20
241.545819
11
227.783549
21
241.718532
0
LINE
8
annotation
62
1
39
211
10
227.783549
20
241.718532
11
227.800026
21
241.901874
0
LINE
8
annotation
62
1
39
211
10
227.800026
20
241.901874
11
227.800026
21
242.414340
0
LINE
8
annotation
62
1
39
211
10
227.800026
20
242.414340
11
227.800026
21
242.414340
0
LINE
8
annotation
62
1
39
211
10
227.800026
20
242.414340
11
227.783549
21
242.597606
0
LINE
8
annotation
62
1
39
211
10
227.783549
20
242.597606
11
227.736039
21
242.770278
0
LINE
8
annotation
62
1
39
211
10
227.736039
20
242.770278
11
227.660377
21
242.929429
0
LINE
8
annotation
62
1
39
211
10
227.660377
20
242.929429
11
227.559444
21
243.072130
0
LINE
8
annotation
62
1
39
211
10
227.559444
20
243.072130
11
227.436120
21
243.195451
0
LINE
8
annotation
62
1
39
211
10
227.436120
20
243.195451
11
227.293287
21
243.296466
0
LINE
8
annotation
62
1
39
211
10
227.293287
20
243.296466
11
227.133825
21
243.372245
0
LINE
8
annotation
62
1
39
211
10
227.133825
20
243.372245
11
226.960615
21
243.419860
0
LINE
8
annotation
62
1
39
211
10
226.960615
20
243.419860
11
226.776538
21
243.436382
0
LINE
8
annotation
62
1
39
211
10
226.776538
20
243.436382
11
226.264072
21
243.436382
0
LINE
8
annotation
62
1
39
211
10
226.264072
20
243.436382
11
226.776538
21
243.436382
0
LINE
8
annotation
62
1
39
211
10
226.776538
20
243.436382
11
226.776538
21
243.436382
0
LINE
8
annotation
62
1
39
211
10
226.776538
20
243.436382
11
226.960615
21
243.452909
0
LINE
8
annotation
62
1
39
211
10
226.960615
20
243.452909
11
227.133825
21
243.500551
0
LINE
8
annotation
62
1
39
211
10
227.133825
20
243.500551
11
227.293287
21
243.576406
0
LINE
8
annotation
62
1
39
211
10
227.293287
20
243.576406
11
227.436120
21
243.677567
0
LINE
8
annotation
62
1
39
211
10
227.436120
20
243.677567
11
227.559444
21
243.801131
0
LINE
8
annotation
62
1
39
211
10
227.559444
20
243.801131
11
227.660377
21
243.944192
0
LINE
8
annotation
62
1
39
211
10
227.660377
20
243.944192
11
227.736039
21
244.103846
0
LINE
8
annotation
62
1
39
211
10
227.736039
20
244.103846
11
227.783549
21
244.277189
0
LINE
8
annotation
62
1
39
211
10
227.783549
20
244.277189
11
227.800026
21
244.461315
0
LINE
8
annotation
62
1
39
211
10
227.800026
20
244.461315
11
227.800026
21
244.461315
0
LINE
8
annotation
62
1
39
211
10
227.800026
20
244.461315
11
227.783549
21
244.644581
0
LINE
8
annotation
62
1
39
211
10
227.783549
20
244.644581
11
227.736039
21
244.817253
0
LINE
8
annotation
62
1
39
211
10
227.736039
20
244.817253
11
227.660377
21
244.976404
0
LINE
8
annotation
62
1
39
211
10
227.660377
20
244.976404
11
227.559444
21
245.119104
0
LINE
8
annotation
62
1
39
211
10
227.559444
20
245.119104
11
227.436120
21
245.242426
0
LINE
8
annotation
62
1
39
211
10
227.436120
20
245.242426
11
227.293287
21
245.343441
0
LINE
8
annotation
62
1
39
211
10
227.293287
20
245.343441
11
227.133825
21
245.419220
0
LINE
8
annotation
62
1
39
211
10
227.133825
20
245.419220
11
226.960615
21
245.466835
0
LINE
8
annotation
62
1
39
211
10
226.960615
20
245.466835
11
226.776538
21
245.483357
0
LINE
8
annotation
62
1
39
211
10
226.776538
20
245.483357
11
225.753051
21
245.483357
0
LINE
8
annotation
62
1
39
211
10
220.845451
20
260.024039
11
220.845451
21
264.188674
0
LINE
8
annotation
62
1
39
211
10
220.845451
20
264.188674
11
219.919600
21
263.262561
0
LINE
8
annotation
62
1
39
211
10
224.719469
20
260.949891
11
222.407059
21
260.949891
0
LINE
8
annotation
62
1
39
211
10
222.407059
20
260.949891
11
223.330561
21
264.188674
0
LINE
8
annotation
62
1
39
211
10
224.026321
20
260.024039
11
224.026321
21
261.873653
0
LINE
8
annotation
62
1
39
211
10
216.547446
20
278.724009
11
216.547446
21
283.333026
0
LINE
8
annotation
62
1
39
211
10
216.547446
20
283.333026
11
215.522803
21
282.308094
0
LINE
8
annotation
62
1
39
211
10
218.275683
20
278.724009
11
219.299171
21
278.724009
0
LINE
8
annotation
62
1
39
211
10
219.299171
20
278.724009
11
219.299171
21
278.724009
0
LINE
8
annotation
62
1
39
211
10
219.299171
20
278.724009
11
219.482867
21
278.740525
0
LINE
8
annotation
62
1
39
211
10
219.482867
20
278.740525
11
219.655874
21
278.788141
0
LINE
8
annotation
62
1
39
211
10
219.655874
20
278.788141
11
219.815277
21
278.863957
0
LINE
8
annotation
62
1
39
211
10
219.815277
20
278.863957
11
219.958158
21
278.965073
0
LINE
8
annotation
62
1
39
211
10
219.958158
20
278.965073
11
220.081600
21
279.088589
0
LINE
8
annotation
62
1
39
211
10
220.081600
20
279.088589
11
220.182688
21
279.231604
0
LINE
8
annotation
62
1
39
211
10
220.182688
20
279.231604
11
220.258505
21
279.391220
0
LINE
8
annotation
62
1
39
211
10
220.258505
20
279.391220
11
220.306134
21
279.564536
0
LINE
8
annotation
62
1
39
211
10
220.306134
20
279.564536
11
220.322658
21
279.748652
0
LINE
8
annotation
62
1
39
211
10
220.322658
20
279.748652
11
220.322658
21
280.258517
0
LINE
8
annotation
62
1
39
211
10
220.322658
20
280.258517
11
220.322658
21
280.258517
0
LINE
8
annotation
62
1
39
211
10
220.322658
20
280.258517
11
220.306143
21
280.442544
0
LINE
8
annotation
62
1
39
211
10
220.306143
20
280.442544
11
220.258538
21
280.615621
0
LINE
8
annotation
62
1
39
211
10
220.258538
20
280.615621
11
220.182753
21
280.774891
0
LINE
8
annotation
62
1
39
211
10
220.182753
20
280.774891
11
220.081696
21
280.917496
0
LINE
8
annotation
62
1
39
211
10
220.081696
20
280.917496
11
219.958277
21
281.040580
0
LINE
8
annotation
62
1
39
211
10
219.958277
20
281.040580
11
219.815405
21
281.141286
0
LINE
8
annotation
62
1
39
211
10
219.815405
20
281.141286
11
219.655991
21
281.216755
0
LINE
8
annotation
62
1
39
211
10
219.655991
20
281.216755
11
219.482943
21
281.264132
0
LINE
8
annotation
62
1
39
211
10
219.482943
20
281.264132
11
219.299171
21
281.280560
0
LINE
8
annotation
62
1
39
211
10
219.299171
20
281.280560
11
218.275683
21
281.280560
0
LINE
8
annotation
62
1
39
211
10
218.275683
20
281.280560
11
218.275683
21
283.333026
0
LINE
8
annotation
62
1
39
211
10
218.275683
20
283.333026
11
220.322658
21
283.333026
0
LINE
8
annotation
62
1
39
211
10
227.143018
20
231.423003
11
224.263174
21
231.423003
0
LINE
8
annotation
62
1
39
211
10
224.263174
20
231.423003
11
227.143018
21
236.609585
0
LINE
8
annotation
62
1
39
211
10
227.143018
20
236.609585
11
224.263174
21
236.609585
0
LINE
8
annotation
62
1
39
211
10
231.924409
20
234.016294
11
229.088474
21
234.016294
0
LINE
8
annotation
62
1
39
211
10
236.172766
20
231.422961
11
233.869281
21
231.422961
0
LINE
8
annotation
62
1
39
211
10
233.869281
20
231.422961
11
235.997777
21
234.849566
0
LINE
8
annotation
62
1
39
211
10
235.997777
20
234.849566
11
235.997777
21
234.849566
0
LINE
8
annotation
62
1
39
211
10
235.997777
20
234.849566
11
236.000321
21
234.852715
0
LINE
8
annotation
62
1
39
211
10
236.000321
20
234.852715
11
236.002761
21
234.855890
0
LINE
8
annotation
62
1
39
211
10
236.002761
20
234.855890
11
236.005113
21
234.859119
0
LINE
8
annotation
62
1
39
211
10
236.005113
20
234.859119
11
236.007392
21
234.862428
0
LINE
8
annotation
62
1
39
211
10
236.007392
20
234.862428
11
236.009616
21
234.865844
0
LINE
8
annotation
62
1
39
211
10
236.009616
20
234.865844
11
236.011799
21
234.869395
0
LINE
8
annotation
62
1
39
211
10
236.011799
20
234.869395
11
236.013958
21
234.873105
0
LINE
8
annotation
62
1
39
211
10
236.013958
20
234.873105
11
236.016109
21
234.877004
0
LINE
8
annotation
62
1
39
211
10
236.016109
20
234.877004
11
236.018268
21
234.881116
0
LINE
8
annotation
62
1
39
211
10
236.018268
20
234.881116
11
236.018268
21
234.881116
0
LINE
8
annotation
62
1
39
211
10
236.018268
20
234.881116
11
236.106153
21
235.069813
0
LINE
8
annotation
62
1
39
211
10
236.106153
20
235.069813
11
236.157494
21
235.265414
0
LINE
8
annotation
62
1
39
211
10
236.157494
20
235.265414
11
236.173549
21
235.463499
0
LINE
8
annotation
62
1
39
211
10
236.173549
20
235.463499
11
236.155576
21
235.659648
0
LINE
8
annotation
62
1
39
211
10
236.155576
20
235.659648
11
236.104834
21
235.849442
0
LINE
8
annotation
62
1
39
211
10
236.104834
20
235.849442
11
236.022581
21
236.028462
0
LINE
8
annotation
62
1
39
211
10
236.022581
20
236.028462
11
235.910074
21
236.192286
0
LINE
8
annotation
62
1
39
211
10
235.910074
20
236.192286
11
235.768572
21
236.336496
0
LINE
8
annotation
62
1
39
211
10
235.768572
20
236.336496
11
235.599334
21
236.456671
0
LINE
8
annotation
62
1
39
211
10
235.599334
20
236.456671
11
235.599334
21
236.456671
0
LINE
8
annotation
62
1
39
211
10
235.599334
20
236.456671
11
235.410113
21
236.543308
0
LINE
8
annotation
62
1
39
211
10
235.410113
20
236.543308
11
235.214212
21
236.593858
0
LINE
8
annotation
62
1
39
211
10
235.214212
20
236.593858
11
235.016012
21
236.609459
0
LINE
8
annotation
62
1
39
211
10
235.016012
20
236.609459
11
234.819892
21
236.591249
0
LINE
8
annotation
62
1
39
211
10
234.819892
20
236.591249
11
234.630231
21
236.540366
0
LINE
8
annotation
62
1
39
211
10
234.630231
20
236.540366
11
234.451410
21
236.457948
0
LINE
8
annotation
62
1
39
211
10
234.451410
20
236.457948
11
234.287808
21
236.345132
0
LINE
8
annotation
62
1
39
211
10
234.287808
20
236.345132
11
234.143804
21
236.203057
0
LINE
8
annotation
62
1
39
211
10
234.143804
20
236.203057
11
234.023779
21
236.032859
0
LINE
8
annotation
62
1
39
211
10
234.023779
20
236.032859
11
233.872533
21
235.742728
0
LINE
8
annotation
62
1
39
211
10
238.951229
20
231.491416
11
238.951229
21
231.491416
0
LINE
8
annotation
62
1
39
211
10
238.951229
20
231.491416
11
239.071772
21
231.446354
0
LINE
8
annotation
62
1
39
211
10
239.071772
20
231.446354
11
239.195398
21
231.423966
0
LINE
8
annotation
62
1
39
211
10
239.195398
20
231.423966
11
239.319314
21
231.423340
0
LINE
8
annotation
62
1
39
211
10
239.319314
20
231.423340
11
239.440724
21
231.443563
0
LINE
8
annotation
62
1
39
211
10
239.440724
20
231.443563
11
239.556833
21
231.483722
0
LINE
8
annotation
62
1
39
211
10
239.556833
20
231.483722
11
239.664848
21
231.542903
0
LINE
8
annotation
62
1
39
211
10
239.664848
20
231.542903
11
239.761971
21
231.620195
0
LINE
8
annotation
62
1
39
211
10
239.761971
20
231.620195
11
239.845411
21
231.714684
0
LINE
8
annotation
62
1
39
211
10
239.845411
20
231.714684
11
239.912370
21
231.825457
0
LINE
8
annotation
62
1
39
211
10
239.912370
20
231.825457
11
239.912370
21
231.825457
0
LINE
8
annotation
62
1
39
211
10
239.912370
20
231.825457
11
240.112151
21
232.293094
0
LINE
8
annotation
62
1
39
211
10
240.112151
20
232.293094
11
240.261987
21
232.774267
0
LINE
8
annotation
62
1
39
211
10
240.261987
20
232.774267
11
240.361878
21
233.265138
0
LINE
8
annotation
62
1
39
211
10
240.361878
20
233.265138
11
240.411823
21
233.761872
0
LINE
8
annotation
62
1
39
211
10
240.411823
20
233.761872
11
240.411823
21
234.260633
0
LINE
8
annotation
62
1
39
211
10
240.411823
20
234.260633
11
240.361878
21
234.757584
0
LINE
8
annotation
62
1
39
211
10
240.361878
20
234.757584
11
240.261987
21
235.248889
0
LINE
8
annotation
62
1
39
211
10
240.261987
20
235.248889
11
240.112151
21
235.730712
0
LINE
8
annotation
62
1
39
211
10
240.112151
20
235.730712
11
239.912370
21
236.199217
0
LINE
8
annotation
62
1
39
211
10
239.912370
20
236.199217
11
239.912370
21
236.199217
0
LINE
8
annotation
62
1
39
211
10
239.912370
20
236.199217
11
239.886963
21
236.246499
0
LINE
8
annotation
62
1
39
211
10
239.886963
20
236.246499
11
239.858160
21
236.291704
0
LINE
8
annotation
62
1
39
211
10
239.858160
20
236.291704
11
239.826176
21
236.334609
0
LINE
8
annotation
62
1
39
211
10
239.826176
20
236.334609
11
239.791229
21
236.374992
0
LINE
8
annotation
62
1
39
211
10
239.791229
20
236.374992
11
239.753535
21
236.412632
0
LINE
8
annotation
62
1
39
211
10
239.753535
20
236.412632
11
239.713311
21
236.447305
0
LINE
8
annotation
62
1
39
211
10
239.713311
20
236.447305
11
239.670774
21
236.478790
0
LINE
8
annotation
62
1
39
211
10
239.670774
20
236.478790
11
239.626142
21
236.506865
0
LINE
8
annotation
62
1
39
211
10
239.626142
20
236.506865
11
239.579630
21
236.531306
0
LINE
8
annotation
62
1
39
211
10
239.579630
20
236.531306
11
239.579630
21
236.531306
0
LINE
8
annotation
62
1
39
211
10
239.579630
20
236.531306
11
239.458130
21
236.577345
0
LINE
8
annotation
62
1
39
211
10
239.458130
20
236.577345
11
239.333779
21
236.600498
0
LINE
8
annotation
62
1
39
211
10
239.333779
20
236.600498
11
239.209340
21
236.601683
0
LINE
8
annotation
62
1
39
211
10
239.209340
20
236.601683
11
239.087575
21
236.581818
0
LINE
8
annotation
62
1
39
211
10
239.087575
20
236.581818
11
238.971248
21
236.541823
0
LINE
8
annotation
62
1
39
211
10
238.971248
20
236.541823
11
238.863120
21
236.482614
0
LINE
8
annotation
62
1
39
211
10
238.863120
20
236.482614
11
238.765954
21
236.405110
0
LINE
8
annotation
62
1
39
211
10
238.765954
20
236.405110
11
238.682514
21
236.310230
0
LINE
8
annotation
62
1
39
211
10
238.682514
20
236.310230
11
238.615562
21
236.198891
0
LINE
8
annotation
62
1
39
211
10
238.615562
20
236.198891
11
238.615562
21
236.198891
0
LINE
8
annotation
62
1
39
211
10
238.615562
20
236.198891
11
238.416744
21
235.731350
0
LINE
8
annotation
62
1
39
211
10
238.416744
20
235.731350
11
238.267631
21
235.250250
0
LINE
8
annotation
62
1
39
211
10
238.267631
20
235.250250
11
238.168222
21
234.759427
0
LINE
8
annotation
62
1
39
211
10
238.168222
20
234.759427
11
238.118517
21
234.262717
0
LINE
8
annotation
62
1
39
211
10
238.118517
20
234.262717
11
238.118517
21
233.763956
0
LINE
8
annotation
62
1
39
211
10
238.118517
20
233.763956
11
238.168222
21
233.266981
0
LINE
8
annotation
62
1
39
211
10
238.168222
20
233.266981
11
238.267631
21
232.775628
0
LINE
8
annotation
62
1
39
211
10
238.267631
20
232.775628
11
238.416744
21
232.293733
0
LINE
8
annotation
62
1
39
211
10
238.416744
20
232.293733
11
238.615562
21
231.825132
0
LINE
8
annotation
62
1
39
211
10
238.615562
20
231.825132
11
238.615562
21
231.825132
0
LINE
8
annotation
62
1
39
211
10
238.615562
20
231.825132
11
238.640876
21
231.777944
0
LINE
8
annotation
62
1
39
211
10
238.640876
20
231.777944
11
238.669466
21
231.732964
0
LINE
8
annotation
62
1
39
211
10
238.669466
20
231.732964
11
238.701213
21
231.690330
0
LINE
8
annotation
62
1
39
211
10
238.701213
20
231.690330
11
238.735996
21
231.650177
0
LINE
8
annotation
62
1
39
211
10
238.735996
20
231.650177
11
238.773694
21
231.612642
0
LINE
8
annotation
62
1
39
211
10
238.773694
20
231.612642
11
238.814186
21
231.577863
0
LINE
8
annotation
62
1
39
211
10
238.814186
20
231.577863
11
238.857354
21
231.545974
0
LINE
8
annotation
62
1
39
211
10
238.857354
20
231.545974
11
238.903075
21
231.517113
0
LINE
8
annotation
62
1
39
211
10
238.903075
20
231.517113
11
238.951229
21
231.491416
0
LINE
8
boundary
62
5
39
2
10
226.057715
20
301.036598
11
226.675134
21
301.525624
0
LINE
8
boundary
62
5
39
2
10
226.675134
20
301.525624
11
227.110604
21
301.906640
0
LINE
8
boundary
62
5
39
2
10
227.110604
20
301.906640
11
227.700445
21
302.425429
0
LINE
8
boundary
62
5
39
2
10
227.700445
20
302.425429
11
228.180063
21
302.887455
0
LINE
8
boundary
62
5
39
2
10
228.180063
20
302.887455
11
228.726624
21
303.416212
0
LINE
8
boundary
62
5
39
2
10
228.726624
20
303.416212
11
229.260323
21
303.978198
0
LINE
8
boundary
62
5
39
2
10
229.260323
20
303.978198
11
229.749533
21
304.495163
0
LINE
8
boundary
62
5
39
2
10
229.749533
20
304.495163
11
230.345311
21
305.177372
0
LINE
8
boundary
62
5
39
2
10
230.345311
20
305.177372
11
230.765128
21
305.659555
0
LINE
8
boundary
62
5
39
2
10
230.765128
20
305.659555
11
231.428740
21
306.482890
0
LINE
8
boundary
62
5
39
2
10
231.428740
20
306.482890
11
231.769419
21
306.906703
0
LINE
8
boundary
62
5
39
2
10
231.769419
20
306.906703
11
232.504161
21
307.892050
0
LINE
8
boundary
62
5
39
2
10
232.504161
20
307.892050
11
233.565069
21
309.401644
0
LINE
8
boundary
62
5
39
2
10
233.565069
20
309.401644
11
234.604919
21
311.007887
0
LINE
8
boundary
62
5
39
2
10
234.604919
20
311.007887
11
235.386990
21
312.318227
0
LINE
8
boundary
62
5
39
2
10
235.386990
20
312.318227
11
236.487398
21
314.302533
0
LINE
8
boundary
62
5
39
2
10
236.487398
20
314.302533
11
237.010446
21
315.320214
0
LINE
8
boundary
62
5
39
2
10
237.010446
20
315.320214
11
237.622370
21
316.575370
0
LINE
8
boundary
62
5
39
2
10
237.622370
20
316.575370
11
238.198733
21
317.825533
0
LINE
8
boundary
62
5
39
2
10
238.198733
20
317.825533
11
238.759593
21
319.109470
0
LINE
8
boundary
62
5
39
2
10
238.759593
20
319.109470
11
238.966220
21
319.589523
0
LINE
8
boundary
62
5
39
2
10
238.966220
20
319.589523
11
239.305386
21
320.427196
0
LINE
8
boundary
62
5
39
2
10
239.305386
20
320.427196
11
239.543101
21
321.011828
0
LINE
8
boundary
62
5
39
2
10
239.543101
20
321.011828
11
239.836564
21
321.778751
0
LINE
8
boundary
62
5
39
2
10
239.836564
20
321.778751
11
240.104081
21
322.474743
0
LINE
8
boundary
62
5
39
2
10
240.104081
20
322.474743
11
240.353550
21
323.164088
0
LINE
8
boundary
62
5
39
2
10
240.353550
20
323.164088
11
240.649747
21
323.978658
0
LINE
8
boundary
62
5
39
2
10
240.649747
20
323.978658
11
240.856816
21
324.583179
0
LINE
8
boundary
62
5
39
2
10
240.856816
20
324.583179
11
241.180692
21
325.523999
0
LINE
8
boundary
62
5
39
2
10
241.180692
20
325.523999
11
241.346816
21
326.036011
0
LINE
8
boundary
62
5
39
2
10
241.346816
20
326.036011
11
241.697493
21
327.111184
0
LINE
8
boundary
62
5
39
2
10
241.697493
20
327.111184
11
242.200712
21
328.740600
0
LINE
8
boundary
62
5
39
2
10
242.200712
20
328.740600
11
242.690928
21
330.412687
0
LINE
8
boundary
62
5
39
2
10
242.690928
20
330.412687
11
243.168702
21
332.127831
0
LINE
8
boundary
62
5
39
2
10
243.168702
20
332.127831
11
243.356112
21
332.835470
0
LINE
8
boundary
62
5
39
2
10
243.356112
20
332.835470
11
243.612960
21
333.807751
0
LINE
8
boundary
62
5
39
2
10
243.612960
20
333.807751
11
244.031529
21
335.468967
0
LINE
8
boundary
62
5
39
2
10
244.031529
20
335.468967
11
244.439864
21
337.163390
0
LINE
8
boundary
62
5
39
2
10
244.439864
20
337.163390
11
244.838425
21
338.890914
0
LINE
8
boundary
62
5
39
2
10
244.838425
20
338.890914
11
244.963616
21
339.437623
0
LINE
8
boundary
62
5
39
2
10
244.963616
20
339.437623
11
245.340095
21
341.188676
0
LINE
8
boundary
62
5
39
2
10
245.340095
20
341.188676
11
245.594073
21
342.364917
0
LINE
8
boundary
62
5
39
2
10
245.594073
20
342.364917
11
245.879701
21
343.787250
0
LINE
8
boundary
62
5
39
2
10
245.879701
20
343.787250
11
246.203979
21
345.395756
0
LINE
8
boundary
62
5
39
2
10
246.203979
20
345.395756
11
246.401740
21
346.447435
0
LINE
8
boundary
62
5
39
2
10
246.401740
20
346.447435
11
246.794995
21
348.531650
0
LINE
8
boundary
62
5
39
2
10
246.794995
20
348.531650
11
246.907414
21
349.168384
0
LINE
8
boundary
62
5
39
2
10
246.907414
20
349.168384
11
247.368685
21
351.774087
0
LINE
8
boundary
62
5
39
2
10
247.368685
20
351.774087
11
247.561636
21
352.933134
0
LINE
8
boundary
62
5
39
2
10
247.561636
20
352.933134
11
247.870768
21
354.800634
0
LINE
8
boundary
62
5
39
2
10
247.870768
20
354.800634
11
248.328850
21
357.716233
0
LINE
8
boundary
62
5
39
2
10
248.328850
20
357.716233
11
248.465972
21
358.595892
0
LINE
8
boundary
62
5
39
2
10
248.465972
20
358.595892
11
248.774669
21
360.688625
0
LINE
8
boundary
62
5
39
2
10
248.774669
20
360.688625
11
248.993360
21
362.174788
0
LINE
8
boundary
62
5
39
2
10
248.993360
20
362.174788
11
249.209019
21
363.716946
0
LINE
8
boundary
62
5
39
2
10
249.209019
20
363.716946
11
249.508473
21
365.867066
0
LINE
8
boundary
62
5
39
2
10
249.508473
20
365.867066
11
249.632566
21
366.800386
0
LINE
8
boundary
62
5
39
2
10
249.632566
20
366.800386
11
250.012402
21
369.674322
0
LINE
8
boundary
62
5
39
2
10
250.012402
20
369.674322
11
250.191629
21
371.097368
0
LINE
8
boundary
62
5
39
2
10
250.191629
20
371.097368
11
250.446613
21
373.140828
0
LINE
8
boundary
62
5
39
2
10
250.446613
20
373.140828
11
250.836827
21
376.401914
0
LINE
8
boundary
62
5
39
2
10
250.836827
20
376.401914
11
250.984046
21
377.653861
0
LINE
8
boundary
62
5
39
2
10
250.984046
20
377.653861
11
251.218905
21
379.712171
0
LINE
8
boundary
62
5
39
2
10
251.218905
20
379.712171
11
251.456165
21
381.821865
0
LINE
8
boundary
62
5
39
2
10
251.456165
20
381.821865
11
251.593776
21
383.068059
0
LINE
8
boundary
62
5
39
2
10
251.593776
20
383.068059
11
251.923263
21
386.102189
0
LINE
8
boundary
62
5
39
2
10
251.923263
20
386.102189
11
252.101437
21
387.777761
0
LINE
8
boundary
62
5
39
2
10
252.101437
20
387.777761
11
252.324932
21
389.906499
0
LINE
8
boundary
62
5
39
2
10
252.324932
20
389.906499
11
252.385476
21
390.494688
0
LINE
8
boundary
62
5
39
2
10
252.385476
20
390.494688
11
252.683767
21
393.380723
0
LINE
8
boundary
62
5
39
2
10
252.683767
20
393.380723
11
252.846797
21
394.991895
0
LINE
8
boundary
62
5
39
2
10
252.846797
20
394.991895
11
253.040707
21
396.879731
0
LINE
8
boundary
62
5
39
2
10
253.040707
20
396.879731
11
253.312459
21
399.584759
0
LINE
8
boundary
62
5
39
2
10
253.312459
20
399.584759
11
253.396447
21
400.400178
0
LINE
8
boundary
62
5
39
2
10
253.396447
20
400.400178
11
253.649995
21
402.918537
0
LINE
8
boundary
62
5
39
2
10
253.649995
20
402.918537
11
253.751809
21
403.939507
0
LINE
8
boundary
62
5
39
2
10
253.751809
20
403.939507
11
254.108715
21
407.492077
0
LINE
8
boundary
62
5
39
2
10
254.108715
20
407.492077
11
254.261610
21
409.045951
0
LINE
8
boundary
62
5
39
2
10
254.261610
20
409.045951
11
254.467561
21
411.051716
0
LINE
8
boundary
62
5
39
2
10
254.467561
20
411.051716
11
254.753203
21
413.900042
0
LINE
8
boundary
62
5
39
2
10
254.753203
20
413.900042
11
254.828666
21
414.616142
0
LINE
8
boundary
62
5
39
2
10
254.828666
20
414.616142
11
255.021141
21
416.484819
0
LINE
8
boundary
62
5
39
2
10
255.021141
20
416.484819
11
255.220186
21
418.454980
0
LINE
8
boundary
62
5
39
2
10
255.220186
20
418.454980
11
255.651422
21
422.612629
0
LINE
8
boundary
62
5
39
2
10
255.651422
20
422.612629
11
255.774271
21
423.836859
0
LINE
8
boundary
62
5
39
2
10
255.774271
20
423.836859
11
256.093490
21
426.777692
0
LINE
8
boundary
62
5
39
2
10
256.093490
20
426.777692
11
256.315637
21
428.900927
0
LINE
8
boundary
62
5
39
2
10
256.315637
20
428.900927
11
256.547617
21
430.945689
0
LINE
8
boundary
62
5
39
2
10
256.547617
20
430.945689
11
256.884683
21
434.018313
0
LINE
8
boundary
62
5
39
2
10
256.884683
20
434.018313
11
257.014996
21
435.112356
0
LINE
8
boundary
62
5
39
2
10
257.014996
20
435.112356
11
257.485425
21
439.182839
0
LINE
8
boundary
62
5
39
2
10
257.485425
20
439.182839
11
257.989739
21
443.426688
0
LINE
8
boundary
62
5
39
2
10
257.989739
20
443.426688
11
258.101646
21
444.399437
0
LINE
8
boundary
62
5
39
2
10
258.101646
20
444.399437
11
258.498652
21
447.561874
0
LINE
8
boundary
62
5
39
2
10
258.498652
20
447.561874
11
258.754393
21
449.649266
0
LINE
8
boundary
62
5
39
2
10
258.754393
20
449.649266
11
259.024987
21
451.675652
0
LINE
8
boundary
62
5
39
2
10
259.024987
20
451.675652
11
259.450081
21
454.924471
0
LINE
8
boundary
62
5
39
2
10
259.450081
20
454.924471
11
259.815511
21
457.569518
0
LINE
8
boundary
62
5
39
2
10
259.815511
20
457.569518
11
259.955341
21
458.548317
0
LINE
8
boundary
62
5
39
2
10
259.955341
20
458.548317
11
260.154414
21
459.996518
0
LINE
8
boundary
62
5
39
2
10
260.154414
20
459.996518
11
260.478982
21
462.287325
0
LINE
8
boundary
62
5
39
2
10
260.478982
20
462.287325
11
260.561723
21
462.875823
0
LINE
8
boundary
62
5
39
2
10
260.561723
20
462.875823
11
260.811769
21
464.571457
0
LINE
8
boundary
62
5
39
2
10
260.811769
20
464.571457
11
260.951943
21
465.532129
0
LINE
8
boundary
62
5
39
2
10
260.951943
20
465.532129
11
261.153099
21
466.848374
0
LINE
8
boundary
62
5
39
2
10
261.153099
20
466.848374
11
261.356154
21
468.188846
0
LINE
8
boundary
62
5
39
2
10
261.356154
20
468.188846
11
261.503279
21
469.117494
0
LINE
8
boundary
62
5
39
2
10
261.503279
20
469.117494
11
261.775032
21
470.845074
0
LINE
8
boundary
62
5
39
2
10
261.775032
20
470.845074
11
261.862628
21
471.378274
0
LINE
8
boundary
62
5
39
2
10
261.862628
20
471.378274
11
262.209300
21
473.499934
0
LINE
8
boundary
62
5
39
2
10
262.209300
20
473.499934
11
262.351995
21
474.340001
0
LINE
8
boundary
62
5
39
2
10
262.351995
20
474.340001
11
262.585805
21
475.760693
0
LINE
8
boundary
62
5
39
2
10
262.585805
20
475.760693
11
262.936546
21
477.827320
0
LINE
8
boundary
62
5
39
2
10
262.936546
20
477.827320
11
263.103100
21
478.802739
0
LINE
8
boundary
62
5
39
2
10
263.103100
20
478.802739
11
263.295013
21
479.882172
0
LINE
8
boundary
62
5
39
2
10
263.295013
20
479.882172
11
263.573160
21
481.447495
0
LINE
8
boundary
62
5
39
2
10
263.573160
20
481.447495
11
263.668908
21
481.964680
0
LINE
8
boundary
62
5
39
2
10
263.668908
20
481.964680
11
263.955830
21
483.513531
0
LINE
8
boundary
62
5
39
2
10
263.955830
20
483.513531
11
264.072943
21
484.161955
0
LINE
8
boundary
62
5
39
2
10
264.072943
20
484.161955
11
264.480934
21
486.338217
0
LINE
8
boundary
62
5
39
2
10
264.480934
20
486.338217
11
264.662613
21
487.301748
0
LINE
8
boundary
62
5
39
2
10
264.662613
20
487.301748
11
264.896882
21
488.499378
0
LINE
8
boundary
62
5
39
2
10
264.896882
20
488.499378
11
265.233177
21
490.213898
0
LINE
8
boundary
62
5
39
2
10
265.233177
20
490.213898
11
265.562876
21
491.835557
0
LINE
8
boundary
62
5
39
2
10
265.562876
20
491.835557
11
265.748634
21
492.772490
0
LINE
8
boundary
62
5
39
2
10
265.748634
20
492.772490
11
266.178745
21
494.878701
0
LINE
8
boundary
62
5
39
2
10
266.178745
20
494.878701
11
266.409821
21
495.999614
0
LINE
8
boundary
62
5
39
2
10
266.409821
20
495.999614
11
266.615518
21
496.970065
0
LINE
8
boundary
62
5
39
2
10
266.615518
20
496.970065
11
267.020552
21
498.870832
0
LINE
8
boundary
62
5
39
2
10
267.020552
20
498.870832
11
267.158569
21
499.499778
0
LINE
8
boundary
62
5
39
2
10
267.158569
20
499.499778
11
267.500788
21
501.099469
0
LINE
8
boundary
62
5
39
2
10
267.500788
20
501.099469
11
267.635284
21
501.724388
0
LINE
8
boundary
62
5
39
2
10
267.635284
20
501.724388
11
267.945966
21
503.134866
0
LINE
8
boundary
62
5
39
2
10
267.945966
20
503.134866
11
268.261991
21
504.560082
0
LINE
8
boundary
62
5
39
2
10
268.261991
20
504.560082
11
268.396874
21
505.155849
0
LINE
8
boundary
62
5
39
2
10
268.396874
20
505.155849
11
268.732049
21
506.625610
0
LINE
8
boundary
62
5
39
2
10
268.732049
20
506.625610
11
268.899462
21
507.376734
0
LINE
8
boundary
62
5
39
2
10
268.899462
20
507.376734
11
269.251127
21
508.916654
0
LINE
8
boundary
62
5
39
2
10
269.251127
20
508.916654
11
269.539590
21
510.171779
0
LINE
8
boundary
62
5
39
2
10
269.539590
20
510.171779
11
269.665613
21
510.710097
0
LINE
8
boundary
62
5
39
2
10
269.665613
20
510.710097
11
269.891976
21
511.670438
0
LINE
8
boundary
62
5
39
2
10
269.891976
20
511.670438
11
270.079730
21
512.485311
0
LINE
8
boundary
62
5
39
2
10
270.079730
20
512.485311
11
270.492161
21
514.241159
0
LINE
8
boundary
62
5
39
2
10
270.492161
20
514.241159
11
270.837636
21
515.695042
0
LINE
8
boundary
62
5
39
2
10
270.837636
20
515.695042
11
271.030507
21
516.490669
0
LINE
8
boundary
62
5
39
2
10
271.030507
20
516.490669
11
271.319853
21
517.709742
0
LINE
8
boundary
62
5
39
2
10
271.319853
20
517.709742
11
271.489804
21
518.420508
0
LINE
8
boundary
62
5
39
2
10
271.489804
20
518.420508
11
271.731605
21
519.417862
0
LINE
8
boundary
62
5
39
2
10
271.731605
20
519.417862
11
272.144353
21
521.107170
0
LINE
8
boundary
62
5
39
2
10
272.144353
20
521.107170
11
272.737438
21
523.527569
0
LINE
8
boundary
62
5
39
2
10
272.737438
20
523.527569
11
273.230145
21
525.515783
0
LINE
8
boundary
62
5
39
2
10
273.230145
20
525.515783
11
273.454621
21
526.443281
0
LINE
8
boundary
62
5
39
2
10
273.454621
20
526.443281
11
273.911384
21
528.275469
0
LINE
8
boundary
62
5
39
2
10
273.911384
20
528.275469
11
274.283415
21
529.750440
0
LINE
8
boundary
62
5
39
2
10
274.283415
20
529.750440
11
274.489632
21
530.594354
0
LINE
8
boundary
62
5
39
2
10
274.489632
20
530.594354
11
274.751905
21
531.655573
0
LINE
8
boundary
62
5
39
2
10
274.751905
20
531.655573
11
275.057504
21
532.867973
0
LINE
8
boundary
62
5
39
2
10
275.057504
20
532.867973
11
275.300509
21
533.820413
0
LINE
8
boundary
62
5
39
2
10
275.300509
20
533.820413
11
275.616173
21
535.100664
0
LINE
8
boundary
62
5
39
2
10
275.616173
20
535.100664
11
276.028729
21
536.754449
0
LINE
8
boundary
62
5
39
2
10
276.028729
20
536.754449
11
276.168851
21
537.307896
0
LINE
8
boundary
62
5
39
2
10
276.168851
20
537.307896
11
276.702953
21
539.454306
0
LINE
8
boundary
62
5
39
2
10
276.702953
20
539.454306
11
277.210642
21
541.485477
0
LINE
8
boundary
62
5
39
2
10
277.210642
20
541.485477
11
277.742506
21
543.656571
0
LINE
8
boundary
62
5
39
2
10
277.742506
20
543.656571
11
278.092115
21
545.064154
0
LINE
8
boundary
62
5
39
2
10
278.092115
20
545.064154
11
278.244655
21
545.706188
0
LINE
8
boundary
62
5
39
2
10
278.244655
20
545.706188
11
278.460015
21
546.602333
0
LINE
8
boundary
62
5
39
2
10
278.460015
20
546.602333
11
278.726949
21
547.707613
0
LINE
8
boundary
62
5
39
2
10
278.726949
20
547.707613
11
278.919866
21
548.496740
0
LINE
8
boundary
62
5
39
2
10
278.919866
20
548.496740
11
279.192006
21
549.667164
0
LINE
8
boundary
62
5
39
2
10
279.192006
20
549.667164
11
279.587977
21
551.350870
0
LINE
8
boundary
62
5
39
2
10
279.587977
20
551.350870
11
280.069731
21
553.473567
0
LINE
8
boundary
62
5
39
2
10
280.069731
20
553.473567
11
280.393796
21
554.900173
0
LINE
8
boundary
62
5
39
2
10
280.393796
20
554.900173
11
280.625995
21
555.984562
0
LINE
8
boundary
62
5
39
2
10
280.625995
20
555.984562
11
280.868795
21
557.122573
0
LINE
8
boundary
62
5
39
2
10
280.868795
20
557.122573
11
281.028051
21
557.860490
0
LINE
8
boundary
62
5
39
2
10
281.028051
20
557.860490
11
281.230842
21
558.876924
0
LINE
8
boundary
62
5
39
2
10
281.230842
20
558.876924
11
281.559207
21
560.506443
0
LINE
8
boundary
62
5
39
2
10
281.559207
20
560.506443
11
281.881186
21
562.260462
0
LINE
8
boundary
62
5
39
2
10
281.881186
20
562.260462
11
282.072801
21
563.303496
0
LINE
8
boundary
62
5
39
2
10
282.072801
20
563.303496
11
282.192013
21
564.031055
0
LINE
8
boundary
62
5
39
2
10
282.192013
20
564.031055
11
282.478013
21
565.788787
0
LINE
8
boundary
62
5
39
2
10
282.478013
20
565.788787
11
282.697794
21
567.342320
0
LINE
8
boundary
62
5
39
2
10
282.697794
20
567.342320
11
282.821226
21
568.347968
0
LINE
8
boundary
62
5
39
2
10
282.821226
20
568.347968
11
282.926290
21
569.272285
0
LINE
8
boundary
62
5
39
2
10
282.926290
20
569.272285
11
283.012282
21
570.094464
0
LINE
8
boundary
62
5
39
2
10
283.012282
20
570.094464
11
283.092805
21
571.057326
0
LINE
8
boundary
62
5
39
2
10
283.092805
20
571.057326
11
283.155155
21
571.919222
0
LINE
8
boundary
62
5
39
2
10
283.155155
20
571.919222
11
283.197644
21
572.628654
0
LINE
8
boundary
62
5
39
2
10
283.197644
20
572.628654
11
283.232334
21
573.573507
0
LINE
8
boundary
62
5
39
2
10
283.232334
20
573.573507
11
283.248962
21
574.368392
0
LINE
8
boundary
62
5
39
2
10
283.248962
20
574.368392
11
283.253787
21
575.126554
0
LINE
8
boundary
62
5
39
2
10
283.253787
20
575.126554
11
283.233907
21
575.887090
0
LINE
8
boundary
62
5
39
2
10
283.233907
20
575.887090
11
283.202063
21
576.610059
0
LINE
8
boundary
62
5
39
2
10
283.202063
20
576.610059
11
283.166793
21
577.210624
0
LINE
8
boundary
62
5
39
2
10
283.166793
20
577.210624
11
283.092704
21
577.988486
0
LINE
8
boundary
62
5
39
2
10
283.092704
20
577.988486
11
283.009993
21
578.634520
0
LINE
8
boundary
62
5
39
2
10
283.009993
20
578.634520
11
282.913567
21
579.260067
0
LINE
8
boundary
62
5
39
2
10
282.913567
20
579.260067
11
282.812047
21
579.822020
0
LINE
8
boundary
62
5
39
2
10
282.812047
20
579.822020
11
282.562687
21
580.783606
0
LINE
8
boundary
62
5
39
2
10
282.562687
20
580.783606
11
282.292572
21
581.631959
0
LINE
8
boundary
62
5
39
2
10
282.292572
20
581.631959
11
282.014148
21
582.342311
0
LINE
8
boundary
62
5
39
2
10
282.014148
20
582.342311
11
281.751591
21
582.871395
0
LINE
8
boundary
62
5
39
2
10
281.751591
20
582.871395
11
281.392088
21
583.459460
0
LINE
8
boundary
62
5
39
2
10
281.392088
20
583.459460
11
281.076578
21
583.878670
0
LINE
8
boundary
62
5
39
2
10
281.076578
20
583.878670
11
280.697729
21
584.290308
0
LINE
8
boundary
62
5
39
2
10
280.697729
20
584.290308
11
280.061058
21
584.806076
0
LINE
8
boundary
62
5
39
2
10
280.061058
20
584.806076
11
279.349961
21
585.181943
0
LINE
8
boundary
62
5
39
2
10
279.349961
20
585.181943
11
278.795466
21
585.370303
0
LINE
8
boundary
62
5
39
2
10
278.795466
20
585.370303
11
278.253323
21
585.474331
0
LINE
8
boundary
62
5
39
2
10
278.253323
20
585.474331
11
277.681515
21
585.513500
0
LINE
8
boundary
62
5
39
2
10
277.681515
20
585.513500
11
277.121878
21
585.488970
0
LINE
8
boundary
62
5
39
2
10
277.121878
20
585.488970
11
276.492207
21
585.396072
0
LINE
8
boundary
62
5
39
2
10
276.492207
20
585.396072
11
275.803493
21
585.219219
0
LINE
8
boundary
62
5
39
2
10
275.803493
20
585.219219
11
275.284752
21
585.042289
0
LINE
8
boundary
62
5
39
2
10
275.284752
20
585.042289
11
274.750714
21
584.821712
0
LINE
8
boundary
62
5
39
2
10
274.750714
20
584.821712
11
273.892998
21
584.379002
0
LINE
8
boundary
62
5
39
2
10
273.892998
20
584.379002
11
273.413064
21
584.112986
0
LINE
8
boundary
62
5
39
2
10
273.413064
20
584.112986
11
272.635450
21
583.588371
0
LINE
8
boundary
62
5
39
2
10
272.635450
20
583.588371
11
271.278337
21
582.537352
0
LINE
8
boundary
62
5
39
2
10
271.278337
20
582.537352
11
270.170816
21
581.502711
0
LINE
8
boundary
62
5
39
2
10
270.170816
20
581.502711
11
269.805571
21
581.113082
0
LINE
8
boundary
62
5
39
2
10
269.805571
20
581.113082
11
269.086198
21
580.345783
0
LINE
8
boundary
62
5
39
2
10
269.086198
20
580.345783
11
268.240633
21
579.328930
0
LINE
8
boundary
62
5
39
2
10
268.240633
20
579.328930
11
267.594792
21
578.492841
0
LINE
8
boundary
62
5
39
2
10
267.594792
20
578.492841
11
266.955426
21
577.619047
0
LINE
8
boundary
62
5
39
2
10
266.955426
20
577.619047
11
274.410978
21
577.451537
0
LINE
8
boundary
62
5
39
2
10
274.410978
20
577.451537
11
274.410979
21
574.705537
0
LINE
8
boundary
62
5
39
2
10
274.410979
20
574.705537
11
265.127446
21
574.705537
0
LINE
8
boundary
62
5
39
2
10
265.127446
20
574.705537
11
264.831084
21
574.186644
0
LINE
8
boundary
62
5
39
2
10
264.831084
20
574.186644
11
263.925813
21
572.487733
0
LINE
8
boundary
62
5
39
2
10
263.925813
20
572.487733
11
262.985413
21
570.561354
0
LINE
8
boundary
62
5
39
2
10
262.985413
20
570.561354
11
262.027840
21
568.404657
0
LINE
8
boundary
62
5
39
2
10
262.027840
20
568.404657
11
261.321419
21
566.685829
0
LINE
8
boundary
62
5
39
2
10
261.321419
20
566.685829
11
261.115020
21
566.172648
0
LINE
8
boundary
62
5
39
2
10
261.115020
20
566.172648
11
260.794924
21
565.318397
0
LINE
8
boundary
62
5
39
2
10
260.794924
20
565.318397
11
260.223946
21
563.802345
0
LINE
8
boundary
62
5
39
2
10
260.223946
20
563.802345
11
259.909251
21
562.909989
0
LINE
8
boundary
62
5
39
2
10
259.909251
20
562.909989
11
259.354465
21
561.300325
0
LINE
8
boundary
62
5
39
2
10
259.354465
20
561.300325
11
258.686659
21
559.241222
0
LINE
8
boundary
62
5
39
2
10
258.686659
20
559.241222
11
258.523056
21
558.724783
0
LINE
8
boundary
62
5
39
2
10
258.523056
20
558.724783
11
269.253210
21
558.574783
0
LINE
8
boundary
62
5
39
2
10
269.253210
20
558.574783
11
269.253209
21
555.828783
0
LINE
8
boundary
62
5
39
2
10
269.253209
20
555.828783
11
257.654735
21
555.828783
0
LINE
8
boundary
62
5
39
2
10
257.654735
20
555.828783
11
256.859957
21
552.981160
0
LINE
8
boundary
62
5
39
2
10
256.859957
20
552.981160
11
256.660269
21
552.230966
0
LINE
8
boundary
62
5
39
2
10
256.660269
20
552.230966
11
256.055626
21
549.895595
0
LINE
8
boundary
62
5
39
2
10
256.055626
20
549.895595
11
255.267922
21
546.698799
0
LINE
8
boundary
62
5
39
2
10
255.267922
20
546.698799
11
254.478296
21
543.277418
0
LINE
8
boundary
62
5
39
2
10
254.478296
20
543.277418
11
254.067002
21
541.426203
0
LINE
8
boundary
62
5
39
2
10
254.067002
20
541.426203
11
253.725984
21
539.848029
0
LINE
8
boundary
62
5
39
2
10
253.725984
20
539.848029
11
264.688095
21
539.698029
0
LINE
8
boundary
62
5
39
2
10
264.688095
20
539.698029
11
264.688095
21
536.952029
0
LINE
8
boundary
62
5
39
2
10
264.688095
20
536.952029
11
253.118213
21
536.952029
0
LINE
8
boundary
62
5
39
2
10
253.118213
20
536.952029
11
252.996431
21
536.370830
0
LINE
8
boundary
62
5
39
2
10
252.996431
20
536.370830
11
252.523000
21
534.008586
0
LINE
8
boundary
62
5
39
2
10
252.523000
20
534.008586
11
252.112017
21
531.954999
0
LINE
8
boundary
62
5
39
2
10
252.112017
20
531.954999
11
251.298383
21
527.731307
0
LINE
8
boundary
62
5
39
2
10
251.298383
20
527.731307
11
251.125103
21
526.819453
0
LINE
8
boundary
62
5
39
2
10
251.125103
20
526.819453
11
250.767491
21
524.892832
0
LINE
8
boundary
62
5
39
2
10
250.767491
20
524.892832
11
250.277717
21
522.269123
0
LINE
8
boundary
62
5
39
2
10
250.277717
20
522.269123
11
250.040392
21
520.971275
0
LINE
8
boundary
62
5
39
2
10
250.040392
20
520.971275
11
260.552376
21
520.821275
0
LINE
8
boundary
62
5
39
2
10
260.552376
20
520.821275
11
260.552376
21
518.075275
0
LINE
8
boundary
62
5
39
2
10
260.552376
20
518.075275
11
249.510228
21
518.075276
0
LINE
8
boundary
62
5
39
2
10
249.510228
20
518.075276
11
248.700088
21
513.582866
0
LINE
8
boundary
62
5
39
2
10
248.700088
20
513.582866
11
247.922848
21
509.290016
0
LINE
8
boundary
62
5
39
2
10
247.922848
20
509.290016
11
247.269721
21
505.653436
0
LINE
8
boundary
62
5
39
2
10
247.269721
20
505.653436
11
247.134349
21
504.913243
0
LINE
8
boundary
62
5
39
2
10
247.134349
20
504.913243
11
246.617030
21
502.094521
0
LINE
8
boundary
62
5
39
2
10
246.617030
20
502.094521
11
256.694946
21
501.944522
0
LINE
8
boundary
62
5
39
2
10
256.694946
20
501.944522
11
256.694946
21
499.198522
0
LINE
8
boundary
62
5
39
2
10
256.694946
20
499.198522
11
246.085702
21
499.198522
0
LINE
8
boundary
62
5
39
2
10
246.085702
20
499.198522
11
245.737489
21
497.300522
0
LINE
8
boundary
62
5
39
2
10
245.737489
20
497.300522
11
245.443856
21
495.737594
0
LINE
8
boundary
62
5
39
2
10
245.443856
20
495.737594
11
245.252230
21
494.722298
0
LINE
8
boundary
62
5
39
2
10
245.252230
20
494.722298
11
245.020336
21
493.501574
0
LINE
8
boundary
62
5
39
2
10
245.020336
20
493.501574
11
244.379621
21
490.139569
0
LINE
8
boundary
62
5
39
2
10
244.379621
20
490.139569
11
244.125221
21
488.807081
0
LINE
8
boundary
62
5
39
2
10
244.125221
20
488.807081
11
243.868016
21
487.507405
0
LINE
8
boundary
62
5
39
2
10
243.868016
20
487.507405
11
243.554802
21
485.932322
0
LINE
8
boundary
62
5
39
2
10
243.554802
20
485.932322
11
243.425492
21
485.281873
0
LINE
8
boundary
62
5
39
2
10
243.425492
20
485.281873
11
243.241348
21
484.364177
0
LINE
8
boundary
62
5
39
2
10
243.241348
20
484.364177
11
243.040109
21
483.360023
0
LINE
8
boundary
62
5
39
2
10
243.040109
20
483.360023
11
253.020664
21
483.067768
0
LINE
8
boundary
62
5
39
2
10
253.020664
20
483.067768
11
253.020664
21
480.321768
0
LINE
8
boundary
62
5
39
2
10
253.020664
20
480.321768
11
242.423473
21
480.321768
0
LINE
8
boundary
62
5
39
2
10
242.423473
20
480.321768
11
242.293536
21
479.701766
0
LINE
8
boundary
62
5
39
2
10
242.293536
20
479.701766
11
241.967559
21
478.158293
0
LINE
8
boundary
62
5
39
2
10
241.967559
20
478.158293
11
241.859704
21
477.648584
0
LINE
8
boundary
62
5
39
2
10
241.859704
20
477.648584
11
241.640687
21
476.620825
0
LINE
8
boundary
62
5
39
2
10
241.640687
20
476.620825
11
241.457161
21
475.761138
0
LINE
8
boundary
62
5
39
2
10
241.457161
20
475.761138
11
241.312815
21
475.089027
0
LINE
8
boundary
62
5
39
2
10
241.312815
20
475.089027
11
241.052892
21
473.881689
0
LINE
8
boundary
62
5
39
2
10
241.052892
20
473.881689
11
240.682966
21
472.176170
0
LINE
8
boundary
62
5
39
2
10
240.682966
20
472.176170
11
240.311698
21
470.517782
0
LINE
8
boundary
62
5
39
2
10
240.311698
20
470.517782
11
239.969274
21
468.998187
0
LINE
8
boundary
62
5
39
2
10
239.969274
20
468.998187
11
239.806964
21
468.281144
0
LINE
8
boundary
62
5
39
2
10
239.806964
20
468.281144
11
239.625491
21
467.481612
0
LINE
8
boundary
62
5
39
2
10
239.625491
20
467.481612
11
239.385013
21
466.426439
0
LINE
8
boundary
62
5
39
2
10
239.385013
20
466.426439
11
238.961548
21
464.578067
0
LINE
8
boundary
62
5
39
2
10
238.961548
20
464.578067
11
249.384593
21
464.191014
0
LINE
8
boundary
62
5
39
2
10
249.384593
20
464.191014
11
249.384593
21
461.445014
0
LINE
8
boundary
62
5
39
2
10
249.384593
20
461.445014
11
238.224709
21
461.445014
0
LINE
8
boundary
62
5
39
2
10
238.224709
20
461.445014
11
238.003423
21
460.511871
0
LINE
8
boundary
62
5
39
2
10
238.003423
20
460.511871
11
237.655251
21
459.051289
0
LINE
8
boundary
62
5
39
2
10
237.655251
20
459.051289
11
237.387566
21
457.931228
0
LINE
8
boundary
62
5
39
2
10
237.387566
20
457.931228
11
236.776424
21
455.389185
0
LINE
8
boundary
62
5
39
2
10
236.776424
20
455.389185
11
236.122859
21
452.726907
0
LINE
8
boundary
62
5
39
2
10
236.122859
20
452.726907
11
235.876813
21
451.730428
0
LINE
8
boundary
62
5
39
2
10
235.876813
20
451.730428
11
235.473350
21
450.093669
0
LINE
8
boundary
62
5
39
2
10
235.473350
20
450.093669
11
234.975437
21
448.084318
0
LINE
8
boundary
62
5
39
2
10
234.975437
20
448.084318
11
234.817555
21
447.444450
0
LINE
8
boundary
62
5
39
2
10
234.817555
20
447.444450
11
234.377628
21
445.671595
0
LINE
8
boundary
62
5
39
2
10
234.377628
20
445.671595
11
245.807353
21
445.314260
0
LINE
8
boundary
62
5
39
2
10
245.807353
20
445.314260
11
245.807353
21
442.568261
0
LINE
8
boundary
62
5
39
2
10
245.807353
20
442.568261
11
233.598772
21
442.568260
0
LINE
8
boundary
62
5
39
2
10
233.598772
20
442.568260
11
233.469478
21
442.052483
0
LINE
8
boundary
62
5
39
2
10
233.469478
20
442.052483
11
233.156045
21
440.807110
0
LINE
8
boundary
62
5
39
2
10
233.156045
20
440.807110
11
232.782382
21
439.310063
0
LINE
8
boundary
62
5
39
2
10
232.782382
20
439.310063
11
232.247576
21
437.176635
0
LINE
8
boundary
62
5
39
2
10
232.247576
20
437.176635
11
232.089641
21
436.539667
0
LINE
8
boundary
62
5
39
2
10
232.089641
20
436.539667
11
231.546988
21
434.361250
0
LINE
8
boundary
62
5
39
2
10
231.546988
20
434.361250
11
231.389075
21
433.732503
0
LINE
8
boundary
62
5
39
2
10
231.389075
20
433.732503
11
230.675815
21
430.866800
0
LINE
8
boundary
62
5
39
2
10
230.675815
20
430.866800
11
230.439824
21
429.920611
0
LINE
8
boundary
62
5
39
2
10
230.439824
20
429.920611
11
229.958397
21
427.960791
0
LINE
8
boundary
62
5
39
2
10
229.958397
20
427.960791
11
229.619966
21
426.587505
0
LINE
8
boundary
62
5
39
2
10
229.619966
20
426.587505
11
242.368396
21
426.437506
0
LINE
8
boundary
62
5
39
2
10
242.368396
20
426.437506
11
242.368396
21
423.691507
0
LINE
8
boundary
62
5
39
2
10
242.368396
20
423.691507
11
228.916690
21
423.691507
0
LINE
8
boundary
62
5
39
2
10
228.916690
20
423.691507
11
228.669455
21
422.673511
0
LINE
8
boundary
62
5
39
2
10
228.669455
20
422.673511
11
228.540057
21
422.130324
0
LINE
8
boundary
62
5
39
2
10
228.540057
20
422.130324
11
227.977609
21
419.778248
0
LINE
8
boundary
62
5
39
2
10
227.977609
20
419.778248
11
227.650285
21
418.387060
0
LINE
8
boundary
62
5
39
2
10
227.650285
20
418.387060
11
227.326290
21
417.016356
0
LINE
8
boundary
62
5
39
2
10
227.326290
20
417.016356
11
226.705691
21
414.344647
0
LINE
8
boundary
62
5
39
2
10
226.705691
20
414.344647
11
226.088977
21
411.640253
0
LINE
8
boundary
62
5
39
2
10
226.088977
20
411.640253
11
225.962298
21
411.085027
0
LINE
8
boundary
62
5
39
2
10
225.962298
20
411.085027
11
225.476910
21
408.901158
0
LINE
8
boundary
62
5
39
2
10
225.476910
20
408.901158
11
225.317998
21
408.189309
0
LINE
8
boundary
62
5
39
2
10
225.317998
20
408.189309
11
225.224364
21
407.560753
0
LINE
8
boundary
62
5
39
2
10
225.224364
20
407.560753
11
239.224049
21
407.560753
0
LINE
8
boundary
62
5
39
2
10
239.224049
20
407.560753
11
239.224049
21
404.814753
0
LINE
8
boundary
62
5
39
2
10
239.224049
20
404.814753
11
224.586625
21
404.814753
0
LINE
8
boundary
62
5
39
2
10
224.586625
20
404.814753
11
224.271226
21
403.327965
0
LINE
8
boundary
62
5
39
2
10
224.271226
20
403.327965
11
224.075520
21
402.410652
0
LINE
8
boundary
62
5
39
2
10
224.075520
20
402.410652
11
223.680146
21
400.501606
0
LINE
8
boundary
62
5
39
2
10
223.680146
20
400.501606
11
223.478117
21
399.532320
0
LINE
8
boundary
62
5
39
2
10
223.478117
20
399.532320
11
223.098705
21
397.654779
0
LINE
8
boundary
62
5
39
2
10
223.098705
20
397.654779
11
222.897174
21
396.664517
0
LINE
8
boundary
62
5
39
2
10
222.897174
20
396.664517
11
222.528301
21
394.792534
0
LINE
8
boundary
62
5
39
2
10
222.528301
20
394.792534
11
222.333118
21
393.809726
0
LINE
8
boundary
62
5
39
2
10
222.333118
20
393.809726
11
221.601105
21
389.946676
0
LINE
8
boundary
62
5
39
2
10
221.601105
20
389.946676
11
221.388367
21
388.833998
0
LINE
8
boundary
62
5
39
2
10
221.388367
20
388.833998
11
236.401802
21
388.683999
0
LINE
8
boundary
62
5
39
2
10
236.401802
20
388.683999
11
236.401801
21
385.937999
0
LINE
8
boundary
62
5
39
2
10
236.401801
20
385.937999
11
220.861021
21
385.937999
0
LINE
8
boundary
62
5
39
2
10
220.861021
20
385.937999
11
220.526595
21
384.072603
0
LINE
8
boundary
62
5
39
2
10
220.526595
20
384.072603
11
220.255073
21
382.574393
0
LINE
8
boundary
62
5
39
2
10
220.255073
20
382.574393
11
219.521082
21
378.227940
0
LINE
8
boundary
62
5
39
2
10
219.521082
20
378.227940
11
219.329191
21
377.106712
0
LINE
8
boundary
62
5
39
2
10
219.329191
20
377.106712
11
219.060903
21
375.445876
0
LINE
8
boundary
62
5
39
2
10
219.060903
20
375.445876
11
218.735701
21
373.397014
0
LINE
8
boundary
62
5
39
2
10
218.735701
20
373.397014
11
218.422573
21
371.371757
0
LINE
8
boundary
62
5
39
2
10
218.422573
20
371.371757
11
218.209160
21
369.957245
0
LINE
8
boundary
62
5
39
2
10
218.209160
20
369.957245
11
233.779406
21
369.807245
0
LINE
8
boundary
62
5
39
2
10
233.779406
20
369.807245
11
233.779405
21
367.061245
0
LINE
8
boundary
62
5
39
2
10
233.779405
20
367.061245
11
217.783556
21
367.061245
0
LINE
8
boundary
62
5
39
2
10
217.783556
20
367.061245
11
217.556600
21
365.457459
0
LINE
8
boundary
62
5
39
2
10
217.556600
20
365.457459
11
217.292268
21
363.545271
0
LINE
8
boundary
62
5
39
2
10
217.292268
20
363.545271
11
217.039769
21
361.664653
0
LINE
8
boundary
62
5
39
2
10
217.039769
20
361.664653
11
216.798938
21
359.818223
0
LINE
8
boundary
62
5
39
2
10
216.798938
20
359.818223
11
216.569369
21
358.007655
0
LINE
8
boundary
62
5
39
2
10
216.569369
20
358.007655
11
216.350261
21
356.231768
0
LINE
8
boundary
62
5
39
2
10
216.350261
20
356.231768
11
216.140725
21
354.488726
0
LINE
8
boundary
62
5
39
2
10
216.140725
20
354.488726
11
215.939811
21
352.776216
0
LINE
8
boundary
62
5
39
2
10
215.939811
20
352.776216
11
215.874487
21
352.231807
0
LINE
8
boundary
62
5
39
2
10
215.874487
20
352.231807
11
215.746519
21
351.091473
0
LINE
8
boundary
62
5
39
2
10
215.746519
20
351.091473
11
231.193033
21
350.930491
0
LINE
8
boundary
62
5
39
2
10
231.193033
20
350.930491
11
231.193033
21
348.184491
0
LINE
8
boundary
62
5
39
2
10
231.193033
20
348.184491
11
215.420717
21
348.184491
0
LINE
8
boundary
62
5
39
2
10
215.420717
20
348.184491
11
215.325009
21
347.334679
0
LINE
8
boundary
62
5
39
2
10
215.325009
20
347.334679
11
215.259372
21
346.782988
0
LINE
8
boundary
62
5
39
2
10
215.259372
20
346.782988
11
215.122710
21
345.452951
0
LINE
8
boundary
62
5
39
2
10
215.122710
20
345.452951
11
215.070374
21
344.943434
0
LINE
8
boundary
62
5
39
2
10
215.070374
20
344.943434
11
214.999819
21
344.263975
0
LINE
8
boundary
62
5
39
2
10
214.999819
20
344.263975
11
214.877598
21
343.114207
0
LINE
8
boundary
62
5
39
2
10
214.877598
20
343.114207
11
214.773760
21
342.104003
0
LINE
8
boundary
62
5
39
2
10
214.773760
20
342.104003
11
214.700828
21
341.404286
0
LINE
8
boundary
62
5
39
2
10
214.700828
20
341.404286
11
214.543618
21
339.860281
0
LINE
8
boundary
62
5
39
2
10
214.543618
20
339.860281
11
214.390052
21
338.324850
0
LINE
8
boundary
62
5
39
2
10
214.390052
20
338.324850
11
214.318050
21
337.620989
0
LINE
8
boundary
62
5
39
2
10
214.318050
20
337.620989
11
214.240173
21
336.795974
0
LINE
8
boundary
62
5
39
2
10
214.240173
20
336.795974
11
214.140850
21
335.788648
0
LINE
8
boundary
62
5
39
2
10
214.140850
20
335.788648
11
214.094110
21
335.272173
0
LINE
8
boundary
62
5
39
2
10
214.094110
20
335.272173
11
213.969790
21
333.957512
0
LINE
8
boundary
62
5
39
2
10
213.969790
20
333.957512
11
213.863126
21
332.765405
0
LINE
8
boundary
62
5
39
2
10
213.863126
20
332.765405
11
213.810926
21
332.203737
0
LINE
8
boundary
62
5
39
2
10
213.810926
20
332.203737
11
228.165626
21
332.053738
0
LINE
8
boundary
62
5
39
2
10
228.165626
20
332.053738
11
228.165627
21
329.307738
0
LINE
8
boundary
62
5
39
2
10
228.165627
20
329.307738
11
213.558457
21
329.307737
0
LINE
8
boundary
62
5
39
2
10
213.558457
20
329.307737
11
213.397160
21
327.354241
0
LINE
8
boundary
62
5
39
2
10
213.397160
20
327.354241
11
213.344378
21
326.644407
0
LINE
8
boundary
62
5
39
2
10
213.344378
20
326.644407
11
213.254565
21
325.485734
0
LINE
8
boundary
62
5
39
2
10
213.254565
20
325.485734
11
213.135966
21
323.836851
0
LINE
8
boundary
62
5
39
2
10
213.135966
20
323.836851
11
213.057489
21
322.735331
0
LINE
8
boundary
62
5
39
2
10
213.057489
20
322.735331
11
213.025889
21
322.192895
0
LINE
8
boundary
62
5
39
2
10
213.025889
20
322.192895
11
212.936664
21
320.718996
0
LINE
8
boundary
62
5
39
2
10
212.936664
20
320.718996
11
212.845884
21
318.995746
0
LINE
8
boundary
62
5
39
2
10
212.845884
20
318.995746
11
212.811644
21
318.346001
0
LINE
8
boundary
62
5
39
2
10
212.811644
20
318.346001
11
212.778095
21
317.442619
0
LINE
8
boundary
62
5
39
2
10
212.778095
20
317.442619
11
212.732952
21
316.258742
0
LINE
8
boundary
62
5
39
2
10
212.732952
20
316.258742
11
212.703032
21
314.850961
0
LINE
8
boundary
62
5
39
2
10
212.703032
20
314.850961
11
212.688954
21
314.252151
0
LINE
8
boundary
62
5
39
2
10
212.688954
20
314.252151
11
212.685191
21
313.337715
0
LINE
8
boundary
62
5
39
2
10
212.685191
20
313.337715
11
223.825339
21
313.176984
0
LINE
8
boundary
62
5
39
2
10
223.825339
20
313.176984
11
223.825338
21
310.430984
0
LINE
8
boundary
62
5
39
2
10
223.825338
20
310.430984
11
212.736713
21
310.430983
0
LINE
8
boundary
62
5
39
2
10
212.736713
20
310.430983
11
212.787399
21
308.972806
0
LINE
8
boundary
62
5
39
2
10
212.787399
20
308.972806
11
212.870715
21
307.842293
0
LINE
8
boundary
62
5
39
2
10
212.870715
20
307.842293
11
212.921790
21
307.214491
0
LINE
8
boundary
62
5
39
2
10
212.921790
20
307.214491
11
213.061356
21
306.056169
0
LINE
8
boundary
62
5
39
2
10
213.061356
20
306.056169
11
213.239293
21
304.910562
0
LINE
8
boundary
62
5
39
2
10
213.239293
20
304.910562
11
213.335033
21
304.363292
0
LINE
8
boundary
62
5
39
2
10
213.335033
20
304.363292
11
213.611668
21
303.186659
0
LINE
8
boundary
62
5
39
2
10
213.611668
20
303.186659
11
213.869883
21
302.348482
0
LINE
8
boundary
62
5
39
2
10
213.869883
20
302.348482
11
214.151689
21
301.597581
0
LINE
8
boundary
62
5
39
2
10
214.151689
20
301.597581
11
214.394988
21
301.032731
0
LINE
8
boundary
62
5
39
2
10
214.394988
20
301.032731
11
214.718134
21
300.464831
0
LINE
8
boundary
62
5
39
2
10
214.718134
20
300.464831
11
215.253297
21
299.702198
0
LINE
8
boundary
62
5
39
2
10
215.253297
20
299.702198
11
215.717167
21
299.212202
0
LINE
8
boundary
62
5
39
2
10
215.717167
20
299.212202
11
216.230116
21
298.793535
0
LINE
8
boundary
62
5
39
2
10
216.230116
20
298.793535
11
216.704186
21
298.491243
0
LINE
8
boundary
62
5
39
2
10
216.704186
20
298.491243
11
217.297767
21
298.241573
0
LINE
8
boundary
62
5
39
2
10
217.297767
20
298.241573
11
218.074371
21
298.038528
0
LINE
8
boundary
62
5
39
2
10
218.074371
20
298.038528
11
218.789467
21
297.969784
0
LINE
8
boundary
62
5
39
2
10
218.789467
20
297.969784
11
219.552618
21
297.993779
0
LINE
8
boundary
62
5
39
2
10
219.552618
20
297.993779
11
220.362515
21
298.114513
0
LINE
8
boundary
62
5
39
2
10
220.362515
20
298.114513
11
221.217245
21
298.335541
0
LINE
8
boundary
62
5
39
2
10
221.217245
20
298.335541
11
221.711425
21
298.493229
0
LINE
8
boundary
62
5
39
2
10
221.711425
20
298.493229
11
222.667819
21
298.894127
0
LINE
8
boundary
62
5
39
2
10
222.667819
20
298.894127
11
223.646845
21
299.400876
0
LINE
8
boundary
62
5
39
2
10
223.646845
20
299.400876
11
224.644008
21
300.010390
0
LINE
8
boundary
62
5
39
2
10
224.644008
20
300.010390
11
225.654892
21
300.719629
0
LINE
8
boundary
62
5
39
2
10
225.654892
20
300.719629
11
226.057715
21
301.036598
0
LINE
8
annotation
62
1
39
211
10
229.051887
20
309.403984
11
229.051887
21
314.203984
0
LINE
8
annotation
62
1
39
211
10
229.051887
20
314.203984
11
227.984785
21
313.136581
0
LINE
8
annotation
62
1
39
211
10
231.918988
20
309.403984
11
231.918988
21
314.203984
0
LINE
8
annotation
62
1
39
211
10
231.918988
20
314.203984
11
230.851887
21
313.136581
0
LINE
8
annotation
62
1
39
211
10
232.916688
20
328.376563
11
232.916688
21
332.984912
0
LINE
8
annotation
62
1
39
211
10
232.916688
20
332.984912
11
231.892193
21
331.960128
0
LINE
8
annotation
62
1
39
211
10
236.691701
20
328.376525
11
234.645022
21
328.376525
0
LINE
8
annotation
62
1
39
211
10
234.645022
20
328.376525
11
236.536220
21
331.421111
0
LINE
8
annotation
62
1
39
211
10
236.536220
20
331.421111
11
236.536220
21
331.421111
0
LINE
8
annotation
62
1
39
211
10
236.536220
20
331.421111
11
236.538481
21
331.423909
0
LINE
8
annotation
62
1
39
211
10
236.538481
20
331.423909
11
236.540649
21
331.426730
0
LINE
8
annotation
62
1
39
211
10
236.540649
20
331.426730
11
236.542739
21
331.429599
0
LINE
8
annotation
62
1
39
211
10
236.542739
20
331.429599
11
236.544764
21
331.432539
0
LINE
8
annotation
62
1
39
211
10
236.544764
20
331.432539
11
236.546739
21
331.435575
0
LINE
8
annotation
62
1
39
211
10
236.546739
20
331.435575
11
236.548679
21
331.438729
0
LINE
8
annotation
62
1
39
211
10
236.548679
20
331.438729
11
236.550597
21
331.442026
0
LINE
8
annotation
62
1
39
211
10
236.550597
20
331.442026
11
236.552509
21
331.445490
0
LINE
8
annotation
62
1
39
211
10
236.552509
20
331.445490
11
236.554427
21
331.449144
0
LINE
8
annotation
62
1
39
211
10
236.554427
20
331.449144
11
236.554427
21
331.449144
0
LINE
8
annotation
62
1
39
211
10
236.554427
20
331.449144
11
236.632514
21
331.616803
0
LINE
8
annotation
62
1
39
211
10
236.632514
20
331.616803
11
236.678131
21
331.790597
0
LINE
8
annotation
62
1
39
211
10
236.678131
20
331.790597
11
236.692396
21
331.966598
0
LINE
8
annotation
62
1
39
211
10
236.692396
20
331.966598
11
236.676427
21
332.140880
0
LINE
8
annotation
62
1
39
211
10
236.676427
20
332.140880
11
236.631342
21
332.309515
0
LINE
8
annotation
62
1
39
211
10
236.631342
20
332.309515
11
236.558259
21
332.468576
0
LINE
8
annotation
62
1
39
211
10
236.558259
20
332.468576
11
236.458295
21
332.614136
0
LINE
8
annotation
62
1
39
211
10
236.458295
20
332.614136
11
236.332569
21
332.742269
0
LINE
8
annotation
62
1
39
211
10
236.332569
20
332.742269
11
236.182198
21
332.849046
0
LINE
8
annotation
62
1
39
211
10
236.182198
20
332.849046
11
236.182198
21
332.849046
0
LINE
8
annotation
62
1
39
211
10
236.182198
20
332.849046
11
236.014073
21
332.926024
0
LINE
8
annotation
62
1
39
211
10
236.014073
20
332.926024
11
235.840012
21
332.970938
0
LINE
8
annotation
62
1
39
211
10
235.840012
20
332.970938
11
235.663909
21
332.984800
0
LINE
8
annotation
62
1
39
211
10
235.663909
20
332.984800
11
235.489653
21
332.968620
0
LINE
8
annotation
62
1
39
211
10
235.489653
20
332.968620
11
235.321137
21
332.923410
0
LINE
8
annotation
62
1
39
211
10
235.321137
20
332.923410
11
235.162252
21
332.850181
0
LINE
8
annotation
62
1
39
211
10
235.162252
20
332.850181
11
235.016890
21
332.749942
0
LINE
8
annotation
62
1
39
211
10
235.016890
20
332.749942
11
234.888940
21
332.623706
0
LINE
8
annotation
62
1
39
211
10
234.888940
20
332.623706
11
234.782296
21
332.472483
0
LINE
8
annotation
62
1
39
211
10
234.782296
20
332.472483
11
234.647912
21
332.214697
0
LINE
8
annotation
62
1
39
211
10
235.944243
20
347.252983
11
235.944243
21
351.862000
0
LINE
8
annotation
62
1
39
211
10
235.944243
20
351.862000
11
234.919599
21
350.837067
0
LINE
8
annotation
62
1
39
211
10
237.672480
20
347.253127
11
238.695967
21
347.253127
0
LINE
8
annotation
62
1
39
211
10
238.695967
20
347.253127
11
238.695967
21
347.253127
0
LINE
8
annotation
62
1
39
211
10
238.695967
20
347.253127
11
238.880044
21
347.269640
0
LINE
8
annotation
62
1
39
211
10
238.880044
20
347.269640
11
239.053254
21
347.317231
0
LINE
8
annotation
62
1
39
211
10
239.053254
20
347.317231
11
239.212716
21
347.392979
0
LINE
8
annotation
62
1
39
211
10
239.212716
20
347.392979
11
239.355549
21
347.493963
0
LINE
8
annotation
62
1
39
211
10
239.355549
20
347.493963
11
239.478873
21
347.617261
0
LINE
8
annotation
62
1
39
211
10
239.478873
20
347.617261
11
239.579806
21
347.759952
0
LINE
8
annotation
62
1
39
211
10
239.579806
20
347.759952
11
239.655468
21
347.919114
0
LINE
8
annotation
62
1
39
211
10
239.655468
20
347.919114
11
239.702978
21
348.091827
0
LINE
8
annotation
62
1
39
211
10
239.702978
20
348.091827
11
239.719455
21
348.275169
0
LINE
8
annotation
62
1
39
211
10
239.719455
20
348.275169
11
239.719455
21
348.787636
0
LINE
8
annotation
62
1
39
211
10
239.719455
20
348.787636
11
239.719455
21
348.787636
0
LINE
8
annotation
62
1
39
211
10
239.719455
20
348.787636
11
239.702978
21
348.970902
0
LINE
8
annotation
62
1
39
211
10
239.702978
20
348.970902
11
239.655468
21
349.143574
0
LINE
8
annotation
62
1
39
211
10
239.655468
20
349.143574
11
239.579806
21
349.302725
0
LINE
8
annotation
62
1
39
211
10
239.579806
20
349.302725
11
239.478873
21
349.445425
0
LINE
8
annotation
62
1
39
211
10
239.478873
20
349.445425
11
239.355549
21
349.568747
0
LINE
8
annotation
62
1
39
211
10
239.355549
20
349.568747
11
239.212716
21
349.669762
0
LINE
8
annotation
62
1
39
211
10
239.212716
20
349.669762
11
239.053254
21
349.745541
0
LINE
8
annotation
62
1
39
211
10
239.053254
20
349.745541
11
238.880044
21
349.793156
0
LINE
8
annotation
62
1
39
211
10
238.880044
20
349.793156
11
238.695967
21
349.809678
0
LINE
8
annotation
62
1
39
211
10
238.695967
20
349.809678
11
238.183501
21
349.809678
0
LINE
8
annotation
62
1
39
211
10
238.183501
20
349.809678
11
238.695967
21
349.809678
0
LINE
8
annotation
62
1
39
211
10
238.695967
20
349.809678
11
238.695967
21
349.809678
0
LINE
8
annotation
62
1
39
211
10
238.695967
20
349.809678
11
238.880044
21
349.826204
0
LINE
8
annotation
62
1
39
211
10
238.880044
20
349.826204
11
239.053254
21
349.873847
0
LINE
8
annotation
62
1
39
211
10
239.053254
20
349.873847
11
239.212716
21
349.949701
0
LINE
8
annotation
62
1
39
211
10
239.212716
20
349.949701
11
239.355549
21
350.050863
0
LINE
8
annotation
62
1
39
211
10
239.355549
20
350.050863
11
239.478873
21
350.174426
0
LINE
8
annotation
62
1
39
211
10
239.478873
20
350.174426
11
239.579806
21
350.317488
0
LINE
8
annotation
62
1
39
211
10
239.579806
20
350.317488
11
239.655468
21
350.477142
0
LINE
8
annotation
62
1
39
211
10
239.655468
20
350.477142
11
239.702978
21
350.650484
0
LINE
8
annotation
62
1
39
211
10
239.702978
20
350.650484
11
239.719455
21
350.834611
0
LINE
8
annotation
62
1
39
211
10
239.719455
20
350.834611
11
239.719455
21
350.834611
0
LINE
8
annotation
62
1
39
211
10
239.719455
20
350.834611
11
239.702978
21
351.017876
0
LINE
8
annotation
62
1
39
211
10
239.702978
20
351.017876
11
239.655468
21
351.190549
0
LINE
8
annotation
62
1
39
211
10
239.655468
20
351.190549
11
239.579806
21
351.349700
0
LINE
8
annotation
62
1
39
211
10
239.579806
20
351.349700
11
239.478873
21
351.492400
0
LINE
8
annotation
62
1
39
211
10
239.478873
20
351.492400
11
239.355549
21
351.615722
0
LINE
8
annotation
62
1
39
211
10
239.355549
20
351.615722
11
239.212716
21
351.716737
0
LINE
8
annotation
62
1
39
211
10
239.212716
20
351.716737
11
239.053254
21
351.792515
0
LINE
8
annotation
62
1
39
211
10
239.053254
20
351.792515
11
238.880044
21
351.840130
0
LINE
8
annotation
62
1
39
211
10
238.880044
20
351.840130
11
238.695967
21
351.856653
0
LINE
8
annotation
62
1
39
211
10
238.695967
20
351.856653
11
237.672480
21
351.856653
0
LINE
8
annotation
62
1
39
211
10
238.431866
20
366.351927
11
238.431866
21
370.516563
0
LINE
8
annotation
62
1
39
211
10
238.431866
20
370.516563
11
237.506014
21
369.590450
0
LINE
8
annotation
62
1
39
211
10
242.305883
20
367.277779
11
239.993474
21
367.277779
0
LINE
8
annotation
62
1
39
211
10
239.993474
20
367.277779
11
240.916975
21
370.516563
0
LINE
8
annotation
62
1
39
211
10
241.612735
20
366.351927
11
241.612735
21
368.201542
0
LINE
8
annotation
62
1
39
211
10
241.153012
20
385.006490
11
241.153012
21
389.615508
0
LINE
8
annotation
62
1
39
211
10
241.153012
20
389.615508
11
240.128368
21
388.590575
0
LINE
8
annotation
62
1
39
211
10
242.881249
20
385.006490
11
243.904736
21
385.006490
0
LINE
8
annotation
62
1
39
211
10
243.904736
20
385.006490
11
243.904736
21
385.006490
0
LINE
8
annotation
62
1
39
211
10
243.904736
20
385.006490
11
244.088432
21
385.023007
0
LINE
8
annotation
62
1
39
211
10
244.088432
20
385.023007
11
244.261440
21
385.070623
0
LINE
8
annotation
62
1
39
211
10
244.261440
20
385.070623
11
244.420842
21
385.146439
0
LINE
8
annotation
62
1
39
211
10
244.420842
20
385.146439
11
244.563723
21
385.247554
0
LINE
8
annotation
62
1
39
211
10
244.563723
20
385.247554
11
244.687166
21
385.371070
0
LINE
8
annotation
62
1
39
211
10
244.687166
20
385.371070
11
244.788254
21
385.514086
0
LINE
8
annotation
62
1
39
211
10
244.788254
20
385.514086
11
244.864070
21
385.673701
0
LINE
8
annotation
62
1
39
211
10
244.864070
20
385.673701
11
244.911699
21
385.847017
0
LINE
8
annotation
62
1
39
211
10
244.911699
20
385.847017
11
244.928224
21
386.031134
0
LINE
8
annotation
62
1
39
211
10
244.928224
20
386.031134
11
244.928224
21
386.540999
0
LINE
8
annotation
62
1
39
211
10
244.928224
20
386.540999
11
244.928224
21
386.540999
0
LINE
8
annotation
62
1
39
211
10
244.928224
20
386.540999
11
244.911709
21
386.725026
0
LINE
8
annotation
62
1
39
211
10
244.911709
20
386.725026
11
244.864104
21
386.898103
0
LINE
8
annotation
62
1
39
211
10
244.864104
20
386.898103
11
244.788318
21
387.057372
0
LINE
8
annotation
62
1
39
211
10
244.788318
20
387.057372
11
244.687261
21
387.199978
0
LINE
8
annotation
62
1
39
211
10
244.687261
20
387.199978
11
244.563842
21
387.323062
0
LINE
8
annotation
62
1
39
211
10
244.563842
20
387.323062
11
244.420971
21
387.423767
0
LINE
8
annotation
62
1
39
211
10
244.420971
20
387.423767
11
244.261556
21
387.499237
0
LINE
8
annotation
62
1
39
211
10
244.261556
20
387.499237
11
244.088508
21
387.546614
0
LINE
8
annotation
62
1
39
211
10
244.088508
20
387.546614
11
243.904736
21
387.563041
0
LINE
8
annotation
62
1
39
211
10
243.904736
20
387.563041
11
242.881249
21
387.563041
0
LINE
8
annotation
62
1
39
211
10
242.881249
20
387.563041
11
242.881249
21
389.615508
0
LINE
8
annotation
62
1
39
211
10
242.881249
20
389.615508
11
244.928224
21
389.615508
0
LINE
8
annotation
62
1
39
211
10
243.975259
20
403.883244
11
243.975259
21
408.492261
0
LINE
8
annotation
62
1
39
211
10
243.975259
20
408.492261
11
242.950615
21
407.467329
0
LINE
8
annotation
62
1
39
211
10
247.240895
20
408.492261
11
247.240895
21
408.492261
0
LINE
8
annotation
62
1
39
211
10
247.240895
20
408.492261
11
246.947691
21
408.382328
0
LINE
8
annotation
62
1
39
211
10
246.947691
20
408.382328
11
246.678639
21
408.234205
0
LINE
8
annotation
62
1
39
211
10
246.678639
20
408.234205
11
246.436499
21
408.051605
0
LINE
8
annotation
62
1
39
211
10
246.436499
20
408.051605
11
246.224034
21
407.838239
0
LINE
8
annotation
62
1
39
211
10
246.224034
20
407.838239
11
246.044005
21
407.597816
0
LINE
8
annotation
62
1
39
211
10
246.044005
20
407.597816
11
245.899175
21
407.334050
0
LINE
8
annotation
62
1
39
211
10
245.899175
20
407.334050
11
245.792306
21
407.050650
0
LINE
8
annotation
62
1
39
211
10
245.792306
20
407.050650
11
245.726159
21
406.751328
0
LINE
8
annotation
62
1
39
211
10
245.726159
20
406.751328
11
245.703496
21
406.439795
0
LINE
8
annotation
62
1
39
211
10
245.703496
20
406.439795
11
245.703496
21
404.907888
0
LINE
8
annotation
62
1
39
211
10
245.703496
20
404.907888
11
245.703496
21
404.907888
0
LINE
8
annotation
62
1
39
211
10
245.703496
20
404.907888
11
245.720020
21
404.723771
0
LINE
8
annotation
62
1
39
211
10
245.720020
20
404.723771
11
245.767649
21
404.550455
0
LINE
8
annotation
62
1
39
211
10
245.767649
20
404.550455
11
245.843466
21
404.390839
0
LINE
8
annotation
62
1
39
211
10
245.843466
20
404.390839
11
245.944554
21
404.247824
0
LINE
8
annotation
62
1
39
211
10
245.944554
20
404.247824
11
246.067996
21
404.124308
0
LINE
8
annotation
62
1
39
211
10
246.067996
20
404.124308
11
246.210877
21
404.023192
0
LINE
8
annotation
62
1
39
211
10
246.210877
20
404.023192
11
246.370280
21
403.947377
0
LINE
8
annotation
62
1
39
211
10
246.370280
20
403.947377
11
246.543287
21
403.899760
0
LINE
8
annotation
62
1
39
211
10
246.543287
20
403.899760
11
246.726983
21
403.883244
0
LINE
8
annotation
62
1
39
211
10
246.726983
20
403.883244
11
246.726983
21
403.883244
0
LINE
8
annotation
62
1
39
211
10
246.726983
20
403.883244
11
246.911060
21
403.899760
0
LINE
8
annotation
62
1
39
211
10
246.911060
20
403.899760
11
247.084270
21
403.947377
0
LINE
8
annotation
62
1
39
211
10
247.084270
20
403.947377
11
247.243732
21
404.023192
0
LINE
8
annotation
62
1
39
211
10
247.243732
20
404.023192
11
247.386565
21
404.124308
0
LINE
8
annotation
62
1
39
211
10
247.386565
20
404.124308
11
247.509889
21
404.247824
0
LINE
8
annotation
62
1
39
211
10
247.509889
20
404.247824
11
247.610822
21
404.390839
0
LINE
8
annotation
62
1
39
211
10
247.610822
20
404.390839
11
247.686484
21
404.550455
0
LINE
8
annotation
62
1
39
211
10
247.686484
20
404.550455
11
247.733994
21
404.723771
0
LINE
8
annotation
62
1
39
211
10
247.733994
20
404.723771
11
247.750471
21
404.907888
0
LINE
8
annotation
62
1
39
211
10
247.750471
20
404.907888
11
247.750471
21
405.417753
0
LINE
8
annotation
62
1
39
211
10
247.750471
20
405.417753
11
247.750471
21
405.417753
0
LINE
8
annotation
62
1
39
211
10
247.750471
20
405.417753
11
247.733994
21
405.601780
0
LINE
8
annotation
62
1
39
211
10
247.733994
20
405.601780
11
247.686484
21
405.774857
0
LINE
8
annotation
62
1
39
211
10
247.686484
20
405.774857
11
247.610822
21
405.934126
0
LINE
8
annotation
62
1
39
211
10
247.610822
20
405.934126
11
247.509889
21
406.076732
0
LINE
8
annotation
62
1
39
211
10
247.509889
20
406.076732
11
247.386565
21
406.199815
0
LINE
8
annotation
62
1
39
211
10
247.386565
20
406.199815
11
247.243732
21
406.300521
0
LINE
8
annotation
62
1
39
211
10
247.243732
20
406.300521
11
247.084270
21
406.375991
0
LINE
8
annotation
62
1
39
211
10
247.084270
20
406.375991
11
246.911060
21
406.423368
0
LINE
8
annotation
62
1
39
211
10
246.911060
20
406.423368
11
246.726983
21
406.439795
0
LINE
8
annotation
62
1
39
211
10
246.726983
20
406.439795
11
245.703496
21
406.439795
0
LINE
8
annotation
62
1
39
211
10
245.575307
20
403.307117
11
247.879816
21
403.307117
0
LINE
8
annotation
62
1
39
211
10
247.119051
20
422.761246
11
247.119051
21
427.367767
0
LINE
8
annotation
62
1
39
211
10
247.119051
20
427.367767
11
246.094962
21
426.343390
0
LINE
8
annotation
62
1
39
211
10
249.870585
20
422.761246
11
250.894674
21
427.367767
0
LINE
8
annotation
62
1
39
211
10
250.894674
20
427.367767
11
248.846208
21
427.367767
0
LINE
8
annotation
62
1
39
211
10
250.894674
20
425.316412
11
249.870585
21
425.316412
0
LINE
8
annotation
62
1
39
211
10
250.558563
20
441.636752
11
250.558563
21
446.245769
0
LINE
8
annotation
62
1
39
211
10
250.558563
20
446.245769
11
249.533919
21
445.220836
0
LINE
8
annotation
62
1
39
211
10
252.286800
20
442.658649
11
252.286800
21
442.658649
0
LINE
8
annotation
62
1
39
211
10
252.286800
20
442.658649
11
252.303324
21
442.474622
0
LINE
8
annotation
62
1
39
211
10
252.303324
20
442.474622
11
252.350953
21
442.301545
0
LINE
8
annotation
62
1
39
211
10
252.350953
20
442.301545
11
252.426770
21
442.142276
0
LINE
8
annotation
62
1
39
211
10
252.426770
20
442.142276
11
252.527858
21
441.999670
0
LINE
8
annotation
62
1
39
211
10
252.527858
20
441.999670
11
252.651300
21
441.876586
0
LINE
8
annotation
62
1
39
211
10
252.651300
20
441.876586
11
252.794181
21
441.775881
0
LINE
8
annotation
62
1
39
211
10
252.794181
20
441.775881
11
252.953584
21
441.700411
0
LINE
8
annotation
62
1
39
211
10
252.953584
20
441.700411
11
253.126591
21
441.653034
0
LINE
8
annotation
62
1
39
211
10
253.126591
20
441.653034
11
253.310287
21
441.636607
0
LINE
8
annotation
62
1
39
211
10
253.310287
20
441.636607
11
253.310287
21
441.636607
0
LINE
8
annotation
62
1
39
211
10
253.310287
20
441.636607
11
253.493983
21
441.653034
0
LINE
8
annotation
62
1
39
211
10
253.493983
20
441.653034
11
253.666991
21
441.700411
0
LINE
8
annotation
62
1
39
211
10
253.666991
20
441.700411
11
253.826393
21
441.775881
0
LINE
8
annotation
62
1
39
211
10
253.826393
20
441.775881
11
253.969274
21
441.876586
0
LINE
8
annotation
62
1
39
211
10
253.969274
20
441.876586
11
254.092717
21
441.999670
0
LINE
8
annotation
62
1
39
211
10
254.092717
20
441.999670
11
254.193805
21
442.142276
0
LINE
8
annotation
62
1
39
211
10
254.193805
20
442.142276
11
254.269621
21
442.301545
0
LINE
8
annotation
62
1
39
211
10
254.269621
20
442.301545
11
254.317250
21
442.474622
0
LINE
8
annotation
62
1
39
211
10
254.317250
20
442.474622
11
254.333775
21
442.658649
0
LINE
8
annotation
62
1
39
211
10
254.333775
20
442.658649
11
254.333775
21
443.168514
0
LINE
8
annotation
62
1
39
211
10
254.333775
20
443.168514
11
254.333775
21
443.168514
0
LINE
8
annotation
62
1
39
211
10
254.333775
20
443.168514
11
254.317260
21
443.352631
0
LINE
8
annotation
62
1
39
211
10
254.317260
20
443.352631
11
254.269655
21
443.525947
0
LINE
8
annotation
62
1
39
211
10
254.269655
20
443.525947
11
254.193869
21
443.685562
0
LINE
8
annotation
62
1
39
211
10
254.193869
20
443.685562
11
254.092812
21
443.828578
0
LINE
8
annotation
62
1
39
211
10
254.092812
20
443.828578
11
253.969393
21
443.952094
0
LINE
8
annotation
62
1
39
211
10
253.969393
20
443.952094
11
253.826522
21
444.053209
0
LINE
8
annotation
62
1
39
211
10
253.826522
20
444.053209
11
253.667107
21
444.129025
0
LINE
8
annotation
62
1
39
211
10
253.667107
20
444.129025
11
253.494059
21
444.176641
0
LINE
8
annotation
62
1
39
211
10
253.494059
20
444.176641
11
253.310287
21
444.193158
0
LINE
8
annotation
62
1
39
211
10
253.310287
20
444.193158
11
253.310287
21
444.193158
0
LINE
8
annotation
62
1
39
211
10
253.310287
20
444.193158
11
253.126515
21
444.176632
0
LINE
8
annotation
62
1
39
211
10
253.126515
20
444.176632
11
252.953467
21
444.128992
0
LINE
8
annotation
62
1
39
211
10
252.953467
20
444.128992
11
252.794053
21
444.053145
0
LINE
8
annotation
62
1
39
211
10
252.794053
20
444.053145
11
252.651181
21
443.951999
0
LINE
8
annotation
62
1
39
211
10
252.651181
20
443.951999
11
252.527762
21
443.828459
0
LINE
8
annotation
62
1
39
211
10
252.527762
20
443.828459
11
252.426705
21
443.685434
0
LINE
8
annotation
62
1
39
211
10
252.426705
20
443.685434
11
252.350920
21
443.525830
0
LINE
8
annotation
62
1
39
211
10
252.350920
20
443.525830
11
252.303315
21
443.352554
0
LINE
8
annotation
62
1
39
211
10
252.303315
20
443.352554
11
252.286800
21
443.168514
0
LINE
8
annotation
62
1
39
211
10
252.286800
20
443.168514
11
252.286800
21
442.658649
0
LINE
8
annotation
62
1
39
211
10
254.333775
20
445.218091
11
254.333775
21
445.218091
0
LINE
8
annotation
62
1
39
211
10
254.333775
20
445.218091
11
254.317260
21
445.401356
0
LINE
8
annotation
62
1
39
211
10
254.317260
20
445.401356
11
254.269655
21
445.574029
0
LINE
8
annotation
62
1
39
211
10
254.269655
20
445.574029
11
254.193869
21
445.733180
0
LINE
8
annotation
62
1
39
211
10
254.193869
20
445.733180
11
254.092812
21
445.875880
0
LINE
8
annotation
62
1
39
211
10
254.092812
20
445.875880
11
253.969393
21
445.999202
0
LINE
8
annotation
62
1
39
211
10
253.969393
20
445.999202
11
253.826522
21
446.100216
0
LINE
8
annotation
62
1
39
211
10
253.826522
20
446.100216
11
253.667107
21
446.175995
0
LINE
8
annotation
62
1
39
211
10
253.667107
20
446.175995
11
253.494059
21
446.223610
0
LINE
8
annotation
62
1
39
211
10
253.494059
20
446.223610
11
253.310287
21
446.240133
0
LINE
8
annotation
62
1
39
211
10
253.310287
20
446.240133
11
253.310287
21
446.240133
0
LINE
8
annotation
62
1
39
211
10
253.310287
20
446.240133
11
253.126515
21
446.223610
0
LINE
8
annotation
62
1
39
211
10
253.126515
20
446.223610
11
252.953467
21
446.175995
0
LINE
8
annotation
62
1
39
211
10
252.953467
20
446.175995
11
252.794053
21
446.100216
0
LINE
8
annotation
62
1
39
211
10
252.794053
20
446.100216
11
252.651181
21
445.999202
0
LINE
8
annotation
62
1
39
211
10
252.651181
20
445.999202
11
252.527762
21
445.875880
0
LINE
8
annotation
62
1
39
211
10
252.527762
20
445.875880
11
252.426705
21
445.733180
0
LINE
8
annotation
62
1
39
211
10
252.426705
20
445.733180
11
252.350920
21
445.574029
0
LINE
8
annotation
62
1
39
211
10
252.350920
20
445.574029
11
252.303315
21
445.401356
0
LINE
8
annotation
62
1
39
211
10
252.303315
20
445.401356
11
252.286800
21
445.218091
0
LINE
8
annotation
62
1
39
211
10
252.286800
20
445.218091
11
252.286800
21
445.218091
0
LINE
8
annotation
62
1
39
211
10
252.286800
20
445.218091
11
252.303324
21
445.033964
0
LINE
8
annotation
62
1
39
211
10
252.303324
20
445.033964
11
252.350953
21
444.860622
0
LINE
8
annotation
62
1
39
211
10
252.350953
20
444.860622
11
252.426770
21
444.700967
0
LINE
8
annotation
62
1
39
211
10
252.426770
20
444.700967
11
252.527858
21
444.557906
0
LINE
8
annotation
62
1
39
211
10
252.527858
20
444.557906
11
252.651300
21
444.434343
0
LINE
8
annotation
62
1
39
211
10
252.651300
20
444.434343
11
252.794181
21
444.333181
0
LINE
8
annotation
62
1
39
211
10
252.794181
20
444.333181
11
252.953584
21
444.257327
0
LINE
8
annotation
62
1
39
211
10
252.953584
20
444.257327
11
253.126591
21
444.209684
0
LINE
8
annotation
62
1
39
211
10
253.126591
20
444.209684
11
253.310287
21
444.193158
0
LINE
8
annotation
62
1
39
211
10
253.310287
20
444.193158
11
253.310287
21
444.193158
0
LINE
8
annotation
62
1
39
211
10
253.310287
20
444.193158
11
253.493983
21
444.209684
0
LINE
8
annotation
62
1
39
211
10
253.493983
20
444.209684
11
253.666991
21
444.257327
0
LINE
8
annotation
62
1
39
211
10
253.666991
20
444.257327
11
253.826393
21
444.333181
0
LINE
8
annotation
62
1
39
211
10
253.826393
20
444.333181
11
253.969274
21
444.434343
0
LINE
8
annotation
62
1
39
211
10
253.969274
20
444.434343
11
254.092717
21
444.557906
0
LINE
8
annotation
62
1
39
211
10
254.092717
20
444.557906
11
254.193805
21
444.700967
0
LINE
8
annotation
62
1
39
211
10
254.193805
20
444.700967
11
254.269621
21
444.860622
0
LINE
8
annotation
62
1
39
211
10
254.269621
20
444.860622
11
254.317250
21
445.033964
0
LINE
8
annotation
62
1
39
211
10
254.317250
20
445.033964
11
254.333775
21
445.218091
0
LINE
8
annotation
62
1
39
211
10
254.135803
20
460.513505
11
254.135803
21
465.122523
0
LINE
8
annotation
62
1
39
211
10
254.135803
20
465.122523
11
253.111159
21
464.097590
0
LINE
8
annotation
62
1
39
211
10
256.375061
20
460.513505
11
256.375061
21
460.513505
0
LINE
8
annotation
62
1
39
211
10
256.375061
20
460.513505
11
256.667748
21
460.622575
0
LINE
8
annotation
62
1
39
211
10
256.667748
20
460.622575
11
256.936399
21
460.770002
0
LINE
8
annotation
62
1
39
211
10
256.936399
20
460.770002
11
257.178237
21
460.952031
0
LINE
8
annotation
62
1
39
211
10
257.178237
20
460.952031
11
257.390485
21
461.164905
0
LINE
8
annotation
62
1
39
211
10
257.390485
20
461.164905
11
257.570369
21
461.404868
0
LINE
8
annotation
62
1
39
211
10
257.570369
20
461.404868
11
257.715111
21
461.668163
0
LINE
8
annotation
62
1
39
211
10
257.715111
20
461.668163
11
257.821935
21
461.951034
0
LINE
8
annotation
62
1
39
211
10
257.821935
20
461.951034
11
257.888065
21
462.249726
0
LINE
8
annotation
62
1
39
211
10
257.888065
20
462.249726
11
257.910726
21
462.560480
0
LINE
8
annotation
62
1
39
211
10
257.910726
20
462.560480
11
257.910726
21
464.097590
0
LINE
8
annotation
62
1
39
211
10
257.910726
20
464.097590
11
257.910726
21
464.097590
0
LINE
8
annotation
62
1
39
211
10
257.910726
20
464.097590
11
257.894249
21
464.281716
0
LINE
8
annotation
62
1
39
211
10
257.894249
20
464.281716
11
257.846739
21
464.455059
0
LINE
8
annotation
62
1
39
211
10
257.846739
20
464.455059
11
257.771077
21
464.614713
0
LINE
8
annotation
62
1
39
211
10
257.771077
20
464.614713
11
257.670144
21
464.757775
0
LINE
8
annotation
62
1
39
211
10
257.670144
20
464.757775
11
257.546820
21
464.881338
0
LINE
8
annotation
62
1
39
211
10
257.546820
20
464.881338
11
257.403987
21
464.982499
0
LINE
8
annotation
62
1
39
211
10
257.403987
20
464.982499
11
257.244525
21
465.058354
0
LINE
8
annotation
62
1
39
211
10
257.244525
20
465.058354
11
257.071315
21
465.105996
0
LINE
8
annotation
62
1
39
211
10
257.071315
20
465.105996
11
256.887238
21
465.122523
0
LINE
8
annotation
62
1
39
211
10
256.887238
20
465.122523
11
256.887238
21
465.122523
0
LINE
8
annotation
62
1
39
211
10
256.887238
20
465.122523
11
256.703542
21
465.105996
0
LINE
8
annotation
62
1
39
211
10
256.703542
20
465.105996
11
256.530535
21
465.058354
0
LINE
8
annotation
62
1
39
211
10
256.530535
20
465.058354
11
256.371132
21
464.982499
0
LINE
8
annotation
62
1
39
211
10
256.371132
20
464.982499
11
256.228251
21
464.881338
0
LINE
8
annotation
62
1
39
211
10
256.228251
20
464.881338
11
256.104809
21
464.757775
0
LINE
8
annotation
62
1
39
211
10
256.104809
20
464.757775
11
256.003721
21
464.614713
0
LINE
8
annotation
62
1
39
211
10
256.003721
20
464.614713
11
255.927904
21
464.455059
0
LINE
8
annotation
62
1
39
211
10
255.927904
20
464.455059
11
255.880275
21
464.281716
0
LINE
8
annotation
62
1
39
211
10
255.880275
20
464.281716
11
255.863751
21
464.097590
0
LINE
8
annotation
62
1
39
211
10
255.863751
20
464.097590
11
255.863751
21
463.585124
0
LINE
8
annotation
62
1
39
211
10
255.863751
20
463.585124
11
255.863751
21
463.585124
0
LINE
8
annotation
62
1
39
211
10
255.863751
20
463.585124
11
255.880275
21
463.401008
0
LINE
8
annotation
62
1
39
211
10
255.880275
20
463.401008
11
255.927904
21
463.227692
0
LINE
8
annotation
62
1
39
211
10
255.927904
20
463.227692
11
256.003721
21
463.068076
0
LINE
8
annotation
62
1
39
211
10
256.003721
20
463.068076
11
256.104809
21
462.925060
0
LINE
8
annotation
62
1
39
211
10
256.104809
20
462.925060
11
256.228251
21
462.801544
0
LINE
8
annotation
62
1
39
211
10
256.228251
20
462.801544
11
256.371132
21
462.700429
0
LINE
8
annotation
62
1
39
211
10
256.371132
20
462.700429
11
256.530535
21
462.624613
0
LINE
8
annotation
62
1
39
211
10
256.530535
20
462.624613
11
256.703542
21
462.576997
0
LINE
8
annotation
62
1
39
211
10
256.703542
20
462.576997
11
256.887238
21
462.560480
0
LINE
8
annotation
62
1
39
211
10
256.887238
20
462.560480
11
257.910726
21
462.560480
0
LINE
8
annotation
62
1
39
211
10
255.735851
20
459.937378
11
258.040360
21
459.937378
0
LINE
8
annotation
62
1
39
211
10
258.437448
20
479.792144
11
256.747474
21
479.792144
0
LINE
8
annotation
62
1
39
211
10
256.747474
20
479.792144
11
258.309065
21
482.306106
0
LINE
8
annotation
62
1
39
211
10
258.309065
20
482.306106
11
258.309065
21
482.306106
0
LINE
8
annotation
62
1
39
211
10
258.309065
20
482.306106
11
258.310932
21
482.308416
0
LINE
8
annotation
62
1
39
211
10
258.310932
20
482.308416
11
258.312723
21
482.310746
0
LINE
8
annotation
62
1
39
211
10
258.312723
20
482.310746
11
258.314448
21
482.313114
0
LINE
8
annotation
62
1
39
211
10
258.314448
20
482.313114
11
258.316120
21
482.315542
0
LINE
8
annotation
62
1
39
211
10
258.316120
20
482.315542
11
258.317751
21
482.318049
0
LINE
8
annotation
62
1
39
211
10
258.317751
20
482.318049
11
258.319353
21
482.320653
0
LINE
8
annotation
62
1
39
211
10
258.319353
20
482.320653
11
258.320937
21
482.323376
0
LINE
8
annotation
62
1
39
211
10
258.320937
20
482.323376
11
258.322515
21
482.326236
0
LINE
8
annotation
62
1
39
211
10
258.322515
20
482.326236
11
258.324099
21
482.329253
0
LINE
8
annotation
62
1
39
211
10
258.324099
20
482.329253
11
258.324099
21
482.329253
0
LINE
8
annotation
62
1
39
211
10
258.324099
20
482.329253
11
258.388577
21
482.467692
0
LINE
8
annotation
62
1
39
211
10
258.388577
20
482.467692
11
258.426244
21
482.611196
0
LINE
8
annotation
62
1
39
211
10
258.426244
20
482.611196
11
258.438023
21
482.756524
0
LINE
8
annotation
62
1
39
211
10
258.438023
20
482.756524
11
258.424837
21
482.900431
0
LINE
8
annotation
62
1
39
211
10
258.424837
20
482.900431
11
258.387609
21
483.039675
0
LINE
8
annotation
62
1
39
211
10
258.387609
20
483.039675
11
258.327263
21
483.171014
0
LINE
8
annotation
62
1
39
211
10
258.327263
20
483.171014
11
258.244722
21
483.291206
0
LINE
8
annotation
62
1
39
211
10
258.244722
20
483.291206
11
258.140908
21
483.397006
0
LINE
8
annotation
62
1
39
211
10
258.140908
20
483.397006
11
258.016744
21
483.485174
0
LINE
8
annotation
62
1
39
211
10
258.016744
20
483.485174
11
258.016744
21
483.485174
0
LINE
8
annotation
62
1
39
211
10
258.016744
20
483.485174
11
257.877920
21
483.548736
0
LINE
8
annotation
62
1
39
211
10
257.877920
20
483.548736
11
257.734196
21
483.585822
0
LINE
8
annotation
62
1
39
211
10
257.734196
20
483.585822
11
257.588784
21
483.597268
0
LINE
8
annotation
62
1
39
211
10
257.588784
20
483.597268
11
257.444899
21
483.583909
0
LINE
8
annotation
62
1
39
211
10
257.444899
20
483.583909
11
257.305753
21
483.546578
0
LINE
8
annotation
62
1
39
211
10
257.305753
20
483.546578
11
257.174559
21
483.486111
0
LINE
8
annotation
62
1
39
211
10
257.174559
20
483.486111
11
257.054530
21
483.403343
0
LINE
8
annotation
62
1
39
211
10
257.054530
20
483.403343
11
256.948881
21
483.299107
0
LINE
8
annotation
62
1
39
211
10
256.948881
20
483.299107
11
256.860823
21
483.174240
0
LINE
8
annotation
62
1
39
211
10
256.860823
20
483.174240
11
256.749860
21
482.961383
0
LINE
8
annotation
62
1
39
211
10
260.475895
20
479.842366
11
260.475895
21
479.842366
0
LINE
8
annotation
62
1
39
211
10
260.475895
20
479.842366
11
260.564332
21
479.809306
0
LINE
8
annotation
62
1
39
211
10
260.564332
20
479.809306
11
260.655032
21
479.792881
0
LINE
8
annotation
62
1
39
211
10
260.655032
20
479.792881
11
260.745944
21
479.792422
0
LINE
8
annotation
62
1
39
211
10
260.745944
20
479.792422
11
260.835017
21
479.807259
0
LINE
8
annotation
62
1
39
211
10
260.835017
20
479.807259
11
260.920202
21
479.836721
0
LINE
8
annotation
62
1
39
211
10
260.920202
20
479.836721
11
260.999448
21
479.880141
0
LINE
8
annotation
62
1
39
211
10
260.999448
20
479.880141
11
261.070704
21
479.936846
0
LINE
8
annotation
62
1
39
211
10
261.070704
20
479.936846
11
261.131920
21
480.006169
0
LINE
8
annotation
62
1
39
211
10
261.131920
20
480.006169
11
261.181045
21
480.087439
0
LINE
8
annotation
62
1
39
211
10
261.181045
20
480.087439
11
261.181045
21
480.087439
0
LINE
8
annotation
62
1
39
211
10
261.181045
20
480.087439
11
261.327616
21
480.430526
0
LINE
8
annotation
62
1
39
211
10
261.327616
20
480.430526
11
261.437545
21
480.783543
0
LINE
8
annotation
62
1
39
211
10
261.437545
20
480.783543
11
261.510831
21
481.143675
0
LINE
8
annotation
62
1
39
211
10
261.510831
20
481.143675
11
261.547474
21
481.508109
0
LINE
8
annotation
62
1
39
211
10
261.547474
20
481.508109
11
261.547474
21
481.874029
0
LINE
8
annotation
62
1
39
211
10
261.547474
20
481.874029
11
261.510831
21
482.238622
0
LINE
8
annotation
62
1
39
211
10
261.510831
20
482.238622
11
261.437545
21
482.599073
0
LINE
8
annotation
62
1
39
211
10
261.437545
20
482.599073
11
261.327616
21
482.952567
0
LINE
8
annotation
62
1
39
211
10
261.327616
20
482.952567
11
261.181045
21
483.296290
0
LINE
8
annotation
62
1
39
211
10
261.181045
20
483.296290
11
261.181045
21
483.296290
0
LINE
8
annotation
62
1
39
211
10
261.181045
20
483.296290
11
261.162405
21
483.330979
0
LINE
8
annotation
62
1
39
211
10
261.162405
20
483.330979
11
261.141273
21
483.364144
0
LINE
8
annotation
62
1
39
211
10
261.141273
20
483.364144
11
261.117808
21
483.395622
0
LINE
8
annotation
62
1
39
211
10
261.117808
20
483.395622
11
261.092169
21
483.425250
0
LINE
8
annotation
62
1
39
211
10
261.092169
20
483.425250
11
261.064514
21
483.452864
0
LINE
8
annotation
62
1
39
211
10
261.064514
20
483.452864
11
261.035004
21
483.478303
0
LINE
8
annotation
62
1
39
211
10
261.035004
20
483.478303
11
261.003796
21
483.501402
0
LINE
8
annotation
62
1
39
211
10
261.003796
20
483.501402
11
260.971051
21
483.521999
0
LINE
8
annotation
62
1
39
211
10
260.971051
20
483.521999
11
260.936927
21
483.539931
0
LINE
8
annotation
62
1
39
211
10
260.936927
20
483.539931
11
260.936927
21
483.539931
0
LINE
8
annotation
62
1
39
211
10
260.936927
20
483.539931
11
260.847787
21
483.573708
0
LINE
8
annotation
62
1
39
211
10
260.847787
20
483.573708
11
260.756556
21
483.590694
0
LINE
8
annotation
62
1
39
211
10
260.756556
20
483.590694
11
260.665260
21
483.591563
0
LINE
8
annotation
62
1
39
211
10
260.665260
20
483.591563
11
260.575927
21
483.576990
0
LINE
8
annotation
62
1
39
211
10
260.575927
20
483.576990
11
260.490582
21
483.547646
0
LINE
8
annotation
62
1
39
211
10
260.490582
20
483.547646
11
260.411253
21
483.504207
0
LINE
8
annotation
62
1
39
211
10
260.411253
20
483.504207
11
260.339966
21
483.447346
0
LINE
8
annotation
62
1
39
211
10
260.339966
20
483.447346
11
260.278749
21
483.377736
0
LINE
8
annotation
62
1
39
211
10
260.278749
20
483.377736
11
260.229629
21
483.296052
0
LINE
8
annotation
62
1
39
211
10
260.229629
20
483.296052
11
260.229629
21
483.296052
0
LINE
8
annotation
62
1
39
211
10
260.229629
20
483.296052
11
260.083764
21
482.953036
0
LINE
8
annotation
62
1
39
211
10
260.083764
20
482.953036
11
259.974366
21
482.600072
0
LINE
8
annotation
62
1
39
211
10
259.974366
20
482.600072
11
259.901434
21
482.239975
0
LINE
8
annotation
62
1
39
211
10
259.901434
20
482.239975
11
259.864968
21
481.875558
0
LINE
8
annotation
62
1
39
211
10
259.864968
20
481.875558
11
259.864968
21
481.509638
0
LINE
8
annotation
62
1
39
211
10
259.864968
20
481.509638
11
259.901434
21
481.145027
0
LINE
8
annotation
62
1
39
211
10
259.901434
20
481.145027
11
259.974366
21
480.784541
0
LINE
8
annotation
62
1
39
211
10
259.974366
20
480.784541
11
260.083764
21
480.430994
0
LINE
8
annotation
62
1
39
211
10
260.083764
20
480.430994
11
260.229629
21
480.087200
0
LINE
8
annotation
62
1
39
211
10
260.229629
20
480.087200
11
260.229629
21
480.087200
0
LINE
8
annotation
62
1
39
211
10
260.229629
20
480.087200
11
260.248201
21
480.052580
0
LINE
8
annotation
62
1
39
211
10
260.248201
20
480.052580
11
260.269177
21
480.019581
0
LINE
8
annotation
62
1
39
211
10
260.269177
20
480.019581
11
260.292468
21
479.988302
0
LINE
8
annotation
62
1
39
211
10
260.292468
20
479.988302
11
260.317987
21
479.958843
0
LINE
8
annotation
62
1
39
211
10
260.317987
20
479.958843
11
260.345644
21
479.931305
0
LINE
8
annotation
62
1
39
211
10
260.345644
20
479.931305
11
260.375352
21
479.905789
0
LINE
8
annotation
62
1
39
211
10
260.375352
20
479.905789
11
260.407022
21
479.882393
0
LINE
8
annotation
62
1
39
211
10
260.407022
20
479.882393
11
260.440566
21
479.861219
0
LINE
8
annotation
62
1
39
211
10
260.440566
20
479.861219
11
260.475895
21
479.842366
0
LINE
8
annotation
62
1
39
211
10
262.468394
20
498.267310
11
260.421716
21
498.267310
0
LINE
8
annotation
62
1
39
211
10
260.421716
20
498.267310
11
262.312913
21
501.311895
0
LINE
8
annotation
62
1
39
211
10
262.312913
20
501.311895
11
262.312913
21
501.311895
0
LINE
8
annotation
62
1
39
211
10
262.312913
20
501.311895
11
262.315174
21
501.314693
0
LINE
8
annotation
62
1
39
211
10
262.315174
20
501.314693
11
262.317342
21
501.317514
0
LINE
8
annotation
62
1
39
211
10
262.317342
20
501.317514
11
262.319432
21
501.320383
0
LINE
8
annotation
62
1
39
211
10
262.319432
20
501.320383
11
262.321457
21
501.323323
0
LINE
8
annotation
62
1
39
211
10
262.321457
20
501.323323
11
262.323433
21
501.326359
0
LINE
8
annotation
62
1
39
211
10
262.323433
20
501.326359
11
262.325372
21
501.329513
0
LINE
8
annotation
62
1
39
211
10
262.325372
20
501.329513
11
262.327291
21
501.332810
0
LINE
8
annotation
62
1
39
211
10
262.327291
20
501.332810
11
262.329202
21
501.336274
0
LINE
8
annotation
62
1
39
211
10
262.329202
20
501.336274
11
262.331120
21
501.339928
0
LINE
8
annotation
62
1
39
211
10
262.331120
20
501.339928
11
262.331120
21
501.339928
0
LINE
8
annotation
62
1
39
211
10
262.331120
20
501.339928
11
262.409207
21
501.507587
0
LINE
8
annotation
62
1
39
211
10
262.409207
20
501.507587
11
262.454824
21
501.681381
0
LINE
8
annotation
62
1
39
211
10
262.454824
20
501.681381
11
262.469090
21
501.857383
0
LINE
8
annotation
62
1
39
211
10
262.469090
20
501.857383
11
262.453121
21
502.031664
0
LINE
8
annotation
62
1
39
211
10
262.453121
20
502.031664
11
262.408035
21
502.200299
0
LINE
8
annotation
62
1
39
211
10
262.408035
20
502.200299
11
262.334952
21
502.359360
0
LINE
8
annotation
62
1
39
211
10
262.334952
20
502.359360
11
262.234988
21
502.504920
0
LINE
8
annotation
62
1
39
211
10
262.234988
20
502.504920
11
262.109262
21
502.633053
0
LINE
8
annotation
62
1
39
211
10
262.109262
20
502.633053
11
261.958892
21
502.739830
0
LINE
8
annotation
62
1
39
211
10
261.958892
20
502.739830
11
261.958892
21
502.739830
0
LINE
8
annotation
62
1
39
211
10
261.958892
20
502.739830
11
261.790766
21
502.816808
0
LINE
8
annotation
62
1
39
211
10
261.790766
20
502.816808
11
261.616706
21
502.861722
0
LINE
8
annotation
62
1
39
211
10
261.616706
20
502.861722
11
261.440602
21
502.875584
0
LINE
8
annotation
62
1
39
211
10
261.440602
20
502.875584
11
261.266347
21
502.859404
0
LINE
8
annotation
62
1
39
211
10
261.266347
20
502.859404
11
261.097831
21
502.814194
0
LINE
8
annotation
62
1
39
211
10
261.097831
20
502.814194
11
260.938946
21
502.740965
0
LINE
8
annotation
62
1
39
211
10
260.938946
20
502.740965
11
260.793583
21
502.640726
0
LINE
8
annotation
62
1
39
211
10
260.793583
20
502.640726
11
260.665634
21
502.514490
0
LINE
8
annotation
62
1
39
211
10
260.665634
20
502.514490
11
260.558989
21
502.363267
0
LINE
8
annotation
62
1
39
211
10
260.558989
20
502.363267
11
260.424606
21
502.105481
0
LINE
8
annotation
62
1
39
211
10
265.221512
20
498.267347
11
265.221512
21
502.875696
0
LINE
8
annotation
62
1
39
211
10
265.221512
20
502.875696
11
264.197017
21
501.850912
0
LINE
8
annotation
62
1
39
211
10
265.966334
20
517.548834
11
264.279186
21
517.548834
0
LINE
8
annotation
62
1
39
211
10
264.279186
20
517.548834
11
265.838166
21
520.058591
0
LINE
8
annotation
62
1
39
211
10
265.838166
20
520.058591
11
265.838166
21
520.058591
0
LINE
8
annotation
62
1
39
211
10
265.838166
20
520.058591
11
265.840029
21
520.060897
0
LINE
8
annotation
62
1
39
211
10
265.840029
20
520.060897
11
265.841817
21
520.063223
0
LINE
8
annotation
62
1
39
211
10
265.841817
20
520.063223
11
265.843539
21
520.065588
0
LINE
8
annotation
62
1
39
211
10
265.843539
20
520.065588
11
265.845209
21
520.068012
0
LINE
8
annotation
62
1
39
211
10
265.845209
20
520.068012
11
265.846837
21
520.070514
0
LINE
8
annotation
62
1
39
211
10
265.846837
20
520.070514
11
265.848436
21
520.073114
0
LINE
8
annotation
62
1
39
211
10
265.848436
20
520.073114
11
265.850017
21
520.075832
0
LINE
8
annotation
62
1
39
211
10
265.850017
20
520.075832
11
265.851593
21
520.078687
0
LINE
8
annotation
62
1
39
211
10
265.851593
20
520.078687
11
265.853174
21
520.081699
0
LINE
8
annotation
62
1
39
211
10
265.853174
20
520.081699
11
265.853174
21
520.081699
0
LINE
8
annotation
62
1
39
211
10
265.853174
20
520.081699
11
265.917544
21
520.219907
0
LINE
8
annotation
62
1
39
211
10
265.917544
20
520.219907
11
265.955148
21
520.363171
0
LINE
8
annotation
62
1
39
211
10
265.955148
20
520.363171
11
265.966907
21
520.508255
0
LINE
8
annotation
62
1
39
211
10
265.966907
20
520.508255
11
265.953743
21
520.651921
0
LINE
8
annotation
62
1
39
211
10
265.953743
20
520.651921
11
265.916578
21
520.790933
0
LINE
8
annotation
62
1
39
211
10
265.916578
20
520.790933
11
265.856333
21
520.922052
0
LINE
8
annotation
62
1
39
211
10
265.856333
20
520.922052
11
265.773929
21
521.042043
0
LINE
8
annotation
62
1
39
211
10
265.773929
20
521.042043
11
265.670289
21
521.147667
0
LINE
8
annotation
62
1
39
211
10
265.670289
20
521.147667
11
265.546333
21
521.235687
0
LINE
8
annotation
62
1
39
211
10
265.546333
20
521.235687
11
265.546333
21
521.235687
0
LINE
8
annotation
62
1
39
211
10
265.546333
20
521.235687
11
265.407742
21
521.299142
0
LINE
8
annotation
62
1
39
211
10
265.407742
20
521.299142
11
265.264258
21
521.336167
0
LINE
8
annotation
62
1
39
211
10
265.264258
20
521.336167
11
265.119089
21
521.347594
0
LINE
8
annotation
62
1
39
211
10
265.119089
20
521.347594
11
264.975445
21
521.334256
0
LINE
8
annotation
62
1
39
211
10
264.975445
20
521.334256
11
264.836531
21
521.296988
0
LINE
8
annotation
62
1
39
211
10
264.836531
20
521.296988
11
264.705557
21
521.236622
0
LINE
8
annotation
62
1
39
211
10
264.705557
20
521.236622
11
264.585729
21
521.153992
0
LINE
8
annotation
62
1
39
211
10
264.585729
20
521.153992
11
264.480256
21
521.049931
0
LINE
8
annotation
62
1
39
211
10
264.480256
20
521.049931
11
264.392346
21
520.925273
0
LINE
8
annotation
62
1
39
211
10
264.392346
20
520.925273
11
264.281568
21
520.712771
0
LINE
8
annotation
62
1
39
211
10
269.078613
20
517.548834
11
267.391465
21
517.548834
0
LINE
8
annotation
62
1
39
211
10
267.391465
20
517.548834
11
268.950445
21
520.058591
0
LINE
8
annotation
62
1
39
211
10
268.950445
20
520.058591
11
268.950445
21
520.058591
0
LINE
8
annotation
62
1
39
211
10
268.950445
20
520.058591
11
268.952308
21
520.060897
0
LINE
8
annotation
62
1
39
211
10
268.952308
20
520.060897
11
268.954096
21
520.063223
0
LINE
8
annotation
62
1
39
211
10
268.954096
20
520.063223
11
268.955818
21
520.065588
0
LINE
8
annotation
62
1
39
211
10
268.955818
20
520.065588
11
268.957488
21
520.068012
0
LINE
8
annotation
62
1
39
211
10
268.957488
20
520.068012
11
268.959116
21
520.070514
0
LINE
8
annotation
62
1
39
211
10
268.959116
20
520.070514
11
268.960715
21
520.073114
0
LINE
8
annotation
62
1
39
211
10
268.960715
20
520.073114
11
268.962296
21
520.075832
0
LINE
8
annotation
62
1
39
211
10
268.962296
20
520.075832
11
268.963872
21
520.078687
0
LINE
8
annotation
62
1
39
211
10
268.963872
20
520.078687
11
268.965453
21
520.081699
0
LINE
8
annotation
62
1
39
211
10
268.965453
20
520.081699
11
268.965453
21
520.081699
0
LINE
8
annotation
62
1
39
211
10
268.965453
20
520.081699
11
269.029823
21
520.219907
0
LINE
8
annotation
62
1
39
211
10
269.029823
20
520.219907
11
269.067427
21
520.363171
0
LINE
8
annotation
62
1
39
211
10
269.067427
20
520.363171
11
269.079186
21
520.508255
0
LINE
8
annotation
62
1
39
211
10
269.079186
20
520.508255
11
269.066022
21
520.651921
0
LINE
8
annotation
62
1
39
211
10
269.066022
20
520.651921
11
269.028857
21
520.790933
0
LINE
8
annotation
62
1
39
211
10
269.028857
20
520.790933
11
268.968612
21
520.922052
0
LINE
8
annotation
62
1
39
211
10
268.968612
20
520.922052
11
268.886208
21
521.042043
0
LINE
8
annotation
62
1
39
211
10
268.886208
20
521.042043
11
268.782568
21
521.147667
0
LINE
8
annotation
62
1
39
211
10
268.782568
20
521.147667
11
268.658612
21
521.235687
0
LINE
8
annotation
62
1
39
211
10
268.658612
20
521.235687
11
268.658612
21
521.235687
0
LINE
8
annotation
62
1
39
211
10
268.658612
20
521.235687
11
268.520021
21
521.299142
0
LINE
8
annotation
62
1
39
211
10
268.520021
20
521.299142
11
268.376537
21
521.336167
0
LINE
8
annotation
62
1
39
211
10
268.376537
20
521.336167
11
268.231368
21
521.347594
0
LINE
8
annotation
62
1
39
211
10
268.231368
20
521.347594
11
268.087724
21
521.334256
0
LINE
8
annotation
62
1
39
211
10
268.087724
20
521.334256
11
267.948810
21
521.296988
0
LINE
8
annotation
62
1
39
211
10
267.948810
20
521.296988
11
267.817836
21
521.236622
0
LINE
8
annotation
62
1
39
211
10
267.817836
20
521.236622
11
267.698008
21
521.153992
0
LINE
8
annotation
62
1
39
211
10
267.698008
20
521.153992
11
267.592535
21
521.049931
0
LINE
8
annotation
62
1
39
211
10
267.592535
20
521.049931
11
267.504625
21
520.925273
0
LINE
8
annotation
62
1
39
211
10
267.504625
20
520.925273
11
267.393847
21
520.712771
0
LINE
8
annotation
62
1
39
211
10
270.102254
20
536.425361
11
268.414905
21
536.425361
0
LINE
8
annotation
62
1
39
211
10
268.414905
20
536.425361
11
269.974071
21
538.935418
0
LINE
8
annotation
62
1
39
211
10
269.974071
20
538.935418
11
269.974071
21
538.935418
0
LINE
8
annotation
62
1
39
211
10
269.974071
20
538.935418
11
269.975935
21
538.937724
0
LINE
8
annotation
62
1
39
211
10
269.975935
20
538.937724
11
269.977722
21
538.940050
0
LINE
8
annotation
62
1
39
211
10
269.977722
20
538.940050
11
269.979445
21
538.942415
0
LINE
8
annotation
62
1
39
211
10
269.979445
20
538.942415
11
269.981115
21
538.944839
0
LINE
8
annotation
62
1
39
211
10
269.981115
20
538.944839
11
269.982744
21
538.947342
0
LINE
8
annotation
62
1
39
211
10
269.982744
20
538.947342
11
269.984343
21
538.949942
0
LINE
8
annotation
62
1
39
211
10
269.984343
20
538.949942
11
269.985924
21
538.952661
0
LINE
8
annotation
62
1
39
211
10
269.985924
20
538.952661
11
269.987500
21
538.955516
0
LINE
8
annotation
62
1
39
211
10
269.987500
20
538.955516
11
269.989081
21
538.958529
0
LINE
8
annotation
62
1
39
211
10
269.989081
20
538.958529
11
269.989081
21
538.958529
0
LINE
8
annotation
62
1
39
211
10
269.989081
20
538.958529
11
270.053459
21
539.096753
0
LINE
8
annotation
62
1
39
211
10
270.053459
20
539.096753
11
270.091067
21
539.240034
0
LINE
8
annotation
62
1
39
211
10
270.091067
20
539.240034
11
270.102828
21
539.385135
0
LINE
8
annotation
62
1
39
211
10
270.102828
20
539.385135
11
270.089663
21
539.528819
0
LINE
8
annotation
62
1
39
211
10
270.089663
20
539.528819
11
270.052493
21
539.667847
0
LINE
8
annotation
62
1
39
211
10
270.052493
20
539.667847
11
269.992241
21
539.798982
0
LINE
8
annotation
62
1
39
211
10
269.992241
20
539.798982
11
269.909827
21
539.918987
0
LINE
8
annotation
62
1
39
211
10
269.909827
20
539.918987
11
269.806174
21
540.024624
0
LINE
8
annotation
62
1
39
211
10
269.806174
20
540.024624
11
269.682204
21
540.112654
0
LINE
8
annotation
62
1
39
211
10
269.682204
20
540.112654
11
269.682204
21
540.112654
0
LINE
8
annotation
62
1
39
211
10
269.682204
20
540.112654
11
269.543596
21
540.176117
0
LINE
8
annotation
62
1
39
211
10
269.543596
20
540.176117
11
269.400094
21
540.213146
0
LINE
8
annotation
62
1
39
211
10
269.400094
20
540.213146
11
269.254909
21
540.224574
0
LINE
8
annotation
62
1
39
211
10
269.254909
20
540.224574
11
269.111247
21
540.211235
0
LINE
8
annotation
62
1
39
211
10
269.111247
20
540.211235
11
268.972317
21
540.173963
0
LINE
8
annotation
62
1
39
211
10
268.972317
20
540.173963
11
268.841327
21
540.113590
0
LINE
8
annotation
62
1
39
211
10
268.841327
20
540.113590
11
268.721485
21
540.030950
0
LINE
8
annotation
62
1
39
211
10
268.721485
20
540.030950
11
268.615999
21
539.926877
0
LINE
8
annotation
62
1
39
211
10
268.615999
20
539.926877
11
268.528078
21
539.802203
0
LINE
8
annotation
62
1
39
211
10
268.528078
20
539.802203
11
268.417288
21
539.589676
0
LINE
8
annotation
62
1
39
211
10
271.527269
20
536.425511
11
272.370944
21
536.425511
0
LINE
8
annotation
62
1
39
211
10
272.370944
20
536.425511
11
272.370944
21
536.425511
0
LINE
8
annotation
62
1
39
211
10
272.370944
20
536.425511
11
272.522681
21
536.439123
0
LINE
8
annotation
62
1
39
211
10
272.522681
20
536.439123
11
272.665460
21
536.478353
0
LINE
8
annotation
62
1
39
211
10
272.665460
20
536.478353
11
272.796907
21
536.540793
0
LINE
8
annotation
62
1
39
211
10
272.796907
20
536.540793
11
272.914646
21
536.624035
0
LINE
8
annotation
62
1
39
211
10
272.914646
20
536.624035
11
273.016304
21
536.725671
0
LINE
8
annotation
62
1
39
211
10
273.016304
20
536.725671
11
273.099504
21
536.843293
0
LINE
8
annotation
62
1
39
211
10
273.099504
20
536.843293
11
273.161873
21
536.974493
0
LINE
8
annotation
62
1
39
211
10
273.161873
20
536.974493
11
273.201036
21
537.116863
0
LINE
8
annotation
62
1
39
211
10
273.201036
20
537.116863
11
273.214619
21
537.267994
0
LINE
8
annotation
62
1
39
211
10
273.214619
20
537.267994
11
273.214619
21
537.690427
0
LINE
8
annotation
62
1
39
211
10
273.214619
20
537.690427
11
273.214619
21
537.690427
0
LINE
8
annotation
62
1
39
211
10
273.214619
20
537.690427
11
273.201036
21
537.841495
0
LINE
8
annotation
62
1
39
211
10
273.201036
20
537.841495
11
273.161873
21
537.983832
0
LINE
8
annotation
62
1
39
211
10
273.161873
20
537.983832
11
273.099504
21
538.115022
0
LINE
8
annotation
62
1
39
211
10
273.099504
20
538.115022
11
273.016304
21
538.232652
0
LINE
8
annotation
62
1
39
211
10
273.016304
20
538.232652
11
272.914646
21
538.334307
0
LINE
8
annotation
62
1
39
211
10
272.914646
20
538.334307
11
272.796907
21
538.417575
0
LINE
8
annotation
62
1
39
211
10
272.796907
20
538.417575
11
272.665460
21
538.480041
0
LINE
8
annotation
62
1
39
211
10
272.665460
20
538.480041
11
272.522681
21
538.519290
0
LINE
8
annotation
62
1
39
211
10
272.522681
20
538.519290
11
272.370944
21
538.532910
0
LINE
8
annotation
62
1
39
211
10
272.370944
20
538.532910
11
271.948511
21
538.532910
0
LINE
8
annotation
62
1
39
211
10
271.948511
20
538.532910
11
272.370944
21
538.532910
0
LINE
8
annotation
62
1
39
211
10
272.370944
20
538.532910
11
272.370944
21
538.532910
0
LINE
8
annotation
62
1
39
211
10
272.370944
20
538.532910
11
272.522681
21
538.546533
0
LINE
8
annotation
62
1
39
211
10
272.522681
20
538.546533
11
272.665460
21
538.585806
0
LINE
8
annotation
62
1
39
211
10
272.665460
20
538.585806
11
272.796907
21
538.648333
0
LINE
8
annotation
62
1
39
211
10
272.796907
20
538.648333
11
272.914646
21
538.731722
0
LINE
8
annotation
62
1
39
211
10
272.914646
20
538.731722
11
273.016304
21
538.833577
0
LINE
8
annotation
62
1
39
211
10
273.016304
20
538.833577
11
273.099504
21
538.951504
0
LINE
8
annotation
62
1
39
211
10
273.099504
20
538.951504
11
273.161873
21
539.083110
0
LINE
8
annotation
62
1
39
211
10
273.161873
20
539.083110
11
273.201036
21
539.225998
0
LINE
8
annotation
62
1
39
211
10
273.201036
20
539.225998
11
273.214619
21
539.377776
0
LINE
8
annotation
62
1
39
211
10
273.214619
20
539.377776
11
273.214619
21
539.377776
0
LINE
8
annotation
62
1
39
211
10
273.214619
20
539.377776
11
273.201036
21
539.528844
0
LINE
8
annotation
62
1
39
211
10
273.201036
20
539.528844
11
273.161873
21
539.671181
0
LINE
8
annotation
62
1
39
211
10
273.161873
20
539.671181
11
273.099504
21
539.802371
0
LINE
8
annotation
62
1
39
211
10
273.099504
20
539.802371
11
273.016304
21
539.920001
0
LINE
8
annotation
62
1
39
211
10
273.016304
20
539.920001
11
272.914646
21
540.021657
0
LINE
8
annotation
62
1
39
211
10
272.914646
20
540.021657
11
272.796907
21
540.104924
0
LINE
8
annotation
62
1
39
211
10
272.796907
20
540.104924
11
272.665460
21
540.167390
0
LINE
8
annotation
62
1
39
211
10
272.665460
20
540.167390
11
272.522681
21
540.206640
0
LINE
8
annotation
62
1
39
211
10
272.522681
20
540.206640
11
272.370944
21
540.220259
0
LINE
8
annotation
62
1
39
211
10
272.370944
20
540.220259
11
271.527269
21
540.220259
0
LINE
8
annotation
62
1
39
211
10
274.530969
20
555.455695
11
272.980035
21
555.455695
0
LINE
8
annotation
62
1
39
211
10
272.980035
20
555.455695
11
274.413148
21
557.762824
0
LINE
8
annotation
62
1
39
211
10
274.413148
20
557.762824
11
274.413148
21
557.762824
0
LINE
8
annotation
62
1
39
211
10
274.413148
20
557.762824
11
274.414862
21
557.764944
0
LINE
8
annotation
62
1
39
211
10
274.414862
20
557.764944
11
274.416505
21
557.767082
0
LINE
8
annotation
62
1
39
211
10
274.416505
20
557.767082
11
274.418088
21
557.769256
0
LINE
8
annotation
62
1
39
211
10
274.418088
20
557.769256
11
274.419623
21
557.771484
0
LINE
8
annotation
62
1
39
211
10
274.419623
20
557.771484
11
274.421120
21
557.773784
0
LINE
8
annotation
62
1
39
211
10
274.421120
20
557.773784
11
274.422590
21
557.776174
0
LINE
8
annotation
62
1
39
211
10
274.422590
20
557.776174
11
274.424043
21
557.778673
0
LINE
8
annotation
62
1
39
211
10
274.424043
20
557.778673
11
274.425492
21
557.781298
0
LINE
8
annotation
62
1
39
211
10
274.425492
20
557.781298
11
274.426945
21
557.784066
0
LINE
8
annotation
62
1
39
211
10
274.426945
20
557.784066
11
274.426945
21
557.784066
0
LINE
8
annotation
62
1
39
211
10
274.426945
20
557.784066
11
274.486118
21
557.911116
0
LINE
8
annotation
62
1
39
211
10
274.486118
20
557.911116
11
274.520686
21
558.042813
0
LINE
8
annotation
62
1
39
211
10
274.520686
20
558.042813
11
274.531496
21
558.176184
0
LINE
8
annotation
62
1
39
211
10
274.531496
20
558.176184
11
274.519395
21
558.308251
0
LINE
8
annotation
62
1
39
211
10
274.519395
20
558.308251
11
274.485230
21
558.436039
0
LINE
8
annotation
62
1
39
211
10
274.485230
20
558.436039
11
274.429849
21
558.556573
0
LINE
8
annotation
62
1
39
211
10
274.429849
20
558.556573
11
274.354098
21
558.666875
0
LINE
8
annotation
62
1
39
211
10
274.354098
20
558.666875
11
274.258826
21
558.763972
0
LINE
8
annotation
62
1
39
211
10
274.258826
20
558.763972
11
274.144878
21
558.844885
0
LINE
8
annotation
62
1
39
211
10
274.144878
20
558.844885
11
274.144878
21
558.844885
0
LINE
8
annotation
62
1
39
211
10
274.144878
20
558.844885
11
274.017475
21
558.903218
0
LINE
8
annotation
62
1
39
211
10
274.017475
20
558.903218
11
273.885576
21
558.937253
0
LINE
8
annotation
62
1
39
211
10
273.885576
20
558.937253
11
273.752128
21
558.947757
0
LINE
8
annotation
62
1
39
211
10
273.752128
20
558.947757
11
273.620080
21
558.935497
0
LINE
8
annotation
62
1
39
211
10
273.620080
20
558.935497
11
273.492382
21
558.901237
0
LINE
8
annotation
62
1
39
211
10
273.492382
20
558.901237
11
273.371982
21
558.845745
0
LINE
8
annotation
62
1
39
211
10
273.371982
20
558.845745
11
273.261829
21
558.769787
0
LINE
8
annotation
62
1
39
211
10
273.261829
20
558.769787
11
273.164872
21
558.674127
0
LINE
8
annotation
62
1
39
211
10
273.164872
20
558.674127
11
273.084059
21
558.559533
0
LINE
8
annotation
62
1
39
211
10
273.084059
20
558.559533
11
272.982225
21
558.364188
0
LINE
8
annotation
62
1
39
211
10
277.779772
20
556.232067
11
275.840777
21
556.232067
0
LINE
8
annotation
62
1
39
211
10
275.840777
20
556.232067
11
276.615148
21
558.947842
0
LINE
8
annotation
62
1
39
211
10
277.198555
20
555.455724
11
277.198555
21
557.006657
0
LINE
8
annotation
62
1
39
211
10
279.301528
20
574.367000
11
277.781284
21
574.367000
0
LINE
8
annotation
62
1
39
211
10
277.781284
20
574.367000
11
279.186039
21
576.628476
0
LINE
8
annotation
62
1
39
211
10
279.186039
20
576.628476
11
279.186039
21
576.628476
0
LINE
8
annotation
62
1
39
211
10
279.186039
20
576.628476
11
279.187719
21
576.630554
0
LINE
8
annotation
62
1
39
211
10
279.187719
20
576.630554
11
279.189329
21
576.632649
0
LINE
8
annotation
62
1
39
211
10
279.189329
20
576.632649
11
279.190881
21
576.634781
0
LINE
8
annotation
62
1
39
211
10
279.190881
20
576.634781
11
279.192386
21
576.636965
0
LINE
8
annotation
62
1
39
211
10
279.192386
20
576.636965
11
279.193853
21
576.639219
0
LINE
8
annotation
62
1
39
211
10
279.193853
20
576.639219
11
279.195294
21
576.641562
0
LINE
8
annotation
62
1
39
211
10
279.195294
20
576.641562
11
279.196719
21
576.644011
0
LINE
8
annotation
62
1
39
211
10
279.196719
20
576.644011
11
279.198138
21
576.646584
0
LINE
8
annotation
62
1
39
211
10
279.198138
20
576.646584
11
279.199563
21
576.649298
0
LINE
8
annotation
62
1
39
211
10
279.199563
20
576.649298
11
279.199563
21
576.649298
0
LINE
8
annotation
62
1
39
211
10
279.199563
20
576.649298
11
279.257565
21
576.773833
0
LINE
8
annotation
62
1
39
211
10
279.257565
20
576.773833
11
279.291449
21
576.902925
0
LINE
8
annotation
62
1
39
211
10
279.291449
20
576.902925
11
279.302045
21
577.033656
0
LINE
8
annotation
62
1
39
211
10
279.302045
20
577.033656
11
279.290183
21
577.163110
0
LINE
8
annotation
62
1
39
211
10
279.290183
20
577.163110
11
279.256695
21
577.288370
0
LINE
8
annotation
62
1
39
211
10
279.256695
20
577.288370
11
279.202409
21
577.406518
0
LINE
8
annotation
62
1
39
211
10
279.202409
20
577.406518
11
279.128158
21
577.514638
0
LINE
8
annotation
62
1
39
211
10
279.128158
20
577.514638
11
279.034770
21
577.609813
0
LINE
8
annotation
62
1
39
211
10
279.034770
20
577.609813
11
278.923077
21
577.689126
0
LINE
8
annotation
62
1
39
211
10
278.923077
20
577.689126
11
278.923077
21
577.689126
0
LINE
8
annotation
62
1
39
211
10
278.923077
20
577.689126
11
278.798196
21
577.746304
0
LINE
8
annotation
62
1
39
211
10
278.798196
20
577.746304
11
278.668906
21
577.779665
0
LINE
8
annotation
62
1
39
211
10
278.668906
20
577.779665
11
278.538099
21
577.789962
0
LINE
8
annotation
62
1
39
211
10
278.538099
20
577.789962
11
278.408664
21
577.777944
0
LINE
8
annotation
62
1
39
211
10
278.408664
20
577.777944
11
278.283493
21
577.744363
0
LINE
8
annotation
62
1
39
211
10
278.283493
20
577.744363
11
278.165475
21
577.689969
0
LINE
8
annotation
62
1
39
211
10
278.165475
20
577.689969
11
278.057502
21
577.615513
0
LINE
8
annotation
62
1
39
211
10
278.057502
20
577.615513
11
277.962463
21
577.521746
0
LINE
8
annotation
62
1
39
211
10
277.962463
20
577.521746
11
277.883249
21
577.409420
0
LINE
8
annotation
62
1
39
211
10
277.883249
20
577.409420
11
277.783431
21
577.217941
0
LINE
8
annotation
62
1
39
211
10
280.585418
20
574.367028
11
281.345540
21
574.367028
0
LINE
8
annotation
62
1
39
211
10
281.345540
20
574.367028
11
281.345540
21
574.367028
0
LINE
8
annotation
62
1
39
211
10
281.345540
20
574.367028
11
281.481967
21
574.379295
0
LINE
8
annotation
62
1
39
211
10
281.481967
20
574.379295
11
281.610456
21
574.414658
0
LINE
8
annotation
62
1
39
211
10
281.610456
20
574.414658
11
281.728840
21
574.470965
0
LINE
8
annotation
62
1
39
211
10
281.728840
20
574.470965
11
281.834955
21
574.546061
0
LINE
8
annotation
62
1
39
211
10
281.834955
20
574.546061
11
281.926633
21
574.637794
0
LINE
8
annotation
62
1
39
211
10
281.926633
20
574.637794
11
282.001709
21
574.744008
0
LINE
8
annotation
62
1
39
211
10
282.001709
20
574.744008
11
282.058016
21
574.862552
0
LINE
8
annotation
62
1
39
211
10
282.058016
20
574.862552
11
282.093389
21
574.991270
0
LINE
8
annotation
62
1
39
211
10
282.093389
20
574.991270
11
282.105662
21
575.128009
0
LINE
8
annotation
62
1
39
211
10
282.105662
20
575.128009
11
282.105662
21
575.506674
0
LINE
8
annotation
62
1
39
211
10
282.105662
20
575.506674
11
282.105662
21
575.506674
0
LINE
8
annotation
62
1
39
211
10
282.105662
20
575.506674
11
282.093396
21
575.643347
0
LINE
8
annotation
62
1
39
211
10
282.093396
20
575.643347
11
282.058041
21
575.771888
0
LINE
8
annotation
62
1
39
211
10
282.058041
20
575.771888
11
282.001757
21
575.890174
0
LINE
8
annotation
62
1
39
211
10
282.001757
20
575.890174
11
281.926704
21
575.996084
0
LINE
8
annotation
62
1
39
211
10
281.926704
20
575.996084
11
281.835043
21
576.087496
0
LINE
8
annotation
62
1
39
211
10
281.835043
20
576.087496
11
281.728936
21
576.162287
0
LINE
8
annotation
62
1
39
211
10
281.728936
20
576.162287
11
281.610542
21
576.218337
0
LINE
8
annotation
62
1
39
211
10
281.610542
20
576.218337
11
281.482023
21
576.253523
0
LINE
8
annotation
62
1
39
211
10
281.482023
20
576.253523
11
281.345540
21
576.265723
0
LINE
8
annotation
62
1
39
211
10
281.345540
20
576.265723
11
280.585418
21
576.265723
0
LINE
8
annotation
62
1
39
211
10
280.585418
20
576.265723
11
280.585418
21
577.790045
0
LINE
8
annotation
62
1
39
211
10
280.585418
20
577.790045
11
282.105662
21
577.790045
0
LINE
8
annotation
62
1
39
211
10
238.447218
20
379.167753
11
236.720842
21
376.670707
0
LINE
8
annotation
62
1
39
211
10
236.720842
20
376.670707
11
234.994141
21
379.167753
0
LINE
8
annotation
62
1
39
211
10
236.720842
20
376.871653
11
236.720842
21
373.990896
0
LINE
8
annotation
62
1
39
211
10
243.219506
20
376.579324
11
240.389067
21
376.579324
0
LINE
8
annotation
62
1
39
211
10
246.886920
20
379.167590
11
246.886920
21
379.167590
0
LINE
8
annotation
62
1
39
211
10
246.886920
20
379.167590
11
246.557614
21
379.044120
0
LINE
8
annotation
62
1
39
211
10
246.557614
20
379.044120
11
246.255432
21
378.877759
0
LINE
8
annotation
62
1
39
211
10
246.255432
20
378.877759
11
245.983478
21
378.672676
0
LINE
8
annotation
62
1
39
211
10
245.983478
20
378.672676
11
245.744851
21
378.433037
0
LINE
8
annotation
62
1
39
211
10
245.744851
20
378.433037
11
245.542656
21
378.163011
0
LINE
8
annotation
62
1
39
211
10
245.542656
20
378.163011
11
245.379993
21
377.866766
0
LINE
8
annotation
62
1
39
211
10
245.379993
20
377.866766
11
245.259964
21
377.548471
0
LINE
8
annotation
62
1
39
211
10
245.259964
20
377.548471
11
245.185672
21
377.212293
0
LINE
8
annotation
62
1
39
211
10
245.185672
20
377.212293
11
245.160219
21
376.862401
0
LINE
8
annotation
62
1
39
211
10
245.160219
20
376.862401
11
245.160219
21
375.141868
0
LINE
8
annotation
62
1
39
211
10
245.160219
20
375.141868
11
245.160219
21
375.141868
0
LINE
8
annotation
62
1
39
211
10
245.160219
20
375.141868
11
245.178778
21
374.935081
0
LINE
8
annotation
62
1
39
211
10
245.178778
20
374.935081
11
245.232271
21
374.740424
0
LINE
8
annotation
62
1
39
211
10
245.232271
20
374.740424
11
245.317423
21
374.561155
0
LINE
8
annotation
62
1
39
211
10
245.317423
20
374.561155
11
245.430958
21
374.400529
0
LINE
8
annotation
62
1
39
211
10
245.430958
20
374.400529
11
245.569601
21
374.261805
0
LINE
8
annotation
62
1
39
211
10
245.569601
20
374.261805
11
245.730075
21
374.148239
0
LINE
8
annotation
62
1
39
211
10
245.730075
20
374.148239
11
245.909105
21
374.063088
0
LINE
8
annotation
62
1
39
211
10
245.909105
20
374.063088
11
246.103415
21
374.009609
0
LINE
8
annotation
62
1
39
211
10
246.103415
20
374.009609
11
246.309730
21
373.991058
0
LINE
8
annotation
62
1
39
211
10
246.309730
20
373.991058
11
246.309730
21
373.991058
0
LINE
8
annotation
62
1
39
211
10
246.309730
20
373.991058
11
246.516472
21
374.009609
0
LINE
8
annotation
62
1
39
211
10
246.516472
20
374.009609
11
246.711009
21
374.063088
0
LINE
8
annotation
62
1
39
211
10
246.711009
20
374.063088
11
246.890106
21
374.148239
0
LINE
8
annotation
62
1
39
211
10
246.890106
20
374.148239
11
247.050526
21
374.261805
0
LINE
8
annotation
62
1
39
211
10
247.050526
20
374.261805
11
247.189035
21
374.400529
0
LINE
8
annotation
62
1
39
211
10
247.189035
20
374.400529
11
247.302397
21
374.561155
0
LINE
8
annotation
62
1
39
211
10
247.302397
20
374.561155
11
247.387375
21
374.740424
0
LINE
8
annotation
62
1
39
211
10
247.387375
20
374.740424
11
247.440735
21
374.935081
0
LINE
8
annotation
62
1
39
211
10
247.440735
20
374.935081
11
247.459240
21
375.141868
0
LINE
8
annotation
62
1
39
211
10
247.459240
20
375.141868
11
247.459240
21
375.714513
0
LINE
8
annotation
62
1
39
211
10
247.459240
20
375.714513
11
247.459240
21
375.714513
0
LINE
8
annotation
62
1
39
211
10
247.459240
20
375.714513
11
247.440735
21
375.921200
0
LINE
8
annotation
62
1
39
211
10
247.440735
20
375.921200
11
247.387375
21
376.115588
0
LINE
8
annotation
62
1
39
211
10
247.387375
20
376.115588
11
247.302397
21
376.294468
0
LINE
8
annotation
62
1
39
211
10
247.302397
20
376.294468
11
247.189035
21
376.454633
0
LINE
8
annotation
62
1
39
211
10
247.189035
20
376.454633
11
247.050526
21
376.592872
0
LINE
8
annotation
62
1
39
211
10
247.050526
20
376.592872
11
246.890106
21
376.705978
0
LINE
8
annotation
62
1
39
211
10
246.890106
20
376.705978
11
246.711009
21
376.790740
0
LINE
8
annotation
62
1
39
211
10
246.711009
20
376.790740
11
246.516472
21
376.843951
0
LINE
8
annotation
62
1
39
211
10
246.516472
20
376.843951
11
246.309730
21
376.862401
0
LINE
8
annotation
62
1
39
211
10
246.309730
20
376.862401
11
245.160219
21
376.862401
0
LINE
8
annotation
62
1
39
211
10
245.016246
20
373.343992
11
247.604512
21
373.343992
0
LINE
8
frame
62
5
39
2
10
0.000000
20
0.000000
11
300.000000
21
0.000000
0
LINE
8
frame
62
5
39
2
10
300.000000
20
0.000000
11
300.000000
21
600.000000
0
LINE
8
frame
62
5
39
2
10
300.000000
20
600.000000
11
0.000000
21
600.000000
0
LINE
8
frame
62
5
39
2
10
0.000000
20
600.000000
11
0.000000
21
0.000000
0
ENDSEC
0
EOF
