  0
SECTION
  2
HEADER
  9
$ACADVER
  1
AC1024
  9
$ACADMAINTVER
 70
     6
  9
$DWGCODEPAGE
  3
ANSI_932
  9
$INSBASE
 10
0.0
 20
0.0
 30
0.0
  9
$EXTMIN
 10
1.000000000000000E+20
 20
1.000000000000000E+20
 30
1.000000000000000E+20
  9
$EXTMAX
 10
-1.000000000000000E+20
 20
-1.000000000000000E+20
 30
-1.000000000000000E+20
  9
$LIMMIN
 10
0.0
 20
0.0
  9
$LIMMAX
 10
12.0
 20
9.0
  9
$ORTHOMODE
 70
     0
  9
$REGENMODE
 70
     1
  9
$FILLMODE
 70
     1
  9
$QTEXTMODE
 70
     0
  9
$MIRRTEXT
 70
     1
  9
$LTSCALE
 40
1.0
  9
$ATTMODE
 70
     1
  9
$TEXTSIZE
 40
0.2
  9
$TRACEWID
 40
0.05
  9
$TEXTSTYLE
  7
Standard
  9
$CLAYER
  8
0
  9
$CELTYPE
  6
ByLayer
  9
$CECOLOR
 62
   256
  9
$CELTSCALE
 40
1.0
  9
$DISPSILH
 70
     0
  9
$DIMSCALE
 40
1.0
  9
$DIMASZ
 40
0.18
  9
$DIMEXO
 40
0.0625
  9
$DIMDLI
 40
0.38
  9
$DIMRND
 40
0.0
  9
$DIMDLE
 40
0.0
  9
$DIMEXE
 40
0.18
  9
$DIMTP
 40
0.0
  9
$DIMTM
 40
0.0
  9
$DIMTXT
 40
0.18
  9
$DIMCEN
 40
0.09
  9
$DIMTSZ
 40
0.0
  9
$DIMTOL
 70
     0
  9
$DIMLIM
 70
     0
  9
$DIMTIH
 70
     1
  9
$DIMTOH
 70
     1
  9
$DIMSE1
 70
     0
  9
$DIMSE2
 70
     0
  9
$DIMTAD
 70
     0
  9
$DIMZIN
 70
     0
  9
$DIMBLK
  1

  9
$DIMASO
 70
     1
  9
$DIMSHO
 70
     1
  9
$DIMPOST
  1

  9
$DIMAPOST
  1

  9
$DIMALT
 70
     0
  9
$DIMALTD
 70
     2
  9
$DIMALTF
 40
25.4
  9
$DIMLFAC
 40
1.0
  9
$DIMTOFL
 70
     0
  9
$DIMTVP
 40
0.0
  9
$DIMTIX
 70
     0
  9
$DIMSOXD
 70
     0
  9
$DIMSAH
 70
     0
  9
$DIMBLK1
  1

  9
$DIMBLK2
  1

  9
$DIMSTYLE
  2
Standard
  9
$DIMCLRD
 70
     0
  9
$DIMCLRE
 70
     0
  9
$DIMCLRT
 70
     0
  9
$DIMTFAC
 40
1.0
  9
$DIMGAP
 40
0.09
  9
$DIMJUST
 70
     0
  9
$DIMSD1
 70
     0
  9
$DIMSD2
 70
     0
  9
$DIMTOLJ
 70
     1
  9
$DIMTZIN
 70
     0
  9
$DIMALTZ
 70
     0
  9
$DIMALTTZ
 70
     0
  9
$DIMUPT
 70
     0
  9
$DIMDEC
 70
     4
  9
$DIMTDEC
 70
     4
  9
$DIMALTU
 70
     2
  9
$DIMALTTD
 70
     2
  9
$DIMTXSTY
  7
Standard
  9
$DIMAUNIT
 70
     0
  9
$DIMADEC
 70
     0
  9
$DIMALTRND
 40
0.0
  9
$DIMAZIN
 70
     0
  9
$DIMDSEP
 70
    46
  9
$DIMATFIT
 70
     3
  9
$DIMFRAC
 70
     0
  9
$DIMLDRBLK
  1

  9
$DIMLUNIT
 70
     2
  9
$DIMLWD
 70
    -2
  9
$DIMLWE
 70
    -2
  9
$DIMTMOVE
 70
     0
  9
$DIMFXL
 40
1.0
  9
$DIMFXLON
 70
     0
  9
$DIMJOGANG
 40
0.7853981633974483
  9
$DIMTFILL
 70
     0
  9
$DIMTFILLCLR
 70
     0
  9
$DIMARCSYM
 70
     0
  9
$DIMLTYPE
  6

  9
$DIMLTEX1
  6

  9
$DIMLTEX2
  6

  9
$DIMTXTDIRECTION
 70
     0
  9
$LUNITS
 70
     2
  9
$LUPREC
 70
     4
  9
$SKETCHINC
 40
0.1
  9
$FILLETRAD
 40
0.5
  9
$AUNITS
 70
     0
  9
$AUPREC
 70
     0
  9
$MENU
  1
.
  9
$ELEVATION
 40
0.0
  9
$PELEVATION
 40
0.0
  9
$THICKNESS
 40
0.0
  9
$LIMCHECK
 70
     0
  9
$CHAMFERA
 40
0.5
  9
$CHAMFERB
 40
0.5
  9
$CHAMFERC
 40
1.0
  9
$CHAMFERD
 40
0.0
  9
$SKPOLY
 70
     0
  9
$TDCREATE
 40
2458524.993328796
  9
$TDUCREATE
 40
2458524.618328796
  9
$TDUPDATE
 40
2458524.993329132
  9
$TDUUPDATE
 40
2458524.618329132
  9
$TDINDWG
 40
0.0000000116
  9
$TDUSRTIMER
 40
0.0000000116
  9
$USRTIMER
 70
     1
  9
$ANGBASE
 50
0.0
  9
$ANGDIR
 70
     0
  9
$PDMODE
 70
     0
  9
$PDSIZE
 40
0.0
  9
$PLINEWID
 40
0.0
  9
$SPLFRAME
 70
     0
  9
$SPLINETYPE
 70
     6
  9
$SPLINESEGS
 70
     8
  9
$HANDSEED
  5
64
  9
$SURFTAB1
 70
     6
  9
$SURFTAB2
 70
     6
  9
$SURFTYPE
 70
     6
  9
$SURFU
 70
     6
  9
$SURFV
 70
     6
  9
$UCSBASE
  2

  9
$UCSNAME
  2

  9
$UCSORG
 10
0.0
 20
0.0
 30
0.0
  9
$UCSXDIR
 10
1.0
 20
0.0
 30
0.0
  9
$UCSYDIR
 10
0.0
 20
1.0
 30
0.0
  9
$UCSORTHOREF
  2

  9
$UCSORTHOVIEW
 70
     0
  9
$UCSORGTOP
 10
0.0
 20
0.0
 30
0.0
  9
$UCSORGBOTTOM
 10
0.0
 20
0.0
 30
0.0
  9
$UCSORGLEFT
 10
0.0
 20
0.0
 30
0.0
  9
$UCSORGRIGHT
 10
0.0
 20
0.0
 30
0.0
  9
$UCSORGFRONT
 10
0.0
 20
0.0
 30
0.0
  9
$UCSORGBACK
 10
0.0
 20
0.0
 30
0.0
  9
$PUCSBASE
  2

  9
$PUCSNAME
  2

  9
$PUCSORG
 10
0.0
 20
0.0
 30
0.0
  9
$PUCSXDIR
 10
1.0
 20
0.0
 30
0.0
  9
$PUCSYDIR
 10
0.0
 20
1.0
 30
0.0
  9
$PUCSORTHOREF
  2

  9
$PUCSORTHOVIEW
 70
     0
  9
$PUCSORGTOP
 10
0.0
 20
0.0
 30
0.0
  9
$PUCSORGBOTTOM
 10
0.0
 20
0.0
 30
0.0
  9
$PUCSORGLEFT
 10
0.0
 20
0.0
 30
0.0
  9
$PUCSORGRIGHT
 10
0.0
 20
0.0
 30
0.0
  9
$PUCSORGFRONT
 10
0.0
 20
0.0
 30
0.0
  9
$PUCSORGBACK
 10
0.0
 20
0.0
 30
0.0
  9
$USERI1
 70
     0
  9
$USERI2
 70
     0
  9
$USERI3
 70
     0
  9
$USERI4
 70
     0
  9
$USERI5
 70
     0
  9
$USERR1
 40
0.0
  9
$USERR2
 40
0.0
  9
$USERR3
 40
0.0
  9
$USERR4
 40
0.0
  9
$USERR5
 40
0.0
  9
$WORLDVIEW
 70
     1
  9
$SHADEDGE
 70
     3
  9
$SHADEDIF
 70
    70
  9
$TILEMODE
 70
     1
  9
$MAXACTVP
 70
    64
  9
$PINSBASE
 10
0.0
 20
0.0
 30
0.0
  9
$PLIMCHECK
 70
     0
  9
$PEXTMIN
 10
1.000000000000000E+20
 20
1.000000000000000E+20
 30
1.000000000000000E+20
  9
$PEXTMAX
 10
-1.000000000000000E+20
 20
-1.000000000000000E+20
 30
-1.000000000000000E+20
  9
$PLIMMIN
 10
0.0
 20
0.0
  9
$PLIMMAX
 10
12.0
 20
9.0
  9
$UNITMODE
 70
     0
  9
$VISRETAIN
 70
     1
  9
$PLINEGEN
 70
     0
  9
$PSLTSCALE
 70
     1
  9
$TREEDEPTH
 70
  3020
  9
$CMLSTYLE
  2
Standard
  9
$CMLJUST
 70
     0
  9
$CMLSCALE
 40
1.0
  9
$PROXYGRAPHICS
 70
     1
  9
$MEASUREMENT
 70
     0
  9
$CELWEIGHT
370
    -1
  9
$ENDCAPS
280
     0
  9
$JOINSTYLE
280
     0
  9
$LWDISPLAY
290
     1
  9
$INSUNITS
 70
     1
  9
$HYPERLINKBASE
  1

  9
$STYLESHEET
  1

  9
$XEDIT
290
     1
  9
$CEPSNTYPE
380
     0
  9
$PSTYLEMODE
290
     1
  9
$FINGERPRINTGUID
  2
{032908AC-522E-4A25-9251-4BD3C368C93F}
  9
$VERSIONGUID
  2
{FAEB1C32-E019-11D5-929B-00C0DF256EC4}
  9
$EXTNAMES
290
     1
  9
$PSVPSCALE
 40
0.0
  9
$OLESTARTUP
290
     0
  9
$SORTENTS
280
   127
  9
$INDEXCTL
280
     0
  9
$HIDETEXT
280
     1
  9
$XCLIPFRAME
280
     2
  9
$HALOGAP
280
     0
  9
$OBSCOLOR
 70
   257
  9
$OBSLTYPE
280
     0
  9
$INTERSECTIONDISPLAY
280
     0
  9
$INTERSECTIONCOLOR
 70
   257
  9
$DIMASSOC
280
     2
  9
$PROJECTNAME
  1

  9
$CAMERADISPLAY
290
     0
  9
$LENSLENGTH
 40
50.0
  9
$CAMERAHEIGHT
 40
0.0
  9
$STEPSPERSEC
 40
2.0
  9
$STEPSIZE
 40
6.0
  9
$3DDWFPREC
 40
2.0
  9
$PSOLWIDTH
 40
0.25
  9
$PSOLHEIGHT
 40
4.0
  9
$LOFTANG1
 40
1.570796326794897
  9
$LOFTANG2
 40
1.570796326794897
  9
$LOFTMAG1
 40
0.0
  9
$LOFTMAG2
 40
0.0
  9
$LOFTPARAM
 70
     7
  9
$LOFTNORMALS
280
     1
  9
$LATITUDE
 40
37.795
  9
$LONGITUDE
 40
-122.394
  9
$NORTHDIRECTION
 40
0.0
  9
$TIMEZONE
 70
 -8000
  9
$LIGHTGLYPHDISPLAY
280
     1
  9
$TILEMODELIGHTSYNCH
280
     1
  9
$CMATERIAL
347
3C
  9
$SOLIDHIST
280
     1
  9
$SHOWHIST
280
     1
  9
$DWFFRAME
280
     2
  9
$DGNFRAME
280
     2
  9
$REALWORLDSCALE
290
     1
  9
$INTERFERECOLOR
 62
   256
  9
$CSHADOW
280
     0
  9
$SHADOWPLANELOCATION
 40
0.0
  0
ENDSEC
  0
SECTION
  2
CLASSES
  0
CLASS
  1
ACDBDICTIONARYWDFLT
  2
AcDbDictionaryWithDefault
  3
ObjectDBX Classes
 90
        0
 91
        4
280
     0
281
     0
  0
CLASS
  1
VISUALSTYLE
  2
AcDbVisualStyle
  3
ObjectDBX Classes
 90
     4095
 91
        4
280
     0
281
     0
  0
CLASS
  1
MATERIAL
  2
AcDbMaterial
  3
ObjectDBX Classes
 90
     1153
 91
        4
280
     0
281
     0
  0
CLASS
  1
SUN
  2
AcDbSun
  3
SCENEOE
 90
     1024
 91
        4
280
     0
281
     0
  0
ENDSEC
  0
SECTION
  2
TABLES
  0
TABLE
  2
VPORT
  5
8
330
0
100
AcDbSymbolTable
 70
     1
  0
VPORT
  5
29
330
8
100
AcDbSymbolTableRecord
100
AcDbViewportTableRecord
  2
*Active
 70
     0
 10
0.0
 20
0.0
 11
1.0
 21
1.0
 12
0.0
 22
0.0
 13
0.0
 23
0.0
 14
0.5
 24
0.5
 15
0.5
 25
0.5
 16
0.0
 26
0.0
 36
1.0
 17
104.9999999737534
 27
-148.4999999628701
 37
0.0
 40
296.9999999257402
 41
0.7070707070707533
 42
50.0
 43
0.0
 44
0.0
 50
0.0
 51
0.0
 71
     0
 72
   100
 73
     1
 74
     3
 75
     0
 76
     0
 77
     0
 78
     0
281
     0
 65
     1
110
0.0
120
0.0
130
0.0
111
1.0
121
0.0
131
0.0
112
0.0
122
1.0
132
0.0
 79
     0
146
0.0
 60
     3
 61
     5
292
     1
282
     1
141
0.0
142
0.0
 63
   250
361
3F
  0
ENDTAB
  0
TABLE
  2
LTYPE
  5
5
330
0
100
AcDbSymbolTable
 70
     1
  0
LTYPE
  5
14
330
5
100
AcDbSymbolTableRecord
100
AcDbLinetypeTableRecord
  2
ByBlock
 70
     0
  3

 72
    65
 73
     0
 40
0.0
  0
LTYPE
  5
15
330
5
100
AcDbSymbolTableRecord
100
AcDbLinetypeTableRecord
  2
ByLayer
 70
     0
  3

 72
    65
 73
     0
 40
0.0
  0
LTYPE
  5
16
330
5
100
AcDbSymbolTableRecord
100
AcDbLinetypeTableRecord
  2
Continuous
 70
     0
  3
Solid line
 72
    65
 73
     0
 40
0.0
  0
ENDTAB
  0
TABLE
  2
LAYER
  5
2
330
0
100
AcDbSymbolTable
 70
     2
  0
LAYER
  5
10
330
2
100
AcDbSymbolTableRecord
100
AcDbLayerTableRecord
  2
0
 70
     0
 62
     7
  6
Continuous
370
    -3
390
F
347
3E
  0
LAYER
  5
40
330
2
100
AcDbSymbolTableRecord
100
AcDbLayerTableRecord
  2
_U+30EC_U+30A4_U+30E4_U+30FC 1
 70
     0
 62
     7
  6
Continuous
370
    -3
390
F
347
3E
  0
ENDTAB
  0
TABLE
  2
STYLE
  5
3
330
0
100
AcDbSymbolTable
 70
     1
  0
STYLE
  5
11
330
3
100
AcDbSymbolTableRecord
100
AcDbTextStyleTableRecord
  2
Standard
 70
     0
 40
0.0
 41
1.0
 50
0.0
 71
     0
 42
0.2
  3
txt
  4

  0
ENDTAB
  0
TABLE
  2
VIEW
  5
6
330
0
100
AcDbSymbolTable
 70
     0
  0
ENDTAB
  0
TABLE
  2
UCS
  5
7
330
0
100
AcDbSymbolTable
 70
     0
  0
ENDTAB
  0
TABLE
  2
APPID
  5
9
330
0
100
AcDbSymbolTable
 70
     1
  0
APPID
  5
12
330
9
100
AcDbSymbolTableRecord
100
AcDbRegAppTableRecord
  2
ACAD
 70
     0
  0
ENDTAB
  0
TABLE
  2
DIMSTYLE
  5
A
330
0
100
AcDbSymbolTable
 70
     1
100
AcDbDimStyleTable
  0
DIMSTYLE
105
27
330
A
100
AcDbSymbolTableRecord
100
AcDbDimStyleTableRecord
  2
Standard
 70
     0
178
     0
340
11
  0
ENDTAB
  0
TABLE
  2
BLOCK_RECORD
  5
1
330
0
100
AcDbSymbolTable
 70
     5
  0
BLOCK_RECORD
  5
1F
330
1
100
AcDbSymbolTableRecord
100
AcDbBlockTableRecord
  2
*Model_Space
340
22
 70
     0
280
     1
281
     0
  0
BLOCK_RECORD
  5
1B
330
1
100
AcDbSymbolTableRecord
100
AcDbBlockTableRecord
  2
*Paper_Space
340
1E
 70
     0
280
     1
281
     0
  0
BLOCK_RECORD
  5
23
330
1
100
AcDbSymbolTableRecord
100
AcDbBlockTableRecord
  2
*Paper_Space0
340
26
 70
     0
280
     1
281
     0
  0
BLOCK_RECORD
  5
41
330
1
100
AcDbSymbolTableRecord
100
AcDbBlockTableRecord
  2
block 2
340
0
102
{BLKREFS
331
42
102
}
 70
     0
280
     1
281
     0
  0
BLOCK_RECORD
  5
49
330
1
100
AcDbSymbolTableRecord
100
AcDbBlockTableRecord
  2
block 3
340
0
102
{BLKREFS
331
4A
102
}
 70
     0
280
     1
281
     0
  0
BLOCK_RECORD
  5
4D
330
1
100
AcDbSymbolTableRecord
100
AcDbBlockTableRecord
  2
block 4
340
0
102
{BLKREFS
331
4E
102
}
 70
     0
280
     1
281
     0
  0
BLOCK_RECORD
  5
5A
330
1
100
AcDbSymbolTableRecord
100
AcDbBlockTableRecord
  2
block 5
340
0
102
{BLKREFS
331
5B
102
}
 70
     0
280
     1
281
     0
  0
ENDTAB
  0
ENDSEC
  0
SECTION
  2
BLOCKS
  0
BLOCK
  5
20
330
1F
100
AcDbEntity
  8
0
100
AcDbBlockBegin
  2
*Model_Space
 70
     0
 10
0.0
 20
0.0
 30
0.0
  3
*Model_Space
  1

  0
ENDBLK
  5
21
330
1F
100
AcDbEntity
  8
0
100
AcDbBlockEnd
  0
BLOCK
  5
1C
330
1B
100
AcDbEntity
 67
     1
  8
0
100
AcDbBlockBegin
  2
*Paper_Space
 70
     0
 10
0.0
 20
0.0
 30
0.0
  3
*Paper_Space
  1

  0
ENDBLK
  5
1D
330
1B
100
AcDbEntity
 67
     1
  8
0
100
AcDbBlockEnd
  0
BLOCK
  5
24
330
23
100
AcDbEntity
  8
0
100
AcDbBlockBegin
  2
*Paper_Space0
 70
     0
 10
0.0
 20
0.0
 30
0.0
  3
*Paper_Space0
  1

  0
ENDBLK
  5
25
330
23
100
AcDbEntity
  8
0
100
AcDbBlockEnd
  0
BLOCK
  5
43
330
41
100
AcDbEntity
  8
0
100
AcDbBlockBegin
  2
block 2
 70
     0
 10
0.0
 20
0.0
 30
0.0
  3
block 2
  1

  0
SPLINE
  5
45
330
41
100
AcDbEntity
  8
_U+30EC_U+30A4_U+30E4_U+30FC 1
 62
    18
420
   262144
370
    35
100
AcDbSpline
210
0.0
220
0.0
230
1.0
 70
    11
 71
     3
 72
    20
 73
    16
 74
     0
 42
0.0000000001
 43
0.0000000001
 12
1.0
 22
0.0
 32
0.0
 13
1.0
 23
0.0
 33
0.0
 40
0.0
 40
0.0
 40
0.0
 40
0.0
 40
1.0
 40
1.0
 40
1.0
 40
2.0
 40
2.0
 40
2.0
 40
3.0
 40
3.0
 40
3.0
 40
4.0
 40
4.0
 40
4.0
 40
5.0
 40
5.0
 40
5.0
 40
5.0
 10
48.34758854210472
 20
-56.63474056182805
 30
0.0
 10
48.26753313576623
 20
-58.10694828783262
 30
0.0
 10
48.17561368185041
 20
-60.30411176316765
 30
0.0
 10
48.17119965325993
 20
-62.98474056024055
 30
0.0
 10
48.16816366286356
 20
-64.83209765274204
 30
0.0
 10
48.16194095914332
 20
-68.6131330114973
 30
0.0
 10
48.43578298652712
 20
-68.62918500327389
 30
0.0
 10
48.69188277216188
 20
-68.64419270048151
 30
0.0
 10
49.10981591821625
 20
-65.36146887182085
 30
0.0
 10
49.31772743075108
 20
-63.07293500466294
 30
0.0
 10
49.58240765732879
 20
-60.15955770979125
 30
0.0
 10
49.60750302475415
 20
-57.74809852935028
 30
0.0
 10
49.58231076401826
 20
-56.10557389529367
 30
0.0
 10
49.17074027868821
 20
-56.28196278413847
 30
0.0
 10
48.75915902743477
 20
-56.45835167298326
 30
0.0
 10
48.34758854210472
 20
-56.63474056182805
 30
0.0
  0
SPLINE
  5
46
330
41
100
AcDbEntity
  8
_U+30EC_U+30A4_U+30E4_U+30FC 1
 62
    18
420
   262144
370
    35
100
AcDbSpline
210
0.0
220
0.0
230
1.0
 70
    11
 71
     3
 72
   125
 73
   121
 74
     0
 42
0.0000000001
 43
0.0000000001
 12
1.0
 22
0.0
 32
0.0
 13
1.0
 23
0.0
 33
0.0
 40
0.0
 40
0.0
 40
0.0
 40
0.0
 40
1.0
 40
1.0
 40
1.0
 40
2.0
 40
2.0
 40
2.0
 40
3.0
 40
3.0
 40
3.0
 40
4.0
 40
4.0
 40
4.0
 40
5.0
 40
5.0
 40
5.0
 40
6.0
 40
6.0
 40
6.0
 40
7.0
 40
7.0
 40
7.0
 40
8.0
 40
8.0
 40
8.0
 40
9.0
 40
9.0
 40
9.0
 40
10.0
 40
10.0
 40
10.0
 40
11.0
 40
11.0
 40
11.0
 40
12.0
 40
12.0
 40
12.0
 40
13.0
 40
13.0
 40
13.0
 40
14.0
 40
14.0
 40
14.0
 40
15.0
 40
15.0
 40
15.0
 40
16.0
 40
16.0
 40
16.0
 40
17.0
 40
17.0
 40
17.0
 40
18.0
 40
18.0
 40
18.0
 40
19.0
 40
19.0
 40
19.0
 40
20.0
 40
20.0
 40
20.0
 40
21.0
 40
21.0
 40
21.0
 40
22.0
 40
22.0
 40
22.0
 40
23.0
 40
23.0
 40
23.0
 40
24.0
 40
24.0
 40
24.0
 40
25.0
 40
25.0
 40
25.0
 40
26.0
 40
26.0
 40
26.0
 40
27.0
 40
27.0
 40
27.0
 40
28.0
 40
28.0
 40
28.0
 40
29.0
 40
29.0
 40
29.0
 40
30.0
 40
30.0
 40
30.0
 40
31.0
 40
31.0
 40
31.0
 40
32.0
 40
32.0
 40
32.0
 40
33.0
 40
33.0
 40
33.0
 40
34.0
 40
34.0
 40
34.0
 40
35.0
 40
35.0
 40
35.0
 40
36.0
 40
36.0
 40
36.0
 40
37.0
 40
37.0
 40
37.0
 40
38.0
 40
38.0
 40
38.0
 40
39.0
 40
39.0
 40
39.0
 40
40.0
 40
40.0
 40
40.0
 40
40.0
 10
40.76286632177868
 20
-24.35557390323117
 30
0.0
 10
40.76286632177868
 20
-24.35557390323117
 30
0.0
 10
40.76286632177868
 20
-19.6812683488442
 30
0.0
 10
40.76286632177868
 20
-19.6812683488442
 30
0.0
 10
40.76286632177868
 20
-19.6812683488442
 30
0.0
 10
54.08022742956045
 20
-19.6812683488442
 30
0.0
 10
54.08022742956045
 20
-19.6812683488442
 30
0.0
 10
54.08022742956045
 20
-19.6812683488442
 30
0.0
 10
54.08022742956045
 20
-24.79654612534316
 30
0.0
 10
54.08022742956045
 20
-24.79654612534316
 30
0.0
 10
54.25077042200371
 20
-24.77215054293823
 30
0.0
 10
55.69842107675247
 20
-24.59046481978487
 30
0.0
 10
56.81425520665472
 20
-25.67849056956711
 30
0.0
 10
57.82754391625383
 20
-26.66654395473677
 30
0.0
 10
57.79317908878846
 20
-27.94691369182987
 30
0.0
 10
57.78439409530107
 20
-28.1479350133942
 30
0.0
 10
57.92534156434136
 20
-29.05864600491999
 30
0.0
 10
57.55149487457479
 20
-29.97624718741628
 30
0.0
 10
56.81425520665472
 20
-30.52918501279888
 30
0.0
 10
56.07701553873465
 20
-31.08212283818148
 30
0.0
 10
55.09142755002163
 20
-31.1840761326981
 30
0.0
 10
54.25661631840524
 20
-30.79376834606607
 30
0.0
 10
54.10962916634238
 20
-31.88149264999336
 30
0.0
 10
53.96263124835613
 20
-32.96923848576743
 30
0.0
 10
53.81564409629326
 20
-34.05696278969472
 30
0.0
 10
53.81564409629326
 20
-34.05696278969472
 30
0.0
 10
49.58993303777938
 20
-34.05696278969472
 30
0.0
 10
49.58993303777938
 20
-34.05696278969472
 30
0.0
 10
49.58993303777938
 20
-34.05696278969472
 30
0.0
 10
49.58993303777938
 20
-35.67386452607977
 30
0.0
 10
49.58993303777938
 20
-35.67386452607977
 30
0.0
 10
49.58993303777938
 20
-35.67386452607977
 30
0.0
 10
53.81564409629326
 20
-36.08543501140982
 30
0.0
 10
53.81564409629326
 20
-36.08543501140982
 30
0.0
 10
53.81564409629326
 20
-36.08543501140982
 30
0.0
 10
54.08022742956045
 20
-40.05418501041763
 30
0.0
 10
54.08022742956045
 20
-40.05418501041763
 30
0.0
 10
54.87532316978594
 20
-40.98281049846673
 30
0.0
 10
55.73449768603707
 20
-42.12461203558905
 30
0.0
 10
56.54967187338753
 20
-43.49376834289107
 30
0.0
 10
57.79523538015622
 20
-45.58580257630904
 30
0.0
 10
58.54958210034524
 20
-47.55611727986376
 30
0.0
 10
59.01911631721462
 20
-49.1382127859244
 30
0.0
 10
59.01911631721462
 20
-49.1382127859244
 30
0.0
 10
59.01911631721462
 20
-50.37293500783795
 30
0.0
 10
59.01911631721462
 20
-50.37293500783795
 30
0.0
 10
59.01911631721462
 20
-50.37293500783795
 30
0.0
 10
56.90244965107712
 20
-50.37293500783795
 30
0.0
 10
56.90244965107712
 20
-50.37293500783795
 30
0.0
 10
56.90244965107712
 20
-50.37293500783795
 30
0.0
 10
56.90244965107712
 20
-49.3146016747692
 30
0.0
 10
56.90244965107712
 20
-49.3146016747692
 30
0.0
 10
56.90244965107712
 20
-49.3146016747692
 30
0.0
 10
54.69758854051722
 20
-45.0812683424942
 30
0.0
 10
54.69758854051722
 20
-45.0812683424942
 30
0.0
 10
54.69758854051722
 20
-45.0812683424942
 30
0.0
 10
55.66772742916358
 20
-54.69446278453535
 30
0.0
 10
55.66772742916358
 20
-54.69446278453535
 30
0.0
 10
55.66772742916358
 20
-54.69446278453535
 30
0.0
 10
53.46286631860368
 20
-55.6646016731817
 30
0.0
 10
53.46286631860368
 20
-55.6646016731817
 30
0.0
 10
53.3082568927797
 20
-59.59106312510807
 30
0.0
 10
53.02776152474001
 20
-63.74524538860945
 30
0.0
 10
52.58092187437972
 20
-68.10001833673951
 30
0.0
 10
52.15117851036498
 20
-72.28813479077061
 30
0.0
 10
51.60856520551474
 20
-76.26237541070803
 30
0.0
 10
50.99342187477659
 20
-80.00626833376295
 30
0.0
 10
50.99342187477659
 20
-80.00626833376295
 30
0.0
 10
47.20106076461357
 20
-80.00626833376295
 30
0.0
 10
47.20106076461357
 20
-80.00626833376295
 30
0.0
 10
47.20106076461357
 20
-80.00626833376295
 30
0.0
 10
47.94979843871567
 20
-74.89732092021814
 30
0.0
 10
47.94979843871567
 20
-74.89732092021814
 30
0.0
 10
47.94979843871567
 20
-74.89732092021814
 30
0.0
 10
48.17045680454592
 20
-73.39168500208326
 30
0.0
 10
48.17045680454592
 20
-73.39168500208326
 30
0.0
 10
48.17045680454592
 20
-73.39168500208326
 30
0.0
 10
45.34897743174326
 20
-74.45001833515201
 30
0.0
 10
45.34897743174326
 20
-74.45001833515201
 30
0.0
 10
45.02028302468025
 20
-71.42171480807706
 30
0.0
 10
44.84351732851676
 20
-67.95323573722108
 30
0.0
 10
44.99619965405368
 20
-64.1312683377317
 30
0.0
 10
45.09500929894
 20
-61.65787280001997
 30
0.0
 10
45.31897280325141
 20
-59.35724880089352
 30
0.0
 10
45.61356076501045
 20
-57.25210167278482
 30
0.0
 10
45.61356076501045
 20
-57.25210167278482
 30
0.0
 10
42.4385607658042
 20
-57.25210167278482
 30
0.0
 10
42.4385607658042
 20
-57.25210167278482
 30
0.0
 10
42.4385607658042
 20
-57.25210167278482
 30
0.0
 10
40.76286632177868
 20
-42.70001834308951
 30
0.0
 10
40.76286632177868
 20
-42.70001834308951
 30
0.0
 10
40.4172263512976
 20
-42.34221287917614
 30
0.0
 10
39.95143867576843
 20
-41.75724643170411
 30
0.0
 10
39.70453298870993
 20
-40.93612945464159
 30
0.0
 10
39.53178298197143
 20
-40.36164901655279
 30
0.0
 10
39.51408380391596
 20
-39.83088899335649
 30
0.0
 10
39.70453298870993
 20
-38.20210167754732
 30
0.0
 10
39.79688307956141
 20
-37.41229200570702
 30
0.0
 10
39.9348160900521
 20
-36.39309280416602
 30
0.0
 10
40.14550521082191
 20
-35.20349056718587
 30
0.0
 10
40.14550521082191
 20
-35.20349056718587
 30
0.0
 10
44.81981076520889
 20
-35.29168501160826
 30
0.0
 10
44.81981076520889
 20
-35.29168501160826
 30
0.0
 10
44.81981076520889
 20
-35.29168501160826
 30
0.0
 10
44.90800520963128
 20
-33.88057390084992
 30
0.0
 10
44.90800520963128
 20
-33.88057390084992
 30
0.0
 10
44.90800520963128
 20
-33.88057390084992
 30
0.0
 10
40.93925521062347
 20
-33.52779612316034
 30
0.0
 10
40.93925521062347
 20
-33.52779612316034
 30
0.0
 10
40.93925521062347
 20
-33.52779612316034
 30
0.0
 10
40.67467187735628
 20
-31.23474056817805
 30
0.0
 10
40.67467187735628
 20
-31.23474056817805
 30
0.0
 10
40.42762623329369
 20
-31.20687835844109
 30
0.0
 10
39.1721796088517
 20
-31.04091088343918
 30
0.0
 10
38.46981076679639
 20
-30.00001834626451
 30
0.0
 10
37.62988572156909
 20
-28.75526228375018
 30
0.0
 10
38.25364179102035
 20
-27.25630123811797
 30
0.0
 10
38.46981076679639
 20
-26.73682390263586
 30
0.0
 10
39.08948655128231
 20
-25.24765984728984
 30
0.0
 10
40.34776461357625
 20
-24.5599757247404
 30
0.0
 10
40.76286632177868
 20
-24.35557390323117
 30
0.0
  0
SPLINE
  5
47
330
41
100
AcDbEntity
  8
_U+30EC_U+30A4_U+30E4_U+30FC 1
 62
    18
420
   262144
370
    35
100
AcDbSpline
210
0.0
220
0.0
230
1.0
 70
     8
 71
     3
 72
    23
 73
    19
 74
     0
 42
0.0000000001
 43
0.0000000001
 12
1.0
 22
0.0
 32
0.0
 13
1.0
 23
0.0
 33
0.0
 40
0.0
 40
0.0
 40
0.0
 40
0.0
 40
1.0
 40
1.0
 40
1.0
 40
2.0
 40
2.0
 40
2.0
 40
3.0
 40
3.0
 40
3.0
 40
4.0
 40
4.0
 40
4.0
 40
5.0
 40
5.0
 40
5.0
 40
6.0
 40
6.0
 40
6.0
 40
6.0
 10
41.82119965484743
 20
-39.96599056599524
 30
0.0
 10
42.3032654065444
 20
-40.49822552069617
 30
0.0
 10
43.16602497528488
 20
-41.31159103291687
 30
0.0
 10
44.4670329875193
 20
-41.90626834328795
 30
0.0
 10
46.1957388383241
 20
-42.69643329060017
 30
0.0
 10
47.76581957387994
 20
-42.67432008395422
 30
0.0
 10
48.53139515216619
 20
-42.61182389866711
 30
0.0
 10
48.53139515216619
 20
-42.61182389866711
 30
0.0
 10
49.58993303777938
 20
-45.16946278691659
 30
0.0
 10
49.58993303777938
 20
-45.16946278691659
 30
0.0
 10
49.08453753009323
 20
-45.14062087815102
 30
0.0
 10
45.2774055730372
 20
-44.91926272730032
 30
0.0
 10
43.93786632098493
 20
-44.64029612038222
 30
0.0
 10
43.66830913111091
 20
-44.58416259581943
 30
0.0
 10
43.46906418690617
 20
-44.51952399177743
 30
0.0
 10
43.32050521002816
 20
-44.46390723153743
 30
0.0
 10
42.61038490313103
 20
-44.19806428523344
 30
0.0
 10
42.11673501786491
 20
-43.78577248303617
 30
0.0
 10
41.82119965484743
 20
-43.49376834289107
 30
0.0
  0
ENDBLK
  5
44
330
41
100
AcDbEntity
  8
0
100
AcDbBlockEnd
  0
BLOCK
  5
4B
330
49
100
AcDbEntity
  8
0
100
AcDbBlockBegin
  2
block 3
 70
     0
 10
0.0
 20
0.0
 30
0.0
  3
block 3
  1

  0
INSERT
  5
4E
330
49
100
AcDbEntity
  8
_U+30EC_U+30A4_U+30E4_U+30FC 1
100
AcDbBlockReference
  2
block 4
 10
0.0
 20
0.0
 30
0.0
  0
POLYLINE
  5
52
330
49
100
AcDbEntity
  8
_U+30EC_U+30A4_U+30E4_U+30FC 1
 62
    18
420
   262144
370
    35
100
AcDb2dPolyline
 66
     1
 10
0.0
 20
0.0
 30
0.0
  0
VERTEX
  5
53
330
52
100
AcDbEntity
  8
_U+30EC_U+30A4_U+30E4_U+30FC 1
 62
    18
420
   262144
370
    35
100
AcDbVertex
100
AcDb2dVertex
 10
85.32289338225075
 20
-57.76835204548289
 30
0.0
  0
VERTEX
  5
54
330
52
100
AcDbEntity
  8
_U+30EC_U+30A4_U+30E4_U+30FC 1
 62
    18
420
   262144
370
    35
100
AcDbVertex
100
AcDb2dVertex
 10
84.70553227129399
 20
-65.26487982138654
 30
0.0
  0
VERTEX
  5
55
330
52
100
AcDbEntity
  8
_U+30EC_U+30A4_U+30E4_U+30FC 1
 62
    18
420
   262144
370
    35
100
AcDbVertex
100
AcDb2dVertex
 10
84.26456004918201
 20
-71.43849093095425
 30
0.0
  0
VERTEX
  5
56
330
52
100
AcDbEntity
  8
_U+30EC_U+30A4_U+30E4_U+30FC 1
 62
    18
420
   262144
370
    35
100
AcDbVertex
100
AcDb2dVertex
 10
83.55900449380283
 20
-65.88224093234331
 30
0.0
  0
VERTEX
  5
57
330
52
100
AcDbEntity
  8
_U+30EC_U+30A4_U+30E4_U+30FC 1
 62
    18
420
   262144
370
    35
100
AcDbVertex
100
AcDb2dVertex
 10
83.55900449380283
 20
-57.76835204548289
 30
0.0
  0
VERTEX
  5
58
330
52
100
AcDbEntity
  8
_U+30EC_U+30A4_U+30E4_U+30FC 1
 62
    18
420
   262144
370
    35
100
AcDbVertex
100
AcDb2dVertex
 10
85.32289338225075
 20
-57.76835204548289
 30
0.0
  0
SEQEND
  5
59
330
52
100
AcDbEntity
  8
_U+30EC_U+30A4_U+30E4_U+30FC 1
 62
    18
420
   262144
370
    35
  0
ENDBLK
  5
4C
330
49
100
AcDbEntity
  8
0
100
AcDbBlockEnd
  0
BLOCK
  5
4F
330
4D
100
AcDbEntity
  8
0
100
AcDbBlockBegin
  2
block 4
 70
     0
 10
0.0
 20
0.0
 30
0.0
  3
block 4
  1

  0
SPLINE
  5
51
330
4D
100
AcDbEntity
  8
_U+30EC_U+30A4_U+30E4_U+30FC 1
 62
    18
420
   262144
370
    35
100
AcDbSpline
210
0.0
220
0.0
230
1.0
 70
    11
 71
     3
 72
   152
 73
   148
 74
     0
 42
0.0000000001
 43
0.0000000001
 12
1.0
 22
0.0
 32
0.0
 13
1.0
 23
0.0
 33
0.0
 40
0.0
 40
0.0
 40
0.0
 40
0.0
 40
1.0
 40
1.0
 40
1.0
 40
2.0
 40
2.0
 40
2.0
 40
3.0
 40
3.0
 40
3.0
 40
4.0
 40
4.0
 40
4.0
 40
5.0
 40
5.0
 40
5.0
 40
6.0
 40
6.0
 40
6.0
 40
7.0
 40
7.0
 40
7.0
 40
8.0
 40
8.0
 40
8.0
 40
9.0
 40
9.0
 40
9.0
 40
10.0
 40
10.0
 40
10.0
 40
11.0
 40
11.0
 40
11.0
 40
12.0
 40
12.0
 40
12.0
 40
13.0
 40
13.0
 40
13.0
 40
14.0
 40
14.0
 40
14.0
 40
15.0
 40
15.0
 40
15.0
 40
16.0
 40
16.0
 40
16.0
 40
17.0
 40
17.0
 40
17.0
 40
18.0
 40
18.0
 40
18.0
 40
19.0
 40
19.0
 40
19.0
 40
20.0
 40
20.0
 40
20.0
 40
21.0
 40
21.0
 40
21.0
 40
22.0
 40
22.0
 40
22.0
 40
23.0
 40
23.0
 40
23.0
 40
24.0
 40
24.0
 40
24.0
 40
25.0
 40
25.0
 40
25.0
 40
26.0
 40
26.0
 40
26.0
 40
27.0
 40
27.0
 40
27.0
 40
28.0
 40
28.0
 40
28.0
 40
29.0
 40
29.0
 40
29.0
 40
30.0
 40
30.0
 40
30.0
 40
31.0
 40
31.0
 40
31.0
 40
32.0
 40
32.0
 40
32.0
 40
33.0
 40
33.0
 40
33.0
 40
34.0
 40
34.0
 40
34.0
 40
35.0
 40
35.0
 40
35.0
 40
36.0
 40
36.0
 40
36.0
 40
37.0
 40
37.0
 40
37.0
 40
38.0
 40
38.0
 40
38.0
 40
39.0
 40
39.0
 40
39.0
 40
40.0
 40
40.0
 40
40.0
 40
41.0
 40
41.0
 40
41.0
 40
42.0
 40
42.0
 40
42.0
 40
43.0
 40
43.0
 40
43.0
 40
44.0
 40
44.0
 40
44.0
 40
45.0
 40
45.0
 40
45.0
 40
46.0
 40
46.0
 40
46.0
 40
47.0
 40
47.0
 40
47.0
 40
48.0
 40
48.0
 40
48.0
 40
49.0
 40
49.0
 40
49.0
 40
49.0
 10
77.20900449539033
 20
-21.49104441701967
 30
0.0
 10
77.20900449539033
 20
-21.49104441701967
 30
0.0
 10
90.73215622879883
 20
-21.49104441701967
 30
0.0
 10
90.73215622879883
 20
-21.49104441701967
 30
0.0
 10
90.73215622879883
 20
-21.49104441701967
 30
0.0
 10
90.73215622879883
 20
-26.78271108236342
 30
0.0
 10
90.73215622879883
 20
-26.78271108236342
 30
0.0
 10
91.03053379559164
 20
-26.7882447669866
 30
0.0
 10
92.15948082018463
 20
-26.84439982339617
 30
0.0
 10
93.0840044914216
 20
-27.72343746830445
 30
0.0
 10
93.28785725083786
 20
-27.91726715304332
 30
0.0
 10
93.84975232448211
 20
-28.46654456447284
 30
0.0
 10
94.02474164328602
 20
-29.36974094147143
 30
0.0
 10
94.3088651275086
 20
-30.83621043030837
 30
0.0
 10
93.32258811969854
 20
-31.9430550141788
 30
0.0
 10
93.20160067262591
 20
-32.07437774770717
 30
0.0
 10
92.29310746131875
 20
-33.06055786220671
 30
0.0
 10
91.09098445543438
 20
-33.12483042485341
 30
0.0
 10
90.84974164407977
 20
-33.13271108077592
 30
0.0
 10
90.84974164407977
 20
-33.13271108077592
 30
0.0
 10
90.73215622879883
 20
-35.83732635516487
 30
0.0
 10
90.73215622879883
 20
-35.83732635516487
 30
0.0
 10
90.73215622879883
 20
-35.83732635516487
 30
0.0
 10
86.7340044930091
 20
-35.83732635516487
 30
0.0
 10
86.7340044930091
 20
-35.83732635516487
 30
0.0
 10
86.7340044930091
 20
-35.83732635516487
 30
0.0
 10
86.85160067421342
 20
-37.01325586943794
 30
0.0
 10
86.85160067421342
 20
-37.01325586943794
 30
0.0
 10
86.85160067421342
 20
-37.01325586943794
 30
0.0
 10
90.73215622879883
 20
-37.01325586943794
 30
0.0
 10
90.73215622879883
 20
-37.01325586943794
 30
0.0
 10
90.73215622879883
 20
-37.01325586943794
 30
0.0
 10
90.84974164407977
 20
-39.48270031326503
 30
0.0
 10
90.84974164407977
 20
-39.48270031326503
 30
0.0
 10
92.77425810952745
 20
-39.71686991295149
 30
0.0
 10
94.20115206397759
 20
-40.24296829131931
 30
0.0
 10
95.11247671313669
 20
-40.6586298275381
 30
0.0
 10
96.21962274286207
 20
-41.16360546421199
 30
0.0
 10
96.72953993837262
 20
-41.580235933536
 30
0.0
 10
96.96456004600701
 20
-42.18733711950076
 30
0.0
 10
97.23763769283
 20
-42.89276348379923
 30
0.0
 10
97.02280369155451
 20
-43.55376964818476
 30
0.0
 10
96.96456004600701
 20
-43.71603364554002
 30
0.0
 10
96.60193144841429
 20
-44.72622176920241
 30
0.0
 10
95.48244767048236
 20
-45.4210975285773
 30
0.0
 10
94.14233782449034
 20
-45.47992253398795
 30
0.0
 10
94.14233782449034
 20
-45.47992253398795
 30
0.0
 10
92.2608527548381
 20
-44.77436697860878
 30
0.0
 10
92.2608527548381
 20
-44.77436697860878
 30
0.0
 10
92.48299681809637
 20
-44.68306118232626
 30
0.0
 10
94.17041535269513
 20
-43.97201500601748
 30
0.0
 10
94.14233782449034
 20
-43.12807427136519
 30
0.0
 10
94.11614433287905
 20
-42.34070846413473
 30
0.0
 10
92.59889198340484
 20
-41.50234447779918
 30
0.0
 10
90.26178226990493
 20
-41.36418538291727
 30
0.0
 10
90.26178226990493
 20
-41.36418538291727
 30
0.0
 10
91.20251942176935
 20
-57.47436697543377
 30
0.0
 10
91.20251942176935
 20
-57.47436697543377
 30
0.0
 10
91.20251942176935
 20
-57.47436697543377
 30
0.0
 10
88.73307497794227
 20
-57.94474093432768
 30
0.0
 10
88.73307497794227
 20
-57.94474093432768
 30
0.0
 10
88.72923154329153
 20
-61.67471351843751
 30
0.0
 10
88.42771032686844
 20
-64.67833078317597
 30
0.0
 10
88.14511560376742
 20
-66.76418537656727
 30
0.0
 10
87.7941357352842
 20
-69.35476799039445
 30
0.0
 10
87.44084119327184
 20
-70.76231558051023
 30
0.0
 10
87.08678227069868
 20
-73.81974093035893
 30
0.0
 10
86.7653010323079
 20
-76.595874233837
 30
0.0
 10
86.6570604385307
 20
-78.88543086371708
 30
0.0
 10
86.61640831180476
 20
-80.4049225252567
 30
0.0
 10
86.61640831180476
 20
-80.4049225252567
 30
0.0
 10
83.08863053490893
 20
-80.4049225252567
 30
0.0
 10
83.08863053490893
 20
-80.4049225252567
 30
0.0
 10
83.08863053490893
 20
-80.4049225252567
 30
0.0
 10
83.55900449380283
 20
-76.05400377770076
 30
0.0
 10
83.55900449380283
 20
-76.05400377770076
 30
0.0
 10
83.04943180784082
 20
-76.01480505063265
 30
0.0
 10
82.5398698878022
 20
-75.97560632356455
 30
0.0
 10
82.03029720184018
 20
-75.93640759649644
 30
0.0
 10
81.40313910059723
 20
-75.03486917170012
 30
0.0
 10
80.77598099935427
 20
-74.13331998098042
 30
0.0
 10
80.14882289811133
 20
-73.23178155618409
 30
0.0
 10
79.94615439026812
 20
-71.39575021509037
 30
0.0
 10
79.81222630327903
 20
-69.38941273186799
 30
0.0
 10
79.79604512042175
 20
-67.23455933546117
 30
0.0
 10
79.76927026894732
 20
-63.66999439833691
 30
0.0
 10
80.0704362098985
 20
-60.46631397921595
 30
0.0
 10
80.50160067580092
 20
-57.70955933784243
 30
0.0
 10
80.50160067580092
 20
-57.70955933784243
 30
0.0
 10
77.20900449539033
 20
-57.5919631566381
 30
0.0
 10
77.20900449539033
 20
-57.5919631566381
 30
0.0
 10
77.20900449539033
 20
-57.5919631566381
 30
0.0
 10
77.20900449539033
 20
-42.7752964936756
 30
0.0
 10
77.20900449539033
 20
-42.7752964936756
 30
0.0
 10
77.20900449539033
 20
-42.7752964936756
 30
0.0
 10
74.15160067738842
 20
-43.59844823025909
 30
0.0
 10
74.15160067738842
 20
-43.59844823025909
 30
0.0
 10
73.47106512797087
 20
-43.64341749226499
 30
0.0
 10
72.93863638664891
 20
-44.0703186525044
 30
0.0
 10
72.85807498191102
 20
-44.53918538212352
 30
0.0
 10
72.75349480208689
 20
-45.14783686105664
 30
0.0
 10
73.38855509109914
 20
-45.95408609791563
 30
0.0
 10
74.38678227387368
 20
-45.95029649288185
 30
0.0
 10
74.38678227387368
 20
-45.95029649288185
 30
0.0
 10
73.32844894080492
 20
-48.30214475550461
 30
0.0
 10
73.32844894080492
 20
-48.30214475550461
 30
0.0
 10
73.13803205378113
 20
-48.25253538051701
 30
0.0
 10
70.73531480313397
 20
-47.58664148691178
 30
0.0
 10
70.15344894159867
 20
-45.47992253398795
 30
0.0
 10
70.06983001461762
 20
-45.17715247045144
 30
0.0
 10
69.88706769912513
 20
-44.48018812193861
 30
0.0
 10
70.15344894159867
 20
-43.71603364554002
 30
0.0
 10
70.6107746013422
 20
-42.4041305188335
 30
0.0
 10
72.05279467815726
 20
-41.86698630306609
 30
0.0
 10
74.03400449618408
 20
-41.12900378643201
 30
0.0
 10
74.74174553401171
 20
-40.86537862034665
 30
0.0
 10
75.73702285377699
 20
-40.54479095359738
 30
0.0
 10
76.97382289890508
 20
-40.30585204984852
 30
0.0
 10
76.97382289890508
 20
-40.30585204984852
 30
0.0
 10
78.14974164725476
 20
-37.2484482318466
 30
0.0
 10
78.14974164725476
 20
-37.2484482318466
 30
0.0
 10
78.14974164725476
 20
-37.2484482318466
 30
0.0
 10
81.55993400886966
 20
-37.13085205064227
 30
0.0
 10
81.55993400886966
 20
-37.13085205064227
 30
0.0
 10
81.55993400886966
 20
-37.13085205064227
 30
0.0
 10
81.6775194241506
 20
-35.95493330229258
 30
0.0
 10
81.6775194241506
 20
-35.95493330229258
 30
0.0
 10
81.6775194241506
 20
-35.95493330229258
 30
0.0
 10
78.14974164725476
 20
-35.83732635516487
 30
0.0
 10
78.14974164725476
 20
-35.83732635516487
 30
0.0
 10
78.14974164725476
 20
-35.83732635516487
 30
0.0
 10
76.97382289890508
 20
-34.89659996922384
 30
0.0
 10
76.97382289890508
 20
-34.89659996922384
 30
0.0
 10
76.97382289890508
 20
-34.89659996922384
 30
0.0
 10
76.97382289890508
 20
-33.0151041336482
 30
0.0
 10
76.97382289890508
 20
-33.0151041336482
 30
0.0
 10
76.63086364334846
 20
-32.89642059418134
 30
0.0
 10
75.969254587253
 20
-32.61189877079327
 30
0.0
 10
75.44511560694242
 20
-31.95677080057945
 30
0.0
 10
74.69434317331935
 20
-31.01836985409096
 30
0.0
 10
74.39074413368171
 20
-29.5259975535743
 30
0.0
 10
75.09233782925284
 20
-28.31140760840268
 30
0.0
 10
75.75536798723596
 20
-27.16356638825778
 30
0.0
 10
76.96826768243511
 20
-26.86606086125968
 30
0.0
 10
77.20900449539033
 20
-26.81210205322195
 30
0.0
 10
77.20900449539033
 20
-25.03841617448786
 30
0.0
 10
77.20900449539033
 20
-23.26473029575376
 30
0.0
 10
77.20900449539033
 20
-21.49104441701967
 30
0.0
  0
ENDBLK
  5
50
330
4D
100
AcDbEntity
  8
0
100
AcDbBlockEnd
  0
BLOCK
  5
5C
330
5A
100
AcDbEntity
  8
0
100
AcDbBlockBegin
  2
block 5
 70
     0
 10
0.0
 20
0.0
 30
0.0
  3
block 5
  1

  0
SPLINE
  5
5E
330
5A
100
AcDbEntity
  8
_U+30EC_U+30A4_U+30E4_U+30FC 1
 62
    18
420
   262144
370
    35
100
AcDbSpline
210
0.0
220
0.0
230
1.0
 70
    11
 71
     3
 72
   137
 73
   133
 74
     0
 42
0.0000000001
 43
0.0000000001
 12
1.0
 22
0.0
 32
0.0
 13
1.0
 23
0.0
 33
0.0
 40
0.0
 40
0.0
 40
0.0
 40
0.0
 40
1.0
 40
1.0
 40
1.0
 40
2.0
 40
2.0
 40
2.0
 40
3.0
 40
3.0
 40
3.0
 40
4.0
 40
4.0
 40
4.0
 40
5.0
 40
5.0
 40
5.0
 40
6.0
 40
6.0
 40
6.0
 40
7.0
 40
7.0
 40
7.0
 40
8.0
 40
8.0
 40
8.0
 40
9.0
 40
9.0
 40
9.0
 40
10.0
 40
10.0
 40
10.0
 40
11.0
 40
11.0
 40
11.0
 40
12.0
 40
12.0
 40
12.0
 40
13.0
 40
13.0
 40
13.0
 40
14.0
 40
14.0
 40
14.0
 40
15.0
 40
15.0
 40
15.0
 40
16.0
 40
16.0
 40
16.0
 40
17.0
 40
17.0
 40
17.0
 40
18.0
 40
18.0
 40
18.0
 40
19.0
 40
19.0
 40
19.0
 40
20.0
 40
20.0
 40
20.0
 40
21.0
 40
21.0
 40
21.0
 40
22.0
 40
22.0
 40
22.0
 40
23.0
 40
23.0
 40
23.0
 40
24.0
 40
24.0
 40
24.0
 40
25.0
 40
25.0
 40
25.0
 40
26.0
 40
26.0
 40
26.0
 40
27.0
 40
27.0
 40
27.0
 40
28.0
 40
28.0
 40
28.0
 40
29.0
 40
29.0
 40
29.0
 40
30.0
 40
30.0
 40
30.0
 40
31.0
 40
31.0
 40
31.0
 40
32.0
 40
32.0
 40
32.0
 40
33.0
 40
33.0
 40
33.0
 40
34.0
 40
34.0
 40
34.0
 40
35.0
 40
35.0
 40
35.0
 40
36.0
 40
36.0
 40
36.0
 40
37.0
 40
37.0
 40
37.0
 40
38.0
 40
38.0
 40
38.0
 40
39.0
 40
39.0
 40
39.0
 40
40.0
 40
40.0
 40
40.0
 40
41.0
 40
41.0
 40
41.0
 40
42.0
 40
42.0
 40
42.0
 40
43.0
 40
43.0
 40
43.0
 40
44.0
 40
44.0
 40
44.0
 40
44.0
 10
115.6285827048985
 20
-24.48966091034282
 30
0.0
 10
115.6285827048985
 20
-24.48966091034282
 30
0.0
 10
116.8045014532482
 20
-21.19705396400886
 30
0.0
 10
116.8045014532482
 20
-21.19705396400886
 30
0.0
 10
116.8045014532482
 20
-21.19705396400886
 30
0.0
 10
129.0341382571027
 20
-25.43038729628385
 30
0.0
 10
129.0341382571027
 20
-25.43038729628385
 30
0.0
 10
129.0341382571027
 20
-25.43038729628385
 30
0.0
 10
129.0341382571027
 20
-27.89983174011094
 30
0.0
 10
129.0341382571027
 20
-27.89983174011094
 30
0.0
 10
129.0341382571027
 20
-27.89983174011094
 30
0.0
 10
128.3285827017235
 20
-29.66372062855885
 30
0.0
 10
128.3285827017235
 20
-29.66372062855885
 30
0.0
 10
128.5751223473867
 20
-29.80865148925396
 30
0.0
 10
129.1932263070575
 20
-30.21652926286076
 30
0.0
 10
129.5633049236371
 20
-31.01604979760011
 30
0.0
 10
130.1024516011553
 20
-32.18083658116308
 30
0.0
 10
129.6898906508732
 20
-33.25807487570714
 30
0.0
 10
129.6220976312775
 20
-33.42669076786333
 30
0.0
 10
129.1059469661234
 20
-34.71046253674812
 30
0.0
 10
127.9142238422351
 20
-35.13241137222749
 30
0.0
 10
127.7406125616253
 20
-35.19057965631126
 30
0.0
 10
127.7406125616253
 20
-35.19057965631126
 30
0.0
 10
125.9767236731774
 20
-35.19057965631126
 30
0.0
 10
125.9767236731774
 20
-35.19057965631126
 30
0.0
 10
125.9767236731774
 20
-35.19057965631126
 30
0.0
 10
124.8008049248277
 20
-38.89474632205188
 30
0.0
 10
124.8008049248277
 20
-38.89474632205188
 30
0.0
 10
124.8008049248277
 20
-38.89474632205188
 30
0.0
 10
120.4498754113484
 20
-37.30724632244875
 30
0.0
 10
120.4498754113484
 20
-37.30724632244875
 30
0.0
 10
120.4498754113484
 20
-37.30724632244875
 30
0.0
 10
119.9795014524545
 20
-38.89474632205188
 30
0.0
 10
119.9795014524545
 20
-38.89474632205188
 30
0.0
 10
119.9795014524545
 20
-38.89474632205188
 30
0.0
 10
123.5072792293503
 20
-40.482246321655
 30
0.0
 10
123.5072792293503
 20
-40.482246321655
 30
0.0
 10
123.5072792293503
 20
-40.482246321655
 30
0.0
 10
123.1545014516607
 20
-41.65817583592808
 30
0.0
 10
123.1545014516607
 20
-41.65817583592808
 30
0.0
 10
123.4609857587673
 20
-41.88519686248265
 30
0.0
 10
125.0393562553345
 20
-43.00664003847182
 30
0.0
 10
127.0350570062461
 20
-42.5989129877925
 30
0.0
 10
127.5200295572588
 20
-42.4998341948214
 30
0.0
 10
128.9285891441733
 20
-42.21206106256912
 30
0.0
 10
129.6220976312775
 20
-40.95262028054891
 30
0.0
 10
130.2519149155981
 20
-39.80884857944596
 30
0.0
 10
130.058462038178
 20
-38.28781739086138
 30
0.0
 10
129.1517236723836
 20
-37.07206472596349
 30
0.0
 10
129.6612963583457
 20
-36.83688312947824
 30
0.0
 10
130.1708582783843
 20
-36.60169076706958
 30
0.0
 10
130.6804309643463
 20
-36.36650917058433
 30
0.0
 10
132.3217605809064
 20
-38.2994445881241
 30
0.0
 10
132.6198689996145
 20
-40.86132525018979
 30
0.0
 10
131.5035827009298
 20
-42.5989129877925
 30
0.0
 10
130.230512259896
 20
-44.580553442755
 30
0.0
 10
127.6288192131289
 20
-44.69469376255068
 30
0.0
 10
127.1526531874505
 20
-44.71557965393001
 30
0.0
 10
125.4173478256067
 20
-44.79170549823063
 30
0.0
 10
124.1122487624836
 20
-44.10518409540747
 30
0.0
 10
123.5660827029141
 20
-43.77484250206558
 30
0.0
 10
123.5660827029141
 20
-43.77484250206558
 30
0.0
 10
121.2730271479319
 20
-55.65169076230709
 30
0.0
 10
121.2730271479319
 20
-55.65169076230709
 30
0.0
 10
121.2730271479319
 20
-55.65169076230709
 30
0.0
 10
118.6859865229004
 20
-58.12113520613417
 30
0.0
 10
118.6859865229004
 20
-58.12113520613417
 30
0.0
 10
119.1614527635585
 20
-59.56009776070607
 30
0.0
 10
119.8017560572624
 20
-61.61467734664534
 30
0.0
 10
120.4498754113484
 20
-64.11835742685709
 30
0.0
 10
121.3375473268165
 20
-67.54743321810051
 30
0.0
 10
121.8883965630612
 20
-69.67538257195221
 30
0.0
 10
122.096168118592
 20
-72.46742791020276
 30
0.0
 10
122.227620043201
 20
-74.23396521580497
 30
0.0
 10
122.2598855156051
 20
-76.77895414406954
 30
0.0
 10
121.7433903409024
 20
-79.87576124168402
 30
0.0
 10
121.7433903409024
 20
-79.87576124168402
 30
0.0
 10
118.2156125640065
 20
-80.6989129782675
 30
0.0
 10
118.2156125640065
 20
-80.6989129782675
 30
0.0
 10
118.5584533944059
 20
-78.58592825792987
 30
0.0
 10
118.79899642074
 20
-75.85832773710027
 30
0.0
 10
118.5683903416961
 20
-72.70262027261141
 30
0.0
 10
118.2868829768577
 20
-68.85045445800914
 30
0.0
 10
117.4001153989543
 20
-65.68511149208497
 30
0.0
 10
116.5693198567629
 20
-63.41280187147792
 30
0.0
 10
116.5693198567629
 20
-63.41280187147792
 30
0.0
 10
114.805430968315
 20
-57.53317583195933
 30
0.0
 10
114.805430968315
 20
-57.53317583195933
 30
0.0
 10
114.805430968315
 20
-57.53317583195933
 30
0.0
 10
112.4535827056923
 20
-57.76835742844459
 30
0.0
 10
112.4535827056923
 20
-57.76835742844459
 30
0.0
 10
111.4054877657688
 20
-61.64506954837928
 30
0.0
 10
110.8102936910749
 20
-65.01378080716708
 30
0.0
 10
110.4545014548357
 20
-67.64613520375292
 30
0.0
 10
110.0395720014075
 20
-70.7160059610421
 30
0.0
 10
109.9097349653072
 20
-73.08412153390927
 30
0.0
 10
109.8665420806609
 20
-73.99613520216542
 30
0.0
 10
109.7457268883625
 20
-76.54692696313796
 30
0.0
 10
109.7768619388105
 20
-78.807986193801
 30
0.0
 10
109.8665420806609
 20
-80.6989129782675
 30
0.0
 10
109.8665420806609
 20
-80.6989129782675
 30
0.0
 10
106.4563604849694
 20
-80.6989129782675
 30
0.0
 10
106.4563604849694
 20
-80.6989129782675
 30
0.0
 10
106.4563604849694
 20
-80.6989129782675
 30
0.0
 10
106.4563604849694
 20
-73.17298346558194
 30
0.0
 10
106.4563604849694
 20
-73.17298346558194
 30
0.0
 10
106.5487105758208
 20
-70.58460786604999
 30
0.0
 10
106.791288361676
 20
-67.70143975221457
 30
0.0
 10
107.2795014556295
 20
-64.588731385751
 30
0.0
 10
107.6672577184177
 20
-62.11648780184215
 30
0.0
 10
108.1570211053396
 20
-59.83705113994998
 30
0.0
 10
108.6906125663878
 20
-57.76835742844459
 30
0.0
 10
108.6906125663878
 20
-57.76835742844459
 30
0.0
 10
105.7508049295902
 20
-55.76928694351141
 30
0.0
 10
105.7508049295902
 20
-55.76928694351141
 30
0.0
 10
105.7508049295902
 20
-55.76928694351141
 30
0.0
 10
110.6896938172444
 20
-38.89474632205188
 30
0.0
 10
110.6896938172444
 20
-38.89474632205188
 30
0.0
 10
108.8585071416768
 20
-36.87966690903568
 30
0.0
 10
107.9682191068245
 20
-34.93319872579292
 30
0.0
 10
107.5146938180381
 20
-33.66188313027199
 30
0.0
 10
106.8183431271586
 20
-31.70987049648265
 30
0.0
 10
106.0119969969891
 20
-29.44952181676345
 30
0.0
 10
107.1619160403485
 20
-28.13502410251959
 30
0.0
 10
108.2449571676005
 20
-26.89698597620149
 30
0.0
 10
110.4265423517882
 20
-27.2259279995025
 30
0.0
 10
110.9248754137296
 20
-27.31188313185949
 30
0.0
 10
110.9588957316465
 20
-27.05841023153223
 30
0.0
 10
111.1535651584099
 20
-25.80648406403922
 30
0.0
 10
112.2771938168475
 20
-24.96002410331334
 30
0.0
 10
113.7515224297602
 20
-23.84936838256235
 30
0.0
 10
115.4924260717674
 20
-24.44078361814584
 30
0.0
 10
115.6285827048985
 20
-24.48966091034282
 30
0.0
  0
SPLINE
  5
5F
330
5A
100
AcDbEntity
  8
_U+30EC_U+30A4_U+30E4_U+30FC 1
 62
    18
420
   262144
370
    35
100
AcDbSpline
210
0.0
220
0.0
230
1.0
 70
    11
 71
     3
 72
    32
 73
    28
 74
     0
 42
0.0000000001
 43
0.0000000001
 12
1.0
 22
0.0
 32
0.0
 13
1.0
 23
0.0
 33
0.0
 40
0.0
 40
0.0
 40
0.0
 40
0.0
 40
1.0
 40
1.0
 40
1.0
 40
2.0
 40
2.0
 40
2.0
 40
3.0
 40
3.0
 40
3.0
 40
4.0
 40
4.0
 40
4.0
 40
5.0
 40
5.0
 40
5.0
 40
6.0
 40
6.0
 40
6.0
 40
7.0
 40
7.0
 40
7.0
 40
8.0
 40
8.0
 40
8.0
 40
9.0
 40
9.0
 40
9.0
 40
9.0
 10
115.8637643013838
 20
-35.42576125279651
 30
0.0
 10
115.8637643013838
 20
-35.42576125279651
 30
0.0
 10
112.8063604833819
 20
-34.13224632324251
 30
0.0
 10
112.8063604833819
 20
-34.13224632324251
 30
0.0
 10
112.8063604833819
 20
-34.13224632324251
 30
0.0
 10
114.3350570094211
 20
-30.95724632403626
 30
0.0
 10
114.3350570094211
 20
-30.95724632403626
 30
0.0
 10
113.9574960760845
 20
-30.88517923285418
 30
0.0
 10
113.398400142522
 20
-30.73012840417116
 30
0.0
 10
112.8063604833819
 20
-30.36927618393802
 30
0.0
 10
111.9746067740086
 20
-29.86233038328351
 30
0.0
 10
111.5038344759492
 20
-29.20883883342518
 30
0.0
 10
111.2776531914192
 20
-28.84057965789875
 30
0.0
 10
110.8269270427146
 20
-28.88510751704561
 30
0.0
 10
109.8118404239091
 20
-29.04816819273184
 30
0.0
 10
109.396168121767
 20
-29.78132757568657
 30
0.0
 10
108.9711832958912
 20
-30.5308942258898
 30
0.0
 10
109.4009804895229
 20
-31.47383839204947
 30
0.0
 10
110.1017236771461
 20
-32.95632757489282
 30
0.0
 10
110.4734279481578
 20
-33.74271368309466
 30
0.0
 10
111.0627653605267
 20
-34.82509808901981
 30
0.0
 10
111.9832087467984
 20
-36.01373139289475
 30
0.0
 10
111.9832087467984
 20
-36.01373139289475
 30
0.0
 10
115.2758049272089
 20
-36.95446854475917
 30
0.0
 10
115.2758049272089
 20
-36.95446854475917
 30
0.0
 10
115.2758049272089
 20
-36.95446854475917
 30
0.0
 10
115.8637643013838
 20
-35.42576125279651
 30
0.0
 10
115.8637643013838
 20
-35.42576125279651
 30
0.0
  0
ENDBLK
  5
5D
330
5A
100
AcDbEntity
  8
0
100
AcDbBlockEnd
  0
ENDSEC
  0
SECTION
  2
ENTITIES
  0
INSERT
  5
42
330
1F
100
AcDbEntity
  8
_U+30EC_U+30A4_U+30E4_U+30FC 1
100
AcDbBlockReference
  2
block 2
 10
0.0
 20
0.0
 30
0.0
  0
MTEXT
  5
48
330
1F
100
AcDbEntity
  8
_U+30EC_U+30A4_U+30E4_U+30FC 1
 62
    18
420
   262144
100
AcDbMText
 10
41.82108838840985
 20
-25.6423556977964
 30
0.0
 40
2.018103264861876
 41
0.0
 46
0.0
 71
     7
 72
     1
  1
\fTahoma|b1|i0|c0|p34;\W1.12724;PEASER
 11
0.9251358870555454
 21
-0.3796361290524773
 31
0.0
 73
     1
 44
1.0
  0
INSERT
  5
4A
330
1F
100
AcDbEntity
  8
_U+30EC_U+30A4_U+30E4_U+30FC 1
100
AcDbBlockReference
  2
block 3
 10
0.0
 20
0.0
 30
0.0
  0
INSERT
  5
5B
330
1F
100
AcDbEntity
  8
_U+30EC_U+30A4_U+30E4_U+30FC 1
100
AcDbBlockReference
  2
block 5
 10
0.0
 20
0.0
 30
0.0
  0
MTEXT
  5
60
330
1F
100
AcDbEntity
  8
_U+30EC_U+30A4_U+30E4_U+30FC 1
 62
    18
420
   262144
100
AcDbMText
 10
78.0730530332097
 20
-27.24673666527725
 30
0.0
 40
2.018103264861876
 41
0.0
 46
0.0
 71
     7
 72
     1
  1
\fTahoma|b1|i0|c0|p34;\W1.12724;PEASER
 11
0.9251358870555454
 21
-0.3796361290524773
 31
0.0
 73
     1
 44
1.0
  0
MTEXT
  5
61
330
1F
100
AcDbEntity
  8
_U+30EC_U+30A4_U+30E4_U+30FC 1
 62
    18
420
   262144
100
AcDbMText
 10
115.0179234799591
 20
-26.74657451815191
 30
0.0
 40
2.018103203527442
 41
0.0
 46
0.0
 71
     7
 72
     1
  1
\fTahoma|b1|i0|c0|p34;\W1.12724;PEASER
 11
0.7765139380479624
 21
-0.6301000746050148
 31
0.0
 73
     1
 44
1.0
  0
ENDSEC
  0
SECTION
  2
OBJECTS
  0
DICTIONARY
  5
C
330
0
100
AcDbDictionary
281
     1
  3
ACAD_GROUP
350
D
  3
ACAD_LAYOUT
350
1A
  3
ACAD_MATERIAL
350
3B
  3
ACAD_MLEADERSTYLE
350
63
  3
ACAD_MLINESTYLE
350
17
  3
ACAD_PLOTSETTINGS
350
19
  3
ACAD_PLOTSTYLENAME
350
E
  3
ACAD_TABLESTYLE
350
62
  3
ACAD_VISUALSTYLE
350
2A
  0
SUN
  5
3F
330
29
100
AcDbSun
 90
        1
290
     0
 63
     7
421
 16777215
 40
1.0
291
     1
 91
  2455826
 92
 54000000
292
     0
 70
     2
 71
   256
280
     1
  0
DICTIONARY
  5
D
102
{ACAD_REACTORS
330
C
102
}
330
C
100
AcDbDictionary
281
     1
  0
DICTIONARY
  5
1A
102
{ACAD_REACTORS
330
C
102
}
330
C
100
AcDbDictionary
281
     1
  3
Layout1
350
1E
  3
Layout2
350
26
  3
Model
350
22
  0
DICTIONARY
  5
3B
102
{ACAD_REACTORS
330
C
102
}
330
C
100
AcDbDictionary
281
     1
  3
ByBlock
350
3D
  3
ByLayer
350
3C
  3
Global
350
3E
  0
DICTIONARY
  5
63
102
{ACAD_REACTORS
330
C
102
}
330
C
100
AcDbDictionary
281
     1
  0
DICTIONARY
  5
17
102
{ACAD_REACTORS
330
C
102
}
330
C
100
AcDbDictionary
281
     1
  3
Standard
350
18
  0
DICTIONARY
  5
19
102
{ACAD_REACTORS
330
C
102
}
330
C
100
AcDbDictionary
281
     1
  0
ACDBDICTIONARYWDFLT
  5
E
102
{ACAD_REACTORS
330
C
102
}
330
C
100
AcDbDictionary
281
     1
  3
Normal
350
F
100
AcDbDictionaryWithDefault
340
F
  0
DICTIONARY
  5
62
102
{ACAD_REACTORS
330
C
102
}
330
C
100
AcDbDictionary
281
     1
  0
DICTIONARY
  5
2A
102
{ACAD_REACTORS
330
C
102
}
330
C
100
AcDbDictionary
281
     1
  3
2dWireframe
350
2F
  3
3D Hidden
350
31
  3
3dWireframe
350
30
  3
Basic
350
32
  3
Brighten
350
36
  3
ColorChange
350
3A
  3
Conceptual
350
34
  3
Dim
350
35
  3
Facepattern
350
39
  3
Flat
350
2B
  3
FlatWithEdges
350
2C
  3
Gouraud
350
2D
  3
GouraudWithEdges
350
2E
  3
Linepattern
350
38
  3
Realistic
350
33
  3
Thicken
350
37
  0
LAYOUT
  5
1E
102
{ACAD_REACTORS
330
1A
102
}
330
1A
100
AcDbPlotSettings
  1

  2
none_device
  4

  6

 40
0.0
 41
0.0
 42
0.0
 43
0.0
 44
0.0
 45
0.0
 46
0.0
 47
0.0
 48
0.0
 49
0.0
140
0.0
141
0.0
142
1.0
143
1.0
 70
   688
 72
     0
 73
     0
 74
     5
  7

 75
    16
 76
     0
 77
     2
 78
   300
147
1.0
148
0.0
149
0.0
100
AcDbLayout
  1
Layout1
 70
     1
 71
     1
 10
0.0
 20
0.0
 11
12.0
 21
9.0
 12
0.0
 22
0.0
 32
0.0
 14
1.000000000000000E+20
 24
1.000000000000000E+20
 34
1.000000000000000E+20
 15
-1.000000000000000E+20
 25
-1.000000000000000E+20
 35
-1.000000000000000E+20
146
0.0
 13
0.0
 23
0.0
 33
0.0
 16
1.0
 26
0.0
 36
0.0
 17
0.0
 27
1.0
 37
0.0
 76
     0
330
1B
  0
LAYOUT
  5
26
102
{ACAD_REACTORS
330
1A
102
}
330
1A
100
AcDbPlotSettings
  1

  2
none_device
  4

  6

 40
0.0
 41
0.0
 42
0.0
 43
0.0
 44
0.0
 45
0.0
 46
0.0
 47
0.0
 48
0.0
 49
0.0
140
0.0
141
0.0
142
1.0
143
1.0
 70
   688
 72
     0
 73
     0
 74
     5
  7

 75
    16
 76
     0
 77
     2
 78
   300
147
1.0
148
0.0
149
0.0
100
AcDbLayout
  1
Layout2
 70
     1
 71
     2
 10
0.0
 20
0.0
 11
0.0
 21
0.0
 12
0.0
 22
0.0
 32
0.0
 14
0.0
 24
0.0
 34
0.0
 15
0.0
 25
0.0
 35
0.0
146
0.0
 13
0.0
 23
0.0
 33
0.0
 16
1.0
 26
0.0
 36
0.0
 17
0.0
 27
1.0
 37
0.0
 76
     0
330
23
  0
LAYOUT
  5
22
102
{ACAD_REACTORS
330
1A
102
}
330
1A
100
AcDbPlotSettings
  1

  2
none_device
  4

  6

 40
0.0
 41
0.0
 42
0.0
 43
0.0
 44
0.0
 45
0.0
 46
0.0
 47
0.0
 48
0.0
 49
0.0
140
0.0
141
0.0
142
1.0
143
1.0
 70
  1712
 72
     0
 73
     0
 74
     0
  7

 75
     0
 76
     0
 77
     2
 78
   300
147
1.0
148
0.0
149
0.0
100
AcDbLayout
  1
Model
 70
     1
 71
     0
 10
0.0
 20
0.0
 11
12.0
 21
9.0
 12
0.0
 22
0.0
 32
0.0
 14
1.000000000000000E+20
 24
1.000000000000000E+20
 34
1.000000000000000E+20
 15
-1.000000000000000E+20
 25
-1.000000000000000E+20
 35
-1.000000000000000E+20
146
0.0
 13
0.0
 23
0.0
 33
0.0
 16
1.0
 26
0.0
 36
0.0
 17
0.0
 27
1.0
 37
0.0
 76
     0
330
1F
331
29
  0
MATERIAL
  5
3D
102
{ACAD_REACTORS
330
3B
102
}
330
3B
100
AcDbMaterial
  1
ByBlock
 72
     1
 94
      127
  0
MATERIAL
  5
3C
102
{ACAD_REACTORS
330
3B
102
}
330
3B
100
AcDbMaterial
  1
ByLayer
 72
     1
 94
      127
  0
MATERIAL
  5
3E
102
{ACAD_REACTORS
330
3B
102
}
330
3B
100
AcDbMaterial
  1
Global
 72
     1
 94
      127
  0
MLINESTYLE
  5
18
102
{ACAD_REACTORS
330
17
102
}
330
17
100
AcDbMlineStyle
  2
Standard
 70
     0
  3

 62
   256
 51
90.0
 52
90.0
 71
     2
 49
0.5
 62
   256
  6
BYLAYER
 49
-0.5
 62
   256
  6
BYLAYER
  0
ACDBPLACEHOLDER
  5
F
102
{ACAD_REACTORS
330
E
102
}
330
E
  0
VISUALSTYLE
  5
2F
102
{ACAD_REACTORS
330
2A
102
}
330
2A
100
AcDbVisualStyle
  2
2dWireframe
 70
     4
177
     2
291
     0
 71
     0
176
     1
 72
     2
176
     1
 73
     0
176
     1
 90
        0
176
     1
 40
-0.6
176
     1
 41
-30.0
176
     1
 62
     5
 63
     7
421
 16777215
176
     1
 74
     1
176
     1
 91
        4
176
     1
 64
     7
176
     1
 65
   257
176
     1
 75
     1
176
     1
175
     1
176
     1
 42
1.0
176
     1
 92
        0
176
     1
 66
   257
176
     1
 43
1.0
176
     1
 76
     1
176
     1
 77
     6
176
     1
 78
     2
176
     1
 67
     7
176
     1
 79
     5
176
     1
170
     0
176
     1
171
     0
176
     1
290
     0
176
     1
 93
        1
176
     1
 44
0.0
176
     1
173
     0
176
     1
  0
VISUALSTYLE
  5
31
102
{ACAD_REACTORS
330
2A
102
}
330
2A
100
AcDbVisualStyle
  2
3D Hidden
 70
     6
177
     2
291
     0
 71
     1
176
     1
 72
     2
176
     1
 73
     2
176
     1
 90
        0
176
     1
 40
-0.6
176
     1
 41
-30.0
176
     1
 62
     5
 63
     7
421
 16777215
176
     1
 74
     2
176
     1
 91
        2
176
     1
 64
     7
176
     1
 65
   257
176
     1
 75
     2
176
     1
175
     1
176
     1
 42
40.0
176
     1
 92
        0
176
     1
 66
   257
176
     1
 43
1.0
176
     1
 76
     1
176
     1
 77
     6
176
     1
 78
     2
176
     1
 67
     7
176
     1
 79
     3
176
     1
170
     0
176
     1
171
     0
176
     1
290
     0
176
     1
 93
        1
176
     1
 44
0.0
176
     1
173
     0
176
     1
  0
VISUALSTYLE
  5
30
102
{ACAD_REACTORS
330
2A
102
}
330
2A
100
AcDbVisualStyle
  2
3dWireframe
 70
     5
177
     2
291
     0
 71
     0
176
     1
 72
     2
176
     1
 73
     0
176
     1
 90
        0
176
     1
 40
-0.6
176
     1
 41
-30.0
176
     1
 62
     5
 63
     7
421
 16777215
176
     1
 74
     1
176
     1
 91
        4
176
     1
 64
     7
176
     1
 65
   257
176
     1
 75
     1
176
     1
175
     1
176
     1
 42
1.0
176
     1
 92
        0
176
     1
 66
   257
176
     1
 43
1.0
176
     1
 76
     1
176
     1
 77
     6
176
     1
 78
     2
176
     1
 67
     7
176
     1
 79
     5
176
     1
170
     0
176
     1
171
     0
176
     1
290
     0
176
     1
 93
        1
176
     1
 44
0.0
176
     1
173
     0
176
     1
  0
VISUALSTYLE
  5
32
102
{ACAD_REACTORS
330
2A
102
}
330
2A
100
AcDbVisualStyle
  2
Basic
 70
     7
177
     2
291
     1
 71
     1
176
     1
 72
     0
176
     1
 73
     1
176
     1
 90
        0
176
     1
 40
-0.6
176
     1
 41
-30.0
176
     1
 62
     5
 63
     7
421
 16777215
176
     1
 74
     0
176
     1
 91
        4
176
     1
 64
     7
176
     1
 65
   257
176
     1
 75
     1
176
     1
175
     1
176
     1
 42
1.0
176
     1
 92
        8
176
     1
 66
     7
176
     1
 43
1.0
176
     1
 76
     1
176
     1
 77
     6
176
     1
 78
     2
176
     1
 67
     7
176
     1
 79
     5
176
     1
170
     0
176
     1
171
     0
176
     1
290
     0
176
     1
 93
        1
176
     1
 44
0.0
176
     1
173
     0
176
     1
  0
VISUALSTYLE
  5
36
102
{ACAD_REACTORS
330
2A
102
}
330
2A
100
AcDbVisualStyle
  2
Brighten
 70
    12
177
     2
291
     1
 71
     2
176
     1
 72
     2
176
     1
 73
     0
176
     1
 90
        0
176
     1
 40
-0.6
176
     1
 41
-30.0
176
     1
 62
     5
 63
     7
421
 16777215
176
     1
 74
     1
176
     1
 91
        4
176
     1
 64
     7
176
     1
 65
   257
176
     1
 75
     1
176
     1
175
     1
176
     1
 42
1.0
176
     1
 92
        8
176
     1
 66
     7
176
     1
 43
1.0
176
     1
 76
     1
176
     1
 77
     6
176
     1
 78
     2
176
     1
 67
     7
176
     1
 79
     5
176
     1
170
     0
176
     1
171
     0
176
     1
290
     0
176
     1
 93
        1
176
     1
 44
50.0
176
     1
173
     0
176
     1
  0
VISUALSTYLE
  5
3A
102
{ACAD_REACTORS
330
2A
102
}
330
2A
100
AcDbVisualStyle
  2
ColorChange
 70
    16
177
     2
291
     1
 71
     2
176
     1
 72
     2
176
     1
 73
     3
176
     1
 90
        0
176
     1
 40
-0.6
176
     1
 41
-30.0
176
     1
 62
     5
 63
     8
421
  8421504
176
     1
 74
     1
176
     1
 91
        4
176
     1
 64
     7
176
     1
 65
   257
176
     1
 75
     1
176
     1
175
     1
176
     1
 42
1.0
176
     1
 92
        8
176
     1
 66
     8
424
  8421504
176
     1
 43
1.0
176
     1
 76
     1
176
     1
 77
     6
176
     1
 78
     2
176
     1
 67
     7
176
     1
 79
     5
176
     1
170
     0
176
     1
171
     0
176
     1
290
     0
176
     1
 93
        1
176
     1
 44
0.0
176
     1
173
     0
176
     1
  0
VISUALSTYLE
  5
34
102
{ACAD_REACTORS
330
2A
102
}
330
2A
100
AcDbVisualStyle
  2
Conceptual
 70
     9
177
     2
291
     0
 71
     3
176
     1
 72
     2
176
     1
 73
     0
176
     1
 90
        0
176
     1
 40
-0.6
176
     1
 41
-30.0
176
     1
 62
     5
 63
     7
421
 16777215
176
     1
 74
     2
176
     1
 91
        2
176
     1
 64
     7
176
     1
 65
   257
176
     1
 75
     1
176
     1
175
     1
176
     1
 42
40.0
176
     1
 92
        8
176
     1
 66
     7
176
     1
 43
1.0
176
     1
 76
     1
176
     1
 77
     6
176
     1
 78
     2
176
     1
 67
     7
176
     1
 79
     3
176
     1
170
     0
176
     1
171
     0
176
     1
290
     0
176
     1
 93
        1
176
     1
 44
0.0
176
     1
173
     0
176
     1
  0
VISUALSTYLE
  5
35
102
{ACAD_REACTORS
330
2A
102
}
330
2A
100
AcDbVisualStyle
  2
Dim
 70
    11
177
     2
291
     1
 71
     2
176
     1
 72
     2
176
     1
 73
     0
176
     1
 90
        0
176
     1
 40
-0.6
176
     1
 41
-30.0
176
     1
 62
     5
 63
     7
421
 16777215
176
     1
 74
     1
176
     1
 91
        4
176
     1
 64
     7
176
     1
 65
   257
176
     1
 75
     1
176
     1
175
     1
176
     1
 42
1.0
176
     1
 92
        8
176
     1
 66
     7
176
     1
 43
1.0
176
     1
 76
     1
176
     1
 77
     6
176
     1
 78
     2
176
     1
 67
     7
176
     1
 79
     5
176
     1
170
     0
176
     1
171
     0
176
     1
290
     0
176
     1
 93
        1
176
     1
 44
-50.0
176
     1
173
     0
176
     1
  0
VISUALSTYLE
  5
39
102
{ACAD_REACTORS
330
2A
102
}
330
2A
100
AcDbVisualStyle
  2
Facepattern
 70
    15
177
     2
291
     1
 71
     2
176
     1
 72
     2
176
     1
 73
     0
176
     1
 90
        0
176
     1
 40
-0.6
176
     1
 41
-30.0
176
     1
 62
     5
 63
     7
421
 16777215
176
     1
 74
     1
176
     1
 91
        4
176
     1
 64
     7
176
     1
 65
   257
176
     1
 75
     1
176
     1
175
     1
176
     1
 42
1.0
176
     1
 92
        8
176
     1
 66
     7
176
     1
 43
1.0
176
     1
 76
     1
176
     1
 77
     6
176
     1
 78
     2
176
     1
 67
     7
176
     1
 79
     5
176
     1
170
     0
176
     1
171
     0
176
     1
290
     0
176
     1
 93
        1
176
     1
 44
0.0
176
     1
173
     0
176
     1
  0
VISUALSTYLE
  5
2B
102
{ACAD_REACTORS
330
2A
102
}
330
2A
100
AcDbVisualStyle
  2
Flat
 70
     0
177
     2
291
     1
 71
     2
176
     1
 72
     1
176
     1
 73
     1
176
     1
 90
        2
176
     1
 40
-0.6
176
     1
 41
30.0
176
     1
 62
     5
 63
     7
421
 16777215
176
     1
 74
     0
176
     1
 91
        4
176
     1
 64
     7
176
     1
 65
   257
176
     1
 75
     1
176
     1
175
     1
176
     1
 42
1.0
176
     1
 92
        8
176
     1
 66
     7
176
     1
 43
1.0
176
     1
 76
     1
176
     1
 77
     6
176
     1
 78
     2
176
     1
 67
     7
176
     1
 79
     5
176
     1
170
     0
176
     1
171
     0
176
     1
290
     0
176
     1
 93
       13
176
     1
 44
0.0
176
     1
173
     0
176
     1
  0
VISUALSTYLE
  5
2C
102
{ACAD_REACTORS
330
2A
102
}
330
2A
100
AcDbVisualStyle
  2
FlatWithEdges
 70
     1
177
     2
291
     1
 71
     2
176
     1
 72
     1
176
     1
 73
     1
176
     1
 90
        2
176
     1
 40
-0.6
176
     1
 41
30.0
176
     1
 62
     5
 63
     7
421
 16777215
176
     1
 74
     1
176
     1
 91
        4
176
     1
 64
     7
176
     1
 65
   257
176
     1
 75
     1
176
     1
175
     1
176
     1
 42
1.0
176
     1
 92
        0
176
     1
 66
   257
176
     1
 43
1.0
176
     1
 76
     1
176
     1
 77
     6
176
     1
 78
     2
176
     1
 67
     7
176
     1
 79
     5
176
     1
170
     0
176
     1
171
     0
176
     1
290
     0
176
     1
 93
       13
176
     1
 44
0.0
176
     1
173
     0
176
     1
  0
VISUALSTYLE
  5
2D
102
{ACAD_REACTORS
330
2A
102
}
330
2A
100
AcDbVisualStyle
  2
Gouraud
 70
     2
177
     2
291
     1
 71
     2
176
     1
 72
     2
176
     1
 73
     1
176
     1
 90
        2
176
     1
 40
-0.6
176
     1
 41
30.0
176
     1
 62
     5
 63
     7
421
 16777215
176
     1
 74
     0
176
     1
 91
        4
176
     1
 64
     7
176
     1
 65
   257
176
     1
 75
     1
176
     1
175
     1
176
     1
 42
1.0
176
     1
 92
        0
176
     1
 66
     7
176
     1
 43
1.0
176
     1
 76
     1
176
     1
 77
     6
176
     1
 78
     2
176
     1
 67
     7
176
     1
 79
     5
176
     1
170
     0
176
     1
171
     0
176
     1
290
     0
176
     1
 93
       13
176
     1
 44
0.0
176
     1
173
     0
176
     1
  0
VISUALSTYLE
  5
2E
102
{ACAD_REACTORS
330
2A
102
}
330
2A
100
AcDbVisualStyle
  2
GouraudWithEdges
 70
     3
177
     2
291
     1
 71
     2
176
     1
 72
     2
176
     1
 73
     1
176
     1
 90
        2
176
     1
 40
-0.6
176
     1
 41
30.0
176
     1
 62
     5
 63
     7
421
 16777215
176
     1
 74
     1
176
     1
 91
        4
176
     1
 64
     7
176
     1
 65
   257
176
     1
 75
     1
176
     1
175
     1
176
     1
 42
1.0
176
     1
 92
        0
176
     1
 66
   257
176
     1
 43
1.0
176
     1
 76
     1
176
     1
 77
     6
176
     1
 78
     2
176
     1
 67
     7
176
     1
 79
     5
176
     1
170
     0
176
     1
171
     0
176
     1
290
     0
176
     1
 93
       13
176
     1
 44
0.0
176
     1
173
     0
176
     1
  0
VISUALSTYLE
  5
38
102
{ACAD_REACTORS
330
2A
102
}
330
2A
100
AcDbVisualStyle
  2
Linepattern
 70
    14
177
     2
291
     1
 71
     2
176
     1
 72
     2
176
     1
 73
     0
176
     1
 90
        0
176
     1
 40
-0.6
176
     1
 41
-30.0
176
     1
 62
     5
 63
     7
421
 16777215
176
     1
 74
     1
176
     1
 91
        4
176
     1
 64
     7
176
     1
 65
   257
176
     1
 75
     7
176
     1
175
     7
176
     1
 42
1.0
176
     1
 92
        8
176
     1
 66
     7
176
     1
 43
1.0
176
     1
 76
     1
176
     1
 77
     6
176
     1
 78
     2
176
     1
 67
     7
176
     1
 79
     5
176
     1
170
     0
176
     1
171
     0
176
     1
290
     0
176
     1
 93
        1
176
     1
 44
0.0
176
     1
173
     0
176
     1
  0
VISUALSTYLE
  5
33
102
{ACAD_REACTORS
330
2A
102
}
330
2A
100
AcDbVisualStyle
  2
Realistic
 70
     8
177
     2
291
     0
 71
     2
176
     1
 72
     2
176
     1
 73
     0
176
     1
 90
        0
176
     1
 40
-0.6
176
     1
 41
-30.0
176
     1
 62
     5
 63
     7
421
 16777215
176
     1
 74
     1
176
     1
 91
        0
176
     1
 64
     7
176
     1
 65
   257
176
     1
 75
     1
176
     1
175
     1
176
     1
 42
1.0
176
     1
 92
        8
176
     1
 66
     8
424
  7895160
176
     1
 43
1.0
176
     1
 76
     1
176
     1
 77
     6
176
     1
 78
     2
176
     1
 67
     7
176
     1
 79
     5
176
     1
170
     0
176
     1
171
     0
176
     1
290
     0
176
     1
 93
       13
176
     1
 44
0.0
176
     1
173
     0
176
     1
  0
VISUALSTYLE
  5
37
102
{ACAD_REACTORS
330
2A
102
}
330
2A
100
AcDbVisualStyle
  2
Thicken
 70
    13
177
     2
291
     1
 71
     2
176
     1
 72
     2
176
     1
 73
     0
176
     1
 90
        0
176
     1
 40
-0.6
176
     1
 41
-30.0
176
     1
 62
     5
 63
     7
421
 16777215
176
     1
 74
     1
176
     1
 91
        4
176
     1
 64
     7
176
     1
 65
   257
176
     1
 75
     1
176
     1
175
     1
176
     1
 42
1.0
176
     1
 92
       12
176
     1
 66
     7
176
     1
 43
1.0
176
     1
 76
     1
176
     1
 77
     6
176
     1
 78
     2
176
     1
 67
     7
176
     1
 79
     5
176
     1
170
     0
176
     1
171
     0
176
     1
290
     0
176
     1
 93
        1
176
     1
 44
0.0
176
     1
173
     0
176
     1
  0
ENDSEC
  0
EOF
