0
SECTION
2
HEADER
9
$INSUNITS
70
4
9
$ACADVER
1
AC1014
9
$HANDSEED
5
FFFF
0
ENDSEC
0
SECTION
2
TABLES
0
TABLE
2
VPORT
5
8
100
AcDbSymbolTable
0
ENDTAB
0
TABLE
2
LTYPE
5
5
100
AcDbSymbolTable
0
LTYPE
5
14
100
AcDbSymbolTableRecord
100
AcDbLinetypeTableRecord
2
BYBLOCK
70
0
0
LTYPE
5
15
100
AcDbSymbolTableRecord
100
AcDbLinetypeTableRecord
2
BYLAYER
70
0
0
ENDTAB
0
TABLE
2
LAYER
5
2
100
AcDbSymbolTable
70
2
0
LAYER
5
50
100
AcDbSymbolTableRecord
100
AcDbLayerTableRecord
2
0
70
0
6
CONTINUOUS
0
ENDTAB
0
TABLE
2
STYLE
5
3
100
AcDbSymbolTable
70
1
0
STYLE
5
11
100
AcDbSymbolTableRecord
100
AcDbTextStyleTableRecord
2
STANDARD
70
0
0
ENDTAB
0
TABLE
2
VIEW
5
6
100
AcDbSymbolTable
70
0
0
ENDTAB
0
TABLE
2
UCS
5
7
100
AcDbSymbolTable
70
0
0
ENDTAB
0
TABLE
2
APPID
5
9
100
AcDbSymbolTable
70
2
0
APPID
5
12
100
AcDbSymbolTableRecord
100
AcDbRegAppTableRecord
2
ACAD
70
0
0
ENDTAB
0
TABLE
2
DIMSTYLE
5
A
100
AcDbSymbolTable
70
1
0
ENDTAB
0
TABLE
2
BLOCK_RECORD
5
1
100
AcDbSymbolTable
70
1
0
BLOCK_RECORD
5
1F
100
AcDbSymbolTableRecord
100
AcDbBlockTableRecord
2
*MODEL_SPACE
0
BLOCK_RECORD
5
1B
100
AcDbSymbolTableRecord
100
AcDbBlockTableRecord
2
*PAPER_SPACE
0
ENDTAB
0
ENDSEC
0
SECTION
2
BLOCKS
0
BLOCK
5
20
100
AcDbEntity
100
AcDbBlockBegin
2
*MODEL_SPACE
0
ENDBLK
5
21
100
AcDbEntity
100
AcDbBlockEnd
0
BLOCK
5
1C
100
AcDbEntity
100
AcDbBlockBegin
2
*PAPER_SPACE
0
ENDBLK
5
1D
100
AcDbEntity
100
AcDbBlockEnd
0
ENDSEC
0
SECTION
2
ENTITIES
0
CIRCLE
5
100
100
AcDbEntity
8
0
100
AcDbCircle
10
39.999900000000004
20
6.0000000000000009
30
0
40
1.5000000000000036
0
CIRCLE
5
101
100
AcDbEntity
8
0
100
AcDbCircle
10
449.19280921390975
20
6.0000000000000009
30
0
40
1.5000000000000036
0
LWPOLYLINE
5
102
100
AcDbEntity
8
0
100
AcDbPolyline
90
4
70
1
43
0.0
10
230.64635460695484
20
41.999999999999993
10
280.6463546069549
20
41.999999999999993
42
-0.99999999999999989
10
280.6463546069549
20
31.999999999999993
10
230.64635460695484
20
31.999999999999993
42
-0.99999999999999989
0
LWPOLYLINE
5
103
100
AcDbEntity
8
0
100
AcDbPolyline
90
4
70
1
43
0.0
10
131.29812730347743
20
52
10
131.29812730347743
20
22
42
-0.99999999999999989
10
124.29812730347746
20
22
10
124.29812730347746
20
52
42
-0.99999999999999989
0
LWPOLYLINE
5
104
100
AcDbEntity
8
0
100
AcDbPolyline
90
4
70
1
43
0.0
10
379.89458191043235
20
22
10
379.89458191043241
20
52.000000000000014
42
-0.99999999999999989
10
386.89458191043229
20
51.999999999999993
10
386.89458191043235
20
22
42
-0.99999999999999989
0
LWPOLYLINE
5
105
100
AcDbEntity
8
0
100
AcDbPolyline
90
84
70
1
43
0.0
10
383.39458191043229
20
74
10
383.39458191043229
20
71
10
375.89458191043229
20
71
10
375.89458191043229
20
74
10
368.39458191043229
20
74
10
368.39458191043229
20
71
10
325.59635460695489
20
71
10
325.59635460695489
20
74
10
316.84635460695483
20
74
10
316.84635460695483
20
71
10
306.84635460695483
20
71
10
306.84635460695483
20
74
10
298.09635460695489
20
74
10
298.09635460695489
20
71
10
288.09635460695483
20
71
10
288.09635460695483
20
74
10
279.34635460695489
20
74
10
279.34635460695489
20
71
10
269.34635460695483
20
71
10
269.34635460695483
20
74
10
260.59635460695489
20
74
10
260.59635460695489
20
71
10
250.59635460695486
20
71
10
250.59635460695486
20
74
10
241.84635460695489
20
74
10
241.84635460695489
20
71
10
231.84635460695486
20
71
10
231.84635460695486
20
74
10
223.09635460695489
20
74
10
223.09635460695489
20
71
10
213.09635460695486
20
71
10
213.09635460695486
20
74
10
204.34635460695489
20
74
10
204.34635460695489
20
71
10
194.34635460695486
20
71
10
194.34635460695486
20
74
10
185.59635460695489
20
74
10
185.59635460695489
20
71
10
175.59635460695486
20
71
10
175.59635460695486
20
74
10
112.7981273034774
20
74
10
112.7981273034774
20
71
10
69.999899999999997
20
71
10
69.999899999999997
20
74
10
61.249900000000004
20
74
10
61.249900000000004
20
71
10
51.249900000000004
20
71
10
51.249900000000004
20
74
10
42.499900000000004
20
74
10
42.499900000000004
20
71
10
32.499900000000004
20
71
10
32.499900000000004
20
74
10
23.749900000000004
20
74
10
23.749900000000004
20
71
10
13.749899999999968
20
71
10
13.749899999999968
20
74
10
4.9999000000000038
20
74
10
4.9999000000000038
20
71
10
0
20
71
10
0
20
0
10
511.09280921390973
20
0
10
511.09280921390985
20
71
10
506.19280921390981
20
71
10
506.19280921390981
20
74
10
497.44280921390981
20
74
10
497.44280921390981
20
71
10
487.44280921390981
20
71
10
487.44280921390981
20
74
10
478.69280921390981
20
74
10
478.69280921390981
20
71
10
468.69280921390981
20
71
10
468.69280921390981
20
74
10
459.94280921390981
20
74
10
459.94280921390981
20
71
10
449.94280921390981
20
71
10
449.94280921390981
20
74
10
441.19280921390981
20
74
10
441.19280921390981
20
71
10
431.19280921390981
20
71
10
431.19280921390981
20
74
10
398.39458191043235
20
74
10
398.39458191043235
20
71
10
390.89458191043229
20
71
10
390.89458191043229
20
74
0
LINE
5
106
100
AcDbEntity
8
0
100
AcDbLine
10
398.39458191043235
20
0
30
0
11
398.39458191043229
21
71
31
0
0
LINE
5
107
100
AcDbEntity
8
0
100
AcDbLine
10
368.39458191043229
20
0
30
0
11
368.39458191043229
21
71
31
0
0
LINE
5
108
100
AcDbEntity
8
0
100
AcDbLine
10
79.999899999999997
20
0
30
0
11
79.999899999999997
21
71
31
0
0
LINE
5
109
100
AcDbEntity
8
0
100
AcDbLine
10
431.19280921390981
20
0
30
0
11
431.19280921390981
21
71
31
0
0
LINE
5
110
100
AcDbEntity
8
0
100
AcDbLine
10
335.59635460695489
20
0
30
0
11
335.59635460695489
21
71
31
0
0
LINE
5
111
100
AcDbEntity
8
0
100
AcDbLine
10
175.59635460695486
20
0
30
0
11
175.59635460695486
21
71
31
0
0
LINE
5
112
100
AcDbEntity
8
0
100
AcDbLine
10
142.79812730347746
20
0
30
0
11
142.79812730347746
21
74
31
0
0
LINE
5
113
100
AcDbEntity
8
0
100
AcDbLine
10
112.7981273034774
20
0
30
0
11
112.7981273034774
21
71
31
0
0
ENDSEC
0
SECTION
2
OBJECTS
0
DICTIONARY
5
C
100
AcDbDictionary
3
ACAD_GROUP
350
D
3
ACAD_MLINESTYLE
350
17
0
DICTIONARY
5
D
100
AcDbDictionary
0
DICTIONARY
5
1A
330
C
100
AcDbDictionary
0
DICTIONARY
5
17
100
AcDbDictionary
0
ENDSEC
0
EOF
