0
SECTION
2
HEADER
9
$INSUNITS
70
4
9
$ACADVER
1
AC1014
9
$HANDSEED
5
FFFF
0
ENDSEC
0
SECTION
2
TABLES
0
TABLE
2
VPORT
5
8
100
AcDbSymbolTable
0
ENDTAB
0
TABLE
2
LTYPE
5
5
100
AcDbSymbolTable
0
LTYPE
5
14
100
AcDbSymbolTableRecord
100
AcDbLinetypeTableRecord
2
BYBLOCK
70
0
0
LTYPE
5
15
100
AcDbSymbolTableRecord
100
AcDbLinetypeTableRecord
2
BYLAYER
70
0
0
ENDTAB
0
TABLE
2
LAYER
5
2
100
AcDbSymbolTable
70
2
0
LAYER
5
50
100
AcDbSymbolTableRecord
100
AcDbLayerTableRecord
2
0
70
0
6
CONTINUOUS
0
ENDTAB
0
TABLE
2
STYLE
5
3
100
AcDbSymbolTable
70
1
0
STYLE
5
11
100
AcDbSymbolTableRecord
100
AcDbTextStyleTableRecord
2
STANDARD
70
0
0
ENDTAB
0
TABLE
2
VIEW
5
6
100
AcDbSymbolTable
70
0
0
ENDTAB
0
TABLE
2
UCS
5
7
100
AcDbSymbolTable
70
0
0
ENDTAB
0
TABLE
2
APPID
5
9
100
AcDbSymbolTable
70
2
0
APPID
5
12
100
AcDbSymbolTableRecord
100
AcDbRegAppTableRecord
2
ACAD
70
0
0
ENDTAB
0
TABLE
2
DIMSTYLE
5
A
100
AcDbSymbolTable
70
1
0
ENDTAB
0
TABLE
2
BLOCK_RECORD
5
1
100
AcDbSymbolTable
70
1
0
BLOCK_RECORD
5
1F
100
AcDbSymbolTableRecord
100
AcDbBlockTableRecord
2
*MODEL_SPACE
0
BLOCK_RECORD
5
1B
100
AcDbSymbolTableRecord
100
AcDbBlockTableRecord
2
*PAPER_SPACE
0
ENDTAB
0
ENDSEC
0
SECTION
2
BLOCKS
0
BLOCK
5
20
100
AcDbEntity
100
AcDbBlockBegin
2
*MODEL_SPACE
0
ENDBLK
5
21
100
AcDbEntity
100
AcDbBlockEnd
0
BLOCK
5
1C
100
AcDbEntity
100
AcDbBlockBegin
2
*PAPER_SPACE
0
ENDBLK
5
1D
100
AcDbEntity
100
AcDbBlockEnd
0
ENDSEC
0
SECTION
2
ENTITIES
0
LWPOLYLINE
5
100
100
AcDbEntity
8
0
100
AcDbPolyline
90
8
70
1
43
0.0
10
-3443.800009727478
20
-1487.9723173808811
42
-2.4142135623731917
10
-3438.800009727478
20
-1492.9723173808811
10
-3438.800009727478
20
-1500.9723173808813
42
-2.4142135623731917
10
-3443.800009727478
20
-1505.9723173808811
10
-3533.800009727478
20
-1505.9723173808811
42
-2.4142135623731917
10
-3538.800009727478
20
-1500.9723173808811
10
-3538.800009727478
20
-1492.9723173808807
42
-2.4142135623731917
10
-3533.800009727478
20
-1487.9723173808811
0
LWPOLYLINE
5
101
100
AcDbEntity
8
0
100
AcDbPolyline
90
8
70
1
43
0.0
10
-3193.800009727478
20
-1487.9723173808811
42
-2.4142135623731917
10
-3188.800009727478
20
-1492.9723173808811
10
-3188.800009727478
20
-1500.9723173808813
42
-2.4142135623731917
10
-3193.800009727478
20
-1505.9723173808811
10
-3283.800009727478
20
-1505.9723173808811
42
-2.4142135623731917
10
-3288.800009727478
20
-1500.9723173808811
10
-3288.800009727478
20
-1492.9723173808807
42
-2.4142135623731917
10
-3283.800009727478
20
-1487.9723173808811
0
LWPOLYLINE
5
102
100
AcDbEntity
8
0
100
AcDbPolyline
90
8
70
1
43
0.0
10
-2943.800009727478
20
-1487.9723173808811
42
-2.4142135623731917
10
-2938.800009727478
20
-1492.9723173808811
10
-2938.800009727478
20
-1500.9723173808813
42
-2.4142135623731917
10
-2943.800009727478
20
-1505.9723173808811
10
-3033.800009727478
20
-1505.9723173808811
42
-2.4142135623731917
10
-3038.800009727478
20
-1500.9723173808811
10
-3038.800009727478
20
-1492.9723173808807
42
-2.4142135623731917
10
-3033.800009727478
20
-1487.9723173808811
0
LWPOLYLINE
5
103
100
AcDbEntity
8
0
100
AcDbPolyline
90
8
70
1
43
0.0
10
-2663.800009727478
20
-1996.9999154210091
42
-2.4142135623731917
10
-2668.800009727478
20
-1991.9999154210091
10
-2668.800009727478
20
-1901.9999154210088
42
-2.4142135623730949
10
-2663.800009727478
20
-1896.9999154210088
10
-2655.800009727478
20
-1896.9999154210091
42
-2.4142135623731917
10
-2650.800009727478
20
-1901.9999154210091
10
-2650.800009727478
20
-1991.9999154210095
42
-2.4142135623730949
10
-2655.800009727478
20
-1996.9999154210095
0
LWPOLYLINE
5
104
100
AcDbEntity
8
0
100
AcDbPolyline
90
8
70
1
43
0.0
10
-2650.8000097274776
20
-2241.9999154210095
42
-2.4142135623729009
10
-2655.800009727478
20
-2246.9999154210095
10
-2663.800009727478
20
-2246.9999154210091
42
-2.4142135623731917
10
-2668.800009727478
20
-2241.9999154210091
10
-2668.800009727478
20
-2151.9999154210095
42
-2.414213562373289
10
-2663.800009727478
20
-2146.9999154210091
10
-2655.800009727478
20
-2146.9999154210091
42
-2.4142135623731917
10
-2650.800009727478
20
-2151.9999154210091
0
LWPOLYLINE
5
105
100
AcDbEntity
8
0
100
AcDbPolyline
90
8
70
1
43
0.0
10
-3588.800009727478
20
-1476.9723173808807
10
-2858.800009727478
20
-1476.9723173808811
42
-0.41284312344487034
10
-2639.800009727478
20
-1696.9999154210091
10
-2639.800009727478
20
-2296.9999154210091
10
-2679.800009727478
20
-2296.9999154210091
10
-2679.800009727478
20
-1696.9999154210095
42
0.41253793867175992
10
-2858.800009727478
20
-1516.9723173808807
10
-3588.800009727478
20
-1516.9723173808807
0
LWPOLYLINE
5
106
100
AcDbEntity
8
0
100
AcDbPolyline
90
8
70
1
43
0.0
10
-3518.800009727478
20
-1587.9723173808811
42
-2.4142135623731917
10
-3513.800009727478
20
-1592.9723173808811
10
-3513.800009727478
20
-1600.9723173808813
42
-2.4142135623731917
10
-3518.800009727478
20
-1605.9723173808811
10
-3608.800009727478
20
-1605.9723173808811
42
-2.4142135623731917
10
-3613.800009727478
20
-1600.9723173808811
10
-3613.800009727478
20
-1592.9723173808807
42
-2.4142135623731917
10
-3608.800009727478
20
-1587.9723173808811
0
LWPOLYLINE
5
107
100
AcDbEntity
8
0
100
AcDbPolyline
90
8
70
1
43
0.0
10
-3268.800009727478
20
-1587.9723173808811
42
-2.4142135623731917
10
-3263.800009727478
20
-1592.9723173808811
10
-3263.800009727478
20
-1600.9723173808813
42
-2.4142135623731917
10
-3268.800009727478
20
-1605.9723173808811
10
-3358.800009727478
20
-1605.9723173808811
42
-2.4142135623731917
10
-3363.800009727478
20
-1600.9723173808811
10
-3363.800009727478
20
-1592.9723173808807
42
-2.4142135623731917
10
-3358.800009727478
20
-1587.9723173808811
0
LWPOLYLINE
5
108
100
AcDbEntity
8
0
100
AcDbPolyline
90
8
70
1
43
0.0
10
-3018.800009727478
20
-1587.9723173808811
42
-2.4142135623731917
10
-3013.800009727478
20
-1592.9723173808811
10
-3013.800009727478
20
-1600.9723173808813
42
-2.4142135623731917
10
-3018.800009727478
20
-1605.9723173808811
10
-3108.800009727478
20
-1605.9723173808811
42
-2.4142135623731917
10
-3113.800009727478
20
-1600.9723173808811
10
-3113.800009727478
20
-1592.9723173808807
42
-2.4142135623731917
10
-3108.800009727478
20
-1587.9723173808811
0
LWPOLYLINE
5
109
100
AcDbEntity
8
0
100
AcDbPolyline
90
8
70
1
43
0.0
10
-2738.800009727478
20
-2096.9999154210091
42
-2.4142135623731917
10
-2743.800009727478
20
-2091.9999154210091
10
-2743.800009727478
20
-2001.9999154210088
42
-2.4142135623730949
10
-2738.800009727478
20
-1996.9999154210088
10
-2730.800009727478
20
-1996.9999154210091
42
-2.4142135623731917
10
-2725.800009727478
20
-2001.9999154210091
10
-2725.800009727478
20
-2091.9999154210095
42
-2.4142135623730949
10
-2730.800009727478
20
-2096.9999154210095
0
LWPOLYLINE
5
110
100
AcDbEntity
8
0
100
AcDbPolyline
90
8
70
1
43
0.0
10
-2725.8000097274776
20
-2341.9999154210095
42
-2.4142135623729009
10
-2730.800009727478
20
-2346.9999154210095
10
-2738.800009727478
20
-2346.9999154210091
42
-2.4142135623731917
10
-2743.800009727478
20
-2341.9999154210091
10
-2743.800009727478
20
-2251.9999154210095
42
-2.414213562373289
10
-2738.800009727478
20
-2246.9999154210091
10
-2730.800009727478
20
-2246.9999154210091
42
-2.4142135623731917
10
-2725.800009727478
20
-2251.9999154210091
0
LWPOLYLINE
5
111
100
AcDbEntity
8
0
100
AcDbPolyline
90
8
70
1
43
0.0
10
-3663.800009727478
20
-1576.9723173808807
10
-2933.800009727478
20
-1576.9723173808811
42
-0.41284312344487034
10
-2714.800009727478
20
-1796.9999154210091
10
-2714.800009727478
20
-2396.9999154210091
10
-2754.800009727478
20
-2396.9999154210091
10
-2754.800009727478
20
-1796.9999154210095
42
0.41253793867175992
10
-2933.800009727478
20
-1616.9723173808807
10
-3663.800009727478
20
-1616.9723173808807
0
LWPOLYLINE
5
112
100
AcDbEntity
8
0
100
AcDbPolyline
90
8
70
1
43
0.0
10
-3029.4361095230947
20
-1685.1178842088175
42
-0.38836602653313856
10
-2800.6360247831713
20
-1894.3998615443729
10
-2800.6360247831708
20
-2294.3998615443738
10
-2840.6360247831708
20
-2294.3998615443738
10
-2840.6360247831713
20
-1894.3998615443729
42
0.3826634717906352
10
-3029.4361095230943
20
-1725.1178842088175
10
-3559.4361095230943
20
-1725.1178842088166
10
-3559.4361095230943
20
-1685.1178842088166
0
LWPOLYLINE
5
113
100
AcDbEntity
8
0
100
AcDbPolyline
90
8
70
1
43
0.0
10
-3164.4361095230965
20
-1696.11788420882
42
-2.4142135623730949
10
-3159.436109523092
20
-1701.11788420882
10
-3159.436109523092
20
-1709.1178842088195
42
-2.4142135623715419
10
-3164.436109523092
20
-1714.1178842088195
10
-3254.4361095230965
20
-1714.1178842088195
42
-2.4142135623730949
10
-3259.436109523092
20
-1709.1178842088195
10
-3259.436109523092
20
-1701.11788420882
42
-2.4142135623746475
10
-3254.436109523092
20
-1696.11788420882
0
LWPOLYLINE
5
114
100
AcDbEntity
8
0
100
AcDbPolyline
90
8
70
1
43
0.0
10
-3509.436109523092
20
-1701.11788420882
42
-2.4142135623746475
10
-3504.436109523092
20
-1696.11788420882
10
-3414.4361095230965
20
-1696.11788420882
42
-2.4142135623730949
10
-3409.436109523092
20
-1701.11788420882
10
-3409.436109523092
20
-1709.1178842088195
42
-2.4142135623715419
10
-3414.436109523092
20
-1714.1178842088195
10
-3504.4361095230965
20
-1714.1178842088195
42
-2.4142135623730949
10
-3509.436109523092
20
-1709.1178842088195
0
LWPOLYLINE
5
115
100
AcDbEntity
8
0
100
AcDbPolyline
90
8
70
1
43
0.0
10
-2824.636024783174
20
-2044.3998615443761
42
-2.4142135623729977
10
-2829.636024783169
20
-2039.3998615443761
10
-2829.6360247831681
20
-1949.3998615443763
42
-2.4142135623745502
10
-2824.636024783169
20
-1944.3998615443761
10
-2816.636024783174
20
-1944.3998615443761
42
-2.4142135623729009
10
-2811.636024783169
20
-1949.3998615443761
10
-2811.636024783169
20
-2039.3998615443766
42
-2.4142135623713479
10
-2816.636024783169
20
-2044.3998615443761
0
LWPOLYLINE
5
116
100
AcDbEntity
8
0
100
AcDbPolyline
90
8
70
1
43
0.0
10
-2824.6360247831717
20
-2244.3998615443761
42
-2.4142135623728036
10
-2829.636024783169
20
-2239.3998615443761
10
-2829.6360247831681
20
-2149.3998615443761
42
-2.4142135623745502
10
-2824.636024783169
20
-2144.3998615443761
10
-2816.6360247831735
20
-2144.3998615443761
42
-2.4142135623728036
10
-2811.636024783169
20
-2149.3998615443761
10
-2811.636024783169
20
-2239.399861544377
42
-2.4142135623714451
10
-2816.636024783169
20
-2244.3998615443761
0
LWPOLYLINE
5
117
100
AcDbEntity
8
0
100
AcDbPolyline
90
8
70
1
43
0.0
10
-3104.4361095230947
20
-1760.117884208817
42
-0.38836602653313856
10
-2875.6360247831713
20
-1969.3998615443727
10
-2875.6360247831713
20
-2369.3998615443711
10
-2915.6360247831713
20
-2369.3998615443734
10
-2915.6360247831713
20
-1969.3998615443727
42
0.38266347179063648
10
-3104.4361095230947
20
-1800.117884208817
10
-3634.4361095230947
20
-1800.1178842088163
10
-3634.4361095230947
20
-1760.1178842088163
0
LWPOLYLINE
5
118
100
AcDbEntity
8
0
100
AcDbPolyline
90
8
70
1
43
0.0
10
-3239.4361095230965
20
-1771.1178842088193
42
-2.4142135623728036
10
-3234.4361095230925
20
-1776.1178842088193
10
-3234.4361095230934
20
-1784.1178842088193
42
-2.4142135623716392
10
-3239.4361095230925
20
-1789.1178842088189
10
-3329.4361095230965
20
-1789.1178842088189
42
-2.4142135623731917
10
-3334.4361095230925
20
-1784.1178842088189
10
-3334.436109523092
20
-1776.1178842088202
42
-2.4142135623743561
10
-3329.4361095230925
20
-1771.1178842088193
0
LWPOLYLINE
5
119
100
AcDbEntity
8
0
100
AcDbPolyline
90
8
70
1
43
0.0
10
-3584.436109523092
20
-1776.1178842088202
42
-2.4142135623743561
10
-3579.4361095230925
20
-1771.1178842088193
10
-3489.4361095230965
20
-1771.1178842088193
42
-2.4142135623728036
10
-3484.4361095230925
20
-1776.1178842088193
10
-3484.4361095230934
20
-1784.1178842088193
42
-2.4142135623716392
10
-3489.4361095230925
20
-1789.1178842088189
10
-3579.4361095230965
20
-1789.1178842088189
42
-2.4142135623731917
10
-3584.4361095230925
20
-1784.1178842088189
0
LWPOLYLINE
5
120
100
AcDbEntity
8
0
100
AcDbPolyline
90
8
70
1
43
0.0
10
-2899.6360247831753
20
-2119.3998615443757
42
-2.4142135623722214
10
-2904.6360247831694
20
-2114.3998615443757
10
-2904.6360247831694
20
-2024.3998615443729
42
-2.4142135623751324
10
-2899.6360247831694
20
-2019.3998615443754
10
-2891.6360247831753
20
-2019.3998615443754
42
-2.4142135623737739
10
-2886.6360247831694
20
-2024.3998615443754
10
-2886.6360247831699
20
-2114.3998615443734
42
-2.4142135623708629
10
-2891.6360247831694
20
-2119.3998615443757
0
LWPOLYLINE
5
121
100
AcDbEntity
8
0
100
AcDbPolyline
90
8
70
1
43
0.0
10
-2899.6360247831753
20
-2319.3998615443757
42
-2.4142135623722214
10
-2904.6360247831694
20
-2314.3998615443757
10
-2904.6360247831694
20
-2224.3998615443729
42
-2.4142135623751324
10
-2899.6360247831694
20
-2219.3998615443757
10
-2891.6360247831753
20
-2219.3998615443757
42
-2.4142135623737739
10
-2886.6360247831694
20
-2224.3998615443757
10
-2886.6360247831699
20
-2314.3998615443729
42
-2.414213562371057
10
-2891.6360247831699
20
-2319.3998615443757
0
LWPOLYLINE
5
122
100
AcDbEntity
8
0
100
AcDbPolyline
90
8
70
1
43
0.0
10
-2945.7284639477748
20
-2403.8715095520029
42
-2.4142135623728036
10
-2950.7284639477748
20
-2408.8715095520029
10
-3040.7284639477766
20
-2408.8715095520029
42
-2.4142135623735799
10
-3045.7284639477748
20
-2403.8715095520029
10
-3045.7284639477748
20
-2395.8715069592022
42
-2.4142135623733858
10
-3040.7284639477748
20
-2390.8715069592008
10
-2950.7284639477757
20
-2390.8715069592008
42
-2.4142135623726095
10
-2945.7284639477748
20
-2395.8715069592008
0
LWPOLYLINE
5
123
100
AcDbEntity
8
0
100
AcDbPolyline
90
8
70
1
43
0.0
10
-3295.7284639477748
20
-2395.8715069592013
42
-2.4142135623735799
10
-3290.7284639477748
20
-2390.8715069592008
10
-3200.7284639477757
20
-2390.8715069592008
42
-2.4142135623726095
10
-3195.7284639477748
20
-2395.8715069592008
10
-3195.7284639477748
20
-2403.8715095520029
42
-2.4142135623729009
10
-3200.7284639477748
20
-2408.8715095520024
10
-3290.7284639477757
20
-2408.8715095520024
42
-2.4142135623735799
10
-3295.7284639477748
20
-2403.8715095520024
0
LWPOLYLINE
5
124
100
AcDbEntity
8
0
100
AcDbPolyline
90
8
70
1
43
0.0
10
-3545.7284639477748
20
-2395.8715095520047
42
-2.4142135623735799
10
-3540.7284639477748
20
-2390.8715095520024
10
-3450.7284639477757
20
-2390.8715095520024
42
-2.4142135623727068
10
-3445.7284639477748
20
-2395.8715095520024
10
-3445.7284639477748
20
-2403.8715095520038
42
-2.4142135623728036
10
-3450.7284639477748
20
-2408.8715095520024
10
-3540.7284639477757
20
-2408.8715095520024
42
-2.4142135623735799
10
-3545.7284639477748
20
-2403.8715095520024
0
LWPOLYLINE
5
125
100
AcDbEntity
8
0
100
AcDbPolyline
90
8
70
1
43
0.0
10
-3769.1999770402927
20
-2014.3999896645571
42
-2.4142135623728036
10
-3774.1999770402927
20
-2019.3999896645555
10
-3782.1999770402931
20
-2019.3999896645555
42
-2.4142135623735799
10
-3787.1999770402917
20
-2014.3999896645555
10
-3787.1999770402917
20
-1924.3999896645564
42
-2.4142135623735799
10
-3782.1999770402917
20
-1919.3999896645555
10
-3774.1999770402931
20
-1919.3999896645555
42
-2.4142135623729009
10
-3769.1999770402927
20
-1924.3999896645555
0
LWPOLYLINE
5
126
100
AcDbEntity
8
0
100
AcDbPolyline
90
8
70
1
43
0.0
10
-3769.1999770402927
20
-1764.3999896645562
42
-2.4142135623729009
10
-3774.1999770402927
20
-1769.3999896645555
10
-3782.1999796330956
20
-1769.3999896645555
42
-2.4142135623735799
10
-3787.1999796330942
20
-1764.3999896645555
10
-3787.1999796330942
20
-1674.3999896645564
42
-2.4142135623735799
10
-3782.1999796330942
20
-1669.3999896645555
10
-3774.1999770402931
20
-1669.3999896645555
42
-2.4142135623729009
10
-3769.1999770402927
20
-1674.3999896645555
0
LWPOLYLINE
5
127
100
AcDbEntity
8
0
100
AcDbPolyline
90
8
70
1
43
0.0
10
-3774.1999770402936
20
-1419.3999896645555
42
-2.4142135623728036
10
-3769.1999770402927
20
-1424.3999896645555
10
-3769.1999770402927
20
-1514.3999896645562
42
-2.4142135623729009
10
-3774.1999770402927
20
-1519.3999896645555
10
-3782.1999796330956
20
-1519.3999896645555
42
-2.4142135623735799
10
-3787.1999796330942
20
-1514.3999896645555
10
-3787.1999796330942
20
-1424.3999896645564
42
-2.4142135623735799
10
-3782.1999796330942
20
-1419.3999896645555
0
LWPOLYLINE
5
128
100
AcDbEntity
8
0
100
AcDbPolyline
90
8
70
1
43
0.0
10
-3798.1999796330956
20
-1369.3999896645555
10
-3758.1999796330956
20
-1369.3999896645555
10
-3758.1999796330956
20
-2199.3999896645555
42
0.3864474131797927
10
-3595.1999672949341
20
-2378.7999862134466
10
-2895.1999672949341
20
-2378.7999862134461
10
-2895.1999672949341
20
-2418.7999862134461
10
-3595.1999672949341
20
-2418.7999862134466
42
-0.39165983500223939
10
-3798.1999796330956
20
-2199.3999896645555
0
LWPOLYLINE
5
129
100
AcDbEntity
8
0
100
AcDbPolyline
90
8
70
1
43
0.0
10
-3540.4000493884087
20
-2366.1999510228634
42
-0.37812178754468145
10
-3734.0000450611115
20
-2146.7999700307846
10
-3734.0000450611115
20
-1515.7999700307846
10
-3694.0000450611115
20
-1515.7999700307846
10
-3694.000045061111
20
-2146.7999700307846
42
0.3696108635911366
10
-3540.4000493884087
20
-2326.1999510228634
10
-3040.4000493884087
20
-2326.1999510228634
10
-3040.4000493884087
20
-2366.1999510228634
0
LWPOLYLINE
5
130
100
AcDbEntity
8
0
100
AcDbPolyline
90
8
70
1
43
0.0
10
-3710.0000450611115
20
-1815.7999700307846
42
-2.4142135623731917
10
-3705.0000450611115
20
-1820.7999700307846
10
-3705.0000450611115
20
-1910.7999700307842
42
-2.414213562373289
10
-3710.0000450611115
20
-1915.7999700307846
10
-3718.0000450611115
20
-1915.7999700307846
42
-2.4142135623731917
10
-3723.0000450611115
20
-1910.7999700307846
10
-3723.0000450611115
20
-1820.7999700307844
42
-2.4142135623731917
10
-3718.0000450611115
20
-1815.7999700307846
0
LWPOLYLINE
5
131
100
AcDbEntity
8
0
100
AcDbPolyline
90
8
70
1
43
0.0
10
-3185.4000493884087
20
-2355.1999510228634
42
-2.4142135623731917
10
-3190.4000493884082
20
-2350.1999510228634
10
-3190.4000493884087
20
-2342.1999510228634
42
-2.4142135623729977
10
-3185.4000493884087
20
-2337.1999510228634
10
-3095.4000493884096
20
-2337.1999510228634
42
-2.4142135623728036
10
-3090.4000493884082
20
-2342.1999510228634
10
-3090.4000493884087
20
-2350.1999510228643
42
-2.4142135623729977
10
-3095.4000493884087
20
-2355.1999510228634
0
LWPOLYLINE
5
132
100
AcDbEntity
8
0
100
AcDbPolyline
90
8
70
1
43
0.0
10
-3723.0000450611115
20
-1570.7999700307844
42
-2.4142135623731917
10
-3718.0000450611115
20
-1565.7999700307846
10
-3710.0000450611115
20
-1565.7999700307846
42
-2.4142135623731917
10
-3705.0000450611115
20
-1570.7999700307846
10
-3705.0000450611115
20
-1660.7999700307848
42
-2.4142135623731917
10
-3710.0000450611115
20
-1665.7999700307846
10
-3718.0000450611115
20
-1665.7999700307846
42
-2.4142135623731917
10
-3723.0000450611115
20
-1660.7999700307846
0
LWPOLYLINE
5
133
100
AcDbEntity
8
0
100
AcDbPolyline
90
8
70
1
43
0.0
10
-3340.4000493884096
20
-2350.1999510228629
42
-2.4142135623735799
10
-3345.4000493884087
20
-2355.1999510228638
10
-3435.4000493884087
20
-2355.1999510228634
42
-2.4142135623729009
10
-3440.4000493884091
20
-2350.1999510228634
10
-3440.4000493884087
20
-2342.1999510228634
42
-2.4142135623729977
10
-3435.4000493884087
20
-2337.1999510228629
10
-3345.4000493884087
20
-2337.1999510228634
42
-2.4142135623729977
10
-3340.4000493884087
20
-2342.1999510228634
0
ENDSEC
0
SECTION
2
OBJECTS
0
DICTIONARY
5
C
100
AcDbDictionary
3
ACAD_GROUP
350
D
3
ACAD_MLINESTYLE
350
17
0
DICTIONARY
5
D
100
AcDbDictionary
0
DICTIONARY
5
1A
330
C
100
AcDbDictionary
0
DICTIONARY
5
17
100
AcDbDictionary
0
ENDSEC
0
EOF
