  0
SECTION
  2
HEADER
  9
$ACADVER
  1
AC1014
  9
$HANDSEED
  5
FFFF
  9
$MEASUREMENT
 70
     1
  0
ENDSEC
  0
SECTION
  2
TABLES
  0
TABLE
  2
VPORT
  5
8
330
0
100
AcDbSymbolTable
 70
     4
  0
VPORT
  5
2E
330
8
100
AcDbSymbolTableRecord
100
AcDbViewportTableRecord
  2
*ACTIVE
 70
     0
 10
0.0
 20
0.0
 11
1.0
 21
1.0
 12
210.0
 22
148.5
 13
0.0
 23
0.0
 14
10.0
 24
10.0
 15
10.0
 25
10.0
 16
0.0
 26
0.0
 36
1.0
 17
0.0
 27
0.0
 37
0.0
 40
341.0
 41
1.24
 42
50.0
 43
0.0
 44
0.0
 50
0.0
 51
0.0
 71
     0
 72
   100
 73
     1
 74
     3
 75
     0
 76
     0
 77
     0
 78
     0
  0
ENDTAB
  0
TABLE
  2
LTYPE
  5
5
330
0
100
AcDbSymbolTable
 70
     1
  0
LTYPE
  5
14
330
5
100
AcDbSymbolTableRecord
100
AcDbLinetypeTableRecord
  2
BYBLOCK
 70
     0
  3

 72
    65
 73
     0
 40
0.0
  0
LTYPE
  5
15
330
5
100
AcDbSymbolTableRecord
100
AcDbLinetypeTableRecord
  2
BYLAYER
 70
     0
  3

 72
    65
 73
     0
 40
0.0
  0
LTYPE
  5
16
330
5
100
AcDbSymbolTableRecord
100
AcDbLinetypeTableRecord
  2
CONTINUOUS
 70
     0
  3
Solid line
 72
    65
 73
     0
 40
0.0
  0
ENDTAB
  0
TABLE
  2
LAYER
  5
2
100
AcDbSymbolTable
 70
2
  0
LAYER
  5
50
100
AcDbSymbolTableRecord
100
AcDbLayerTableRecord
  2
0
 70
0
  6
CONTINUOUS
  0
LAYER
  5
51
100
AcDbSymbolTableRecord
100
AcDbLayerTableRecord
  2
Layer_1
 70
0
  6
CONTINUOUS
  0
ENDTAB
  0
TABLE
  2
STYLE
  5
3
330
0
100
AcDbSymbolTable
 70
     1
  0
STYLE
  5
11
330
3
100
AcDbSymbolTableRecord
100
AcDbTextStyleTableRecord
  2
STANDARD
 70
     0
 40
0.0
 41
1.0
 50
0.0
 71
     0
 42
2.5
  3
txt
  4

  0
ENDTAB
  0
TABLE
  2
VIEW
  5
6
330
0
100
AcDbSymbolTable
 70
     0
  0
ENDTAB
  0
TABLE
  2
UCS
  5
7
330
0
100
AcDbSymbolTable
 70
     0
  0
ENDTAB
  0
TABLE
  2
APPID
  5
9
330
0
100
AcDbSymbolTable
 70
     2
  0
APPID
  5
12
330
9
100
AcDbSymbolTableRecord
100
AcDbRegAppTableRecord
  2
ACAD
 70
     0
  0
ENDTAB
  0
TABLE
  2
DIMSTYLE
  5
A
330
0
100
AcDbSymbolTable
 70
     1
  0
DIMSTYLE
105
27
330
A
100
AcDbSymbolTableRecord
100
AcDbDimStyleTableRecord
  2
ISO-25
 70
     0
  3

  4

  5

  6

  7

 40
1.0
 41
2.5
 42
0.625
 43
3.75
 44
1.25
 45
0.0
 46
0.0
 47
0.0
 48
0.0
140
2.5
141
2.5
142
0.0
143
0.03937007874016
144
1.0
145
0.0
146
1.0
147
0.625
 71
     0
 72
     0
 73
     0
 74
     0
 75
     0
 76
     0
 77
     1
 78
     8
170
     0
171
     3
172
     1
173
     0
174
     0
175
     0
176
     0
177
     0
178
     0
270
     2
271
     2
272
     2
273
     2
274
     3
340
11
275
     0
280
     0
281
     0
282
     0
283
     0
284
     8
285
     0
286
     0
287
     3
288
     0
  0
ENDTAB
  0
TABLE
  2
BLOCK_RECORD
  5
1
330
0
100
AcDbSymbolTable
 70
     1
  0
BLOCK_RECORD
  5
1F
330
1
100
AcDbSymbolTableRecord
100
AcDbBlockTableRecord
  2
*MODEL_SPACE
  0
BLOCK_RECORD
  5
1B
330
1
100
AcDbSymbolTableRecord
100
AcDbBlockTableRecord
  2
*PAPER_SPACE
  0
ENDTAB
  0
ENDSEC
  0
SECTION
  2
BLOCKS
  0
BLOCK
  5
20
330
1F
100
AcDbEntity
  8
0
100
AcDbBlockBegin
  2
*MODEL_SPACE
 70
     0
 10
0.0
 20
0.0
 30
0.0
  3
*MODEL_SPACE
  1

  0
ENDBLK
  5
21
330
1F
100
AcDbEntity
  8
0
100
AcDbBlockEnd
  0
BLOCK
  5
1C
330
1B
100
AcDbEntity
 67
     1
  8
0
100
AcDbBlockBegin
  2
*PAPER_SPACE
  1

  0
ENDBLK
  5
1D
330
1B
100
AcDbEntity
 67
     1
  8
0
100
AcDbBlockEnd
  0
ENDSEC
  0
SECTION
  2
ENTITIES
  0
SPLINE
  5
100
100
AcDbEntity
  8
Layer_1
 62
7
100
AcDbSpline
 70
8
 71
3
 72
8
 73
4
 74
0
 40
0
 40
0
 40
0
 40
0
 40
1
 40
1
 40
1
 40
1
 10
30.753562
 20
274.346980
 30
0.0
 10
31.130392
 20
273.586466
 30
0.0
 10
31.216036
 20
272.712903
 30
0.0
 10
31.010492
 20
271.726291
 30
0.0
  0
SPLINE
  5
101
100
AcDbEntity
  8
Layer_1
 62
7
100
AcDbSpline
 70
8
 71
3
 72
8
 73
4
 74
0
 40
0
 40
0
 40
0
 40
0
 40
1
 40
1
 40
1
 40
1
 10
31.010492
 20
271.726291
 30
0.0
 10
30.736433
 20
270.451917
 30
0.0
 10
30.051286
 20
269.362533
 30
0.0
 10
28.955050
 20
268.458139
 30
0.0
  0
SPLINE
  5
102
100
AcDbEntity
  8
Layer_1
 62
7
100
AcDbSpline
 70
8
 71
3
 72
8
 73
4
 74
0
 40
0
 40
0
 40
0
 40
0
 40
1
 40
1
 40
1
 40
1
 10
28.955050
 20
268.458139
 30
0.0
 10
27.858814
 20
267.553744
 30
0.0
 10
26.673510
 20
267.101547
 30
0.0
 10
25.399136
 20
267.101547
 30
0.0
  0
LWPOLYLINE
  5
103
100
AcDbEntity
  8
Layer_1
 62
7
100
AcDbPolyline
 90
2
 70
0
 10
28.698120
 20
274.346980
 30
0.0
 10
30.753562
 20
274.346980
 30
0.0
  0
SPLINE
  5
104
100
AcDbEntity
  8
Layer_1
 62
7
100
AcDbSpline
 70
8
 71
3
 72
8
 73
4
 74
0
 40
0
 40
0
 40
0
 40
0
 40
1
 40
1
 40
1
 40
1
 10
26.272698
 20
271.212431
 30
0.0
 10
26.416579
 20
271.212431
 30
0.0
 10
26.546757
 20
271.260391
 30
0.0
 10
26.663232
 20
271.356312
 30
0.0
  0
SPLINE
  5
105
100
AcDbEntity
  8
Layer_1
 62
7
100
AcDbSpline
 70
8
 71
3
 72
8
 73
4
 74
0
 40
0
 40
0
 40
0
 40
0
 40
1
 40
1
 40
1
 40
1
 10
26.663232
 20
271.356312
 30
0.0
 10
26.786558
 20
271.459084
 30
0.0
 10
26.865350
 20
271.582410
 30
0.0
 10
26.899608
 20
271.726291
 30
0.0
  0
SPLINE
  5
106
100
AcDbEntity
  8
Layer_1
 62
7
100
AcDbSpline
 70
8
 71
3
 72
8
 73
4
 74
0
 40
0
 40
0
 40
0
 40
0
 40
1
 40
1
 40
1
 40
1
 10
26.899608
 20
271.726291
 30
0.0
 10
26.927014
 20
271.870172
 30
0.0
 10
26.899608
 20
271.990073
 30
0.0
 10
26.817388
 20
272.085994
 30
0.0
  0
SPLINE
  5
107
100
AcDbEntity
  8
Layer_1
 62
7
100
AcDbSpline
 70
8
 71
3
 72
8
 73
4
 74
0
 40
0
 40
0
 40
0
 40
0
 40
1
 40
1
 40
1
 40
1
 10
26.817388
 20
272.085994
 30
0.0
 10
26.742021
 20
272.188766
 30
0.0
 10
26.632397
 20
272.240152
 30
0.0
 10
26.488517
 20
272.240152
 30
0.0
  0
LWPOLYLINE
  5
108
100
AcDbEntity
  8
Layer_1
 62
7
100
AcDbPolyline
 90
4
 70
0
 10
25.399136
 20
267.101547
 30
0.0
 10
18.718949
 20
267.101547
 30
0.0
 10
19.592512
 20
271.212431
 30
0.0
 10
26.272698
 20
271.212431
 30
0.0
  0
SPLINE
  5
109
100
AcDbEntity
  8
Layer_1
 62
7
100
AcDbSpline
 70
8
 71
3
 72
8
 73
4
 74
0
 40
0
 40
0
 40
0
 40
0
 40
1
 40
1
 40
1
 40
1
 10
24.433078
 20
272.240152
 30
0.0
 10
23.158704
 20
272.240152
 30
0.0
 10
22.165240
 20
272.692349
 30
0.0
 10
21.452687
 20
273.596743
 30
0.0
  0
SPLINE
  5
10a
100
AcDbEntity
  8
Layer_1
 62
7
100
AcDbSpline
 70
8
 71
3
 72
8
 73
4
 74
0
 40
0
 40
0
 40
0
 40
0
 40
1
 40
1
 40
1
 40
1
 10
21.452687
 20
273.596743
 30
0.0
 10
21.267697
 20
273.836545
 30
0.0
 10
21.113539
 20
274.086624
 30
0.0
 10
20.990213
 20
274.346980
 30
0.0
  0
LWPOLYLINE
  5
10b
100
AcDbEntity
  8
Layer_1
 62
7
100
AcDbPolyline
 90
2
 70
0
 10
26.488517
 20
272.240152
 30
0.0
 10
24.433078
 20
272.240152
 30
0.0
  0
SPLINE
  5
10c
100
AcDbEntity
  8
Layer_1
 62
7
100
AcDbSpline
 70
8
 71
3
 72
8
 73
4
 74
0
 40
0
 40
0
 40
0
 40
0
 40
1
 40
1
 40
1
 40
1
 10
18.934771
 20
274.346980
 30
0.0
 10
18.599048
 20
275.086939
 30
0.0
 10
18.533959
 20
275.926244
 30
0.0
 10
18.739504
 20
276.864896
 30
0.0
  0
SPLINE
  5
10d
100
AcDbEntity
  8
Layer_1
 62
7
100
AcDbSpline
 70
8
 71
3
 72
8
 73
4
 74
0
 40
0
 40
0
 40
0
 40
0
 40
1
 40
1
 40
1
 40
1
 10
18.739504
 20
276.864896
 30
0.0
 10
19.006711
 20
278.139270
 30
0.0
 10
19.688432
 20
279.228654
 30
0.0
 10
20.784668
 20
280.133049
 30
0.0
  0
SPLINE
  5
10e
100
AcDbEntity
  8
Layer_1
 62
7
100
AcDbSpline
 70
8
 71
3
 72
8
 73
4
 74
0
 40
0
 40
0
 40
0
 40
0
 40
1
 40
1
 40
1
 40
1
 10
20.784668
 20
280.133049
 30
0.0
 10
21.887755
 20
281.037444
 30
0.0
 10
23.076486
 20
281.489641
 30
0.0
 10
24.350860
 20
281.489641
 30
0.0
  0
LWPOLYLINE
  5
10f
100
AcDbEntity
  8
Layer_1
 62
7
100
AcDbPolyline
 90
2
 70
0
 10
20.990213
 20
274.346980
 30
0.0
 10
18.934771
 20
274.346980
 30
0.0
  0
SPLINE
  5
110
100
AcDbEntity
  8
Layer_1
 62
7
100
AcDbSpline
 70
8
 71
3
 72
8
 73
4
 74
0
 40
0
 40
0
 40
0
 40
0
 40
1
 40
1
 40
1
 40
1
 10
23.477297
 20
277.378757
 30
0.0
 10
23.333416
 20
277.378757
 30
0.0
 10
23.199812
 20
277.327371
 30
0.0
 10
23.076486
 20
277.224598
 30
0.0
  0
SPLINE
  5
111
100
AcDbEntity
  8
Layer_1
 62
7
100
AcDbSpline
 70
8
 71
3
 72
8
 73
4
 74
0
 40
0
 40
0
 40
0
 40
0
 40
1
 40
1
 40
1
 40
1
 10
23.076486
 20
277.224598
 30
0.0
 10
22.953159
 20
277.128678
 30
0.0
 10
22.877793
 20
277.008777
 30
0.0
 10
22.850388
 20
276.864896
 30
0.0
  0
SPLINE
  5
112
100
AcDbEntity
  8
Layer_1
 62
7
100
AcDbSpline
 70
8
 71
3
 72
8
 73
4
 74
0
 40
0
 40
0
 40
0
 40
0
 40
1
 40
1
 40
1
 40
1
 10
22.850388
 20
276.864896
 30
0.0
 10
22.816128
 20
276.721015
 30
0.0
 10
22.836681
 20
276.597689
 30
0.0
 10
22.912048
 20
276.494917
 30
0.0
  0
SPLINE
  5
113
100
AcDbEntity
  8
Layer_1
 62
7
100
AcDbSpline
 70
8
 71
3
 72
8
 73
4
 74
0
 40
0
 40
0
 40
0
 40
0
 40
1
 40
1
 40
1
 40
1
 10
22.912048
 20
276.494917
 30
0.0
 10
22.994265
 20
276.398996
 30
0.0
 10
23.107314
 20
276.351036
 30
0.0
 10
23.251196
 20
276.351036
 30
0.0
  0
LWPOLYLINE
  5
114
100
AcDbEntity
  8
Layer_1
 62
7
100
AcDbPolyline
 90
4
 70
0
 10
24.350860
 20
281.489641
 30
0.0
 10
31.031047
 20
281.489641
 30
0.0
 10
30.157484
 20
277.378757
 30
0.0
 10
23.477297
 20
277.378757
 30
0.0
  0
SPLINE
  5
115
100
AcDbEntity
  8
Layer_1
 62
7
100
AcDbSpline
 70
8
 71
3
 72
8
 73
4
 74
0
 40
0
 40
0
 40
0
 40
0
 40
1
 40
1
 40
1
 40
1
 10
25.306638
 20
276.351036
 30
0.0
 10
26.581012
 20
276.351036
 30
0.0
 10
27.574475
 20
275.898839
 30
0.0
 10
28.287029
 20
274.994444
 30
0.0
  0
SPLINE
  5
116
100
AcDbEntity
  8
Layer_1
 62
7
100
AcDbSpline
 70
8
 71
3
 72
8
 73
4
 74
0
 40
0
 40
0
 40
0
 40
0
 40
1
 40
1
 40
1
 40
1
 10
28.287029
 20
274.994444
 30
0.0
 10
28.451464
 20
274.788900
 30
0.0
 10
28.588493
 20
274.573079
 30
0.0
 10
28.698117
 20
274.346980
 30
0.0
  0
LWPOLYLINE
  5
117
100
AcDbEntity
  8
Layer_1
 62
7
100
AcDbPolyline
 90
2
 70
0
 10
23.251196
 20
276.351036
 30
0.0
 10
25.306638
 20
276.351036
 30
0.0
  0
LWPOLYLINE
  5
118
100
AcDbEntity
  8
Layer_1
 62
7
100
AcDbPolyline
 90
1
 70
1
 10
28.698117
 20
274.346980
 30
0.0
  0
SPLINE
  5
119
100
AcDbEntity
  8
Layer_1
 62
7
100
AcDbSpline
 70
8
 71
3
 72
8
 73
4
 74
0
 40
0
 40
0
 40
0
 40
0
 40
1
 40
1
 40
1
 40
1
 10
37.639293
 20
276.351036
 30
0.0
 10
37.783173
 20
276.351036
 30
0.0
 10
37.913351
 20
276.398996
 30
0.0
 10
38.029827
 20
276.494917
 30
0.0
  0
SPLINE
  5
11a
100
AcDbEntity
  8
Layer_1
 62
7
100
AcDbSpline
 70
8
 71
3
 72
8
 73
4
 74
0
 40
0
 40
0
 40
0
 40
0
 40
1
 40
1
 40
1
 40
1
 10
38.029827
 20
276.494917
 30
0.0
 10
38.153153
 20
276.597689
 30
0.0
 10
38.231945
 20
276.721015
 30
0.0
 10
38.266203
 20
276.864896
 30
0.0
  0
SPLINE
  5
11b
100
AcDbEntity
  8
Layer_1
 62
7
100
AcDbSpline
 70
8
 71
3
 72
8
 73
4
 74
0
 40
0
 40
0
 40
0
 40
0
 40
1
 40
1
 40
1
 40
1
 10
38.266203
 20
276.864896
 30
0.0
 10
38.293609
 20
277.008777
 30
0.0
 10
38.269629
 20
277.128678
 30
0.0
 10
38.194263
 20
277.224598
 30
0.0
  0
SPLINE
  5
11c
100
AcDbEntity
  8
Layer_1
 62
7
100
AcDbSpline
 70
8
 71
3
 72
8
 73
4
 74
0
 40
0
 40
0
 40
0
 40
0
 40
1
 40
1
 40
1
 40
1
 10
38.194263
 20
277.224598
 30
0.0
 10
38.118897
 20
277.327371
 30
0.0
 10
38.009273
 20
277.378757
 30
0.0
 10
37.865392
 20
277.378757
 30
0.0
  0
LWPOLYLINE
  5
11d
100
AcDbEntity
  8
Layer_1
 62
7
100
AcDbPolyline
 90
3
 70
0
 10
35.296089
 20
277.378757
 30
0.0
 10
35.069990
 20
276.351036
 30
0.0
 10
37.639293
 20
276.351036
 30
0.0
  0
LWPOLYLINE
  5
11e
100
AcDbEntity
  8
Layer_1
 62
7
100
AcDbPolyline
 90
2
 70
0
 10
37.865392
 20
277.378757
 30
0.0
 10
35.296089
 20
277.378757
 30
0.0
  0
SPLINE
  5
11f
100
AcDbEntity
  8
Layer_1
 62
7
100
AcDbSpline
 70
8
 71
3
 72
8
 73
4
 74
0
 40
0
 40
0
 40
0
 40
0
 40
1
 40
1
 40
1
 40
1
 10
43.117046
 20
274.305871
 30
0.0
 10
42.897798
 20
274.059218
 30
0.0
 10
42.651145
 20
273.822842
 30
0.0
 10
42.377086
 20
273.596743
 30
0.0
  0
SPLINE
  5
120
100
AcDbEntity
  8
Layer_1
 62
7
100
AcDbSpline
 70
8
 71
3
 72
8
 73
4
 74
0
 40
0
 40
0
 40
0
 40
0
 40
1
 40
1
 40
1
 40
1
 10
42.377086
 20
273.596743
 30
0.0
 10
41.280850
 20
272.692349
 30
0.0
 10
40.095546
 20
272.240152
 30
0.0
 10
38.821172
 20
272.240152
 30
0.0
  0
LWPOLYLINE
  5
121
100
AcDbEntity
  8
Layer_1
 62
7
100
AcDbPolyline
 90
2
 70
0
 10
41.061604
 20
274.305871
 30
0.0
 10
43.117046
 20
274.305871
 30
0.0
  0
SPLINE
  5
122
100
AcDbEntity
  8
Layer_1
 62
7
100
AcDbSpline
 70
8
 71
3
 72
8
 73
4
 74
0
 40
0
 40
0
 40
0
 40
0
 40
1
 40
1
 40
1
 40
1
 10
38.738954
 20
281.489641
 30
0.0
 10
40.013328
 20
281.489641
 30
0.0
 10
41.003366
 20
281.037444
 30
0.0
 10
41.709068
 20
280.133049
 30
0.0
  0
SPLINE
  5
123
100
AcDbEntity
  8
Layer_1
 62
7
100
AcDbSpline
 70
8
 71
3
 72
8
 73
4
 74
0
 40
0
 40
0
 40
0
 40
0
 40
1
 40
1
 40
1
 40
1
 10
41.709068
 20
280.133049
 30
0.0
 10
42.421621
 20
279.228654
 30
0.0
 10
42.644294
 20
278.139270
 30
0.0
 10
42.377086
 20
276.864896
 30
0.0
  0
SPLINE
  5
124
100
AcDbEntity
  8
Layer_1
 62
7
100
AcDbSpline
 70
8
 71
3
 72
8
 73
4
 74
0
 40
0
 40
0
 40
0
 40
0
 40
1
 40
1
 40
1
 40
1
 10
42.377086
 20
276.864896
 30
0.0
 10
42.171542
 20
275.905690
 30
0.0
 10
41.733048
 20
275.052682
 30
0.0
 10
41.061604
 20
274.305871
 30
0.0
  0
LWPOLYLINE
  5
125
100
AcDbEntity
  8
Layer_1
 62
7
100
AcDbPolyline
 90
8
 70
0
 10
38.821172
 20
272.240152
 30
0.0
 10
36.251869
 20
272.240152
 30
0.0
 10
35.162485
 20
267.101547
 30
0.0
 10
31.051601
 20
267.101547
 30
0.0
 10
32.582906
 20
274.305871
 30
0.0
 10
30.527464
 20
274.305871
 30
0.0
 10
32.058768
 20
281.489641
 30
0.0
 10
38.738954
 20
281.489641
 30
0.0
  0
LWPOLYLINE
  5
126
100
AcDbEntity
  8
Layer_1
 62
7
100
AcDbPolyline
 90
1
 70
1
 10
41.061604
 20
274.305871
 30
0.0
  0
LWPOLYLINE
  5
127
100
AcDbEntity
  8
Layer_1
 62
7
100
AcDbPolyline
 90
3
 70
1
 10
48.646185
 20
274.295594
 30
0.0
 10
49.478639
 20
274.295594
 30
0.0
 10
49.396419
 20
275.816621
 30
0.0
  0
LWPOLYLINE
  5
128
100
AcDbEntity
  8
Layer_1
 62
7
100
AcDbPolyline
 90
4
 70
1
 10
50.711904
 20
274.295594
 30
0.0
 10
49.704737
 20
272.240152
 30
0.0
 10
51.647130
 20
272.240152
 30
0.0
 10
51.544358
 20
274.295594
 30
0.0
  0
LWPOLYLINE
  5
129
100
AcDbEntity
  8
Layer_1
 62
7
100
AcDbPolyline
 90
12
 70
1
 10
53.692295
 20
274.295594
 30
0.0
 10
55.758014
 20
274.295594
 30
0.0
 10
56.127994
 20
267.101547
 30
0.0
 10
51.914338
 20
267.101547
 30
0.0
 10
51.862948
 20
268.129268
 30
0.0
 10
47.690401
 20
268.129268
 30
0.0
 10
47.186818
 20
267.111824
 30
0.0
 10
42.973162
 20
267.111824
 30
0.0
 10
46.508522
 20
274.295594
 30
0.0
 10
44.442803
 20
274.295594
 30
0.0
 10
47.978163
 20
281.489641
 30
0.0
 10
53.322312
 20
281.489641
 30
0.0
  0
SPLINE
  5
12a
100
AcDbEntity
  8
Layer_1
 62
7
100
AcDbSpline
 70
8
 71
3
 72
8
 73
4
 74
0
 40
0
 40
0
 40
0
 40
0
 40
1
 40
1
 40
1
 40
1
 10
62.386814
 20
274.295591
 30
0.0
 10
62.201824
 20
273.446008
 30
0.0
 10
62.345705
 20
272.719752
 30
0.0
 10
62.818457
 20
272.116822
 30
0.0
  0
SPLINE
  5
12b
100
AcDbEntity
  8
Layer_1
 62
7
100
AcDbSpline
 70
8
 71
3
 72
8
 73
4
 74
0
 40
0
 40
0
 40
0
 40
0
 40
1
 40
1
 40
1
 40
1
 10
62.818457
 20
272.116822
 30
0.0
 10
63.298060
 20
271.513893
 30
0.0
 10
63.962653
 20
271.212428
 30
0.0
 10
64.812236
 20
271.212428
 30
0.0
  0
SPLINE
  5
12c
100
AcDbEntity
  8
Layer_1
 62
7
100
AcDbSpline
 70
8
 71
3
 72
8
 73
4
 74
0
 40
0
 40
0
 40
0
 40
0
 40
1
 40
1
 40
1
 40
1
 10
64.812236
 20
271.212428
 30
0.0
 10
65.661818
 20
271.212428
 30
0.0
 10
66.453163
 20
271.513893
 30
0.0
 10
67.186271
 20
272.116822
 30
0.0
  0
SPLINE
  5
12d
100
AcDbEntity
  8
Layer_1
 62
7
100
AcDbSpline
 70
8
 71
3
 72
8
 73
4
 74
0
 40
0
 40
0
 40
0
 40
0
 40
1
 40
1
 40
1
 40
1
 10
67.186271
 20
272.116822
 30
0.0
 10
67.768646
 20
272.596425
 30
0.0
 10
68.172883
 20
273.151395
 30
0.0
 10
68.398982
 20
273.781730
 30
0.0
  0
LWPOLYLINE
  5
12e
100
AcDbEntity
  8
Layer_1
 62
7
100
AcDbPolyline
 90
3
 70
0
 10
60.331372
 20
274.305871
 30
0.0
 10
62.386814
 20
274.305871
 30
0.0
 10
62.386814
 20
274.295591
 30
0.0
  0
SPLINE
  5
12f
100
AcDbEntity
  8
Layer_1
 62
7
100
AcDbSpline
 70
8
 71
3
 72
8
 73
4
 74
0
 40
0
 40
0
 40
0
 40
0
 40
1
 40
1
 40
1
 40
1
 10
72.530420
 20
273.781730
 30
0.0
 10
72.043965
 20
272.014050
 30
0.0
 10
71.026521
 20
270.489597
 30
0.0
 10
69.478089
 20
269.208372
 30
0.0
  0
SPLINE
  5
130
100
AcDbEntity
  8
Layer_1
 62
7
100
AcDbSpline
 70
8
 71
3
 72
8
 73
4
 74
0
 40
0
 40
0
 40
0
 40
0
 40
1
 40
1
 40
1
 40
1
 10
69.478089
 20
269.208372
 30
0.0
 10
67.772072
 20
267.803820
 30
0.0
 10
65.925600
 20
267.101544
 30
0.0
 10
63.938673
 20
267.101544
 30
0.0
  0
SPLINE
  5
131
100
AcDbEntity
  8
Layer_1
 62
7
100
AcDbSpline
 70
8
 71
3
 72
8
 73
4
 74
0
 40
0
 40
0
 40
0
 40
0
 40
1
 40
1
 40
1
 40
1
 10
63.938673
 20
267.101544
 30
0.0
 10
61.951745
 20
267.101544
 30
0.0
 10
60.403312
 20
267.803820
 30
0.0
 10
59.293374
 20
269.208372
 30
0.0
  0
SPLINE
  5
132
100
AcDbEntity
  8
Layer_1
 62
7
100
AcDbSpline
 70
8
 71
3
 72
8
 73
4
 74
0
 40
0
 40
0
 40
0
 40
0
 40
1
 40
1
 40
1
 40
1
 10
59.293374
 20
269.208372
 30
0.0
 10
58.190286
 20
270.612924
 30
0.0
 10
57.851138
 20
272.308664
 30
0.0
 10
58.275930
 20
274.295591
 30
0.0
  0
LWPOLYLINE
  5
133
100
AcDbEntity
  8
Layer_1
 62
7
100
AcDbPolyline
 90
2
 70
0
 10
68.398982
 20
273.781730
 30
0.0
 10
72.530420
 20
273.781730
 30
0.0
  0
SPLINE
  5
134
100
AcDbEntity
  8
Layer_1
 62
7
100
AcDbSpline
 70
8
 71
3
 72
8
 73
4
 74
0
 40
0
 40
0
 40
0
 40
0
 40
1
 40
1
 40
1
 40
1
 10
56.220488
 20
274.305871
 30
0.0
 10
56.638428
 20
276.285947
 30
0.0
 10
57.700406
 20
277.978261
 30
0.0
 10
59.406423
 20
279.382813
 30
0.0
  0
SPLINE
  5
135
100
AcDbEntity
  8
Layer_1
 62
7
100
AcDbSpline
 70
8
 71
3
 72
8
 73
4
 74
0
 40
0
 40
0
 40
0
 40
0
 40
1
 40
1
 40
1
 40
1
 10
59.406423
 20
279.382813
 30
0.0
 10
61.112440
 20
280.787365
 30
0.0
 10
62.958912
 20
281.489641
 30
0.0
 10
64.945839
 20
281.489641
 30
0.0
  0
SPLINE
  5
136
100
AcDbEntity
  8
Layer_1
 62
7
100
AcDbSpline
 70
8
 71
3
 72
8
 73
4
 74
0
 40
0
 40
0
 40
0
 40
0
 40
1
 40
1
 40
1
 40
1
 10
64.945839
 20
281.489641
 30
0.0
 10
66.932766
 20
281.489641
 30
0.0
 10
68.477773
 20
280.787365
 30
0.0
 10
69.580861
 20
279.382813
 30
0.0
  0
SPLINE
  5
137
100
AcDbEntity
  8
Layer_1
 62
7
100
AcDbSpline
 70
8
 71
3
 72
8
 73
4
 74
0
 40
0
 40
0
 40
0
 40
0
 40
1
 40
1
 40
1
 40
1
 10
69.580861
 20
279.382813
 30
0.0
 10
70.588027
 20
278.101587
 30
0.0
 10
70.958007
 20
276.577134
 30
0.0
 10
70.690800
 20
274.809454
 30
0.0
  0
LWPOLYLINE
  5
138
100
AcDbEntity
  8
Layer_1
 62
7
100
AcDbPolyline
 90
3
 70
0
 10
58.275930
 20
274.295591
 30
0.0
 10
58.275930
 20
274.305871
 30
0.0
 10
56.220488
 20
274.305871
 30
0.0
  0
SPLINE
  5
139
100
AcDbEntity
  8
Layer_1
 62
7
100
AcDbSpline
 70
8
 71
3
 72
8
 73
4
 74
0
 40
0
 40
0
 40
0
 40
0
 40
1
 40
1
 40
1
 40
1
 10
66.559361
 20
274.809454
 30
0.0
 10
66.600467
 20
275.446641
 30
0.0
 10
66.432606
 20
276.005036
 30
0.0
 10
66.055778
 20
276.484639
 30
0.0
  0
SPLINE
  5
13a
100
AcDbEntity
  8
Layer_1
 62
7
100
AcDbSpline
 70
8
 71
3
 72
8
 73
4
 74
0
 40
0
 40
0
 40
0
 40
0
 40
1
 40
1
 40
1
 40
1
 10
66.055778
 20
276.484639
 30
0.0
 10
65.583026
 20
277.080718
 30
0.0
 10
64.921859
 20
277.378757
 30
0.0
 10
64.072277
 20
277.378757
 30
0.0
  0
SPLINE
  5
13b
100
AcDbEntity
  8
Layer_1
 62
7
100
AcDbSpline
 70
8
 71
3
 72
8
 73
4
 74
0
 40
0
 40
0
 40
0
 40
0
 40
1
 40
1
 40
1
 40
1
 10
64.072277
 20
277.378757
 30
0.0
 10
63.222694
 20
277.378757
 30
0.0
 10
62.431349
 20
277.080718
 30
0.0
 10
61.698241
 20
276.484639
 30
0.0
  0
SPLINE
  5
13c
100
AcDbEntity
  8
Layer_1
 62
7
100
AcDbSpline
 70
8
 71
3
 72
8
 73
4
 74
0
 40
0
 40
0
 40
0
 40
0
 40
1
 40
1
 40
1
 40
1
 10
61.698241
 20
276.484639
 30
0.0
 10
60.965133
 20
275.881710
 30
0.0
 10
60.509510
 20
275.155454
 30
0.0
 10
60.331372
 20
274.305871
 30
0.0
  0
LWPOLYLINE
  5
13d
100
AcDbEntity
  8
Layer_1
 62
7
100
AcDbPolyline
 90
2
 70
0
 10
70.690800
 20
274.809454
 30
0.0
 10
66.559361
 20
274.809454
 30
0.0
  0
LWPOLYLINE
  5
13e
100
AcDbEntity
  8
Layer_1
 62
7
100
AcDbPolyline
 90
1
 70
1
 10
60.331372
 20
274.305871
 30
0.0
  0
LWPOLYLINE
  5
13f
100
AcDbEntity
  8
Layer_1
 62
7
100
AcDbPolyline
 90
16
 70
1
 10
78.830349
 20
274.305871
 30
0.0
 10
80.885790
 20
274.305871
 30
0.0
 10
80.443870
 20
272.240152
 30
0.0
 10
77.360708
 20
272.240152
 30
0.0
 10
77.144886
 20
271.212431
 30
0.0
 10
80.228049
 20
271.212431
 30
0.0
 10
79.354486
 20
267.101547
 30
0.0
 10
72.160439
 20
267.101547
 30
0.0
 10
73.691744
 20
274.305871
 30
0.0
 10
71.636302
 20
274.305871
 30
0.0
 10
73.167606
 20
281.489641
 30
0.0
 10
80.361653
 20
281.489641
 30
0.0
 10
79.488090
 20
277.378757
 30
0.0
 10
76.404927
 20
277.378757
 30
0.0
 10
76.178828
 20
276.351036
 30
0.0
 10
79.261991
 20
276.351036
 30
0.0
  0
LWPOLYLINE
  5
140
100
AcDbEntity
  8
Layer_1
 62
7
100
AcDbPolyline
 90
17
 70
1
 10
81.913511
 20
274.305871
 30
0.0
 10
79.858069
 20
274.305871
 30
0.0
 10
81.389373
 20
281.489641
 30
0.0
 10
85.500257
 20
281.489641
 30
0.0
 10
87.052116
 20
274.305871
 30
0.0
 10
87.062396
 20
274.305871
 30
0.0
 10
91.666586
 20
281.489641
 30
0.0
 10
95.777470
 20
281.489641
 30
0.0
 10
94.246166
 20
274.305871
 30
0.0
 10
96.301608
 20
274.305871
 30
0.0
 10
94.770304
 20
267.101547
 30
0.0
 10
90.659420
 20
267.101547
 30
0.0
 10
92.190724
 20
274.295594
 30
0.0
 10
87.576257
 20
267.101547
 30
0.0
 10
86.024398
 20
274.295594
 30
0.0
 10
84.493094
 20
267.101547
 30
0.0
 10
80.382210
 20
267.101547
 30
0.0
  0
SPLINE
  5
141
100
AcDbEntity
  8
Layer_1
 62
7
100
AcDbSpline
 70
8
 71
3
 72
8
 73
4
 74
0
 40
0
 40
0
 40
0
 40
0
 40
1
 40
1
 40
1
 40
1
 10
105.561368
 20
274.346980
 30
0.0
 10
105.725801
 20
275.182859
 30
0.0
 10
105.575068
 20
275.895412
 30
0.0
 10
105.109168
 20
276.484639
 30
0.0
  0
SPLINE
  5
142
100
AcDbEntity
  8
Layer_1
 62
7
100
AcDbSpline
 70
8
 71
3
 72
8
 73
4
 74
0
 40
0
 40
0
 40
0
 40
0
 40
1
 40
1
 40
1
 40
1
 10
105.109168
 20
276.484639
 30
0.0
 10
104.636421
 20
277.080718
 30
0.0
 10
103.975254
 20
277.378757
 30
0.0
 10
103.125668
 20
277.378757
 30
0.0
  0
SPLINE
  5
143
100
AcDbEntity
  8
Layer_1
 62
7
100
AcDbSpline
 70
8
 71
3
 72
8
 73
4
 74
0
 40
0
 40
0
 40
0
 40
0
 40
1
 40
1
 40
1
 40
1
 10
103.125668
 20
277.378757
 30
0.0
 10
102.276088
 20
277.378757
 30
0.0
 10
101.484744
 20
277.080718
 30
0.0
 10
100.751638
 20
276.484639
 30
0.0
  0
SPLINE
  5
144
100
AcDbEntity
  8
Layer_1
 62
7
100
AcDbSpline
 70
8
 71
3
 72
8
 73
4
 74
0
 40
0
 40
0
 40
0
 40
0
 40
1
 40
1
 40
1
 40
1
 10
100.751638
 20
276.484639
 30
0.0
 10
100.032231
 20
275.895412
 30
0.0
 10
99.580034
 20
275.182859
 30
0.0
 10
99.395048
 20
274.346980
 30
0.0
  0
LWPOLYLINE
  5
145
100
AcDbEntity
  8
Layer_1
 62
7
100
AcDbPolyline
 90
2
 70
0
 10
107.616808
 20
274.346980
 30
0.0
 10
105.561368
 20
274.346980
 30
0.0
  0
SPLINE
  5
146
100
AcDbEntity
  8
Layer_1
 62
7
100
AcDbSpline
 70
8
 71
3
 72
8
 73
4
 74
0
 40
0
 40
0
 40
0
 40
0
 40
1
 40
1
 40
1
 40
1
 10
101.450488
 20
274.346980
 30
0.0
 10
101.450488
 20
274.333273
 30
0.0
 10
101.447054
 20
274.316143
 30
0.0
 10
101.440188
 20
274.295590
 30
0.0
  0
SPLINE
  5
147
100
AcDbEntity
  8
Layer_1
 62
7
100
AcDbSpline
 70
8
 71
3
 72
8
 73
4
 74
0
 40
0
 40
0
 40
0
 40
0
 40
1
 40
1
 40
1
 40
1
 10
101.440188
 20
274.295590
 30
0.0
 10
101.255201
 20
273.446007
 30
0.0
 10
101.399081
 20
272.719751
 30
0.0
 10
101.871828
 20
272.116821
 30
0.0
  0
SPLINE
  5
148
100
AcDbEntity
  8
Layer_1
 62
7
100
AcDbSpline
 70
8
 71
3
 72
8
 73
4
 74
0
 40
0
 40
0
 40
0
 40
0
 40
1
 40
1
 40
1
 40
1
 10
101.871828
 20
272.116821
 30
0.0
 10
102.351434
 20
271.513892
 30
0.0
 10
103.016028
 20
271.212427
 30
0.0
 10
103.865608
 20
271.212427
 30
0.0
  0
SPLINE
  5
149
100
AcDbEntity
  8
Layer_1
 62
7
100
AcDbSpline
 70
8
 71
3
 72
8
 73
4
 74
0
 40
0
 40
0
 40
0
 40
0
 40
1
 40
1
 40
1
 40
1
 10
103.865608
 20
271.212427
 30
0.0
 10
104.715194
 20
271.212427
 30
0.0
 10
105.503114
 20
271.513892
 30
0.0
 10
106.229368
 20
272.116821
 30
0.0
  0
SPLINE
  5
14a
100
AcDbEntity
  8
Layer_1
 62
7
100
AcDbSpline
 70
8
 71
3
 72
8
 73
4
 74
0
 40
0
 40
0
 40
0
 40
0
 40
1
 40
1
 40
1
 40
1
 10
106.229368
 20
272.116821
 30
0.0
 10
106.962474
 20
272.719751
 30
0.0
 10
107.421524
 20
273.446007
 30
0.0
 10
107.606518
 20
274.295590
 30
0.0
  0
SPLINE
  5
14b
100
AcDbEntity
  8
Layer_1
 62
7
100
AcDbSpline
 70
8
 71
3
 72
8
 73
4
 74
0
 40
0
 40
0
 40
0
 40
0
 40
1
 40
1
 40
1
 40
1
 10
107.606518
 20
274.295590
 30
0.0
 10
107.613384
 20
274.316143
 30
0.0
 10
107.616818
 20
274.333273
 30
0.0
 10
107.616818
 20
274.346980
 30
0.0
  0
LWPOLYLINE
  5
14c
100
AcDbEntity
  8
Layer_1
 62
7
100
AcDbPolyline
 90
2
 70
0
 10
99.395048
 20
274.346980
 30
0.0
 10
101.450488
 20
274.346980
 30
0.0
  0
LWPOLYLINE
  5
14d
100
AcDbEntity
  8
Layer_1
 62
7
100
AcDbPolyline
 90
1
 70
1
 10
107.616818
 20
274.346980
 30
0.0
  0
SPLINE
  5
14e
100
AcDbEntity
  8
Layer_1
 62
7
100
AcDbSpline
 70
8
 71
3
 72
8
 73
4
 74
0
 40
0
 40
0
 40
0
 40
0
 40
1
 40
1
 40
1
 40
1
 10
95.284160
 20
274.346980
 30
0.0
 10
95.708951
 20
276.313353
 30
0.0
 10
96.767504
 20
277.991964
 30
0.0
 10
98.459818
 20
279.382813
 30
0.0
  0
SPLINE
  5
14f
100
AcDbEntity
  8
Layer_1
 62
7
100
AcDbSpline
 70
8
 71
3
 72
8
 73
4
 74
0
 40
0
 40
0
 40
0
 40
0
 40
1
 40
1
 40
1
 40
1
 10
98.459818
 20
279.382813
 30
0.0
 10
100.165831
 20
280.787365
 30
0.0
 10
102.012304
 20
281.489641
 30
0.0
 10
103.999238
 20
281.489641
 30
0.0
  0
SPLINE
  5
150
100
AcDbEntity
  8
Layer_1
 62
7
100
AcDbSpline
 70
8
 71
3
 72
8
 73
4
 74
0
 40
0
 40
0
 40
0
 40
0
 40
1
 40
1
 40
1
 40
1
 10
103.999238
 20
281.489641
 30
0.0
 10
105.986164
 20
281.489641
 30
0.0
 10
107.531171
 20
280.787365
 30
0.0
 10
108.634258
 20
279.382813
 30
0.0
  0
SPLINE
  5
151
100
AcDbEntity
  8
Layer_1
 62
7
100
AcDbSpline
 70
8
 71
3
 72
8
 73
4
 74
0
 40
0
 40
0
 40
0
 40
0
 40
1
 40
1
 40
1
 40
1
 10
108.634258
 20
279.382813
 30
0.0
 10
109.730491
 20
277.991964
 30
0.0
 10
110.076491
 20
276.313353
 30
0.0
 10
109.672258
 20
274.346980
 30
0.0
  0
LWPOLYLINE
  5
152
100
AcDbEntity
  8
Layer_1
 62
7
100
AcDbPolyline
 90
2
 70
0
 10
97.339602
 20
274.346980
 30
0.0
 10
95.284160
 20
274.346980
 30
0.0
  0
SPLINE
  5
153
100
AcDbEntity
  8
Layer_1
 62
7
100
AcDbSpline
 70
8
 71
3
 72
8
 73
4
 74
0
 40
0
 40
0
 40
0
 40
0
 40
1
 40
1
 40
1
 40
1
 10
111.727698
 20
274.346980
 30
0.0
 10
111.727698
 20
274.333273
 30
0.0
 10
111.724264
 20
274.316143
 30
0.0
 10
111.717398
 20
274.295590
 30
0.0
  0
SPLINE
  5
154
100
AcDbEntity
  8
Layer_1
 62
7
100
AcDbSpline
 70
8
 71
3
 72
8
 73
4
 74
0
 40
0
 40
0
 40
0
 40
0
 40
1
 40
1
 40
1
 40
1
 10
111.717398
 20
274.295590
 30
0.0
 10
111.292604
 20
272.308663
 30
0.0
 10
110.227201
 20
270.612923
 30
0.0
 10
108.521188
 20
269.208371
 30
0.0
  0
SPLINE
  5
155
100
AcDbEntity
  8
Layer_1
 62
7
100
AcDbSpline
 70
8
 71
3
 72
8
 73
4
 74
0
 40
0
 40
0
 40
0
 40
0
 40
1
 40
1
 40
1
 40
1
 10
108.521188
 20
269.208371
 30
0.0
 10
106.822021
 20
267.803819
 30
0.0
 10
104.978974
 20
267.101543
 30
0.0
 10
102.992048
 20
267.101543
 30
0.0
  0
SPLINE
  5
156
100
AcDbEntity
  8
Layer_1
 62
7
100
AcDbSpline
 70
8
 71
3
 72
8
 73
4
 74
0
 40
0
 40
0
 40
0
 40
0
 40
1
 40
1
 40
1
 40
1
 10
102.992048
 20
267.101543
 30
0.0
 10
101.005121
 20
267.101543
 30
0.0
 10
99.456688
 20
267.803819
 30
0.0
 10
98.346748
 20
269.208371
 30
0.0
  0
SPLINE
  5
157
100
AcDbEntity
  8
Layer_1
 62
7
100
AcDbSpline
 70
8
 71
3
 72
8
 73
4
 74
0
 40
0
 40
0
 40
0
 40
0
 40
1
 40
1
 40
1
 40
1
 10
98.346748
 20
269.208371
 30
0.0
 10
97.243660
 20
270.612923
 30
0.0
 10
96.904513
 20
272.308663
 30
0.0
 10
97.329305
 20
274.295590
 30
0.0
  0
SPLINE
  5
158
100
AcDbEntity
  8
Layer_1
 62
7
100
AcDbSpline
 70
8
 71
3
 72
8
 73
4
 74
0
 40
0
 40
0
 40
0
 40
0
 40
1
 40
1
 40
1
 40
1
 10
97.329305
 20
274.295590
 30
0.0
 10
97.336158
 20
274.316143
 30
0.0
 10
97.339585
 20
274.333273
 30
0.0
 10
97.339585
 20
274.346980
 30
0.0
  0
LWPOLYLINE
  5
159
100
AcDbEntity
  8
Layer_1
 62
7
100
AcDbPolyline
 90
2
 70
0
 10
109.672258
 20
274.346980
 30
0.0
 10
111.727698
 20
274.346980
 30
0.0
  0
LWPOLYLINE
  5
15a
100
AcDbEntity
  8
Layer_1
 62
7
100
AcDbPolyline
 90
1
 70
1
 10
97.339585
 20
274.346980
 30
0.0
  0
LWPOLYLINE
  5
15b
100
AcDbEntity
  8
Layer_1
 62
7
100
AcDbPolyline
 90
15
 70
1
 10
116.845748
 20
274.254485
 30
0.0
 10
115.324718
 20
267.101547
 30
0.0
 10
111.213838
 20
267.101547
 30
0.0
 10
112.734868
 20
274.254485
 30
0.0
 10
110.679418
 20
274.254485
 30
0.0
 10
112.221008
 20
281.489641
 30
0.0
 10
116.331888
 20
281.489641
 30
0.0
 10
117.883748
 20
274.295594
 30
0.0
 10
119.415048
 20
281.489641
 30
0.0
 10
123.525938
 20
281.489641
 30
0.0
 10
121.984358
 20
274.254485
 30
0.0
 10
124.039798
 20
274.254485
 30
0.0
 10
122.518768
 20
267.101547
 30
0.0
 10
118.407888
 20
267.101547
 30
0.0
 10
116.866298
 20
274.254485
 30
0.0
  0
LWPOLYLINE
  5
15c
100
AcDbEntity
  8
Layer_1
 62
7
100
AcDbPolyline
 90
15
 70
1
 10
131.572988
 20
274.254485
 30
0.0
 10
133.628428
 20
274.254485
 30
0.0
 10
136.392998
 20
267.101547
 30
0.0
 10
131.665478
 20
267.101547
 30
0.0
 10
129.075628
 20
273.781733
 30
0.0
 10
127.657368
 20
267.101547
 30
0.0
 10
123.546488
 20
267.101547
 30
0.0
 10
125.067518
 20
274.254485
 30
0.0
 10
123.012068
 20
274.254485
 30
0.0
 10
124.553658
 20
281.489641
 30
0.0
 10
128.664538
 20
281.489641
 30
0.0
 10
127.236008
 20
274.809454
 30
0.0
 10
132.672648
 20
281.489641
 30
0.0
 10
137.400168
 20
281.489641
 30
0.0
 10
131.552438
 20
274.295594
 30
0.0
  0
LWPOLYLINE
  5
15d
100
AcDbEntity
  8
Layer_1
 62
7
100
AcDbPolyline
 90
16
 70
1
 10
143.576768
 20
274.305871
 30
0.0
 10
145.632208
 20
274.305871
 30
0.0
 10
145.190288
 20
272.240152
 30
0.0
 10
142.107128
 20
272.240152
 30
0.0
 10
141.891308
 20
271.212431
 30
0.0
 10
144.974468
 20
271.212431
 30
0.0
 10
144.100908
 20
267.101547
 30
0.0
 10
136.906858
 20
267.101547
 30
0.0
 10
138.438168
 20
274.305871
 30
0.0
 10
136.382728
 20
274.305871
 30
0.0
 10
137.914028
 20
281.489641
 30
0.0
 10
145.108078
 20
281.489641
 30
0.0
 10
144.234508
 20
277.378757
 30
0.0
 10
141.151348
 20
277.378757
 30
0.0
 10
140.925248
 20
276.351036
 30
0.0
 10
144.008418
 20
276.351036
 30
0.0
  0
LWPOLYLINE
  5
15e
100
AcDbEntity
  8
Layer_1
 62
7
100
AcDbPolyline
 90
13
 70
1
 10
149.743098
 20
274.305871
 30
0.0
 10
147.687658
 20
274.305871
 30
0.0
 10
145.621938
 20
281.489641
 30
0.0
 10
150.349458
 20
281.489641
 30
0.0
 10
151.469668
 20
277.584301
 30
0.0
 10
154.254798
 20
281.489641
 30
0.0
 10
158.982308
 20
281.489641
 30
0.0
 10
153.853988
 20
274.305871
 30
0.0
 10
155.909428
 20
274.305871
 30
0.0
 10
154.439788
 20
272.250429
 30
0.0
 10
153.350398
 20
267.101547
 30
0.0
 10
149.239518
 20
267.101547
 30
0.0
 10
150.328898
 20
272.250429
 30
0.0
  0
LWPOLYLINE
  5
15f
100
AcDbEntity
  8
Layer_1
 62
7
100
AcDbPolyline
 90
4
 70
1
 10
163.473448
 20
271.212431
 30
0.0
 10
162.599888
 20
267.101547
 30
0.0
 10
158.488998
 20
267.101547
 30
0.0
 10
159.362558
 20
271.212431
 30
0.0
  0
LWPOLYLINE
  5
160
100
AcDbEntity
  8
Layer_1
 62
7
100
AcDbPolyline
 90
8
 70
1
 10
160.020308
 20
274.305871
 30
0.0
 10
157.964858
 20
274.305871
 30
0.0
 10
159.496168
 20
281.489641
 30
0.0
 10
163.607048
 20
281.489641
 30
0.0
 10
162.075748
 20
274.305871
 30
0.0
 10
164.131188
 20
274.305871
 30
0.0
 10
163.689268
 20
272.240152
 30
0.0
 10
159.578388
 20
272.240152
 30
0.0
  0
ENDSEC
  0
SECTION
  2
OBJECTS
  0
DICTIONARY
  5
C
330
0
100
AcDbDictionary
  3
ACAD_GROUP
350
D
  3
ACAD_MLINESTYLE
350
17
  0
DICTIONARY
  5
D
330
C
100
AcDbDictionary
  0
DICTIONARY
  5
1A
330
C
100
AcDbDictionary
  0
DICTIONARY
  5
17
330
C
100
AcDbDictionary
  3
STANDARD
350
18
  0
DICTIONARY
  5
19
330
C
100
AcDbDictionary
  0
ENDSEC
  0
EOF
