0
SECTION
2
HEADER
9
$INSUNITS
70
4
9
$ACADVER
1
AC1014
9
$HANDSEED
5
FFFF
0
ENDSEC
0
SECTION
2
TABLES
0
TABLE
2
VPORT
5
8
100
AcDbSymbolTable
0
ENDTAB
0
TABLE
2
LTYPE
5
5
100
AcDbSymbolTable
0
LTYPE
5
14
100
AcDbSymbolTableRecord
100
AcDbLinetypeTableRecord
2
BYBLOCK
70
0
0
LTYPE
5
15
100
AcDbSymbolTableRecord
100
AcDbLinetypeTableRecord
2
BYLAYER
70
0
0
ENDTAB
0
TABLE
2
LAYER
5
2
100
AcDbSymbolTable
70
2
0
LAYER
5
50
100
AcDbSymbolTableRecord
100
AcDbLayerTableRecord
2
0
70
0
6
CONTINUOUS
0
ENDTAB
0
TABLE
2
STYLE
5
3
100
AcDbSymbolTable
70
1
0
STYLE
5
11
100
AcDbSymbolTableRecord
100
AcDbTextStyleTableRecord
2
STANDARD
70
0
0
ENDTAB
0
TABLE
2
VIEW
5
6
100
AcDbSymbolTable
70
0
0
ENDTAB
0
TABLE
2
UCS
5
7
100
AcDbSymbolTable
70
0
0
ENDTAB
0
TABLE
2
APPID
5
9
100
AcDbSymbolTable
70
2
0
APPID
5
12
100
AcDbSymbolTableRecord
100
AcDbRegAppTableRecord
2
ACAD
70
0
0
ENDTAB
0
TABLE
2
DIMSTYLE
5
A
100
AcDbSymbolTable
70
1
0
ENDTAB
0
TABLE
2
BLOCK_RECORD
5
1
100
AcDbSymbolTable
70
1
0
BLOCK_RECORD
5
1F
100
AcDbSymbolTableRecord
100
AcDbBlockTableRecord
2
*MODEL_SPACE
0
BLOCK_RECORD
5
1B
100
AcDbSymbolTableRecord
100
AcDbBlockTableRecord
2
*PAPER_SPACE
0
ENDTAB
0
ENDSEC
0
SECTION
2
BLOCKS
0
BLOCK
5
20
100
AcDbEntity
100
AcDbBlockBegin
2
*MODEL_SPACE
0
ENDBLK
5
21
100
AcDbEntity
100
AcDbBlockEnd
0
BLOCK
5
1C
100
AcDbEntity
100
AcDbBlockBegin
2
*PAPER_SPACE
0
ENDBLK
5
1D
100
AcDbEntity
100
AcDbBlockEnd
0
ENDSEC
0
SECTION
2
ENTITIES
0
LWPOLYLINE
5
100
100
AcDbEntity
8
0
100
AcDbPolyline
90
4
70
1
43
0.0
10
50
20
0
10
0
20
0
10
0
20
50
10
50
20
50
0
LWPOLYLINE
5
101
100
AcDbEntity
8
0
100
AcDbPolyline
90
4
70
1
43
0.0
10
13.411200935875375
20
7.2164496600635175e-15
10
10.411200935875371
20
7.2164496600635175e-15
10
10.411200935875371
20
5.0000000000000053
10
13.411200935875375
20
5.0000000000000036
0
LINE
5
102
100
AcDbEntity
8
0
100
AcDbLine
10
25
20
0
30
0
11
25
21
50
31
0
0
LINE
5
103
100
AcDbEntity
8
0
100
AcDbLine
10
39.588799064124629
20
5.0000000000000053
30
0
11
39.588799064124629
21
7.2164496600635175e-15
31
0
0
LINE
5
104
100
AcDbEntity
8
0
100
AcDbLine
10
36.588799064124629
20
5.0000000000000036
30
0
11
39.588799064124629
21
5.0000000000000053
31
0
0
LINE
5
105
100
AcDbEntity
8
0
100
AcDbLine
10
36.588799064124629
20
7.2164496600635175e-15
30
0
11
36.588799064124629
21
5.0000000000000036
31
0
0
LINE
5
106
100
AcDbEntity
8
0
100
AcDbLine
10
0
20
0
30
0
11
50
21
50
31
0
0
LINE
5
107
100
AcDbEntity
8
0
100
AcDbLine
10
5.0000000000000044
20
39.588799064124629
30
0
11
3.7697737109533706e-15
21
39.588799064124636
31
0
0
LINE
5
108
100
AcDbEntity
8
0
100
AcDbLine
10
5
20
36.588799064124629
30
0
11
5.0000000000000044
21
39.588799064124629
31
0
0
LINE
5
109
100
AcDbEntity
8
0
100
AcDbLine
10
3.7902109918804893e-15
20
36.588799064124629
30
0
11
5
21
36.588799064124629
31
0
0
LINE
5
110
100
AcDbEntity
8
0
100
AcDbLine
10
6.687857755733334e-15
20
13.411200935875375
30
0
11
5.0000000000000018
21
13.411200935875376
31
0
0
LINE
5
111
100
AcDbEntity
8
0
100
AcDbLine
10
5.0000000000000018
20
13.411200935875376
30
0
11
5.0000000000000053
21
10.411200935875371
31
0
0
LINE
5
112
100
AcDbEntity
8
0
100
AcDbLine
10
5.0000000000000053
20
10.411200935875371
30
0
11
7.8338515134465796e-15
21
10.411200935875371
31
0
0
LINE
5
113
100
AcDbEntity
8
0
100
AcDbLine
10
0
20
25
30
0
11
50
21
25
31
0
0
LINE
5
114
100
AcDbEntity
8
0
100
AcDbLine
10
10.411200935875371
20
45
30
0
11
10.411200935875371
21
49.999999999999993
31
0
0
LINE
5
115
100
AcDbEntity
8
0
100
AcDbLine
10
13.411200935875375
20
45
30
0
11
10.411200935875371
21
45
31
0
0
LINE
5
116
100
AcDbEntity
8
0
100
AcDbLine
10
13.411200935875375
20
49.999999999999993
30
0
11
13.411200935875375
21
45
31
0
0
LINE
5
117
100
AcDbEntity
8
0
100
AcDbLine
10
36.588799064124629
20
49.999999999999993
30
0
11
36.588799064124629
21
45
31
0
0
LINE
5
118
100
AcDbEntity
8
0
100
AcDbLine
10
36.588799064124629
20
45
30
0
11
39.588799064124629
21
45
31
0
0
LINE
5
119
100
AcDbEntity
8
0
100
AcDbLine
10
39.588799064124629
20
45
30
0
11
39.588799064124629
21
49.999999999999993
31
0
0
LINE
5
120
100
AcDbEntity
8
0
100
AcDbLine
10
44.999999999999972
20
39.588799064124629
30
0
11
50
21
39.588799064124636
31
0
0
LINE
5
121
100
AcDbEntity
8
0
100
AcDbLine
10
45
20
36.588799064124629
30
0
11
44.999999999999972
21
39.588799064124629
31
0
0
LINE
5
122
100
AcDbEntity
8
0
100
AcDbLine
10
50
20
36.588799064124629
30
0
11
45
21
36.588799064124629
31
0
0
LINE
5
123
100
AcDbEntity
8
0
100
AcDbLine
10
49.999999999999993
20
13.411200935875375
30
0
11
45
21
13.411200935875376
31
0
0
LINE
5
124
100
AcDbEntity
8
0
100
AcDbLine
10
45
20
13.411200935875376
30
0
11
45
21
10.411200935875371
31
0
0
LINE
5
125
100
AcDbEntity
8
0
100
AcDbLine
10
45
20
10.411200935875371
30
0
11
49.999999999999993
21
10.411200935875371
31
0
0
LWPOLYLINE
5
126
100
AcDbEntity
8
0
100
AcDbPolyline
90
36
70
1
43
0.0
10
120.51005795680382
20
6.6587975061678577
10
117.51005795680382
20
6.6587975061678542
10
117.51005795680382
20
1.6587975061678251
10
97.003845920466318
20
1.6587975061678417
10
97.003845920466318
20
6.6587975061678462
10
94.003845920466318
20
6.6587975061678462
10
94.003845920466318
20
1.6587975061678448
10
82.256951938634984
20
1.6587975061678661
10
82.256951938635027
20
13.405691487999178
10
87.256951938635012
20
13.405691487999164
10
87.256951938635012
20
16.405691487999174
10
82.256951938635069
20
16.405691487999178
10
82.256951938635083
20
36.911903524336708
10
87.256951938635126
20
36.911903524336672
10
87.25695193863514
20
39.911903524336701
10
82.256951938635098
20
39.911903524336708
10
82.25695193863514
20
51.658797506167872
10
94.00384592046646
20
51.658797506167829
10
94.003845920466404
20
46.658797506167829
10
97.003845920466404
20
46.658797506167815
10
97.00384592046646
20
51.658797506167815
10
117.51005795680396
20
51.65879750616773
10
117.51005795680391
20
46.658797506167708
10
120.51005795680391
20
46.658797506167701
10
120.51005795680396
20
51.658797506167708
10
132.25695193863498
20
51.658797506167659
10
132.25695193863498
20
39.911903524336722
10
127.25695193863496
20
39.911903524336708
10
127.25695193863496
20
36.911903524336694
10
132.25695193863498
20
36.911903524336722
10
132.25695193863498
20
16.405691487999196
10
127.25695193863513
20
16.405691487999189
10
127.25695193863513
20
13.405691487999176
10
132.25695193863498
20
13.405691487999194
10
132.25695193863498
20
1.6587975061678917
10
120.51005795680382
20
1.6587975061678439
0
LINE
5
127
100
AcDbEntity
8
0
100
AcDbLine
10
82.256951938635069
20
26.658797506167868
30
0
11
132.25695193863498
21
26.658797506167748
31
0
0
LINE
5
128
100
AcDbEntity
8
0
100
AcDbLine
10
107.25695193863507
20
1.6587975061678215
30
0
11
107.25695193863504
21
51.658797506167772
31
0
0
LINE
5
129
100
AcDbEntity
8
0
100
AcDbLine
10
82.256951938634984
20
1.658797506167865
30
0
11
132.25695193863498
21
51.658797506167659
31
0
0
LINE
5
130
100
AcDbEntity
8
0
100
AcDbLine
10
142.23325855884406
20
1.658797506167865
30
0
11
192.23325855884397
21
51.658797506167637
31
0
0
LWPOLYLINE
5
131
100
AcDbEntity
8
0
100
AcDbPolyline
90
36
70
1
43
0.0
10
147.23325855884417
20
39.888210144545738
10
147.23325855884417
20
36.988210144545732
10
142.23325855884414
20
36.988210144545739
10
142.23325855884408
20
16.329384867790139
10
147.23325855884408
20
16.329384867790125
10
147.23325855884406
20
13.429384867790136
10
142.23325855884408
20
13.429384867790134
10
142.23325855884406
20
1.658797506167865
10
154.00384592046632
20
1.658797506167845
10
154.00384592046632
20
6.6587975061678462
10
156.9038459204663
20
6.6587975061678435
10
156.9038459204663
20
1.6587975061678422
10
177.56267119722193
20
1.6587975061678251
10
177.56267119722193
20
6.6587975061678595
10
180.46267119722191
20
6.658797506167863
10
180.46267119722191
20
1.6587975061678373
10
192.23325855884406
20
1.6587975061678839
10
192.23325855884406
20
13.429384867790169
10
187.23325855884414
20
13.429384867790164
10
187.23325855884414
20
16.329384867790154
10
192.23325855884406
20
16.329384867790175
10
192.23325855884406
20
36.988210144545775
10
187.23325855884397
20
36.988210144545761
10
187.23325855884397
20
39.888210144545766
10
192.23325855884397
20
39.888210144545795
10
192.23325855884397
20
51.658797506167637
10
180.46267119722202
20
51.658797506167687
10
180.46267119722202
20
46.658797506167673
10
177.56267119722202
20
46.658797506167687
10
177.56267119722202
20
51.658797506167701
10
156.90384592046641
20
51.658797506167801
10
156.90384592046638
20
46.658797506167801
10
154.0038459204664
20
46.658797506167829
10
154.00384592046643
20
51.658797506167843
10
142.2332585588442
20
51.658797506167872
10
142.23325855884417
20
39.888210144545759
0
LINE
5
132
100
AcDbEntity
8
0
100
AcDbLine
10
142.23325855884414
20
26.658797506167847
30
0
11
192.23325855884406
21
26.65879750616774
31
0
0
LINE
5
133
100
AcDbEntity
8
0
100
AcDbLine
10
167.23325855884411
20
1.658797506167822
30
0
11
167.23325855884408
21
51.658797506167751
31
0
0
LWPOLYLINE
5
134
100
AcDbEntity
8
0
100
AcDbPolyline
90
36
70
1
43
0.0
10
216.80384592046642
20
51.658797506167801
10
237.61528443764013
20
51.658797506167708
10
237.61528443764013
20
46.65879750616768
10
240.41528443764014
20
46.658797506167666
10
240.41528443764014
20
51.658797506167687
10
252.20956517905304
20
51.658797506167637
10
252.20956517905304
20
39.864516764754732
10
247.20956517905302
20
39.864516764754732
10
247.20956517905304
20
37.064516764754707
10
252.20956517905319
20
37.064516764754721
10
252.20956517905319
20
16.253078247581012
10
247.20956517905313
20
16.253078247581023
10
247.20956517905319
20
13.453078247581002
10
252.20956517905319
20
13.453078247581001
10
252.20956517905319
20
1.6587975061678841
10
240.41528443764003
20
1.6587975061678373
10
240.41528443764003
20
6.6587975061678639
10
237.61528443764001
20
6.6587975061678577
10
237.61528443764001
20
1.6587975061678251
10
216.80384592046633
20
1.6587975061678428
10
216.80384592046633
20
6.6587975061678426
10
214.00384592046632
20
6.6587975061678462
10
214.00384592046632
20
1.6587975061678448
10
202.20956517905319
20
1.6587975061678639
10
202.20956517905319
20
13.453078247580965
10
207.20956517905319
20
13.453078247580974
10
207.20956517905321
20
16.253078247580991
10
202.20956517905321
20
16.253078247580977
10
202.20956517905321
20
37.064516764754686
10
207.20956517905321
20
37.064516764754678
10
207.20956517905324
20
39.864516764754697
10
202.20956517905321
20
39.864516764754697
10
202.20956517905321
20
51.658797506167872
10
214.0038459204664
20
51.658797506167851
10
214.0038459204664
20
46.658797506167815
10
216.80384592046642
20
46.658797506167801
0
LINE
5
135
100
AcDbEntity
8
0
100
AcDbLine
10
202.20956517905319
20
1.658797506167865
30
0
11
252.20956517905304
21
51.658797506167637
31
0
0
LINE
5
136
100
AcDbEntity
8
0
100
AcDbLine
10
202.20956517905321
20
26.658797506167854
30
0
11
252.20956517905319
21
26.658797506167737
31
0
0
LINE
5
137
100
AcDbEntity
8
0
100
AcDbLine
10
227.20956517905319
20
1.658797506167822
30
0
11
227.20956517905313
21
51.658797506167751
31
0
0
LWPOLYLINE
5
138
100
AcDbEntity
8
0
100
AcDbPolyline
90
36
70
1
43
0.0
10
262.1858717992622
20
16.176771627371956
10
262.1858717992622
20
37.14082338496371
10
267.18587179926226
20
37.140823384963788
10
267.1858717992622
20
39.840823384963798
10
262.1858717992622
20
39.840823384963741
10
262.1858717992622
20
51.658797506167872
10
274.0038459204664
20
51.658797506167851
10
274.0038459204664
20
46.658797506167808
10
276.70384592046639
20
46.658797506167808
10
276.70384592046639
20
51.658797506167815
10
297.66789767805824
20
51.658797506167716
10
297.66789767805824
20
46.658797506167701
10
300.36789767805823
20
46.658797506167673
10
300.36789767805823
20
51.658797506167701
10
312.18587179926209
20
51.658797506167645
10
312.18587179926209
20
39.840823384963777
10
307.18587179926215
20
39.840823384963826
10
307.18587179926209
20
37.140823384963817
10
312.1858717992622
20
37.140823384963745
10
312.1858717992622
20
16.176771627371991
10
307.1858717992622
20
16.176771627371963
10
307.18587179926226
20
13.476771627371932
10
312.1858717992622
20
13.476771627372045
10
312.1858717992622
20
1.6587975061678839
10
300.36789767805811
20
1.6587975061678362
10
300.36789767805811
20
6.6587975061678639
10
297.66789767805813
20
6.6587975061678559
10
297.66789767805813
20
1.6587975061678251
10
276.70384592046628
20
1.6587975061678428
10
276.70384592046628
20
6.6587975061678417
10
274.00384592046629
20
6.6587975061678462
10
274.00384592046629
20
1.6587975061678448
10
262.1858717992622
20
1.6587975061678639
10
262.1858717992622
20
13.47677162737201
10
267.18587179926215
20
13.476771627371903
10
267.1858717992622
20
16.176771627371938
0
LINE
5
139
100
AcDbEntity
8
0
100
AcDbLine
10
262.1858717992622
20
1.658797506167865
30
0
11
312.18587179926209
21
51.658797506167645
31
0
0
LINE
5
140
100
AcDbEntity
8
0
100
AcDbLine
10
287.1858717992622
20
1.658797506167822
30
0
11
287.18587179926215
21
51.658797506167758
31
0
0
LINE
5
141
100
AcDbEntity
8
0
100
AcDbLine
10
262.1858717992622
20
26.658797506167854
30
0
11
312.1858717992622
21
26.65879750616774
31
0
0
LWPOLYLINE
5
142
100
AcDbEntity
8
0
100
AcDbPolyline
90
4
70
1
43
0.0
10
10.411200935875371
20
-79.999999999999986
10
13.411200935875375
20
-80
10
13.411200935875375
20
-85
10
10.411200935875371
20
-85
0
LINE
5
143
100
AcDbEntity
8
0
100
AcDbLine
10
39.588799064124629
20
-79.999999999999986
30
0
11
39.588799064124629
21
-85
31
0
0
LINE
5
144
100
AcDbEntity
8
0
100
AcDbLine
10
50
20
-48.411200935875371
30
0
11
45
21
-48.411200935875371
31
0
0
LINE
5
145
100
AcDbEntity
8
0
100
AcDbLine
10
36.588799064124629
20
-85
30
0
11
36.588799064124629
21
-80
31
0
0
LINE
5
146
100
AcDbEntity
8
0
100
AcDbLine
10
36.588799064124629
20
-80
30
0
11
39.588799064124629
21
-79.999999999999986
31
0
0
LINE
5
147
100
AcDbEntity
8
0
100
AcDbLine
10
5
20
-48.411200935875371
30
0
11
5.0000000000000044
21
-45.411200935875371
31
0
0
LINE
5
148
100
AcDbEntity
8
0
100
AcDbLine
10
6.687857755733334e-15
20
-71.588799064124629
30
0
11
5.0000000000000018
21
-71.588799064124629
31
0
0
LINE
5
149
100
AcDbEntity
8
0
100
AcDbLine
10
45
20
-45.411200935875371
30
0
11
50
21
-45.411200935875371
31
0
0
LINE
5
150
100
AcDbEntity
8
0
100
AcDbLine
10
45
20
-48.411200935875371
30
0
11
45
21
-45.411200935875371
31
0
0
LINE
5
151
100
AcDbEntity
8
0
100
AcDbLine
10
5.0000000000000018
20
-71.588799064124629
30
0
11
5.0000000000000053
21
-74.588799064124629
31
0
0
LINE
5
152
100
AcDbEntity
8
0
100
AcDbLine
10
3.7902109918804893e-15
20
-48.411200935875371
30
0
11
5
21
-48.411200935875371
31
0
0
LINE
5
153
100
AcDbEntity
8
0
100
AcDbLine
10
5.0000000000000053
20
-74.588799064124629
30
0
11
7.8338515134465796e-15
21
-74.588799064124629
31
0
0
LINE
5
154
100
AcDbEntity
8
0
100
AcDbLine
10
7.2164496600635207e-15
20
-60
30
0
11
49.999999999999993
21
-60
31
0
0
LWPOLYLINE
5
155
100
AcDbEntity
8
0
100
AcDbPolyline
90
4
70
1
43
0.0
10
8.8817841970012523e-15
20
-35
10
49.999999999999993
20
-35
10
49.999999999999993
20
-85
10
7.2164496600635207e-15
20
-85
0
LINE
5
156
100
AcDbEntity
8
0
100
AcDbLine
10
7.2164496600635207e-15
20
-85
30
0
11
49.999999999999993
21
-35
31
0
0
LINE
5
157
100
AcDbEntity
8
0
100
AcDbLine
10
25
20
-85
30
0
11
25
21
-35
31
0
0
LINE
5
158
100
AcDbEntity
8
0
100
AcDbLine
10
5.0000000000000044
20
-45.411200935875371
30
0
11
3.7697737109533706e-15
21
-45.411200935875371
31
0
0
LINE
5
159
100
AcDbEntity
8
0
100
AcDbLine
10
49.999999999999993
20
-71.588799064124629
30
0
11
45
21
-71.588799064124629
31
0
0
LINE
5
160
100
AcDbEntity
8
0
100
AcDbLine
10
10.411200935875371
20
-40
30
0
11
10.411200935875371
21
-35.000000000000007
31
0
0
LINE
5
161
100
AcDbEntity
8
0
100
AcDbLine
10
36.588799064124629
20
-40
30
0
11
39.588799064124629
21
-40
31
0
0
LINE
5
162
100
AcDbEntity
8
0
100
AcDbLine
10
13.411200935875375
20
-40
30
0
11
10.411200935875371
21
-40
31
0
0
LINE
5
163
100
AcDbEntity
8
0
100
AcDbLine
10
45
20
-74.588799064124629
30
0
11
49.999999999999993
21
-74.588799064124629
31
0
0
LINE
5
164
100
AcDbEntity
8
0
100
AcDbLine
10
13.411200935875375
20
-35.000000000000007
30
0
11
13.411200935875375
21
-40
31
0
0
LINE
5
165
100
AcDbEntity
8
0
100
AcDbLine
10
45
20
-71.588799064124629
30
0
11
45
21
-74.588799064124629
31
0
0
LINE
5
166
100
AcDbEntity
8
0
100
AcDbLine
10
36.588799064124629
20
-35.000000000000007
30
0
11
36.588799064124629
21
-40
31
0
0
LINE
5
167
100
AcDbEntity
8
0
100
AcDbLine
10
39.588799064124629
20
-40
30
0
11
39.588799064124629
21
-35.000000000000007
31
0
0
LINE
5
168
100
AcDbEntity
8
0
100
AcDbLine
10
35.759232398453456
20
-181.06379170300912
30
0
11
42.553060255433536
21
-181.0637917030092
31
0
0
LINE
5
169
100
AcDbEntity
8
0
100
AcDbLine
10
42.553060255433536
20
-181.0637917030092
30
0
11
44.132506425297194
21
-179.08943095444403
31
0
0
LINE
5
170
100
AcDbEntity
8
0
100
AcDbLine
10
44.132506425297194
20
-179.08943095444403
30
0
11
44.132506425297194
21
-176.06379170300912
31
0
0
LINE
5
171
100
AcDbEntity
8
0
100
AcDbLine
10
44.132506425297194
20
-176.06379170300912
30
0
11
47.432506425297191
21
-176.06379170300903
31
0
0
LINE
5
172
100
AcDbEntity
8
0
100
AcDbLine
10
47.432506425297191
20
-176.06379170300903
30
0
11
47.432506425297156
21
-179.08943095444403
31
0
0
LINE
5
173
100
AcDbEntity
8
0
100
AcDbLine
10
49.011952595160835
20
-181.0637917030092
30
0
11
55.759232398453378
21
-181.06379170300931
31
0
0
LINE
5
174
100
AcDbEntity
8
0
100
AcDbLine
10
45.782506425297186
20
-176.06379170300909
30
0
11
45.7825064252972
21
-187.49655951453087
31
0
0
LINE
5
175
100
AcDbEntity
8
0
100
AcDbLine
10
49.011952595160835
20
-181.0637917030092
30
0
11
47.432506425297156
21
-179.08943095444403
31
0
0
LINE
5
176
100
AcDbEntity
8
0
100
AcDbLine
10
55.759232398453378
20
-181.06379170300931
30
0
11
55.759232398453378
21
-177.4270883074206
31
0
0
LINE
5
177
100
AcDbEntity
8
0
100
AcDbLine
10
35.759232398453456
20
-181.06379170300912
30
0
11
46.011357219926154
21
-170.81166688153644
31
0
0
LINE
5
178
100
AcDbEntity
8
0
100
AcDbLine
10
35.759232398453456
20
-181.06379170300912
30
0
11
52.125923884656551
21
-181.06379170300903
31
0
0
LINE
5
179
100
AcDbEntity
8
0
100
AcDbLine
10
75.759232398453278
20
-181.06379170300912
30
0
11
68.96540454147322
21
-181.06379170300903
31
0
0
LINE
5
180
100
AcDbEntity
8
0
100
AcDbLine
10
68.96540454147322
20
-181.06379170300903
30
0
11
67.385958371609547
21
-179.08943095444403
31
0
0
LINE
5
181
100
AcDbEntity
8
0
100
AcDbLine
10
67.385958371609547
20
-179.08943095444403
30
0
11
67.385958371609547
21
-176.06379170300912
31
0
0
LINE
5
182
100
AcDbEntity
8
0
100
AcDbLine
10
67.385958371609547
20
-176.06379170300912
30
0
11
64.085958371609564
21
-176.06379170300909
31
0
0
LINE
5
183
100
AcDbEntity
8
0
100
AcDbLine
10
64.085958371609564
20
-176.06379170300909
30
0
11
64.085958371609593
21
-179.08943095444403
31
0
0
LINE
5
184
100
AcDbEntity
8
0
100
AcDbLine
10
62.506512201745835
20
-181.0637917030092
30
0
11
64.085958371609593
21
-179.08943095444403
31
0
0
LINE
5
185
100
AcDbEntity
8
0
100
AcDbLine
10
62.506512201745835
20
-181.0637917030092
30
0
11
55.759232398453378
21
-181.06379170300912
31
0
0
LINE
5
186
100
AcDbEntity
8
0
100
AcDbLine
10
35.759232398453364
20
-181.06379170300897
30
0
11
35.759232398453378
21
-174.26996384602901
31
0
0
LINE
5
187
100
AcDbEntity
8
0
100
AcDbLine
10
35.759232398453378
20
-174.26996384602901
30
0
11
37.73359314701851
21
-172.69051767616534
31
0
0
LINE
5
188
100
AcDbEntity
8
0
100
AcDbLine
10
37.73359314701851
20
-172.69051767616534
30
0
11
40.759232398453385
21
-172.69051767616531
31
0
0
LINE
5
189
100
AcDbEntity
8
0
100
AcDbLine
10
40.759232398453385
20
-172.69051767616531
30
0
11
40.759232398453534
21
-169.39051767616542
31
0
0
LINE
5
190
100
AcDbEntity
8
0
100
AcDbLine
10
40.759232398453534
20
-169.39051767616542
30
0
11
37.733593147018645
21
-169.39051767616547
31
0
0
LINE
5
191
100
AcDbEntity
8
0
100
AcDbLine
10
35.759232398453378
20
-167.81107150630166
30
0
11
37.733593147018645
21
-169.39051767616547
31
0
0
LINE
5
192
100
AcDbEntity
8
0
100
AcDbLine
10
35.759232398453378
20
-167.81107150630166
30
0
11
35.7592323984533
21
-161.0637917030092
31
0
0
LINE
5
193
100
AcDbEntity
8
0
100
AcDbLine
10
35.759232398453506
20
-154.31651189971677
30
0
11
35.75923239845352
21
-161.0637917030092
31
0
0
LINE
5
194
100
AcDbEntity
8
0
100
AcDbLine
10
35.759232398453506
20
-154.31651189971677
30
0
11
37.733593147018475
21
-152.73706572985279
31
0
0
LINE
5
195
100
AcDbEntity
8
0
100
AcDbLine
10
40.759232398453364
20
-152.73706572985282
30
0
11
37.733593147018475
21
-152.73706572985279
31
0
0
LINE
5
196
100
AcDbEntity
8
0
100
AcDbLine
10
40.759232398453392
20
-149.43706572985286
30
0
11
40.759232398453364
21
-152.73706572985282
31
0
0
LINE
5
197
100
AcDbEntity
8
0
100
AcDbLine
10
37.733593147018688
20
-149.437065729853
30
0
11
40.759232398453392
21
-149.43706572985286
31
0
0
LINE
5
198
100
AcDbEntity
8
0
100
AcDbLine
10
35.759232398453541
20
-147.85761955998925
30
0
11
37.733593147018688
21
-149.437065729853
31
0
0
LINE
5
199
100
AcDbEntity
8
0
100
AcDbLine
10
35.759232398453598
20
-141.06379170300929
30
0
11
35.759232398453541
21
-147.85761955998925
31
0
0
LINE
5
200
100
AcDbEntity
8
0
100
AcDbLine
10
75.759232398453278
20
-181.06379170300912
30
0
11
70.987551907945587
21
-176.29211121250125
31
0
0
LINE
5
201
100
AcDbEntity
8
0
100
AcDbLine
10
75.759232398453278
20
-181.06379170300912
30
0
11
96.078409475881045
21
-181.06379170300903
31
0
0
LINE
5
202
100
AcDbEntity
8
0
100
AcDbLine
10
75.759232398453364
20
-181.06379170300903
30
0
11
75.759232398453491
21
-174.26996384602887
31
0
0
LINE
5
203
100
AcDbEntity
8
0
100
AcDbLine
10
75.759232398453491
20
-174.26996384602887
30
0
11
73.78487164988843
21
-172.6905176761652
31
0
0
LINE
5
204
100
AcDbEntity
8
0
100
AcDbLine
10
73.78487164988843
20
-172.6905176761652
30
0
11
70.759232398453577
21
-172.69051767616514
31
0
0
LINE
5
205
100
AcDbEntity
8
0
100
AcDbLine
10
70.759232398453577
20
-172.69051767616514
30
0
11
70.759232398453591
21
-169.39051767616519
31
0
0
LINE
5
206
100
AcDbEntity
8
0
100
AcDbLine
10
70.759232398453591
20
-169.39051767616519
30
0
11
73.784871649888558
21
-169.39051767616533
31
0
0
LINE
5
207
100
AcDbEntity
8
0
100
AcDbLine
10
75.759232398453591
20
-167.81107150630174
30
0
11
73.784871649888558
21
-169.39051767616533
31
0
0
LINE
5
208
100
AcDbEntity
8
0
100
AcDbLine
10
75.759232398453591
20
-167.81107150630174
30
0
11
75.759232398453776
21
-161.06379170300909
31
0
0
LINE
5
209
100
AcDbEntity
8
0
100
AcDbLine
10
75.759232398454031
20
-154.31651189971657
30
0
11
75.759232398454003
21
-161.06379170300909
31
0
0
LINE
5
210
100
AcDbEntity
8
0
100
AcDbLine
10
75.759232398454031
20
-154.31651189971657
30
0
11
73.784871649888942
21
-152.73706572985284
31
0
0
LINE
5
211
100
AcDbEntity
8
0
100
AcDbLine
10
70.75923239845396
20
-152.73706572985276
30
0
11
73.784871649888942
21
-152.73706572985284
31
0
0
LINE
5
212
100
AcDbEntity
8
0
100
AcDbLine
10
70.759232398454088
20
-149.4370657298528
30
0
11
70.75923239845396
21
-152.73706572985276
31
0
0
LINE
5
213
100
AcDbEntity
8
0
100
AcDbLine
10
73.784871649888998
20
-149.43706572985286
30
0
11
70.759232398454088
21
-149.4370657298528
31
0
0
LINE
5
214
100
AcDbEntity
8
0
100
AcDbLine
10
75.759232398454174
20
-147.85761955998927
30
0
11
73.784871649888998
21
-149.43706572985286
31
0
0
LINE
5
215
100
AcDbEntity
8
0
100
AcDbLine
10
75.759232398454245
20
-141.06379170300923
30
0
11
75.759232398454174
21
-147.85761955998927
31
0
0
LINE
5
216
100
AcDbEntity
8
0
100
AcDbLine
10
75.759232398454188
20
-141.06379170300909
30
0
11
68.9654045414742
21
-141.06379170300892
31
0
0
LINE
5
217
100
AcDbEntity
8
0
100
AcDbLine
10
68.9654045414742
20
-141.06379170300892
30
0
11
67.385958371610457
21
-143.03815245157404
31
0
0
LINE
5
218
100
AcDbEntity
8
0
100
AcDbLine
10
67.385958371610457
20
-143.03815245157404
30
0
11
67.385958371610329
21
-146.06379170300895
31
0
0
LINE
5
219
100
AcDbEntity
8
0
100
AcDbLine
10
67.385958371610329
20
-146.06379170300895
30
0
11
64.085958371610474
21
-146.06379170300897
31
0
0
LINE
5
220
100
AcDbEntity
8
0
100
AcDbLine
10
64.085958371610474
20
-146.06379170300897
30
0
11
64.08595837161063
21
-143.03815245157406
31
0
0
LINE
5
221
100
AcDbEntity
8
0
100
AcDbLine
10
62.506512201746858
20
-141.06379170300875
30
0
11
64.08595837161063
21
-143.03815245157406
31
0
0
LINE
5
222
100
AcDbEntity
8
0
100
AcDbLine
10
62.506512201746858
20
-141.06379170300875
30
0
11
55.75923239845438
21
-141.06379170300852
31
0
0
LINE
5
223
100
AcDbEntity
8
0
100
AcDbLine
10
49.011952595161958
20
-141.0637917030086
30
0
11
55.759232398454358
21
-141.06379170300877
31
0
0
LINE
5
224
100
AcDbEntity
8
0
100
AcDbLine
10
49.011952595161958
20
-141.0637917030086
30
0
11
47.432506425297944
21
-143.03815245157355
31
0
0
LINE
5
225
100
AcDbEntity
8
0
100
AcDbLine
10
47.432506425297909
20
-146.06379170300846
30
0
11
47.432506425297944
21
-143.03815245157355
31
0
0
LINE
5
226
100
AcDbEntity
8
0
100
AcDbLine
10
44.132506425298139
20
-146.06379170300866
30
0
11
47.432506425297909
21
-146.06379170300846
31
0
0
LINE
5
227
100
AcDbEntity
8
0
100
AcDbLine
10
44.132506425298168
20
-143.03815245157367
30
0
11
44.132506425298139
21
-146.06379170300866
31
0
0
LINE
5
228
100
AcDbEntity
8
0
100
AcDbLine
10
42.553060255434431
20
-141.06379170300852
30
0
11
44.132506425298168
21
-143.03815245157367
31
0
0
LINE
5
229
100
AcDbEntity
8
0
100
AcDbLine
10
35.759232398454522
20
-141.06379170300838
30
0
11
42.553060255434431
21
-141.06379170300852
31
0
0
ENDSEC
0
SECTION
2
OBJECTS
0
DICTIONARY
5
C
100
AcDbDictionary
3
ACAD_GROUP
350
D
3
ACAD_MLINESTYLE
350
17
0
DICTIONARY
5
D
100
AcDbDictionary
0
DICTIONARY
5
1A
330
C
100
AcDbDictionary
0
DICTIONARY
5
17
100
AcDbDictionary
0
ENDSEC
0
EOF
