  0
SECTION
  2
HEADER
  9
$ACADVER
  1
AC1015
  9
$ACADMAINTVER
 70
     6
  9
$DWGCODEPAGE
  3
ANSI_1252
  9
$INSBASE
 10
0.0
 20
0.0
 30
0.0
  9
$EXTMIN
 10
-508.8474968861
 20
-1188.0546655267
 30
0.0
  9
$EXTMAX
 10
642.7647875891
 20
565.9616014324
 30
0.0
  9
$LIMMIN
 10
0.0
 20
0.0
  9
$LIMMAX
 10
420.0
 20
297.0
  9
$ORTHOMODE
 70
     0
  9
$REGENMODE
 70
     1
  9
$FILLMODE
 70
     1
  9
$QTEXTMODE
 70
     0
  9
$MIRRTEXT
 70
     1
  9
$LTSCALE
 40
1.0
  9
$ATTMODE
 70
     1
  9
$TEXTSIZE
 40
3.5
  9
$TRACEWID
 40
1.0
  9
$TEXTSTYLE
  7
Standard
  9
$CLAYER
  8
0
  9
$CELTYPE
  6
ByLayer
  9
$CECOLOR
 62
   256
  9
$CELTSCALE
 40
1.0
  9
$DISPSILH
 70
     0
  9
$DIMSCALE
 40
1.0
  9
$DIMASZ
 40
3.302
  9
$DIMEXO
 40
1.0
  9
$DIMDLI
 40
3.75
  9
$DIMRND
 40
0.0
  9
$DIMDLE
 40
0.0
  9
$DIMEXE
 40
1.0
  9
$DIMTP
 40
0.0
  9
$DIMTM
 40
0.0
  9
$DIMTXT
 40
3.5
  9
$DIMCEN
 40
2.5
  9
$DIMTSZ
 40
0.0
  9
$DIMTOL
 70
     0
  9
$DIMLIM
 70
     0
  9
$DIMTIH
 70
     1
  9
$DIMTOH
 70
     1
  9
$DIMSE1
 70
     0
  9
$DIMSE2
 70
     0
  9
$DIMTAD
 70
     1
  9
$DIMZIN
 70
     0
  9
$DIMBLK
  1

  9
$DIMASO
 70
     1
  9
$DIMSHO
 70
     1
  9
$DIMPOST
  1

  9
$DIMAPOST
  1

  9
$DIMALT
 70
     0
  9
$DIMALTD
 70
     3
  9
$DIMALTF
 40
0.0393700787
  9
$DIMLFAC
 40
1.0
  9
$DIMTOFL
 70
     1
  9
$DIMTVP
 40
0.0
  9
$DIMTIX
 70
     0
  9
$DIMSOXD
 70
     0
  9
$DIMSAH
 70
     0
  9
$DIMBLK1
  1

  9
$DIMBLK2
  1

  9
$DIMSTYLE
  2
ISO-25
  9
$DIMCLRD
 70
     0
  9
$DIMCLRE
 70
     0
  9
$DIMCLRT
 70
     0
  9
$DIMTFAC
 40
1.0
  9
$DIMGAP
 40
1.524
  9
$DIMJUST
 70
     0
  9
$DIMSD1
 70
     0
  9
$DIMSD2
 70
     0
  9
$DIMTOLJ
 70
     0
  9
$DIMTZIN
 70
     0
  9
$DIMALTZ
 70
     0
  9
$DIMALTTZ
 70
     0
  9
$DIMUPT
 70
     0
  9
$DIMDEC
 70
     2
  9
$DIMTDEC
 70
     2
  9
$DIMALTU
 70
     2
  9
$DIMALTTD
 70
     3
  9
$DIMTXSTY
  7
Standard
  9
$DIMAUNIT
 70
     0
  9
$DIMADEC
 70
     2
  9
$DIMALTRND
 40
0.0
  9
$DIMAZIN
 70
     0
  9
$DIMDSEP
 70
    44
  9
$DIMATFIT
 70
     3
  9
$DIMFRAC
 70
     0
  9
$DIMLDRBLK
  1

  9
$DIMLUNIT
 70
     2
  9
$DIMLWD
 70
    -2
  9
$DIMLWE
 70
    -2
  9
$DIMTMOVE
 70
     0
  9
$LUNITS
 70
     2
  9
$LUPREC
 70
     2
  9
$SKETCHINC
 40
1.0
  9
$FILLETRAD
 40
10.0
  9
$AUNITS
 70
     0
  9
$AUPREC
 70
     2
  9
$MENU
  1
.
  9
$ELEVATION
 40
0.0
  9
$PELEVATION
 40
0.0
  9
$THICKNESS
 40
0.0
  9
$LIMCHECK
 70
     0
  9
$CHAMFERA
 40
0.0
  9
$CHAMFERB
 40
0.0
  9
$CHAMFERC
 40
0.0
  9
$CHAMFERD
 40
0.0
  9
$SKPOLY
 70
     0
  9
$TDCREATE
 40
2458561.76063478
  9
$TDUCREATE
 40
2458561.968968113
  9
$TDUPDATE
 40
2458561.760701667
  9
$TDUUPDATE
 40
2458561.969035
  9
$TDINDWG
 40
0.0000000116
  9
$TDUSRTIMER
 40
0.0000000116
  9
$USRTIMER
 70
     1
  9
$ANGBASE
 50
0.0
  9
$ANGDIR
 70
     0
  9
$PDMODE
 70
     0
  9
$PDSIZE
 40
-1.0
  9
$PLINEWID
 40
0.0
  9
$SPLFRAME
 70
     0
  9
$SPLINETYPE
 70
     6
  9
$SPLINESEGS
 70
     8
  9
$HANDSEED
  5
21E
  9
$SURFTAB1
 70
     6
  9
$SURFTAB2
 70
     6
  9
$SURFTYPE
 70
     6
  9
$SURFU
 70
     6
  9
$SURFV
 70
     6
  9
$UCSBASE
  2

  9
$UCSNAME
  2

  9
$UCSORG
 10
0.0
 20
0.0
 30
0.0
  9
$UCSXDIR
 10
1.0
 20
0.0
 30
0.0
  9
$UCSYDIR
 10
0.0
 20
1.0
 30
0.0
  9
$UCSORTHOREF
  2

  9
$UCSORTHOVIEW
 70
     0
  9
$UCSORGTOP
 10
0.0
 20
0.0
 30
0.0
  9
$UCSORGBOTTOM
 10
0.0
 20
0.0
 30
0.0
  9
$UCSORGLEFT
 10
0.0
 20
0.0
 30
0.0
  9
$UCSORGRIGHT
 10
0.0
 20
0.0
 30
0.0
  9
$UCSORGFRONT
 10
0.0
 20
0.0
 30
0.0
  9
$UCSORGBACK
 10
0.0
 20
0.0
 30
0.0
  9
$PUCSBASE
  2

  9
$PUCSNAME
  2

  9
$PUCSORG
 10
0.0
 20
0.0
 30
0.0
  9
$PUCSXDIR
 10
1.0
 20
0.0
 30
0.0
  9
$PUCSYDIR
 10
0.0
 20
1.0
 30
0.0
  9
$PUCSORTHOREF
  2

  9
$PUCSORTHOVIEW
 70
     0
  9
$PUCSORGTOP
 10
0.0
 20
0.0
 30
0.0
  9
$PUCSORGBOTTOM
 10
0.0
 20
0.0
 30
0.0
  9
$PUCSORGLEFT
 10
0.0
 20
0.0
 30
0.0
  9
$PUCSORGRIGHT
 10
0.0
 20
0.0
 30
0.0
  9
$PUCSORGFRONT
 10
0.0
 20
0.0
 30
0.0
  9
$PUCSORGBACK
 10
0.0
 20
0.0
 30
0.0
  9
$USERI1
 70
     0
  9
$USERI2
 70
     0
  9
$USERI3
 70
     0
  9
$USERI4
 70
     0
  9
$USERI5
 70
     0
  9
$USERR1
 40
0.0
  9
$USERR2
 40
0.0
  9
$USERR3
 40
0.0
  9
$USERR4
 40
0.0
  9
$USERR5
 40
0.0
  9
$WORLDVIEW
 70
     1
  9
$SHADEDGE
 70
     3
  9
$SHADEDIF
 70
    70
  9
$TILEMODE
 70
     1
  9
$MAXACTVP
 70
    64
  9
$PINSBASE
 10
0.0
 20
0.0
 30
0.0
  9
$PLIMCHECK
 70
     0
  9
$PEXTMIN
 10
1.0000000000E+20
 20
1.0000000000E+20
 30
1.0000000000E+20
  9
$PEXTMAX
 10
-1.0000000000E+20
 20
-1.0000000000E+20
 30
-1.0000000000E+20
  9
$PLIMMIN
 10
0.0
 20
0.0
  9
$PLIMMAX
 10
420.0
 20
297.0
  9
$UNITMODE
 70
     0
  9
$VISRETAIN
 70
     1
  9
$PLINEGEN
 70
     0
  9
$PSLTSCALE
 70
     1
  9
$TREEDEPTH
 70
  3020
  9
$CMLSTYLE
  2
Standard
  9
$CMLJUST
 70
     0
  9
$CMLSCALE
 40
20.0
  9
$PROXYGRAPHICS
 70
     1
  9
$MEASUREMENT
 70
     1
  9
$CELWEIGHT
370
    -1
  9
$ENDCAPS
280
     0
  9
$JOINSTYLE
280
     0
  9
$LWDISPLAY
290
     1
  9
$INSUNITS
 70
     4
  9
$HYPERLINKBASE
  1

  9
$STYLESHEET
  1

  9
$XEDIT
290
     1
  9
$CEPSNTYPE
380
     0
  9
$PSTYLEMODE
290
     1
  9
$FINGERPRINTGUID
  2
{88725C9E-5B39-4FEA-B5F7-1FBD425F82C5}
  9
$VERSIONGUID
  2
{FAEB1C32-E019-11D5-929B-00C0DF256EC4}
  9
$EXTNAMES
290
     1
  9
$PSVPSCALE
 40
0.0
  9
$OLESTARTUP
290
     0
  0
ENDSEC
  0
SECTION
  2
CLASSES
  0
CLASS
  1
ACDBDICTIONARYWDFLT
  2
AcDbDictionaryWithDefault
  3
ObjectDBX Classes
 90
        0
280
     0
281
     0
  0
CLASS
  1
VISUALSTYLE
  2
AcDbVisualStyle
  3
ObjectDBX Classes
 90
     4095
280
     0
281
     0
  0
CLASS
  1
MATERIAL
  2
AcDbMaterial
  3
ObjectDBX Classes
 90
     1153
280
     0
281
     0
  0
CLASS
  1
SCALE
  2
AcDbScale
  3
ObjectDBX Classes
 90
     1153
280
     0
281
     0
  0
CLASS
  1
TABLESTYLE
  2
AcDbTableStyle
  3
ObjectDBX Classes
 90
     4095
280
     0
281
     0
  0
CLASS
  1
MLEADERSTYLE
  2
AcDbMLeaderStyle
  3
ACDB_MLEADERSTYLE_CLASS
 90
     4095
280
     0
281
     0
  0
CLASS
  1
SUN
  2
AcDbSun
  3
SCENEOE
 90
     1153
280
     0
281
     0
  0
CLASS
  1
ACDBPLACEHOLDER
  2
AcDbPlaceHolder
  3
ObjectDBX Classes
 90
        0
280
     0
281
     0
  0
CLASS
  1
LAYOUT
  2
AcDbLayout
  3
ObjectDBX Classes
 90
        0
280
     0
281
     0
  0
ENDSEC
  0
SECTION
  2
TABLES
  0
TABLE
  2
VPORT
  5
8
330
0
100
AcDbSymbolTable
 70
     1
  0
VPORT
  5
29
330
8
100
AcDbSymbolTableRecord
100
AcDbViewportTableRecord
  2
*Active
 70
     0
 10
0.0
 20
0.0
 11
1.0
 21
1.0
 12
66.9586453515
 22
-311.0465320471
 13
0.0
 23
0.0
 14
10.0
 24
10.0
 15
10.0
 25
10.0
 16
0.0
 26
0.0
 36
1.0
 17
0.0
 27
0.0
 37
0.0
 40
1789.0965922982
 41
0.6565573571
 42
50.0
 43
0.0
 44
0.0
 50
0.0
 51
0.0
 71
     0
 72
   100
 73
     1
 74
     3
 75
     0
 76
     0
 77
     0
 78
     0
281
     0
 65
     1
110
0.0
120
0.0
130
0.0
111
1.0
121
0.0
131
0.0
112
0.0
122
1.0
132
0.0
 79
     0
146
0.0
  0
ENDTAB
  0
TABLE
  2
LTYPE
  5
5
330
0
100
AcDbSymbolTable
 70
     6
  0
LTYPE
  5
14
330
5
100
AcDbSymbolTableRecord
100
AcDbLinetypeTableRecord
  2
ByBlock
 70
     0
  3

 72
    65
 73
     0
 40
0.0
  0
LTYPE
  5
15
330
5
100
AcDbSymbolTableRecord
100
AcDbLinetypeTableRecord
  2
ByLayer
 70
     0
  3

 72
    65
 73
     0
 40
0.0
  0
LTYPE
  5
16
330
5
100
AcDbSymbolTableRecord
100
AcDbLinetypeTableRecord
  2
Continuous
 70
     0
  3
Solid line
 72
    65
 73
     0
 40
0.0
  0
LTYPE
  5
6E
330
5
100
AcDbSymbolTableRecord
100
AcDbLinetypeTableRecord
  2
HIDDEN
 70
     0
  3
Hidden __ __ __ __ __ __ __ __ __ __ __ __ __ __
 72
    65
 73
     2
 40
1.905
 49
1.27
 74
     0
 49
-0.635
 74
     0
  0
LTYPE
  5
6F
330
5
100
AcDbSymbolTableRecord
100
AcDbLinetypeTableRecord
  2
PHANTOM
 70
     0
  3
Phantom ______  __  __  ______  __  __  ______
 72
    65
 73
     6
 40
12.7
 49
6.35
 74
     0
 49
-1.27
 74
     0
 49
1.27
 74
     0
 49
-1.27
 74
     0
 49
1.27
 74
     0
 49
-1.27
 74
     0
  0
LTYPE
  5
70
330
5
100
AcDbSymbolTableRecord
100
AcDbLinetypeTableRecord
  2
CENTER
 70
     0
  3
Center ____ _ ____ _ ____ _ ____ _ ____ _ ____
 72
    65
 73
     4
 40
10.16
 49
6.35
 74
     0
 49
-1.27
 74
     0
 49
1.27
 74
     0
 49
-1.27
 74
     0
  0
LTYPE
  5
71
330
5
100
AcDbSymbolTableRecord
100
AcDbLinetypeTableRecord
  2
CENTERX2
 70
     0
  3
Center (2x) ________  __  ________  __  _____
 72
    65
 73
     4
 40
20.32
 49
12.7
 74
     0
 49
-2.54
 74
     0
 49
2.54
 74
     0
 49
-2.54
 74
     0
  0
LTYPE
  5
72
330
5
100
AcDbSymbolTableRecord
100
AcDbLinetypeTableRecord
  2
DOT2
 70
     0
  3
Dot (.5x) ........................................
 72
    65
 73
     2
 40
0.635
 49
0.0
 74
     0
 49
-0.635
 74
     0
  0
ENDTAB
  0
TABLE
  2
LAYER
  5
2
330
0
100
AcDbSymbolTable
 70
     1
  0
LAYER
  5
10
330
2
100
AcDbSymbolTableRecord
100
AcDbLayerTableRecord
  2
0
 70
     0
 62
     7
  6
Continuous
370
    -3
390
F
  0
ENDTAB
  0
TABLE
  2
STYLE
  5
3
330
0
100
AcDbSymbolTable
 70
     2
  0
STYLE
  5
11
330
3
100
AcDbSymbolTableRecord
100
AcDbTextStyleTableRecord
  2
Standard
 70
     0
 40
0.0
 41
1.0
 50
0.0
 71
     0
 42
3.5
  3
txt
  4

  0
STYLE
  5
21B
330
3
100
AcDbSymbolTableRecord
100
AcDbTextStyleTableRecord
  2
SLDTEXTSTYLE0
 70
     0
 40
0.0
 41
0.7
 50
0.0
 71
     0
 42
3.5
  3
TXT
  4

  0
ENDTAB
  0
TABLE
  2
VIEW
  5
6
330
0
100
AcDbSymbolTable
 70
     0
  0
ENDTAB
  0
TABLE
  2
UCS
  5
7
330
0
100
AcDbSymbolTable
 70
     0
  0
ENDTAB
  0
TABLE
  2
APPID
  5
9
330
0
100
AcDbSymbolTable
 70
     1
  0
APPID
  5
12
330
9
100
AcDbSymbolTableRecord
100
AcDbRegAppTableRecord
  2
ACAD
 70
     0
  0
ENDTAB
  0
TABLE
  2
DIMSTYLE
  5
A
330
0
100
AcDbSymbolTable
 70
     1
100
AcDbDimStyleTable
  0
DIMSTYLE
105
27
330
A
100
AcDbSymbolTableRecord
100
AcDbDimStyleTableRecord
  2
ISO-25
 70
     0
 41
2.5
 42
0.625
 43
3.75
 44
1.25
 73
     0
 74
     0
 77
     1
 78
     8
140
2.5
141
2.5
143
0.0393700787
147
0.625
171
     3
172
     1
178
     0
271
     2
272
     2
274
     3
278
    44
283
     0
284
     8
340
11
  0
ENDTAB
  0
TABLE
  2
BLOCK_RECORD
  5
1
330
0
100
AcDbSymbolTable
 70
     1
  0
BLOCK_RECORD
  5
1F
330
1
100
AcDbSymbolTableRecord
100
AcDbBlockTableRecord
  2
*Model_Space
340
22
  0
BLOCK_RECORD
  5
1B
330
1
100
AcDbSymbolTableRecord
100
AcDbBlockTableRecord
  2
*Paper_Space
340
1E
  0
BLOCK_RECORD
  5
23
330
1
100
AcDbSymbolTableRecord
100
AcDbBlockTableRecord
  2
*Paper_Space0
340
26
  0
ENDTAB
  0
ENDSEC
  0
SECTION
  2
BLOCKS
  0
BLOCK
  5
20
330
1F
100
AcDbEntity
  8
0
100
AcDbBlockBegin
  2
*Model_Space
 70
     0
 10
0.0
 20
0.0
 30
0.0
  3
*Model_Space
  1

  0
ENDBLK
  5
21
330
1F
100
AcDbEntity
  8
0
100
AcDbBlockEnd
  0
BLOCK
  5
1C
330
1B
100
AcDbEntity
 67
     1
  8
0
100
AcDbBlockBegin
  2
*Paper_Space
 70
     0
 10
0.0
 20
0.0
 30
0.0
  3
*Paper_Space
  1

  0
ENDBLK
  5
1D
330
1B
100
AcDbEntity
 67
     1
  8
0
100
AcDbBlockEnd
  0
BLOCK
  5
24
330
23
100
AcDbEntity
  8
0
100
AcDbBlockBegin
  2
*Paper_Space0
 70
     0
 10
0.0
 20
0.0
 30
0.0
  3
*Paper_Space0
  1

  0
ENDBLK
  5
25
330
23
100
AcDbEntity
  8
0
100
AcDbBlockEnd
  0
ENDSEC
  0
SECTION
  2
ENTITIES
  0
ARC
  5
73
330
1F
100
AcDbEntity
  8
0
  6
Continuous
 62
     7
100
AcDbCircle
 10
314.9333748029
 20
555.1616014324
 30
0.0
 40
2.399999999999922
100
AcDbArc
 50
210.0
 51
59.4712845623
  0
ARC
  5
74
330
1F
100
AcDbEntity
  8
0
  6
Continuous
 62
     7
100
AcDbCircle
 10
267.3716314249
 20
555.1616014324
 30
0.0
 40
2.40000000000007
100
AcDbArc
 50
120.5287154377
 51
330.0
  0
ARC
  5
75
330
1F
100
AcDbEntity
  8
0
  6
Continuous
 62
     7
100
AcDbCircle
 10
214.9333748029
 20
555.1616014324
 30
0.0
 40
2.399999999999922
100
AcDbArc
 50
210.0
 51
59.4712845623
  0
ARC
  5
76
330
1F
100
AcDbEntity
  8
0
  6
Continuous
 62
     7
100
AcDbCircle
 10
167.3716314249
 20
555.1616014324
 30
0.0
 40
2.40000000000007
100
AcDbArc
 50
120.5287154377
 51
330.0
  0
ARC
  5
77
330
1F
100
AcDbEntity
  8
0
  6
Continuous
 62
     7
100
AcDbCircle
 10
114.9333748029
 20
555.1616014324
 30
0.0
 40
2.399999999999848
100
AcDbArc
 50
210.0
 51
59.4712845623
  0
ARC
  5
78
330
1F
100
AcDbEntity
  8
0
  6
Continuous
 62
     7
100
AcDbCircle
 10
67.3716314249
 20
555.1616014324
 30
0.0
 40
2.400000000000082
100
AcDbArc
 50
120.5287154377
 51
330.0
  0
ARC
  5
79
330
1F
100
AcDbEntity
  8
0
  6
Continuous
 62
     7
100
AcDbCircle
 10
39.9333748029
 20
555.1616014324
 30
0.0
 40
2.399999999995571
100
AcDbArc
 50
210.0000000001
 51
59.4712845625
  0
ARC
  5
7A
330
1F
100
AcDbEntity
  8
0
  6
Continuous
 62
     7
100
AcDbCircle
 10
-7.6283685751
 20
555.1616014324
 30
0.0
 40
2.400000000000091
100
AcDbArc
 50
120.5287154377
 51
330.0
  0
ARC
  5
7B
330
1F
100
AcDbEntity
  8
0
  6
Continuous
 62
     7
100
AcDbCircle
 10
-60.0666251971
 20
555.1616014324
 30
0.0
 40
2.399999999999873
100
AcDbArc
 50
210.0
 51
59.4712845623
  0
ARC
  5
7C
330
1F
100
AcDbEntity
  8
0
  6
Continuous
 62
     7
100
AcDbCircle
 10
-107.6283685751
 20
555.1616014324
 30
0.0
 40
2.400000000000095
100
AcDbArc
 50
120.5287154377
 51
330.0
  0
ARC
  5
7D
330
1F
100
AcDbEntity
  8
0
  6
Continuous
 62
     7
100
AcDbCircle
 10
-160.0666251971
 20
555.1616014324
 30
0.0
 40
2.399999999999922
100
AcDbArc
 50
210.0
 51
59.4712845623
  0
ARC
  5
7E
330
1F
100
AcDbEntity
  8
0
  6
Continuous
 62
     7
100
AcDbCircle
 10
-207.6283685751
 20
555.1616014324
 30
0.0
 40
2.400000000000119
100
AcDbArc
 50
120.5287154377
 51
330.0
  0
ARC
  5
7F
330
1F
100
AcDbEntity
  8
0
  6
Continuous
 62
     7
100
AcDbCircle
 10
-260.0666251971
 20
555.1616014324
 30
0.0
 40
2.399999999999922
100
AcDbArc
 50
210.0
 51
59.4712845623
  0
ARC
  5
80
330
1F
100
AcDbEntity
  8
0
  6
Continuous
 62
     7
100
AcDbCircle
 10
-307.6283685751
 20
555.1616014324
 30
0.0
 40
2.400000000000021
100
AcDbArc
 50
120.5287154377
 51
330.0
  0
ARC
  5
81
330
1F
100
AcDbEntity
  8
0
  6
Continuous
 62
     7
100
AcDbCircle
 10
-360.0666251971
 20
555.1616014324
 30
0.0
 40
2.399999999999922
100
AcDbArc
 50
210.0
 51
59.4712845623
  0
ARC
  5
82
330
1F
100
AcDbEntity
  8
0
  6
Continuous
 62
     7
100
AcDbCircle
 10
-407.6283685751
 20
555.1616014324
 30
0.0
 40
2.400000000000021
100
AcDbArc
 50
120.5287154377
 51
330.0
  0
ARC
  5
83
330
1F
100
AcDbEntity
  8
0
  6
Continuous
 62
     7
100
AcDbCircle
 10
-460.0666251971
 20
555.1616014324
 30
0.0
 40
2.400000000000021
100
AcDbArc
 50
210.0
 51
59.4712845623
  0
ARC
  5
84
330
1F
100
AcDbEntity
  8
0
  6
Continuous
 62
     7
100
AcDbCircle
 10
-498.044156035
 20
505.7616014324
 30
0.0
 40
2.400000000000041
100
AcDbArc
 50
299.9079472646
 51
150.0
  0
ARC
  5
85
330
1F
100
AcDbEntity
  8
0
  6
Continuous
 62
     7
100
AcDbCircle
 10
-498.044156035
 20
461.1616014324
 30
0.0
 40
2.399999999999985
100
AcDbArc
 50
210.0
 51
60.0920527354
  0
ARC
  5
86
330
1F
100
AcDbEntity
  8
0
  6
Continuous
 62
     7
100
AcDbCircle
 10
-498.044156035
 20
411.7616014324
 30
0.0
 40
2.399999999999985
100
AcDbArc
 50
299.9079472646
 51
150.0
  0
ARC
  5
87
330
1F
100
AcDbEntity
  8
0
  6
Continuous
 62
     7
100
AcDbCircle
 10
605.3491622627
 20
411.7616014324
 30
0.0
 40
2.400000000000034
100
AcDbArc
 50
30.0
 51
240.0920527354
  0
ARC
  5
88
330
1F
100
AcDbEntity
  8
0
  6
Continuous
 62
     7
100
AcDbCircle
 10
605.3491622627
 20
461.1616014324
 30
0.0
 40
2.400000000000005
100
AcDbArc
 50
119.9079472646
 51
330.0
  0
ARC
  5
89
330
1F
100
AcDbEntity
  8
0
  6
Continuous
 62
     7
100
AcDbCircle
 10
605.3491622627
 20
505.7616014324
 30
0.0
 40
2.400000000000091
100
AcDbArc
 50
30.0
 51
240.0920527354
  0
ARC
  5
8A
330
1F
100
AcDbEntity
  8
0
  6
Continuous
 62
     7
100
AcDbCircle
 10
567.3716314249
 20
555.1616014324
 30
0.0
 40
2.400000000000021
100
AcDbArc
 50
120.5287154377
 51
330.0
  0
ARC
  5
8B
330
1F
100
AcDbEntity
  8
0
  6
Continuous
 62
     7
100
AcDbCircle
 10
514.9333748029
 20
555.1616014324
 30
0.0
 40
2.399999999999922
100
AcDbArc
 50
210.0
 51
59.4712845623
  0
ARC
  5
8C
330
1F
100
AcDbEntity
  8
0
  6
Continuous
 62
     7
100
AcDbCircle
 10
467.3716314249
 20
555.1616014324
 30
0.0
 40
2.400000000000021
100
AcDbArc
 50
120.5287154377
 51
330.0
  0
ARC
  5
8D
330
1F
100
AcDbEntity
  8
0
  6
Continuous
 62
     7
100
AcDbCircle
 10
414.9333748029
 20
555.1616014324
 30
0.0
 40
2.399999999999922
100
AcDbArc
 50
210.0
 51
59.4712845623
  0
ARC
  5
8E
330
1F
100
AcDbEntity
  8
0
  6
Continuous
 62
     7
100
AcDbCircle
 10
367.3716314249
 20
555.1616014324
 30
0.0
 40
2.400000000000119
100
AcDbArc
 50
120.5287154377
 51
330.0
  0
ARC
  5
8F
330
1F
100
AcDbEntity
  8
0
  6
Continuous
 62
     7
100
AcDbCircle
 10
327.4912193414
 20
170.1650217982
 30
0.0
 40
2.400000000000034
100
AcDbArc
 50
210.0
 51
59.4712845623
  0
ARC
  5
90
330
1F
100
AcDbEntity
  8
0
  6
Continuous
 62
     7
100
AcDbCircle
 10
279.9294759634
 20
170.1650217982
 30
0.0
 40
2.40000000000007
100
AcDbArc
 50
120.5287154377
 51
330.0
  0
ARC
  5
91
330
1F
100
AcDbEntity
  8
0
  6
Continuous
 62
     7
100
AcDbCircle
 10
227.4912193414
 20
170.1650217982
 30
0.0
 40
2.399999999999974
100
AcDbArc
 50
210.0
 51
59.4712845623
  0
ARC
  5
92
330
1F
100
AcDbEntity
  8
0
  6
Continuous
 62
     7
100
AcDbCircle
 10
179.9294759634
 20
170.1650217982
 30
0.0
 40
2.400000000000034
100
AcDbArc
 50
120.5287154377
 51
330.0
  0
ARC
  5
93
330
1F
100
AcDbEntity
  8
0
  6
Continuous
 62
     7
100
AcDbCircle
 10
127.4912193414
 20
170.1650217982
 30
0.0
 40
2.399999999999874
100
AcDbArc
 50
210.0
 51
59.4712845623
  0
ARC
  5
94
330
1F
100
AcDbEntity
  8
0
  6
Continuous
 62
     7
100
AcDbCircle
 10
79.9294759634
 20
170.1650217982
 30
0.0
 40
2.399999999999997
100
AcDbArc
 50
120.5287154377
 51
330.0
  0
ARC
  5
95
330
1F
100
AcDbEntity
  8
0
  6
Continuous
 62
     7
100
AcDbCircle
 10
52.4912193414
 20
170.1650217982
 30
0.0
 40
2.39999999999563
100
AcDbArc
 50
210.0000000001
 51
59.4712845625
  0
ARC
  5
96
330
1F
100
AcDbEntity
  8
0
  6
Continuous
 62
     7
100
AcDbCircle
 10
4.9294759634
 20
170.1650217982
 30
0.0
 40
2.399999999999994
100
AcDbArc
 50
120.5287154377
 51
330.0
  0
ARC
  5
97
330
1F
100
AcDbEntity
  8
0
  6
Continuous
 62
     7
100
AcDbCircle
 10
-47.5087806586
 20
170.1650217982
 30
0.0
 40
2.399999999999912
100
AcDbArc
 50
210.0
 51
59.4712845623
  0
ARC
  5
98
330
1F
100
AcDbEntity
  8
0
  6
Continuous
 62
     7
100
AcDbCircle
 10
-95.0705240366
 20
170.1650217982
 30
0.0
 40
2.399999999999989
100
AcDbArc
 50
120.5287154377
 51
330.0
  0
ARC
  5
99
330
1F
100
AcDbEntity
  8
0
  6
Continuous
 62
     7
100
AcDbCircle
 10
-147.5087806586
 20
170.1650217982
 30
0.0
 40
2.400000000000009
100
AcDbArc
 50
210.0
 51
59.4712845623
  0
ARC
  5
9A
330
1F
100
AcDbEntity
  8
0
  6
Continuous
 62
     7
100
AcDbCircle
 10
-195.0705240366
 20
170.1650217982
 30
0.0
 40
2.40000000000007
100
AcDbArc
 50
120.5287154377
 51
330.0
  0
ARC
  5
9B
330
1F
100
AcDbEntity
  8
0
  6
Continuous
 62
     7
100
AcDbCircle
 10
-247.5087806586
 20
170.1650217982
 30
0.0
 40
2.400000000000059
100
AcDbArc
 50
210.0
 51
59.4712845623
  0
ARC
  5
9C
330
1F
100
AcDbEntity
  8
0
  6
Continuous
 62
     7
100
AcDbCircle
 10
-295.0705240366
 20
170.1650217982
 30
0.0
 40
2.399999999999955
100
AcDbArc
 50
120.5287154377
 51
330.0
  0
ARC
  5
9D
330
1F
100
AcDbEntity
  8
0
  6
Continuous
 62
     7
100
AcDbCircle
 10
-347.5087806586
 20
170.1650217982
 30
0.0
 40
2.399999999999985
100
AcDbArc
 50
210.0
 51
59.4712845623
  0
ARC
  5
9E
330
1F
100
AcDbEntity
  8
0
  6
Continuous
 62
     7
100
AcDbCircle
 10
-395.0705240366
 20
170.1650217982
 30
0.0
 40
2.399999999999955
100
AcDbArc
 50
120.5287154377
 51
330.0
  0
ARC
  5
9F
330
1F
100
AcDbEntity
  8
0
  6
Continuous
 62
     7
100
AcDbCircle
 10
-447.5087806586
 20
170.1650217982
 30
0.0
 40
2.400000000000034
100
AcDbArc
 50
210.0
 51
59.4712845623
  0
ARC
  5
A0
330
1F
100
AcDbEntity
  8
0
  6
Continuous
 62
     7
100
AcDbCircle
 10
-485.4863114964
 20
120.7650217982
 30
0.0
 40
2.399999999999931
100
AcDbArc
 50
299.9079472646
 51
150.0
  0
ARC
  5
A1
330
1F
100
AcDbEntity
  8
0
  6
Continuous
 62
     7
100
AcDbCircle
 10
-485.4863114964
 20
76.1650217982
 30
0.0
 40
2.400000000000079
100
AcDbArc
 50
210.0
 51
60.0920527354
  0
ARC
  5
A2
330
1F
100
AcDbEntity
  8
0
  6
Continuous
 62
     7
100
AcDbCircle
 10
-485.4863114964
 20
26.7650217982
 30
0.0
 40
2.399999999999931
100
AcDbArc
 50
299.9079472646
 51
150.0
  0
ARC
  5
A3
330
1F
100
AcDbEntity
  8
0
  6
Continuous
 62
     7
100
AcDbCircle
 10
617.9070068012
 20
26.7650217982
 30
0.0
 40
2.399999999999977
100
AcDbArc
 50
30.0
 51
240.0920527354
  0
ARC
  5
A4
330
1F
100
AcDbEntity
  8
0
  6
Continuous
 62
     7
100
AcDbCircle
 10
617.9070068012
 20
76.1650217982
 30
0.0
 40
2.399999999999907
100
AcDbArc
 50
119.9079472646
 51
330.0
  0
ARC
  5
A5
330
1F
100
AcDbEntity
  8
0
  6
Continuous
 62
     7
100
AcDbCircle
 10
617.9070068012
 20
120.7650217982
 30
0.0
 40
2.40000000000003
100
AcDbArc
 50
30.0
 51
240.0920527354
  0
ARC
  5
A6
330
1F
100
AcDbEntity
  8
0
  6
Continuous
 62
     7
100
AcDbCircle
 10
579.9294759634
 20
170.1650217982
 30
0.0
 40
2.399999999999921
100
AcDbArc
 50
120.5287154377
 51
330.0
  0
ARC
  5
A7
330
1F
100
AcDbEntity
  8
0
  6
Continuous
 62
     7
100
AcDbCircle
 10
527.4912193414
 20
170.1650217982
 30
0.0
 40
2.400000000000034
100
AcDbArc
 50
210.0
 51
59.4712845623
  0
ARC
  5
A8
330
1F
100
AcDbEntity
  8
0
  6
Continuous
 62
     7
100
AcDbCircle
 10
479.9294759634
 20
170.1650217982
 30
0.0
 40
2.399999999999936
100
AcDbArc
 50
120.5287154377
 51
330.0
  0
ARC
  5
A9
330
1F
100
AcDbEntity
  8
0
  6
Continuous
 62
     7
100
AcDbCircle
 10
427.4912193414
 20
170.1650217982
 30
0.0
 40
2.399999999999936
100
AcDbArc
 50
210.0
 51
59.4712845623
  0
ARC
  5
AA
330
1F
100
AcDbEntity
  8
0
  6
Continuous
 62
     7
100
AcDbCircle
 10
379.9294759634
 20
170.1650217982
 30
0.0
 40
2.399999999999972
100
AcDbArc
 50
120.5287154377
 51
330.0
  0
ARC
  5
AB
330
1F
100
AcDbEntity
  8
0
  6
Continuous
 62
     7
100
AcDbCircle
 10
-471.7397745035
 20
-146.2341964039
 30
0.0
 40
2.400000000000009
100
AcDbArc
 50
300.0
 51
150.0
  0
ARC
  5
AC
330
1F
100
AcDbEntity
  8
0
  6
Continuous
 62
     7
100
AcDbCircle
 10
-471.7397745035
 20
-193.8341964039
 30
0.0
 40
2.400000000000076
100
AcDbArc
 50
210.0
 51
60.0
  0
ARC
  5
AD
330
1F
100
AcDbEntity
  8
0
  6
Continuous
 62
     7
100
AcDbCircle
 10
-471.7397745035
 20
-246.2341964039
 30
0.0
 40
2.400000000000059
100
AcDbArc
 50
300.0
 51
150.0
  0
ARC
  5
AE
330
1F
100
AcDbEntity
  8
0
  6
Continuous
 62
     7
100
AcDbCircle
 10
-471.7397745035
 20
-293.8341964039
 30
0.0
 40
2.400000000000091
100
AcDbArc
 50
210.0
 51
60.0
  0
ARC
  5
AF
330
1F
100
AcDbEntity
  8
0
  6
Continuous
 62
     7
100
AcDbCircle
 10
-471.7397745035
 20
-496.2341964039
 30
0.0
 40
2.400000000000091
100
AcDbArc
 50
300.0
 51
150.0
  0
ARC
  5
B0
330
1F
100
AcDbEntity
  8
0
  6
Continuous
 62
     7
100
AcDbCircle
 10
-471.7397745035
 20
-543.8341964039
 30
0.0
 40
2.400000000000034
100
AcDbArc
 50
210.0
 51
60.0
  0
ARC
  5
B1
330
1F
100
AcDbEntity
  8
0
  6
Continuous
 62
     7
100
AcDbCircle
 10
-471.7397745035
 20
-596.2341964039
 30
0.0
 40
2.400000000000034
100
AcDbArc
 50
300.0
 51
150.0
  0
ARC
  5
B2
330
1F
100
AcDbEntity
  8
0
  6
Continuous
 62
     7
100
AcDbCircle
 10
-471.7397745035
 20
-643.8341964039
 30
0.0
 40
2.400000000000034
100
AcDbArc
 50
210.0
 51
60.0
  0
ARC
  5
B3
330
1F
100
AcDbEntity
  8
0
  6
Continuous
 62
     7
100
AcDbCircle
 10
-431.3397745035
 20
-684.2341964039
 30
0.0
 40
2.40000000000007
100
AcDbArc
 50
30.0
 51
240.0
  0
ARC
  5
B4
330
1F
100
AcDbEntity
  8
0
  6
Continuous
 62
     7
100
AcDbCircle
 10
-383.7397745035
 20
-684.2341964039
 30
0.0
 40
2.400000000000132
100
AcDbArc
 50
300.0
 51
150.0
  0
ARC
  5
B5
330
1F
100
AcDbEntity
  8
0
  6
Continuous
 62
     7
100
AcDbCircle
 10
-331.3397745035
 20
-684.2341964039
 30
0.0
 40
2.400000000000021
100
AcDbArc
 50
30.0
 51
240.0
  0
ARC
  5
B6
330
1F
100
AcDbEntity
  8
0
  6
Continuous
 62
     7
100
AcDbCircle
 10
-283.7397745035
 20
-684.2341964039
 30
0.0
 40
2.400000000000119
100
AcDbArc
 50
300.0
 51
150.0
  0
ARC
  5
B7
330
1F
100
AcDbEntity
  8
0
  6
Continuous
 62
     7
100
AcDbCircle
 10
-231.3397745035
 20
-684.2341964039
 30
0.0
 40
2.400000000000095
100
AcDbArc
 50
30.0
 51
240.0
  0
ARC
  5
B8
330
1F
100
AcDbEntity
  8
0
  6
Continuous
 62
     7
100
AcDbCircle
 10
-183.7397745035
 20
-684.2341964039
 30
0.0
 40
2.400000000000144
100
AcDbArc
 50
300.0
 51
150.0
  0
ARC
  5
B9
330
1F
100
AcDbEntity
  8
0
  6
Continuous
 62
     7
100
AcDbCircle
 10
-131.3397745035
 20
-684.2341964039
 30
0.0
 40
2.400000000000144
100
AcDbArc
 50
30.0
 51
240.0
  0
ARC
  5
BA
330
1F
100
AcDbEntity
  8
0
  6
Continuous
 62
     7
100
AcDbCircle
 10
-83.7397745035
 20
-684.2341964039
 30
0.0
 40
2.400000000000131
100
AcDbArc
 50
300.0
 51
150.0
  0
ARC
  5
BB
330
1F
100
AcDbEntity
  8
0
  6
Continuous
 62
     7
100
AcDbCircle
 10
-31.3397745035
 20
-684.2341964039
 30
0.0
 40
2.399999999999959
100
AcDbArc
 50
30.0
 51
240.0
  0
ARC
  5
BC
330
1F
100
AcDbEntity
  8
0
  6
Continuous
 62
     7
100
AcDbCircle
 10
16.2602254965
 20
-684.2341964039
 30
0.0
 40
2.400000000000127
100
AcDbArc
 50
300.0
 51
150.0
  0
ARC
  5
BD
330
1F
100
AcDbEntity
  8
0
  6
Continuous
 62
     7
100
AcDbCircle
 10
68.6602254965
 20
-684.2341964039
 30
0.0
 40
2.399999999999848
100
AcDbArc
 50
30.0
 51
240.0
  0
ARC
  5
BE
330
1F
100
AcDbEntity
  8
0
  6
Continuous
 62
     7
100
AcDbCircle
 10
91.2602254965
 20
-684.2341964039
 30
0.0
 40
2.400000000000132
100
AcDbArc
 50
300.0
 51
150.0
  0
ARC
  5
BF
330
1F
100
AcDbEntity
  8
0
  6
Continuous
 62
     7
100
AcDbCircle
 10
143.6602254965
 20
-684.2341964039
 30
0.0
 40
2.399999999999898
100
AcDbArc
 50
30.0
 51
240.0
  0
ARC
  5
C0
330
1F
100
AcDbEntity
  8
0
  6
Continuous
 62
     7
100
AcDbCircle
 10
191.2602254965
 20
-684.2341964039
 30
0.0
 40
2.399999999999947
100
AcDbArc
 50
300.0
 51
150.0
  0
ARC
  5
C1
330
1F
100
AcDbEntity
  8
0
  6
Continuous
 62
     7
100
AcDbCircle
 10
243.6602254965
 20
-684.2341964039
 30
0.0
 40
2.399999999999898
100
AcDbArc
 50
30.0
 51
240.0
  0
ARC
  5
C2
330
1F
100
AcDbEntity
  8
0
  6
Continuous
 62
     7
100
AcDbCircle
 10
291.2602254965
 20
-684.2341964039
 30
0.0
 40
2.400000000000119
100
AcDbArc
 50
300.0
 51
150.0
  0
ARC
  5
C3
330
1F
100
AcDbEntity
  8
0
  6
Continuous
 62
     7
100
AcDbCircle
 10
343.6602254965
 20
-684.2341964039
 30
0.0
 40
2.400000000000168
100
AcDbArc
 50
30.0
 51
240.0
  0
ARC
  5
C4
330
1F
100
AcDbEntity
  8
0
  6
Continuous
 62
     7
100
AcDbCircle
 10
391.2602254965
 20
-684.2341964039
 30
0.0
 40
2.400000000000168
100
AcDbArc
 50
300.0
 51
150.0
  0
ARC
  5
C5
330
1F
100
AcDbEntity
  8
0
  6
Continuous
 62
     7
100
AcDbCircle
 10
443.6602254965
 20
-684.2341964039
 30
0.0
 40
2.400000000000021
100
AcDbArc
 50
30.0
 51
240.0
  0
ARC
  5
C6
330
1F
100
AcDbEntity
  8
0
  6
Continuous
 62
     7
100
AcDbCircle
 10
491.2602254965
 20
-684.2341964039
 30
0.0
 40
2.400000000000119
100
AcDbArc
 50
300.0
 51
150.0
  0
ARC
  5
C7
330
1F
100
AcDbEntity
  8
0
  6
Continuous
 62
     7
100
AcDbCircle
 10
543.6602254965
 20
-684.2341964039
 30
0.0
 40
2.400000000000021
100
AcDbArc
 50
30.0
 51
240.0
  0
ARC
  5
C8
330
1F
100
AcDbEntity
  8
0
  6
Continuous
 62
     7
100
AcDbCircle
 10
591.2602254965
 20
-684.2341964039
 30
0.0
 40
2.400000000000119
100
AcDbArc
 50
300.0
 51
150.0
  0
ARC
  5
C9
330
1F
100
AcDbEntity
  8
0
  6
Continuous
 62
     7
100
AcDbCircle
 10
631.6602254965
 20
-643.8341964039
 30
0.0
 40
2.399999999999752
100
AcDbArc
 50
120.0
 51
330.0
  0
ARC
  5
CA
330
1F
100
AcDbEntity
  8
0
  6
Continuous
 62
     7
100
AcDbCircle
 10
631.6602254965
 20
-596.2341964039
 30
0.0
 40
2.399999999999963
100
AcDbArc
 50
30.0
 51
240.0
  0
ARC
  5
CB
330
1F
100
AcDbEntity
  8
0
  6
Continuous
 62
     7
100
AcDbCircle
 10
631.6602254965
 20
-543.8341964039
 30
0.0
 40
2.399999999999752
100
AcDbArc
 50
120.0
 51
330.0
  0
ARC
  5
CC
330
1F
100
AcDbEntity
  8
0
  6
Continuous
 62
     7
100
AcDbCircle
 10
631.6602254965
 20
-496.2341964039
 30
0.0
 40
2.399999999999948
100
AcDbArc
 50
30.0
 51
240.0
  0
ARC
  5
CD
330
1F
100
AcDbEntity
  8
0
  6
Continuous
 62
     7
100
AcDbCircle
 10
631.6602254965
 20
-293.8341964039
 30
0.0
 40
2.399999999999837
100
AcDbArc
 50
120.0
 51
330.0
  0
ARC
  5
CE
330
1F
100
AcDbEntity
  8
0
  6
Continuous
 62
     7
100
AcDbCircle
 10
631.6602254965
 20
-246.2341964039
 30
0.0
 40
2.39999999999985
100
AcDbArc
 50
30.0
 51
240.0
  0
ARC
  5
CF
330
1F
100
AcDbEntity
  8
0
  6
Continuous
 62
     7
100
AcDbCircle
 10
631.6602254965
 20
-193.8341964039
 30
0.0
 40
2.399999999999825
100
AcDbArc
 50
120.0
 51
330.0
  0
ARC
  5
D0
330
1F
100
AcDbEntity
  8
0
  6
Continuous
 62
     7
100
AcDbCircle
 10
631.6602254965
 20
-146.2341964039
 30
0.0
 40
2.399999999999977
100
AcDbArc
 50
30.0
 51
240.0
  0
ARC
  5
D1
330
1F
100
AcDbEntity
  8
0
  6
Continuous
 62
     7
100
AcDbCircle
 10
591.2602254965
 20
-105.8341964039
 30
0.0
 40
2.399999999999977
100
AcDbArc
 50
210.0
 51
60.0
  0
ARC
  5
D2
330
1F
100
AcDbEntity
  8
0
  6
Continuous
 62
     7
100
AcDbCircle
 10
543.6602254965
 20
-105.8341964039
 30
0.0
 40
2.399999999999977
100
AcDbArc
 50
120.0
 51
330.0
  0
ARC
  5
D3
330
1F
100
AcDbEntity
  8
0
  6
Continuous
 62
     7
100
AcDbCircle
 10
491.2602254965
 20
-105.8341964039
 30
0.0
 40
2.399999999999977
100
AcDbArc
 50
210.0
 51
60.0
  0
ARC
  5
D4
330
1F
100
AcDbEntity
  8
0
  6
Continuous
 62
     7
100
AcDbCircle
 10
443.6602254965
 20
-105.8341964039
 30
0.0
 40
2.400000000000174
100
AcDbArc
 50
120.0
 51
330.0
  0
ARC
  5
D5
330
1F
100
AcDbEntity
  8
0
  6
Continuous
 62
     7
100
AcDbCircle
 10
391.2602254965
 20
-105.8341964039
 30
0.0
 40
2.400000000000125
100
AcDbArc
 50
210.0
 51
60.0
  0
ARC
  5
D6
330
1F
100
AcDbEntity
  8
0
  6
Continuous
 62
     7
100
AcDbCircle
 10
343.6602254965
 20
-105.8341964039
 30
0.0
 40
2.400000000000026
100
AcDbArc
 50
120.0
 51
330.0
  0
ARC
  5
D7
330
1F
100
AcDbEntity
  8
0
  6
Continuous
 62
     7
100
AcDbCircle
 10
291.2602254965
 20
-105.8341964039
 30
0.0
 40
2.400000000000091
100
AcDbArc
 50
210.0
 51
60.0
  0
ARC
  5
D8
330
1F
100
AcDbEntity
  8
0
  6
Continuous
 62
     7
100
AcDbCircle
 10
243.6602254965
 20
-105.8341964039
 30
0.0
 40
2.400000000000174
100
AcDbArc
 50
120.0
 51
330.0
  0
ARC
  5
D9
330
1F
100
AcDbEntity
  8
0
  6
Continuous
 62
     7
100
AcDbCircle
 10
191.2602254965
 20
-105.8341964039
 30
0.0
 40
2.400000000000002
100
AcDbArc
 50
210.0
 51
60.0
  0
ARC
  5
DA
330
1F
100
AcDbEntity
  8
0
  6
Continuous
 62
     7
100
AcDbCircle
 10
143.6602254965
 20
-105.8341964039
 30
0.0
 40
2.399999999999977
100
AcDbArc
 50
120.0
 51
330.0
  0
ARC
  5
DB
330
1F
100
AcDbEntity
  8
0
  6
Continuous
 62
     7
100
AcDbCircle
 10
91.2602254965
 20
-105.8341964039
 30
0.0
 40
2.399999999999977
100
AcDbArc
 50
210.0
 51
60.0
  0
ARC
  5
DC
330
1F
100
AcDbEntity
  8
0
  6
Continuous
 62
     7
100
AcDbCircle
 10
68.6602254965
 20
-105.8341964039
 30
0.0
 40
2.399999999999989
100
AcDbArc
 50
120.0
 51
330.0
  0
ARC
  5
DD
330
1F
100
AcDbEntity
  8
0
  6
Continuous
 62
     7
100
AcDbCircle
 10
16.2602254965
 20
-105.8341964039
 30
0.0
 40
2.399999999999817
100
AcDbArc
 50
210.0
 51
60.0
  0
ARC
  5
DE
330
1F
100
AcDbEntity
  8
0
  6
Continuous
 62
     7
100
AcDbCircle
 10
-31.3397745035
 20
-105.8341964039
 30
0.0
 40
2.399999999999983
100
AcDbArc
 50
120.0
 51
330.0
  0
ARC
  5
DF
330
1F
100
AcDbEntity
  8
0
  6
Continuous
 62
     7
100
AcDbCircle
 10
-83.7397745035
 20
-105.8341964039
 30
0.0
 40
2.399999999999989
100
AcDbArc
 50
210.0
 51
60.0
  0
ARC
  5
E0
330
1F
100
AcDbEntity
  8
0
  6
Continuous
 62
     7
100
AcDbCircle
 10
-131.3397745035
 20
-105.8341964039
 30
0.0
 40
2.400000000000002
100
AcDbArc
 50
120.0
 51
330.0
  0
ARC
  5
E1
330
1F
100
AcDbEntity
  8
0
  6
Continuous
 62
     7
100
AcDbCircle
 10
-183.7397745035
 20
-105.8341964039
 30
0.0
 40
2.400000000000051
100
AcDbArc
 50
210.0
 51
60.0
  0
ARC
  5
E2
330
1F
100
AcDbEntity
  8
0
  6
Continuous
 62
     7
100
AcDbCircle
 10
-231.3397745035
 20
-105.8341964039
 30
0.0
 40
2.399999999999977
100
AcDbArc
 50
120.0
 51
330.0
  0
ARC
  5
E3
330
1F
100
AcDbEntity
  8
0
  6
Continuous
 62
     7
100
AcDbCircle
 10
-283.7397745035
 20
-105.8341964039
 30
0.0
 40
2.400000000000026
100
AcDbArc
 50
210.0
 51
60.0
  0
ARC
  5
E4
330
1F
100
AcDbEntity
  8
0
  6
Continuous
 62
     7
100
AcDbCircle
 10
-331.3397745035
 20
-105.8341964039
 30
0.0
 40
2.399999999999977
100
AcDbArc
 50
120.0
 51
330.0
  0
ARC
  5
E5
330
1F
100
AcDbEntity
  8
0
  6
Continuous
 62
     7
100
AcDbCircle
 10
-383.7397745035
 20
-105.8341964039
 30
0.0
 40
2.399999999999977
100
AcDbArc
 50
210.0
 51
60.0
  0
ARC
  5
E6
330
1F
100
AcDbEntity
  8
0
  6
Continuous
 62
     7
100
AcDbCircle
 10
-431.3397745035
 20
-105.8341964039
 30
0.0
 40
2.399999999999977
100
AcDbArc
 50
120.0
 51
330.0
  0
ARC
  5
E7
330
1F
100
AcDbEntity
  8
0
  6
Continuous
 62
     7
100
AcDbCircle
 10
-470.2352124109
 20
-828.0546655267
 30
0.0
 40
2.399999999999977
100
AcDbArc
 50
270.0
 51
180.0
  0
ARC
  5
E8
330
1F
100
AcDbEntity
  8
0
  6
Continuous
 62
     7
100
AcDbCircle
 10
-470.2352124109
 20
-864.0546655267
 30
0.0
 40
2.399999999999977
100
AcDbArc
 50
180.0
 51
90.0
  0
ARC
  5
E9
330
1F
100
AcDbEntity
  8
0
  6
Continuous
 62
     7
100
AcDbCircle
 10
-470.2352124109
 20
-900.0546655267
 30
0.0
 40
2.399999999999977
100
AcDbArc
 50
270.0
 51
180.0
  0
ARC
  5
EA
330
1F
100
AcDbEntity
  8
0
  6
Continuous
 62
     7
100
AcDbCircle
 10
-470.2352124109
 20
-936.0546655267
 30
0.0
 40
2.399999999999977
100
AcDbArc
 50
180.0
 51
90.0
  0
ARC
  5
EB
330
1F
100
AcDbEntity
  8
0
  6
Continuous
 62
     7
100
AcDbCircle
 10
-470.2352124109
 20
-972.0546655267
 30
0.0
 40
2.399999999999977
100
AcDbArc
 50
270.0
 51
180.0
  0
ARC
  5
EC
330
1F
100
AcDbEntity
  8
0
  6
Continuous
 62
     7
100
AcDbCircle
 10
-470.2352124109
 20
-1008.0546655267
 30
0.0
 40
2.399999999999977
100
AcDbArc
 50
180.0
 51
90.0
  0
ARC
  5
ED
330
1F
100
AcDbEntity
  8
0
  6
Continuous
 62
     7
100
AcDbCircle
 10
-470.2352124109
 20
-1044.0546655267
 30
0.0
 40
2.399999999999977
100
AcDbArc
 50
270.0
 51
180.0
  0
ARC
  5
EE
330
1F
100
AcDbEntity
  8
0
  6
Continuous
 62
     7
100
AcDbCircle
 10
-470.2352124109
 20
-1080.0546655267
 30
0.0
 40
2.400000000000148
100
AcDbArc
 50
180.0
 51
90.0
  0
ARC
  5
EF
330
1F
100
AcDbEntity
  8
0
  6
Continuous
 62
     7
100
AcDbCircle
 10
-470.2352124109
 20
-1116.0546655267
 30
0.0
 40
2.400000000000091
100
AcDbArc
 50
270.0
 51
180.0
  0
ARC
  5
F0
330
1F
100
AcDbEntity
  8
0
  6
Continuous
 62
     7
100
AcDbCircle
 10
-470.2352124109
 20
-1152.0546655267
 30
0.0
 40
2.399999999999977
100
AcDbArc
 50
180.0
 51
90.0
  0
ARC
  5
F1
330
1F
100
AcDbEntity
  8
0
  6
Continuous
 62
     7
100
AcDbCircle
 10
630.7647875891
 20
-1152.0546655267
 30
0.0
 40
2.39999999999975
100
AcDbArc
 50
90.0
 51
0.0
  0
ARC
  5
F2
330
1F
100
AcDbEntity
  8
0
  6
Continuous
 62
     7
100
AcDbCircle
 10
630.7647875891
 20
-1116.0546655267
 30
0.0
 40
2.400000000000091
100
AcDbArc
 50
0.0
 51
270.0
  0
ARC
  5
F3
330
1F
100
AcDbEntity
  8
0
  6
Continuous
 62
     7
100
AcDbCircle
 10
630.7647875891
 20
-1080.0546655267
 30
0.0
 40
2.39999999999975
100
AcDbArc
 50
90.0
 51
0.0
  0
ARC
  5
F4
330
1F
100
AcDbEntity
  8
0
  6
Continuous
 62
     7
100
AcDbCircle
 10
630.7647875891
 20
-1044.0546655267
 30
0.0
 40
2.399999999999977
100
AcDbArc
 50
0.0
 51
270.0
  0
ARC
  5
F5
330
1F
100
AcDbEntity
  8
0
  6
Continuous
 62
     7
100
AcDbCircle
 10
630.7647875891
 20
-1008.0546655267
 30
0.0
 40
2.39999999999975
100
AcDbArc
 50
90.0
 51
0.0
  0
ARC
  5
F6
330
1F
100
AcDbEntity
  8
0
  6
Continuous
 62
     7
100
AcDbCircle
 10
630.7647875891
 20
-972.0546655267
 30
0.0
 40
2.399999999999977
100
AcDbArc
 50
0.0
 51
270.0
  0
ARC
  5
F7
330
1F
100
AcDbEntity
  8
0
  6
Continuous
 62
     7
100
AcDbCircle
 10
630.7647875891
 20
-936.0546655267
 30
0.0
 40
2.39999999999975
100
AcDbArc
 50
90.0
 51
0.0
  0
ARC
  5
F8
330
1F
100
AcDbEntity
  8
0
  6
Continuous
 62
     7
100
AcDbCircle
 10
630.7647875891
 20
-900.0546655267
 30
0.0
 40
2.399999999999977
100
AcDbArc
 50
0.0
 51
270.0
  0
ARC
  5
F9
330
1F
100
AcDbEntity
  8
0
  6
Continuous
 62
     7
100
AcDbCircle
 10
630.7647875891
 20
-864.0546655267
 30
0.0
 40
2.39999999999975
100
AcDbArc
 50
90.0
 51
0.0
  0
ARC
  5
FA
330
1F
100
AcDbEntity
  8
0
  6
Continuous
 62
     7
100
AcDbCircle
 10
630.7647875891
 20
-828.0546655267
 30
0.0
 40
2.399999999999977
100
AcDbArc
 50
0.0
 51
270.0
  0
LINE
  5
FB
330
1F
100
AcDbEntity
  8
0
  6
Continuous
 62
     7
100
AcDbLine
 10
316.1525031139
 20
565.9616014324
 30
0.0
 11
316.1525031139
 21
557.2289006756
 31
0.0
  0
LINE
  5
FC
330
1F
100
AcDbEntity
  8
0
  6
Continuous
 62
     7
100
AcDbLine
 10
312.8549138338
 20
553.9616014324
 30
0.0
 11
269.450092394
 21
553.9616014324
 31
0.0
  0
LINE
  5
FD
330
1F
100
AcDbEntity
  8
0
  6
Continuous
 62
     7
100
AcDbLine
 10
266.1525031139
 20
557.2289006756
 30
0.0
 11
266.1525031139
 21
565.9616014324
 31
0.0
  0
LINE
  5
FE
330
1F
100
AcDbEntity
  8
0
  6
Continuous
 62
     7
100
AcDbLine
 10
266.1525031139
 20
565.9616014324
 30
0.0
 11
216.1525031139
 21
565.9616014324
 31
0.0
  0
LINE
  5
FF
330
1F
100
AcDbEntity
  8
0
  6
Continuous
 62
     7
100
AcDbLine
 10
216.1525031139
 20
565.9616014324
 30
0.0
 11
216.1525031139
 21
557.2289006756
 31
0.0
  0
LINE
  5
100
330
1F
100
AcDbEntity
  8
0
  6
Continuous
 62
     7
100
AcDbLine
 10
212.8549138338
 20
553.9616014324
 30
0.0
 11
169.450092394
 21
553.9616014324
 31
0.0
  0
LINE
  5
101
330
1F
100
AcDbEntity
  8
0
  6
Continuous
 62
     7
100
AcDbLine
 10
166.1525031139
 20
557.2289006756
 30
0.0
 11
166.1525031139
 21
565.9616014324
 31
0.0
  0
LINE
  5
102
330
1F
100
AcDbEntity
  8
0
  6
Continuous
 62
     7
100
AcDbLine
 10
166.1525031139
 20
565.9616014324
 30
0.0
 11
116.1525031139
 21
565.9616014324
 31
0.0
  0
LINE
  5
103
330
1F
100
AcDbEntity
  8
0
  6
Continuous
 62
     7
100
AcDbLine
 10
116.1525031139
 20
565.9616014324
 30
0.0
 11
116.1525031139
 21
557.2289006756
 31
0.0
  0
LINE
  5
104
330
1F
100
AcDbEntity
  8
0
  6
Continuous
 62
     7
100
AcDbLine
 10
112.8549138338
 20
553.9616014324
 30
0.0
 11
69.450092394
 21
553.9616014324
 31
0.0
  0
LINE
  5
105
330
1F
100
AcDbEntity
  8
0
  6
Continuous
 62
     7
100
AcDbLine
 10
66.1525031139
 20
557.2289006756
 30
0.0
 11
66.1525031139
 21
565.9616014324
 31
0.0
  0
LINE
  5
106
330
1F
100
AcDbEntity
  8
0
  6
Continuous
 62
     7
100
AcDbLine
 10
66.1525031139
 20
565.9616014324
 30
0.0
 11
41.1525031139
 21
565.9616014324
 31
0.0
  0
LINE
  5
107
330
1F
100
AcDbEntity
  8
0
  6
Continuous
 62
     7
100
AcDbLine
 10
41.1525031139
 20
565.9616014324
 30
0.0
 11
41.1525031139
 21
557.2289006756
 31
0.0
  0
LINE
  5
108
330
1F
100
AcDbEntity
  8
0
  6
Continuous
 62
     7
100
AcDbLine
 10
37.8549138338
 20
553.9616014324
 30
0.0
 11
-5.549907606
 21
553.9616014324
 31
0.0
  0
LINE
  5
109
330
1F
100
AcDbEntity
  8
0
  6
Continuous
 62
     7
100
AcDbLine
 10
-8.8474968861
 20
557.2289006756
 30
0.0
 11
-8.8474968861
 21
565.9616014324
 31
0.0
  0
LINE
  5
10A
330
1F
100
AcDbEntity
  8
0
  6
Continuous
 62
     7
100
AcDbLine
 10
-8.8474968861
 20
565.9616014324
 30
0.0
 11
-58.8474968861
 21
565.9616014324
 31
0.0
  0
LINE
  5
10B
330
1F
100
AcDbEntity
  8
0
  6
Continuous
 62
     7
100
AcDbLine
 10
-58.8474968861
 20
565.9616014324
 30
0.0
 11
-58.8474968861
 21
557.2289006756
 31
0.0
  0
LINE
  5
10C
330
1F
100
AcDbEntity
  8
0
  6
Continuous
 62
     7
100
AcDbLine
 10
-62.1450861662
 20
553.9616014324
 30
0.0
 11
-105.549907606
 21
553.9616014324
 31
0.0
  0
LINE
  5
10D
330
1F
100
AcDbEntity
  8
0
  6
Continuous
 62
     7
100
AcDbLine
 10
-108.8474968861
 20
557.2289006756
 30
0.0
 11
-108.8474968861
 21
565.9616014324
 31
0.0
  0
LINE
  5
10E
330
1F
100
AcDbEntity
  8
0
  6
Continuous
 62
     7
100
AcDbLine
 10
-108.8474968861
 20
565.9616014324
 30
0.0
 11
-158.8474968861
 21
565.9616014324
 31
0.0
  0
LINE
  5
10F
330
1F
100
AcDbEntity
  8
0
  6
Continuous
 62
     7
100
AcDbLine
 10
-158.8474968861
 20
565.9616014324
 30
0.0
 11
-158.8474968861
 21
557.2289006756
 31
0.0
  0
LINE
  5
110
330
1F
100
AcDbEntity
  8
0
  6
Continuous
 62
     7
100
AcDbLine
 10
-162.1450861662
 20
553.9616014324
 30
0.0
 11
-205.549907606
 21
553.9616014324
 31
0.0
  0
LINE
  5
111
330
1F
100
AcDbEntity
  8
0
  6
Continuous
 62
     7
100
AcDbLine
 10
-208.8474968861
 20
557.2289006756
 30
0.0
 11
-208.8474968861
 21
565.9616014324
 31
0.0
  0
LINE
  5
112
330
1F
100
AcDbEntity
  8
0
  6
Continuous
 62
     7
100
AcDbLine
 10
-208.8474968861
 20
565.9616014324
 30
0.0
 11
-258.8474968861
 21
565.9616014324
 31
0.0
  0
LINE
  5
113
330
1F
100
AcDbEntity
  8
0
  6
Continuous
 62
     7
100
AcDbLine
 10
-258.8474968861
 20
565.9616014324
 30
0.0
 11
-258.8474968861
 21
557.2289006756
 31
0.0
  0
LINE
  5
114
330
1F
100
AcDbEntity
  8
0
  6
Continuous
 62
     7
100
AcDbLine
 10
-262.1450861662
 20
553.9616014324
 30
0.0
 11
-305.549907606
 21
553.9616014324
 31
0.0
  0
LINE
  5
115
330
1F
100
AcDbEntity
  8
0
  6
Continuous
 62
     7
100
AcDbLine
 10
-308.8474968861
 20
557.2289006756
 30
0.0
 11
-308.8474968861
 21
565.9616014324
 31
0.0
  0
LINE
  5
116
330
1F
100
AcDbEntity
  8
0
  6
Continuous
 62
     7
100
AcDbLine
 10
-308.8474968861
 20
565.9616014324
 30
0.0
 11
-358.8474968861
 21
565.9616014324
 31
0.0
  0
LINE
  5
117
330
1F
100
AcDbEntity
  8
0
  6
Continuous
 62
     7
100
AcDbLine
 10
-358.8474968861
 20
565.9616014324
 30
0.0
 11
-358.8474968861
 21
557.2289006756
 31
0.0
  0
LINE
  5
118
330
1F
100
AcDbEntity
  8
0
  6
Continuous
 62
     7
100
AcDbLine
 10
-362.1450861662
 20
553.9616014324
 30
0.0
 11
-405.549907606
 21
553.9616014324
 31
0.0
  0
LINE
  5
119
330
1F
100
AcDbEntity
  8
0
  6
Continuous
 62
     7
100
AcDbLine
 10
-408.8474968861
 20
557.2289006756
 30
0.0
 11
-408.8474968861
 21
565.9616014324
 31
0.0
  0
LINE
  5
11A
330
1F
100
AcDbEntity
  8
0
  6
Continuous
 62
     7
100
AcDbLine
 10
-408.8474968861
 20
565.9616014324
 30
0.0
 11
-458.8474968861
 21
565.9616014324
 31
0.0
  0
LINE
  5
11B
330
1F
100
AcDbEntity
  8
0
  6
Continuous
 62
     7
100
AcDbLine
 10
-458.8474968861
 20
565.9616014324
 30
0.0
 11
-458.8474968861
 21
557.2289006756
 31
0.0
  0
LINE
  5
11C
330
1F
100
AcDbEntity
  8
0
  6
Continuous
 62
     7
100
AcDbLine
 10
-462.1450861662
 20
553.9616014324
 30
0.0
 11
-508.8474968861
 21
553.9616014324
 31
0.0
  0
LINE
  5
11D
330
1F
100
AcDbEntity
  8
0
  6
Continuous
 62
     7
100
AcDbLine
 10
-508.8474968861
 20
553.9616014324
 30
0.0
 11
-508.8474968861
 21
506.9616014324
 31
0.0
  0
LINE
  5
11E
330
1F
100
AcDbEntity
  8
0
  6
Continuous
 62
     7
100
AcDbLine
 10
-508.8474968861
 20
506.9616014324
 30
0.0
 11
-500.1226170041
 21
506.9616014324
 31
0.0
  0
LINE
  5
11F
330
1F
100
AcDbEntity
  8
0
  6
Continuous
 62
     7
100
AcDbLine
 10
-496.8474968861
 20
503.6812151986
 30
0.0
 11
-496.8474968861
 21
463.2419876661
 31
0.0
  0
LINE
  5
120
330
1F
100
AcDbEntity
  8
0
  6
Continuous
 62
     7
100
AcDbLine
 10
-500.1226170041
 20
459.9616014324
 30
0.0
 11
-508.8474968861
 21
459.9616014324
 31
0.0
  0
LINE
  5
121
330
1F
100
AcDbEntity
  8
0
  6
Continuous
 62
     7
100
AcDbLine
 10
-508.8474968861
 20
459.9616014324
 30
0.0
 11
-508.8474968861
 21
412.9616014324
 31
0.0
  0
LINE
  5
122
330
1F
100
AcDbEntity
  8
0
  6
Continuous
 62
     7
100
AcDbLine
 10
-508.8474968861
 20
412.9616014324
 30
0.0
 11
-500.1226170041
 21
412.9616014324
 31
0.0
  0
LINE
  5
123
330
1F
100
AcDbEntity
  8
0
  6
Continuous
 62
     7
100
AcDbLine
 10
-496.8474968861
 20
409.6812151986
 30
0.0
 11
-496.8474968861
 21
365.9616014324
 31
0.0
  0
LINE
  5
124
330
1F
100
AcDbEntity
  8
0
  6
Continuous
 62
     7
100
AcDbLine
 10
-496.8474968861
 20
365.9616014324
 30
0.0
 11
604.1525031139
 21
365.9616014324
 31
0.0
  0
LINE
  5
125
330
1F
100
AcDbEntity
  8
0
  6
Continuous
 62
     7
100
AcDbLine
 10
604.1525031139
 20
365.9616014324
 30
0.0
 11
604.1525031139
 21
409.6812151986
 31
0.0
  0
LINE
  5
126
330
1F
100
AcDbEntity
  8
0
  6
Continuous
 62
     7
100
AcDbLine
 10
607.4276232318
 20
412.9616014324
 30
0.0
 11
616.1525031139
 21
412.9616014324
 31
0.0
  0
LINE
  5
127
330
1F
100
AcDbEntity
  8
0
  6
Continuous
 62
     7
100
AcDbLine
 10
616.1525031139
 20
412.9616014324
 30
0.0
 11
616.1525031139
 21
459.9616014324
 31
0.0
  0
LINE
  5
128
330
1F
100
AcDbEntity
  8
0
  6
Continuous
 62
     7
100
AcDbLine
 10
616.1525031139
 20
459.9616014324
 30
0.0
 11
607.4276232318
 21
459.9616014324
 31
0.0
  0
LINE
  5
129
330
1F
100
AcDbEntity
  8
0
  6
Continuous
 62
     7
100
AcDbLine
 10
604.1525031139
 20
463.2419876661
 30
0.0
 11
604.1525031139
 21
503.6812151986
 31
0.0
  0
LINE
  5
12A
330
1F
100
AcDbEntity
  8
0
  6
Continuous
 62
     7
100
AcDbLine
 10
607.4276232318
 20
506.9616014324
 30
0.0
 11
616.1525031139
 21
506.9616014324
 31
0.0
  0
LINE
  5
12B
330
1F
100
AcDbEntity
  8
0
  6
Continuous
 62
     7
100
AcDbLine
 10
616.1525031139
 20
506.9616014324
 30
0.0
 11
616.1525031139
 21
553.9616014324
 31
0.0
  0
LINE
  5
12C
330
1F
100
AcDbEntity
  8
0
  6
Continuous
 62
     7
100
AcDbLine
 10
616.1525031139
 20
553.9616014324
 30
0.0
 11
569.450092394
 21
553.9616014324
 31
0.0
  0
LINE
  5
12D
330
1F
100
AcDbEntity
  8
0
  6
Continuous
 62
     7
100
AcDbLine
 10
566.1525031139
 20
557.2289006756
 30
0.0
 11
566.1525031139
 21
565.9616014324
 31
0.0
  0
LINE
  5
12E
330
1F
100
AcDbEntity
  8
0
  6
Continuous
 62
     7
100
AcDbLine
 10
566.1525031139
 20
565.9616014324
 30
0.0
 11
516.1525031139
 21
565.9616014324
 31
0.0
  0
LINE
  5
12F
330
1F
100
AcDbEntity
  8
0
  6
Continuous
 62
     7
100
AcDbLine
 10
516.1525031139
 20
565.9616014324
 30
0.0
 11
516.1525031139
 21
557.2289006756
 31
0.0
  0
LINE
  5
130
330
1F
100
AcDbEntity
  8
0
  6
Continuous
 62
     7
100
AcDbLine
 10
512.8549138338
 20
553.9616014324
 30
0.0
 11
469.4500923939
 21
553.9616014324
 31
0.0
  0
LINE
  5
131
330
1F
100
AcDbEntity
  8
0
  6
Continuous
 62
     7
100
AcDbLine
 10
466.1525031139
 20
557.2289006756
 30
0.0
 11
466.1525031139
 21
565.9616014324
 31
0.0
  0
LINE
  5
132
330
1F
100
AcDbEntity
  8
0
  6
Continuous
 62
     7
100
AcDbLine
 10
466.1525031139
 20
565.9616014324
 30
0.0
 11
416.1525031139
 21
565.9616014324
 31
0.0
  0
LINE
  5
133
330
1F
100
AcDbEntity
  8
0
  6
Continuous
 62
     7
100
AcDbLine
 10
416.1525031139
 20
565.9616014324
 30
0.0
 11
416.1525031139
 21
557.2289006756
 31
0.0
  0
LINE
  5
134
330
1F
100
AcDbEntity
  8
0
  6
Continuous
 62
     7
100
AcDbLine
 10
412.8549138338
 20
553.9616014324
 30
0.0
 11
369.450092394
 21
553.9616014324
 31
0.0
  0
LINE
  5
135
330
1F
100
AcDbEntity
  8
0
  6
Continuous
 62
     7
100
AcDbLine
 10
366.1525031139
 20
557.2289006756
 30
0.0
 11
366.1525031139
 21
565.9616014324
 31
0.0
  0
LINE
  5
136
330
1F
100
AcDbEntity
  8
0
  6
Continuous
 62
     7
100
AcDbLine
 10
366.1525031139
 20
565.9616014324
 30
0.0
 11
316.1525031139
 21
565.9616014324
 31
0.0
  0
LINE
  5
137
330
1F
100
AcDbEntity
  8
0
  6
Continuous
 62
     7
100
AcDbLine
 10
328.7103476524
 20
180.9650217982
 30
0.0
 11
328.7103476524
 21
172.2323210415
 31
0.0
  0
LINE
  5
138
330
1F
100
AcDbEntity
  8
0
  6
Continuous
 62
     7
100
AcDbLine
 10
325.4127583723
 20
168.9650217982
 30
0.0
 11
282.0079369325
 21
168.9650217982
 31
0.0
  0
LINE
  5
139
330
1F
100
AcDbEntity
  8
0
  6
Continuous
 62
     7
100
AcDbLine
 10
278.7103476524
 20
172.2323210415
 30
0.0
 11
278.7103476524
 21
180.9650217982
 31
0.0
  0
LINE
  5
13A
330
1F
100
AcDbEntity
  8
0
  6
Continuous
 62
     7
100
AcDbLine
 10
278.7103476524
 20
180.9650217982
 30
0.0
 11
228.7103476524
 21
180.9650217982
 31
0.0
  0
LINE
  5
13B
330
1F
100
AcDbEntity
  8
0
  6
Continuous
 62
     7
100
AcDbLine
 10
228.7103476524
 20
180.9650217982
 30
0.0
 11
228.7103476524
 21
172.2323210415
 31
0.0
  0
LINE
  5
13C
330
1F
100
AcDbEntity
  8
0
  6
Continuous
 62
     7
100
AcDbLine
 10
225.4127583723
 20
168.9650217982
 30
0.0
 11
182.0079369325
 21
168.9650217982
 31
0.0
  0
LINE
  5
13D
330
1F
100
AcDbEntity
  8
0
  6
Continuous
 62
     7
100
AcDbLine
 10
178.7103476524
 20
172.2323210415
 30
0.0
 11
178.7103476524
 21
180.9650217982
 31
0.0
  0
LINE
  5
13E
330
1F
100
AcDbEntity
  8
0
  6
Continuous
 62
     7
100
AcDbLine
 10
178.7103476524
 20
180.9650217982
 30
0.0
 11
128.7103476524
 21
180.9650217982
 31
0.0
  0
LINE
  5
13F
330
1F
100
AcDbEntity
  8
0
  6
Continuous
 62
     7
100
AcDbLine
 10
128.7103476524
 20
180.9650217982
 30
0.0
 11
128.7103476524
 21
172.2323210415
 31
0.0
  0
LINE
  5
140
330
1F
100
AcDbEntity
  8
0
  6
Continuous
 62
     7
100
AcDbLine
 10
125.4127583723
 20
168.9650217982
 30
0.0
 11
82.0079369325
 21
168.9650217982
 31
0.0
  0
LINE
  5
141
330
1F
100
AcDbEntity
  8
0
  6
Continuous
 62
     7
100
AcDbLine
 10
78.7103476524
 20
172.2323210415
 30
0.0
 11
78.7103476524
 21
180.9650217982
 31
0.0
  0
LINE
  5
142
330
1F
100
AcDbEntity
  8
0
  6
Continuous
 62
     7
100
AcDbLine
 10
78.7103476524
 20
180.9650217982
 30
0.0
 11
53.7103476524
 21
180.9650217982
 31
0.0
  0
LINE
  5
143
330
1F
100
AcDbEntity
  8
0
  6
Continuous
 62
     7
100
AcDbLine
 10
53.7103476524
 20
180.9650217982
 30
0.0
 11
53.7103476524
 21
172.2323210415
 31
0.0
  0
LINE
  5
144
330
1F
100
AcDbEntity
  8
0
  6
Continuous
 62
     7
100
AcDbLine
 10
50.4127583723
 20
168.9650217982
 30
0.0
 11
7.0079369325
 21
168.9650217982
 31
0.0
  0
LINE
  5
145
330
1F
100
AcDbEntity
  8
0
  6
Continuous
 62
     7
100
AcDbLine
 10
3.7103476524
 20
172.2323210415
 30
0.0
 11
3.7103476524
 21
180.9650217982
 31
0.0
  0
LINE
  5
146
330
1F
100
AcDbEntity
  8
0
  6
Continuous
 62
     7
100
AcDbLine
 10
3.7103476524
 20
180.9650217982
 30
0.0
 11
-46.2896523476
 21
180.9650217982
 31
0.0
  0
LINE
  5
147
330
1F
100
AcDbEntity
  8
0
  6
Continuous
 62
     7
100
AcDbLine
 10
-46.2896523476
 20
180.9650217982
 30
0.0
 11
-46.2896523476
 21
172.2323210415
 31
0.0
  0
LINE
  5
148
330
1F
100
AcDbEntity
  8
0
  6
Continuous
 62
     7
100
AcDbLine
 10
-49.5872416277
 20
168.9650217982
 30
0.0
 11
-92.9920630675
 21
168.9650217982
 31
0.0
  0
LINE
  5
149
330
1F
100
AcDbEntity
  8
0
  6
Continuous
 62
     7
100
AcDbLine
 10
-96.2896523476
 20
172.2323210415
 30
0.0
 11
-96.2896523476
 21
180.9650217982
 31
0.0
  0
LINE
  5
14A
330
1F
100
AcDbEntity
  8
0
  6
Continuous
 62
     7
100
AcDbLine
 10
-96.2896523476
 20
180.9650217982
 30
0.0
 11
-146.2896523476
 21
180.9650217982
 31
0.0
  0
LINE
  5
14B
330
1F
100
AcDbEntity
  8
0
  6
Continuous
 62
     7
100
AcDbLine
 10
-146.2896523476
 20
180.9650217982
 30
0.0
 11
-146.2896523476
 21
172.2323210415
 31
0.0
  0
LINE
  5
14C
330
1F
100
AcDbEntity
  8
0
  6
Continuous
 62
     7
100
AcDbLine
 10
-149.5872416277
 20
168.9650217982
 30
0.0
 11
-192.9920630675
 21
168.9650217982
 31
0.0
  0
LINE
  5
14D
330
1F
100
AcDbEntity
  8
0
  6
Continuous
 62
     7
100
AcDbLine
 10
-196.2896523476
 20
172.2323210415
 30
0.0
 11
-196.2896523476
 21
180.9650217982
 31
0.0
  0
LINE
  5
14E
330
1F
100
AcDbEntity
  8
0
  6
Continuous
 62
     7
100
AcDbLine
 10
-196.2896523476
 20
180.9650217982
 30
0.0
 11
-246.2896523476
 21
180.9650217982
 31
0.0
  0
LINE
  5
14F
330
1F
100
AcDbEntity
  8
0
  6
Continuous
 62
     7
100
AcDbLine
 10
-246.2896523476
 20
180.9650217982
 30
0.0
 11
-246.2896523476
 21
172.2323210415
 31
0.0
  0
LINE
  5
150
330
1F
100
AcDbEntity
  8
0
  6
Continuous
 62
     7
100
AcDbLine
 10
-249.5872416277
 20
168.9650217982
 30
0.0
 11
-292.9920630675
 21
168.9650217982
 31
0.0
  0
LINE
  5
151
330
1F
100
AcDbEntity
  8
0
  6
Continuous
 62
     7
100
AcDbLine
 10
-296.2896523476
 20
172.2323210415
 30
0.0
 11
-296.2896523476
 21
180.9650217982
 31
0.0
  0
LINE
  5
152
330
1F
100
AcDbEntity
  8
0
  6
Continuous
 62
     7
100
AcDbLine
 10
-296.2896523476
 20
180.9650217982
 30
0.0
 11
-346.2896523476
 21
180.9650217982
 31
0.0
  0
LINE
  5
153
330
1F
100
AcDbEntity
  8
0
  6
Continuous
 62
     7
100
AcDbLine
 10
-346.2896523476
 20
180.9650217982
 30
0.0
 11
-346.2896523476
 21
172.2323210415
 31
0.0
  0
LINE
  5
154
330
1F
100
AcDbEntity
  8
0
  6
Continuous
 62
     7
100
AcDbLine
 10
-349.5872416277
 20
168.9650217982
 30
0.0
 11
-392.9920630675
 21
168.9650217982
 31
0.0
  0
LINE
  5
155
330
1F
100
AcDbEntity
  8
0
  6
Continuous
 62
     7
100
AcDbLine
 10
-396.2896523476
 20
172.2323210415
 30
0.0
 11
-396.2896523476
 21
180.9650217982
 31
0.0
  0
LINE
  5
156
330
1F
100
AcDbEntity
  8
0
  6
Continuous
 62
     7
100
AcDbLine
 10
-396.2896523476
 20
180.9650217982
 30
0.0
 11
-446.2896523476
 21
180.9650217982
 31
0.0
  0
LINE
  5
157
330
1F
100
AcDbEntity
  8
0
  6
Continuous
 62
     7
100
AcDbLine
 10
-446.2896523476
 20
180.9650217982
 30
0.0
 11
-446.2896523476
 21
172.2323210415
 31
0.0
  0
LINE
  5
158
330
1F
100
AcDbEntity
  8
0
  6
Continuous
 62
     7
100
AcDbLine
 10
-449.5872416277
 20
168.9650217982
 30
0.0
 11
-496.2896523476
 21
168.9650217982
 31
0.0
  0
LINE
  5
159
330
1F
100
AcDbEntity
  8
0
  6
Continuous
 62
     7
100
AcDbLine
 10
-496.2896523476
 20
168.9650217982
 30
0.0
 11
-496.2896523476
 21
121.9650217982
 31
0.0
  0
LINE
  5
15A
330
1F
100
AcDbEntity
  8
0
  6
Continuous
 62
     7
100
AcDbLine
 10
-496.2896523476
 20
121.9650217982
 30
0.0
 11
-487.5647724655
 21
121.9650217982
 31
0.0
  0
LINE
  5
15B
330
1F
100
AcDbEntity
  8
0
  6
Continuous
 62
     7
100
AcDbLine
 10
-484.2896523476
 20
118.6846355644
 30
0.0
 11
-484.2896523476
 21
78.2454080319
 31
0.0
  0
LINE
  5
15C
330
1F
100
AcDbEntity
  8
0
  6
Continuous
 62
     7
100
AcDbLine
 10
-487.5647724655
 20
74.9650217982
 30
0.0
 11
-496.2896523476
 21
74.9650217982
 31
0.0
  0
LINE
  5
15D
330
1F
100
AcDbEntity
  8
0
  6
Continuous
 62
     7
100
AcDbLine
 10
-496.2896523476
 20
74.9650217982
 30
0.0
 11
-496.2896523476
 21
27.9650217982
 31
0.0
  0
LINE
  5
15E
330
1F
100
AcDbEntity
  8
0
  6
Continuous
 62
     7
100
AcDbLine
 10
-496.2896523476
 20
27.9650217982
 30
0.0
 11
-487.5647724655
 21
27.9650217982
 31
0.0
  0
LINE
  5
15F
330
1F
100
AcDbEntity
  8
0
  6
Continuous
 62
     7
100
AcDbLine
 10
-484.2896523476
 20
24.6846355644
 30
0.0
 11
-484.2896523476
 21
-19.0349782018
 31
0.0
  0
LINE
  5
160
330
1F
100
AcDbEntity
  8
0
  6
Continuous
 62
     7
100
AcDbLine
 10
-484.2896523476
 20
-19.0349782018
 30
0.0
 11
616.7103476524
 21
-19.0349782018
 31
0.0
  0
LINE
  5
161
330
1F
100
AcDbEntity
  8
0
  6
Continuous
 62
     7
100
AcDbLine
 10
616.7103476524
 20
-19.0349782018
 30
0.0
 11
616.7103476524
 21
24.6846355644
 31
0.0
  0
LINE
  5
162
330
1F
100
AcDbEntity
  8
0
  6
Continuous
 62
     7
100
AcDbLine
 10
619.9854677703
 20
27.9650217982
 30
0.0
 11
628.7103476524
 21
27.9650217982
 31
0.0
  0
LINE
  5
163
330
1F
100
AcDbEntity
  8
0
  6
Continuous
 62
     7
100
AcDbLine
 10
628.7103476524
 20
27.9650217982
 30
0.0
 11
628.7103476524
 21
74.9650217982
 31
0.0
  0
LINE
  5
164
330
1F
100
AcDbEntity
  8
0
  6
Continuous
 62
     7
100
AcDbLine
 10
628.7103476524
 20
74.9650217982
 30
0.0
 11
619.9854677703
 21
74.9650217982
 31
0.0
  0
LINE
  5
165
330
1F
100
AcDbEntity
  8
0
  6
Continuous
 62
     7
100
AcDbLine
 10
616.7103476524
 20
78.2454080319
 30
0.0
 11
616.7103476524
 21
118.6846355644
 31
0.0
  0
LINE
  5
166
330
1F
100
AcDbEntity
  8
0
  6
Continuous
 62
     7
100
AcDbLine
 10
619.9854677703
 20
121.9650217982
 30
0.0
 11
628.7103476524
 21
121.9650217982
 31
0.0
  0
LINE
  5
167
330
1F
100
AcDbEntity
  8
0
  6
Continuous
 62
     7
100
AcDbLine
 10
628.7103476524
 20
121.9650217982
 30
0.0
 11
628.7103476524
 21
168.9650217982
 31
0.0
  0
LINE
  5
168
330
1F
100
AcDbEntity
  8
0
  6
Continuous
 62
     7
100
AcDbLine
 10
628.7103476524
 20
168.9650217982
 30
0.0
 11
582.0079369325
 21
168.9650217982
 31
0.0
  0
LINE
  5
169
330
1F
100
AcDbEntity
  8
0
  6
Continuous
 62
     7
100
AcDbLine
 10
578.7103476524
 20
172.2323210415
 30
0.0
 11
578.7103476524
 21
180.9650217982
 31
0.0
  0
LINE
  5
16A
330
1F
100
AcDbEntity
  8
0
  6
Continuous
 62
     7
100
AcDbLine
 10
578.7103476524
 20
180.9650217982
 30
0.0
 11
528.7103476524
 21
180.9650217982
 31
0.0
  0
LINE
  5
16B
330
1F
100
AcDbEntity
  8
0
  6
Continuous
 62
     7
100
AcDbLine
 10
528.7103476524
 20
180.9650217982
 30
0.0
 11
528.7103476524
 21
172.2323210415
 31
0.0
  0
LINE
  5
16C
330
1F
100
AcDbEntity
  8
0
  6
Continuous
 62
     7
100
AcDbLine
 10
525.4127583723
 20
168.9650217982
 30
0.0
 11
482.0079369325
 21
168.9650217982
 31
0.0
  0
LINE
  5
16D
330
1F
100
AcDbEntity
  8
0
  6
Continuous
 62
     7
100
AcDbLine
 10
478.7103476524
 20
172.2323210415
 30
0.0
 11
478.7103476524
 21
180.9650217982
 31
0.0
  0
LINE
  5
16E
330
1F
100
AcDbEntity
  8
0
  6
Continuous
 62
     7
100
AcDbLine
 10
478.7103476524
 20
180.9650217982
 30
0.0
 11
428.7103476524
 21
180.9650217982
 31
0.0
  0
LINE
  5
16F
330
1F
100
AcDbEntity
  8
0
  6
Continuous
 62
     7
100
AcDbLine
 10
428.7103476524
 20
180.9650217982
 30
0.0
 11
428.7103476524
 21
172.2323210415
 31
0.0
  0
LINE
  5
170
330
1F
100
AcDbEntity
  8
0
  6
Continuous
 62
     7
100
AcDbLine
 10
425.4127583723
 20
168.9650217982
 30
0.0
 11
382.0079369325
 21
168.9650217982
 31
0.0
  0
LINE
  5
171
330
1F
100
AcDbEntity
  8
0
  6
Continuous
 62
     7
100
AcDbLine
 10
378.7103476524
 20
172.2323210415
 30
0.0
 11
378.7103476524
 21
180.9650217982
 31
0.0
  0
LINE
  5
172
330
1F
100
AcDbEntity
  8
0
  6
Continuous
 62
     7
100
AcDbLine
 10
378.7103476524
 20
180.9650217982
 30
0.0
 11
328.7103476524
 21
180.9650217982
 31
0.0
  0
LINE
  5
173
330
1F
100
AcDbEntity
  8
0
  6
Continuous
 62
     7
100
AcDbLine
 10
-432.5397745035
 20
-95.0341964039
 30
0.0
 11
-482.5397745035
 21
-95.0341964039
 31
0.0
  0
LINE
  5
174
330
1F
100
AcDbEntity
  8
0
  6
Continuous
 62
     7
100
AcDbLine
 10
-482.5397745035
 20
-95.0341964039
 30
0.0
 11
-482.5397745035
 21
-145.0341964039
 31
0.0
  0
LINE
  5
175
330
1F
100
AcDbEntity
  8
0
  6
Continuous
 62
     7
100
AcDbLine
 10
-482.5397745035
 20
-145.0341964039
 30
0.0
 11
-473.8182354726
 21
-145.0341964039
 31
0.0
  0
LINE
  5
176
330
1F
100
AcDbEntity
  8
0
  6
Continuous
 62
     7
100
AcDbLine
 10
-470.5397745035
 20
-148.312657373
 30
0.0
 11
-470.5397745035
 21
-191.7557354348
 31
0.0
  0
LINE
  5
177
330
1F
100
AcDbEntity
  8
0
  6
Continuous
 62
     7
100
AcDbLine
 10
-473.8182354726
 20
-195.0341964039
 30
0.0
 11
-482.5397745035
 21
-195.0341964039
 31
0.0
  0
LINE
  5
178
330
1F
100
AcDbEntity
  8
0
  6
Continuous
 62
     7
100
AcDbLine
 10
-482.5397745035
 20
-195.0341964039
 30
0.0
 11
-482.5397745035
 21
-245.0341964039
 31
0.0
  0
LINE
  5
179
330
1F
100
AcDbEntity
  8
0
  6
Continuous
 62
     7
100
AcDbLine
 10
-482.5397745035
 20
-245.0341964039
 30
0.0
 11
-473.8182354726
 21
-245.0341964039
 31
0.0
  0
LINE
  5
17A
330
1F
100
AcDbEntity
  8
0
  6
Continuous
 62
     7
100
AcDbLine
 10
-470.5397745035
 20
-248.312657373
 30
0.0
 11
-470.5397745035
 21
-291.7557354348
 31
0.0
  0
LINE
  5
17B
330
1F
100
AcDbEntity
  8
0
  6
Continuous
 62
     7
100
AcDbLine
 10
-473.8182354726
 20
-295.0341964039
 30
0.0
 11
-482.5397745035
 21
-295.0341964039
 31
0.0
  0
LINE
  5
17C
330
1F
100
AcDbEntity
  8
0
  6
Continuous
 62
     7
100
AcDbLine
 10
-482.5397745035
 20
-295.0341964039
 30
0.0
 11
-482.5397745035
 21
-495.0341964039
 31
0.0
  0
LINE
  5
17D
330
1F
100
AcDbEntity
  8
0
  6
Continuous
 62
     7
100
AcDbLine
 10
-482.5397745035
 20
-495.0341964039
 30
0.0
 11
-473.8182354726
 21
-495.0341964039
 31
0.0
  0
LINE
  5
17E
330
1F
100
AcDbEntity
  8
0
  6
Continuous
 62
     7
100
AcDbLine
 10
-470.5397745035
 20
-498.312657373
 30
0.0
 11
-470.5397745035
 21
-541.7557354348
 31
0.0
  0
LINE
  5
17F
330
1F
100
AcDbEntity
  8
0
  6
Continuous
 62
     7
100
AcDbLine
 10
-473.8182354726
 20
-545.0341964039
 30
0.0
 11
-482.5397745035
 21
-545.0341964039
 31
0.0
  0
LINE
  5
180
330
1F
100
AcDbEntity
  8
0
  6
Continuous
 62
     7
100
AcDbLine
 10
-482.5397745035
 20
-545.0341964039
 30
0.0
 11
-482.5397745035
 21
-595.0341964039
 31
0.0
  0
LINE
  5
181
330
1F
100
AcDbEntity
  8
0
  6
Continuous
 62
     7
100
AcDbLine
 10
-482.5397745035
 20
-595.0341964039
 30
0.0
 11
-473.8182354726
 21
-595.0341964039
 31
0.0
  0
LINE
  5
182
330
1F
100
AcDbEntity
  8
0
  6
Continuous
 62
     7
100
AcDbLine
 10
-470.5397745035
 20
-598.312657373
 30
0.0
 11
-470.5397745035
 21
-641.7557354348
 31
0.0
  0
LINE
  5
183
330
1F
100
AcDbEntity
  8
0
  6
Continuous
 62
     7
100
AcDbLine
 10
-473.8182354726
 20
-645.0341964039
 30
0.0
 11
-482.5397745035
 21
-645.0341964039
 31
0.0
  0
LINE
  5
184
330
1F
100
AcDbEntity
  8
0
  6
Continuous
 62
     7
100
AcDbLine
 10
-482.5397745035
 20
-645.0341964039
 30
0.0
 11
-482.5397745035
 21
-695.0341964039
 31
0.0
  0
LINE
  5
185
330
1F
100
AcDbEntity
  8
0
  6
Continuous
 62
     7
100
AcDbLine
 10
-482.5397745035
 20
-695.0341964039
 30
0.0
 11
-432.5397745035
 21
-695.0341964039
 31
0.0
  0
LINE
  5
186
330
1F
100
AcDbEntity
  8
0
  6
Continuous
 62
     7
100
AcDbLine
 10
-432.5397745035
 20
-695.0341964039
 30
0.0
 11
-432.5397745035
 21
-686.312657373
 31
0.0
  0
LINE
  5
187
330
1F
100
AcDbEntity
  8
0
  6
Continuous
 62
     7
100
AcDbLine
 10
-429.2613135344
 20
-683.0341964039
 30
0.0
 11
-385.8182354726
 21
-683.0341964039
 31
0.0
  0
LINE
  5
188
330
1F
100
AcDbEntity
  8
0
  6
Continuous
 62
     7
100
AcDbLine
 10
-382.5397745035
 20
-686.312657373
 30
0.0
 11
-382.5397745035
 21
-695.0341964039
 31
0.0
  0
LINE
  5
189
330
1F
100
AcDbEntity
  8
0
  6
Continuous
 62
     7
100
AcDbLine
 10
-382.5397745035
 20
-695.0341964039
 30
0.0
 11
-332.5397745035
 21
-695.0341964039
 31
0.0
  0
LINE
  5
18A
330
1F
100
AcDbEntity
  8
0
  6
Continuous
 62
     7
100
AcDbLine
 10
-332.5397745035
 20
-695.0341964039
 30
0.0
 11
-332.5397745035
 21
-686.312657373
 31
0.0
  0
LINE
  5
18B
330
1F
100
AcDbEntity
  8
0
  6
Continuous
 62
     7
100
AcDbLine
 10
-329.2613135344
 20
-683.0341964039
 30
0.0
 11
-285.8182354726
 21
-683.0341964039
 31
0.0
  0
LINE
  5
18C
330
1F
100
AcDbEntity
  8
0
  6
Continuous
 62
     7
100
AcDbLine
 10
-282.5397745035
 20
-686.312657373
 30
0.0
 11
-282.5397745035
 21
-695.0341964039
 31
0.0
  0
LINE
  5
18D
330
1F
100
AcDbEntity
  8
0
  6
Continuous
 62
     7
100
AcDbLine
 10
-282.5397745035
 20
-695.0341964039
 30
0.0
 11
-232.5397745035
 21
-695.0341964039
 31
0.0
  0
LINE
  5
18E
330
1F
100
AcDbEntity
  8
0
  6
Continuous
 62
     7
100
AcDbLine
 10
-232.5397745035
 20
-695.0341964039
 30
0.0
 11
-232.5397745035
 21
-686.312657373
 31
0.0
  0
LINE
  5
18F
330
1F
100
AcDbEntity
  8
0
  6
Continuous
 62
     7
100
AcDbLine
 10
-229.2613135344
 20
-683.0341964039
 30
0.0
 11
-185.8182354726
 21
-683.0341964039
 31
0.0
  0
LINE
  5
190
330
1F
100
AcDbEntity
  8
0
  6
Continuous
 62
     7
100
AcDbLine
 10
-182.5397745035
 20
-686.312657373
 30
0.0
 11
-182.5397745035
 21
-695.0341964039
 31
0.0
  0
LINE
  5
191
330
1F
100
AcDbEntity
  8
0
  6
Continuous
 62
     7
100
AcDbLine
 10
-182.5397745035
 20
-695.0341964039
 30
0.0
 11
-132.5397745035
 21
-695.0341964039
 31
0.0
  0
LINE
  5
192
330
1F
100
AcDbEntity
  8
0
  6
Continuous
 62
     7
100
AcDbLine
 10
-132.5397745035
 20
-695.0341964039
 30
0.0
 11
-132.5397745035
 21
-686.312657373
 31
0.0
  0
LINE
  5
193
330
1F
100
AcDbEntity
  8
0
  6
Continuous
 62
     7
100
AcDbLine
 10
-129.2613135344
 20
-683.0341964039
 30
0.0
 11
-85.8182354726
 21
-683.0341964039
 31
0.0
  0
LINE
  5
194
330
1F
100
AcDbEntity
  8
0
  6
Continuous
 62
     7
100
AcDbLine
 10
-82.5397745035
 20
-686.312657373
 30
0.0
 11
-82.5397745035
 21
-695.0341964039
 31
0.0
  0
LINE
  5
195
330
1F
100
AcDbEntity
  8
0
  6
Continuous
 62
     7
100
AcDbLine
 10
-82.5397745035
 20
-695.0341964039
 30
0.0
 11
-32.5397745035
 21
-695.0341964039
 31
0.0
  0
LINE
  5
196
330
1F
100
AcDbEntity
  8
0
  6
Continuous
 62
     7
100
AcDbLine
 10
-32.5397745035
 20
-695.0341964039
 30
0.0
 11
-32.5397745035
 21
-686.312657373
 31
0.0
  0
LINE
  5
197
330
1F
100
AcDbEntity
  8
0
  6
Continuous
 62
     7
100
AcDbLine
 10
-29.2613135344
 20
-683.0341964039
 30
0.0
 11
14.1817645274
 21
-683.0341964039
 31
0.0
  0
LINE
  5
198
330
1F
100
AcDbEntity
  8
0
  6
Continuous
 62
     7
100
AcDbLine
 10
17.4602254965
 20
-686.312657373
 30
0.0
 11
17.4602254965
 21
-695.0341964039
 31
0.0
  0
LINE
  5
199
330
1F
100
AcDbEntity
  8
0
  6
Continuous
 62
     7
100
AcDbLine
 10
17.4602254965
 20
-695.0341964039
 30
0.0
 11
67.4602254965
 21
-695.0341964039
 31
0.0
  0
LINE
  5
19A
330
1F
100
AcDbEntity
  8
0
  6
Continuous
 62
     7
100
AcDbLine
 10
67.4602254965
 20
-695.0341964039
 30
0.0
 11
67.4602254965
 21
-686.312657373
 31
0.0
  0
LINE
  5
19B
330
1F
100
AcDbEntity
  8
0
  6
Continuous
 62
     7
100
AcDbLine
 10
70.7386864656
 20
-683.0341964039
 30
0.0
 11
89.1817645274
 21
-683.0341964039
 31
0.0
  0
LINE
  5
19C
330
1F
100
AcDbEntity
  8
0
  6
Continuous
 62
     7
100
AcDbLine
 10
92.4602254965
 20
-686.312657373
 30
0.0
 11
92.4602254965
 21
-695.0341964039
 31
0.0
  0
LINE
  5
19D
330
1F
100
AcDbEntity
  8
0
  6
Continuous
 62
     7
100
AcDbLine
 10
92.4602254965
 20
-695.0341964039
 30
0.0
 11
142.4602254965
 21
-695.0341964039
 31
0.0
  0
LINE
  5
19E
330
1F
100
AcDbEntity
  8
0
  6
Continuous
 62
     7
100
AcDbLine
 10
142.4602254965
 20
-695.0341964039
 30
0.0
 11
142.4602254965
 21
-686.312657373
 31
0.0
  0
LINE
  5
19F
330
1F
100
AcDbEntity
  8
0
  6
Continuous
 62
     7
100
AcDbLine
 10
145.7386864656
 20
-683.0341964039
 30
0.0
 11
189.1817645274
 21
-683.0341964039
 31
0.0
  0
LINE
  5
1A0
330
1F
100
AcDbEntity
  8
0
  6
Continuous
 62
     7
100
AcDbLine
 10
192.4602254965
 20
-686.312657373
 30
0.0
 11
192.4602254965
 21
-695.0341964039
 31
0.0
  0
LINE
  5
1A1
330
1F
100
AcDbEntity
  8
0
  6
Continuous
 62
     7
100
AcDbLine
 10
192.4602254965
 20
-695.0341964039
 30
0.0
 11
242.4602254965
 21
-695.0341964039
 31
0.0
  0
LINE
  5
1A2
330
1F
100
AcDbEntity
  8
0
  6
Continuous
 62
     7
100
AcDbLine
 10
242.4602254965
 20
-695.0341964039
 30
0.0
 11
242.4602254965
 21
-686.312657373
 31
0.0
  0
LINE
  5
1A3
330
1F
100
AcDbEntity
  8
0
  6
Continuous
 62
     7
100
AcDbLine
 10
245.7386864656
 20
-683.0341964039
 30
0.0
 11
289.1817645274
 21
-683.0341964039
 31
0.0
  0
LINE
  5
1A4
330
1F
100
AcDbEntity
  8
0
  6
Continuous
 62
     7
100
AcDbLine
 10
292.4602254965
 20
-686.312657373
 30
0.0
 11
292.4602254965
 21
-695.0341964039
 31
0.0
  0
LINE
  5
1A5
330
1F
100
AcDbEntity
  8
0
  6
Continuous
 62
     7
100
AcDbLine
 10
292.4602254965
 20
-695.0341964039
 30
0.0
 11
342.4602254965
 21
-695.0341964039
 31
0.0
  0
LINE
  5
1A6
330
1F
100
AcDbEntity
  8
0
  6
Continuous
 62
     7
100
AcDbLine
 10
342.4602254965
 20
-695.0341964039
 30
0.0
 11
342.4602254965
 21
-686.312657373
 31
0.0
  0
LINE
  5
1A7
330
1F
100
AcDbEntity
  8
0
  6
Continuous
 62
     7
100
AcDbLine
 10
345.7386864656
 20
-683.0341964039
 30
0.0
 11
389.1817645274
 21
-683.0341964039
 31
0.0
  0
LINE
  5
1A8
330
1F
100
AcDbEntity
  8
0
  6
Continuous
 62
     7
100
AcDbLine
 10
392.4602254965
 20
-686.312657373
 30
0.0
 11
392.4602254965
 21
-695.0341964039
 31
0.0
  0
LINE
  5
1A9
330
1F
100
AcDbEntity
  8
0
  6
Continuous
 62
     7
100
AcDbLine
 10
392.4602254965
 20
-695.0341964039
 30
0.0
 11
442.4602254965
 21
-695.0341964039
 31
0.0
  0
LINE
  5
1AA
330
1F
100
AcDbEntity
  8
0
  6
Continuous
 62
     7
100
AcDbLine
 10
442.4602254965
 20
-695.0341964039
 30
0.0
 11
442.4602254965
 21
-686.312657373
 31
0.0
  0
LINE
  5
1AB
330
1F
100
AcDbEntity
  8
0
  6
Continuous
 62
     7
100
AcDbLine
 10
445.7386864656
 20
-683.0341964039
 30
0.0
 11
489.1817645274
 21
-683.0341964039
 31
0.0
  0
LINE
  5
1AC
330
1F
100
AcDbEntity
  8
0
  6
Continuous
 62
     7
100
AcDbLine
 10
492.4602254965
 20
-686.312657373
 30
0.0
 11
492.4602254965
 21
-695.0341964039
 31
0.0
  0
LINE
  5
1AD
330
1F
100
AcDbEntity
  8
0
  6
Continuous
 62
     7
100
AcDbLine
 10
492.4602254965
 20
-695.0341964039
 30
0.0
 11
542.4602254965
 21
-695.0341964039
 31
0.0
  0
LINE
  5
1AE
330
1F
100
AcDbEntity
  8
0
  6
Continuous
 62
     7
100
AcDbLine
 10
542.4602254965
 20
-695.0341964039
 30
0.0
 11
542.4602254965
 21
-686.312657373
 31
0.0
  0
LINE
  5
1AF
330
1F
100
AcDbEntity
  8
0
  6
Continuous
 62
     7
100
AcDbLine
 10
545.7386864656
 20
-683.0341964039
 30
0.0
 11
589.1817645274
 21
-683.0341964039
 31
0.0
  0
LINE
  5
1B0
330
1F
100
AcDbEntity
  8
0
  6
Continuous
 62
     7
100
AcDbLine
 10
592.4602254965
 20
-686.312657373
 30
0.0
 11
592.4602254965
 21
-695.0341964039
 31
0.0
  0
LINE
  5
1B1
330
1F
100
AcDbEntity
  8
0
  6
Continuous
 62
     7
100
AcDbLine
 10
592.4602254965
 20
-695.0341964039
 30
0.0
 11
642.4602254965
 21
-695.0341964039
 31
0.0
  0
LINE
  5
1B2
330
1F
100
AcDbEntity
  8
0
  6
Continuous
 62
     7
100
AcDbLine
 10
642.4602254965
 20
-695.0341964039
 30
0.0
 11
642.4602254965
 21
-645.0341964039
 31
0.0
  0
LINE
  5
1B3
330
1F
100
AcDbEntity
  8
0
  6
Continuous
 62
     7
100
AcDbLine
 10
642.4602254965
 20
-645.0341964039
 30
0.0
 11
633.7386864656
 21
-645.0341964039
 31
0.0
  0
LINE
  5
1B4
330
1F
100
AcDbEntity
  8
0
  6
Continuous
 62
     7
100
AcDbLine
 10
630.4602254965
 20
-641.7557354348
 30
0.0
 11
630.4602254965
 21
-598.312657373
 31
0.0
  0
LINE
  5
1B5
330
1F
100
AcDbEntity
  8
0
  6
Continuous
 62
     7
100
AcDbLine
 10
633.7386864656
 20
-595.0341964039
 30
0.0
 11
642.4602254965
 21
-595.0341964039
 31
0.0
  0
LINE
  5
1B6
330
1F
100
AcDbEntity
  8
0
  6
Continuous
 62
     7
100
AcDbLine
 10
642.4602254965
 20
-595.0341964039
 30
0.0
 11
642.4602254965
 21
-545.0341964039
 31
0.0
  0
LINE
  5
1B7
330
1F
100
AcDbEntity
  8
0
  6
Continuous
 62
     7
100
AcDbLine
 10
642.4602254965
 20
-545.0341964039
 30
0.0
 11
633.7386864656
 21
-545.0341964039
 31
0.0
  0
LINE
  5
1B8
330
1F
100
AcDbEntity
  8
0
  6
Continuous
 62
     7
100
AcDbLine
 10
630.4602254965
 20
-541.7557354348
 30
0.0
 11
630.4602254965
 21
-498.312657373
 31
0.0
  0
LINE
  5
1B9
330
1F
100
AcDbEntity
  8
0
  6
Continuous
 62
     7
100
AcDbLine
 10
633.7386864656
 20
-495.0341964039
 30
0.0
 11
642.4602254965
 21
-495.0341964039
 31
0.0
  0
LINE
  5
1BA
330
1F
100
AcDbEntity
  8
0
  6
Continuous
 62
     7
100
AcDbLine
 10
642.4602254965
 20
-495.0341964039
 30
0.0
 11
642.4602254965
 21
-295.0341964039
 31
0.0
  0
LINE
  5
1BB
330
1F
100
AcDbEntity
  8
0
  6
Continuous
 62
     7
100
AcDbLine
 10
642.4602254965
 20
-295.0341964039
 30
0.0
 11
633.7386864656
 21
-295.0341964039
 31
0.0
  0
LINE
  5
1BC
330
1F
100
AcDbEntity
  8
0
  6
Continuous
 62
     7
100
AcDbLine
 10
630.4602254965
 20
-291.7557354348
 30
0.0
 11
630.4602254965
 21
-248.312657373
 31
0.0
  0
LINE
  5
1BD
330
1F
100
AcDbEntity
  8
0
  6
Continuous
 62
     7
100
AcDbLine
 10
633.7386864656
 20
-245.0341964039
 30
0.0
 11
642.4602254965
 21
-245.0341964039
 31
0.0
  0
LINE
  5
1BE
330
1F
100
AcDbEntity
  8
0
  6
Continuous
 62
     7
100
AcDbLine
 10
642.4602254965
 20
-245.0341964039
 30
0.0
 11
642.4602254965
 21
-195.0341964039
 31
0.0
  0
LINE
  5
1BF
330
1F
100
AcDbEntity
  8
0
  6
Continuous
 62
     7
100
AcDbLine
 10
642.4602254965
 20
-195.0341964039
 30
0.0
 11
633.7386864656
 21
-195.0341964039
 31
0.0
  0
LINE
  5
1C0
330
1F
100
AcDbEntity
  8
0
  6
Continuous
 62
     7
100
AcDbLine
 10
630.4602254965
 20
-191.7557354348
 30
0.0
 11
630.4602254965
 21
-148.312657373
 31
0.0
  0
LINE
  5
1C1
330
1F
100
AcDbEntity
  8
0
  6
Continuous
 62
     7
100
AcDbLine
 10
633.7386864656
 20
-145.0341964039
 30
0.0
 11
642.4602254965
 21
-145.0341964039
 31
0.0
  0
LINE
  5
1C2
330
1F
100
AcDbEntity
  8
0
  6
Continuous
 62
     7
100
AcDbLine
 10
642.4602254965
 20
-145.0341964039
 30
0.0
 11
642.4602254965
 21
-95.0341964039
 31
0.0
  0
LINE
  5
1C3
330
1F
100
AcDbEntity
  8
0
  6
Continuous
 62
     7
100
AcDbLine
 10
642.4602254965
 20
-95.0341964039
 30
0.0
 11
592.4602254965
 21
-95.0341964039
 31
0.0
  0
LINE
  5
1C4
330
1F
100
AcDbEntity
  8
0
  6
Continuous
 62
     7
100
AcDbLine
 10
592.4602254965
 20
-95.0341964039
 30
0.0
 11
592.4602254965
 21
-103.7557354348
 31
0.0
  0
LINE
  5
1C5
330
1F
100
AcDbEntity
  8
0
  6
Continuous
 62
     7
100
AcDbLine
 10
589.1817645274
 20
-107.0341964039
 30
0.0
 11
545.7386864656
 21
-107.0341964039
 31
0.0
  0
LINE
  5
1C6
330
1F
100
AcDbEntity
  8
0
  6
Continuous
 62
     7
100
AcDbLine
 10
542.4602254965
 20
-103.7557354348
 30
0.0
 11
542.4602254965
 21
-95.0341964039
 31
0.0
  0
LINE
  5
1C7
330
1F
100
AcDbEntity
  8
0
  6
Continuous
 62
     7
100
AcDbLine
 10
542.4602254965
 20
-95.0341964039
 30
0.0
 11
492.4602254965
 21
-95.0341964039
 31
0.0
  0
LINE
  5
1C8
330
1F
100
AcDbEntity
  8
0
  6
Continuous
 62
     7
100
AcDbLine
 10
492.4602254965
 20
-95.0341964039
 30
0.0
 11
492.4602254965
 21
-103.7557354348
 31
0.0
  0
LINE
  5
1C9
330
1F
100
AcDbEntity
  8
0
  6
Continuous
 62
     7
100
AcDbLine
 10
489.1817645274
 20
-107.0341964039
 30
0.0
 11
445.7386864656
 21
-107.0341964039
 31
0.0
  0
LINE
  5
1CA
330
1F
100
AcDbEntity
  8
0
  6
Continuous
 62
     7
100
AcDbLine
 10
442.4602254965
 20
-103.7557354348
 30
0.0
 11
442.4602254965
 21
-95.0341964039
 31
0.0
  0
LINE
  5
1CB
330
1F
100
AcDbEntity
  8
0
  6
Continuous
 62
     7
100
AcDbLine
 10
442.4602254965
 20
-95.0341964039
 30
0.0
 11
392.4602254965
 21
-95.0341964039
 31
0.0
  0
LINE
  5
1CC
330
1F
100
AcDbEntity
  8
0
  6
Continuous
 62
     7
100
AcDbLine
 10
392.4602254965
 20
-95.0341964039
 30
0.0
 11
392.4602254965
 21
-103.7557354348
 31
0.0
  0
LINE
  5
1CD
330
1F
100
AcDbEntity
  8
0
  6
Continuous
 62
     7
100
AcDbLine
 10
389.1817645274
 20
-107.0341964039
 30
0.0
 11
345.7386864656
 21
-107.0341964039
 31
0.0
  0
LINE
  5
1CE
330
1F
100
AcDbEntity
  8
0
  6
Continuous
 62
     7
100
AcDbLine
 10
342.4602254965
 20
-103.7557354348
 30
0.0
 11
342.4602254965
 21
-95.0341964039
 31
0.0
  0
LINE
  5
1CF
330
1F
100
AcDbEntity
  8
0
  6
Continuous
 62
     7
100
AcDbLine
 10
342.4602254965
 20
-95.0341964039
 30
0.0
 11
292.4602254965
 21
-95.0341964039
 31
0.0
  0
LINE
  5
1D0
330
1F
100
AcDbEntity
  8
0
  6
Continuous
 62
     7
100
AcDbLine
 10
292.4602254965
 20
-95.0341964039
 30
0.0
 11
292.4602254965
 21
-103.7557354348
 31
0.0
  0
LINE
  5
1D1
330
1F
100
AcDbEntity
  8
0
  6
Continuous
 62
     7
100
AcDbLine
 10
289.1817645274
 20
-107.0341964039
 30
0.0
 11
245.7386864656
 21
-107.0341964039
 31
0.0
  0
LINE
  5
1D2
330
1F
100
AcDbEntity
  8
0
  6
Continuous
 62
     7
100
AcDbLine
 10
242.4602254965
 20
-103.7557354348
 30
0.0
 11
242.4602254965
 21
-95.0341964039
 31
0.0
  0
LINE
  5
1D3
330
1F
100
AcDbEntity
  8
0
  6
Continuous
 62
     7
100
AcDbLine
 10
242.4602254965
 20
-95.0341964039
 30
0.0
 11
192.4602254965
 21
-95.0341964039
 31
0.0
  0
LINE
  5
1D4
330
1F
100
AcDbEntity
  8
0
  6
Continuous
 62
     7
100
AcDbLine
 10
192.4602254965
 20
-95.0341964039
 30
0.0
 11
192.4602254965
 21
-103.7557354348
 31
0.0
  0
LINE
  5
1D5
330
1F
100
AcDbEntity
  8
0
  6
Continuous
 62
     7
100
AcDbLine
 10
189.1817645274
 20
-107.0341964039
 30
0.0
 11
145.7386864656
 21
-107.0341964039
 31
0.0
  0
LINE
  5
1D6
330
1F
100
AcDbEntity
  8
0
  6
Continuous
 62
     7
100
AcDbLine
 10
142.4602254965
 20
-103.7557354348
 30
0.0
 11
142.4602254965
 21
-95.0341964039
 31
0.0
  0
LINE
  5
1D7
330
1F
100
AcDbEntity
  8
0
  6
Continuous
 62
     7
100
AcDbLine
 10
142.4602254965
 20
-95.0341964039
 30
0.0
 11
92.4602254965
 21
-95.0341964039
 31
0.0
  0
LINE
  5
1D8
330
1F
100
AcDbEntity
  8
0
  6
Continuous
 62
     7
100
AcDbLine
 10
92.4602254965
 20
-95.0341964039
 30
0.0
 11
92.4602254965
 21
-103.7557354348
 31
0.0
  0
LINE
  5
1D9
330
1F
100
AcDbEntity
  8
0
  6
Continuous
 62
     7
100
AcDbLine
 10
89.1817645274
 20
-107.0341964039
 30
0.0
 11
70.7386864656
 21
-107.0341964039
 31
0.0
  0
LINE
  5
1DA
330
1F
100
AcDbEntity
  8
0
  6
Continuous
 62
     7
100
AcDbLine
 10
67.4602254965
 20
-103.7557354348
 30
0.0
 11
67.4602254965
 21
-95.0341964039
 31
0.0
  0
LINE
  5
1DB
330
1F
100
AcDbEntity
  8
0
  6
Continuous
 62
     7
100
AcDbLine
 10
67.4602254965
 20
-95.0341964039
 30
0.0
 11
17.4602254965
 21
-95.0341964039
 31
0.0
  0
LINE
  5
1DC
330
1F
100
AcDbEntity
  8
0
  6
Continuous
 62
     7
100
AcDbLine
 10
17.4602254965
 20
-95.0341964039
 30
0.0
 11
17.4602254965
 21
-103.7557354348
 31
0.0
  0
LINE
  5
1DD
330
1F
100
AcDbEntity
  8
0
  6
Continuous
 62
     7
100
AcDbLine
 10
14.1817645274
 20
-107.0341964039
 30
0.0
 11
-29.2613135344
 21
-107.0341964039
 31
0.0
  0
LINE
  5
1DE
330
1F
100
AcDbEntity
  8
0
  6
Continuous
 62
     7
100
AcDbLine
 10
-32.5397745035
 20
-103.7557354348
 30
0.0
 11
-32.5397745035
 21
-95.0341964039
 31
0.0
  0
LINE
  5
1DF
330
1F
100
AcDbEntity
  8
0
  6
Continuous
 62
     7
100
AcDbLine
 10
-32.5397745035
 20
-95.0341964039
 30
0.0
 11
-82.5397745035
 21
-95.0341964039
 31
0.0
  0
LINE
  5
1E0
330
1F
100
AcDbEntity
  8
0
  6
Continuous
 62
     7
100
AcDbLine
 10
-82.5397745035
 20
-95.0341964039
 30
0.0
 11
-82.5397745035
 21
-103.7557354348
 31
0.0
  0
LINE
  5
1E1
330
1F
100
AcDbEntity
  8
0
  6
Continuous
 62
     7
100
AcDbLine
 10
-85.8182354726
 20
-107.0341964039
 30
0.0
 11
-129.2613135344
 21
-107.0341964039
 31
0.0
  0
LINE
  5
1E2
330
1F
100
AcDbEntity
  8
0
  6
Continuous
 62
     7
100
AcDbLine
 10
-132.5397745035
 20
-103.7557354348
 30
0.0
 11
-132.5397745035
 21
-95.0341964039
 31
0.0
  0
LINE
  5
1E3
330
1F
100
AcDbEntity
  8
0
  6
Continuous
 62
     7
100
AcDbLine
 10
-132.5397745035
 20
-95.0341964039
 30
0.0
 11
-182.5397745035
 21
-95.0341964039
 31
0.0
  0
LINE
  5
1E4
330
1F
100
AcDbEntity
  8
0
  6
Continuous
 62
     7
100
AcDbLine
 10
-182.5397745035
 20
-95.0341964039
 30
0.0
 11
-182.5397745035
 21
-103.7557354348
 31
0.0
  0
LINE
  5
1E5
330
1F
100
AcDbEntity
  8
0
  6
Continuous
 62
     7
100
AcDbLine
 10
-185.8182354726
 20
-107.0341964039
 30
0.0
 11
-229.2613135344
 21
-107.0341964039
 31
0.0
  0
LINE
  5
1E6
330
1F
100
AcDbEntity
  8
0
  6
Continuous
 62
     7
100
AcDbLine
 10
-232.5397745035
 20
-103.7557354348
 30
0.0
 11
-232.5397745035
 21
-95.0341964039
 31
0.0
  0
LINE
  5
1E7
330
1F
100
AcDbEntity
  8
0
  6
Continuous
 62
     7
100
AcDbLine
 10
-232.5397745035
 20
-95.0341964039
 30
0.0
 11
-282.5397745035
 21
-95.0341964039
 31
0.0
  0
LINE
  5
1E8
330
1F
100
AcDbEntity
  8
0
  6
Continuous
 62
     7
100
AcDbLine
 10
-282.5397745035
 20
-95.0341964039
 30
0.0
 11
-282.5397745035
 21
-103.7557354348
 31
0.0
  0
LINE
  5
1E9
330
1F
100
AcDbEntity
  8
0
  6
Continuous
 62
     7
100
AcDbLine
 10
-285.8182354726
 20
-107.0341964039
 30
0.0
 11
-329.2613135344
 21
-107.0341964039
 31
0.0
  0
LINE
  5
1EA
330
1F
100
AcDbEntity
  8
0
  6
Continuous
 62
     7
100
AcDbLine
 10
-332.5397745035
 20
-103.7557354348
 30
0.0
 11
-332.5397745035
 21
-95.0341964039
 31
0.0
  0
LINE
  5
1EB
330
1F
100
AcDbEntity
  8
0
  6
Continuous
 62
     7
100
AcDbLine
 10
-332.5397745035
 20
-95.0341964039
 30
0.0
 11
-382.5397745035
 21
-95.0341964039
 31
0.0
  0
LINE
  5
1EC
330
1F
100
AcDbEntity
  8
0
  6
Continuous
 62
     7
100
AcDbLine
 10
-382.5397745035
 20
-95.0341964039
 30
0.0
 11
-382.5397745035
 21
-103.7557354348
 31
0.0
  0
LINE
  5
1ED
330
1F
100
AcDbEntity
  8
0
  6
Continuous
 62
     7
100
AcDbLine
 10
-385.8182354726
 20
-107.0341964039
 30
0.0
 11
-429.2613135344
 21
-107.0341964039
 31
0.0
  0
LINE
  5
1EE
330
1F
100
AcDbEntity
  8
0
  6
Continuous
 62
     7
100
AcDbLine
 10
-432.5397745035
 20
-103.7557354348
 30
0.0
 11
-432.5397745035
 21
-95.0341964039
 31
0.0
  0
LINE
  5
1EF
330
1F
100
AcDbEntity
  8
0
  6
Continuous
 62
     7
100
AcDbLine
 10
-482.2352124109
 20
-792.0546655267
 30
0.0
 11
-482.2352124109
 21
-828.0546655267
 31
0.0
  0
LINE
  5
1F0
330
1F
100
AcDbEntity
  8
0
  6
Continuous
 62
     7
100
AcDbLine
 10
-482.2352124109
 20
-828.0546655267
 30
0.0
 11
-472.6352124109
 21
-828.0546655267
 31
0.0
  0
LINE
  5
1F1
330
1F
100
AcDbEntity
  8
0
  6
Continuous
 62
     7
100
AcDbLine
 10
-470.2352124109
 20
-830.4546655267
 30
0.0
 11
-470.2352124109
 21
-861.6546655267
 31
0.0
  0
LINE
  5
1F2
330
1F
100
AcDbEntity
  8
0
  6
Continuous
 62
     7
100
AcDbLine
 10
-472.6352124109
 20
-864.0546655267
 30
0.0
 11
-482.2352124109
 21
-864.0546655267
 31
0.0
  0
LINE
  5
1F3
330
1F
100
AcDbEntity
  8
0
  6
Continuous
 62
     7
100
AcDbLine
 10
-482.2352124109
 20
-864.0546655267
 30
0.0
 11
-482.2352124109
 21
-900.0546655267
 31
0.0
  0
LINE
  5
1F4
330
1F
100
AcDbEntity
  8
0
  6
Continuous
 62
     7
100
AcDbLine
 10
-482.2352124109
 20
-900.0546655267
 30
0.0
 11
-472.6352124109
 21
-900.0546655267
 31
0.0
  0
LINE
  5
1F5
330
1F
100
AcDbEntity
  8
0
  6
Continuous
 62
     7
100
AcDbLine
 10
-470.2352124109
 20
-902.4546655267
 30
0.0
 11
-470.2352124109
 21
-933.6546655267
 31
0.0
  0
LINE
  5
1F6
330
1F
100
AcDbEntity
  8
0
  6
Continuous
 62
     7
100
AcDbLine
 10
-472.6352124109
 20
-936.0546655267
 30
0.0
 11
-482.2352124109
 21
-936.0546655267
 31
0.0
  0
LINE
  5
1F7
330
1F
100
AcDbEntity
  8
0
  6
Continuous
 62
     7
100
AcDbLine
 10
-482.2352124109
 20
-936.0546655267
 30
0.0
 11
-482.2352124109
 21
-972.0546655267
 31
0.0
  0
LINE
  5
1F8
330
1F
100
AcDbEntity
  8
0
  6
Continuous
 62
     7
100
AcDbLine
 10
-482.2352124109
 20
-972.0546655267
 30
0.0
 11
-472.6352124109
 21
-972.0546655267
 31
0.0
  0
LINE
  5
1F9
330
1F
100
AcDbEntity
  8
0
  6
Continuous
 62
     7
100
AcDbLine
 10
-470.2352124109
 20
-974.4546655267
 30
0.0
 11
-470.2352124109
 21
-1005.6546655267
 31
0.0
  0
LINE
  5
1FA
330
1F
100
AcDbEntity
  8
0
  6
Continuous
 62
     7
100
AcDbLine
 10
-472.6352124109
 20
-1008.0546655267
 30
0.0
 11
-482.2352124109
 21
-1008.0546655267
 31
0.0
  0
LINE
  5
1FB
330
1F
100
AcDbEntity
  8
0
  6
Continuous
 62
     7
100
AcDbLine
 10
-482.2352124109
 20
-1008.0546655267
 30
0.0
 11
-482.2352124109
 21
-1044.0546655267
 31
0.0
  0
LINE
  5
1FC
330
1F
100
AcDbEntity
  8
0
  6
Continuous
 62
     7
100
AcDbLine
 10
-482.2352124109
 20
-1044.0546655267
 30
0.0
 11
-472.6352124109
 21
-1044.0546655267
 31
0.0
  0
LINE
  5
1FD
330
1F
100
AcDbEntity
  8
0
  6
Continuous
 62
     7
100
AcDbLine
 10
-470.2352124109
 20
-1046.4546655267
 30
0.0
 11
-470.2352124109
 21
-1077.6546655267
 31
0.0
  0
LINE
  5
1FE
330
1F
100
AcDbEntity
  8
0
  6
Continuous
 62
     7
100
AcDbLine
 10
-472.6352124109
 20
-1080.0546655267
 30
0.0
 11
-482.2352124109
 21
-1080.0546655267
 31
0.0
  0
LINE
  5
1FF
330
1F
100
AcDbEntity
  8
0
  6
Continuous
 62
     7
100
AcDbLine
 10
-482.2352124109
 20
-1080.0546655267
 30
0.0
 11
-482.2352124109
 21
-1116.0546655267
 31
0.0
  0
LINE
  5
200
330
1F
100
AcDbEntity
  8
0
  6
Continuous
 62
     7
100
AcDbLine
 10
-482.2352124109
 20
-1116.0546655267
 30
0.0
 11
-472.6352124109
 21
-1116.0546655267
 31
0.0
  0
LINE
  5
201
330
1F
100
AcDbEntity
  8
0
  6
Continuous
 62
     7
100
AcDbLine
 10
-470.2352124109
 20
-1118.4546655267
 30
0.0
 11
-470.2352124109
 21
-1149.6546655267
 31
0.0
  0
LINE
  5
202
330
1F
100
AcDbEntity
  8
0
  6
Continuous
 62
     7
100
AcDbLine
 10
-472.6352124109
 20
-1152.0546655267
 30
0.0
 11
-482.2352124109
 21
-1152.0546655267
 31
0.0
  0
LINE
  5
203
330
1F
100
AcDbEntity
  8
0
  6
Continuous
 62
     7
100
AcDbLine
 10
-482.2352124109
 20
-1152.0546655267
 30
0.0
 11
-482.2352124109
 21
-1188.0546655267
 31
0.0
  0
LINE
  5
204
330
1F
100
AcDbEntity
  8
0
  6
Continuous
 62
     7
100
AcDbLine
 10
-482.2352124109
 20
-1188.0546655267
 30
0.0
 11
642.7647875891
 21
-1188.0546655267
 31
0.0
  0
LINE
  5
205
330
1F
100
AcDbEntity
  8
0
  6
Continuous
 62
     7
100
AcDbLine
 10
642.7647875891
 20
-1188.0546655267
 30
0.0
 11
642.7647875891
 21
-1152.0546655267
 31
0.0
  0
LINE
  5
206
330
1F
100
AcDbEntity
  8
0
  6
Continuous
 62
     7
100
AcDbLine
 10
642.7647875891
 20
-1152.0546655267
 30
0.0
 11
633.1647875891
 21
-1152.0546655267
 31
0.0
  0
LINE
  5
207
330
1F
100
AcDbEntity
  8
0
  6
Continuous
 62
     7
100
AcDbLine
 10
630.7647875891
 20
-1149.6546655267
 30
0.0
 11
630.7647875891
 21
-1118.4546655267
 31
0.0
  0
LINE
  5
208
330
1F
100
AcDbEntity
  8
0
  6
Continuous
 62
     7
100
AcDbLine
 10
633.1647875891
 20
-1116.0546655267
 30
0.0
 11
642.7647875891
 21
-1116.0546655267
 31
0.0
  0
LINE
  5
209
330
1F
100
AcDbEntity
  8
0
  6
Continuous
 62
     7
100
AcDbLine
 10
642.7647875891
 20
-1116.0546655267
 30
0.0
 11
642.7647875891
 21
-1080.0546655267
 31
0.0
  0
LINE
  5
20A
330
1F
100
AcDbEntity
  8
0
  6
Continuous
 62
     7
100
AcDbLine
 10
642.7647875891
 20
-1080.0546655267
 30
0.0
 11
633.1647875891
 21
-1080.0546655267
 31
0.0
  0
LINE
  5
20B
330
1F
100
AcDbEntity
  8
0
  6
Continuous
 62
     7
100
AcDbLine
 10
630.7647875891
 20
-1077.6546655267
 30
0.0
 11
630.7647875891
 21
-1046.4546655267
 31
0.0
  0
LINE
  5
20C
330
1F
100
AcDbEntity
  8
0
  6
Continuous
 62
     7
100
AcDbLine
 10
633.1647875891
 20
-1044.0546655267
 30
0.0
 11
642.7647875891
 21
-1044.0546655267
 31
0.0
  0
LINE
  5
20D
330
1F
100
AcDbEntity
  8
0
  6
Continuous
 62
     7
100
AcDbLine
 10
642.7647875891
 20
-1044.0546655267
 30
0.0
 11
642.7647875891
 21
-1008.0546655267
 31
0.0
  0
LINE
  5
20E
330
1F
100
AcDbEntity
  8
0
  6
Continuous
 62
     7
100
AcDbLine
 10
642.7647875891
 20
-1008.0546655267
 30
0.0
 11
633.1647875891
 21
-1008.0546655267
 31
0.0
  0
LINE
  5
20F
330
1F
100
AcDbEntity
  8
0
  6
Continuous
 62
     7
100
AcDbLine
 10
630.7647875891
 20
-1005.6546655267
 30
0.0
 11
630.7647875891
 21
-974.4546655267
 31
0.0
  0
LINE
  5
210
330
1F
100
AcDbEntity
  8
0
  6
Continuous
 62
     7
100
AcDbLine
 10
633.1647875891
 20
-972.0546655267
 30
0.0
 11
642.7647875891
 21
-972.0546655267
 31
0.0
  0
LINE
  5
211
330
1F
100
AcDbEntity
  8
0
  6
Continuous
 62
     7
100
AcDbLine
 10
642.7647875891
 20
-972.0546655267
 30
0.0
 11
642.7647875891
 21
-936.0546655267
 31
0.0
  0
LINE
  5
212
330
1F
100
AcDbEntity
  8
0
  6
Continuous
 62
     7
100
AcDbLine
 10
642.7647875891
 20
-936.0546655267
 30
0.0
 11
633.1647875891
 21
-936.0546655267
 31
0.0
  0
LINE
  5
213
330
1F
100
AcDbEntity
  8
0
  6
Continuous
 62
     7
100
AcDbLine
 10
630.7647875891
 20
-933.6546655267
 30
0.0
 11
630.7647875891
 21
-902.4546655267
 31
0.0
  0
LINE
  5
214
330
1F
100
AcDbEntity
  8
0
  6
Continuous
 62
     7
100
AcDbLine
 10
633.1647875891
 20
-900.0546655267
 30
0.0
 11
642.7647875891
 21
-900.0546655267
 31
0.0
  0
LINE
  5
215
330
1F
100
AcDbEntity
  8
0
  6
Continuous
 62
     7
100
AcDbLine
 10
642.7647875891
 20
-900.0546655267
 30
0.0
 11
642.7647875891
 21
-864.0546655267
 31
0.0
  0
LINE
  5
216
330
1F
100
AcDbEntity
  8
0
  6
Continuous
 62
     7
100
AcDbLine
 10
642.7647875891
 20
-864.0546655267
 30
0.0
 11
633.1647875891
 21
-864.0546655267
 31
0.0
  0
LINE
  5
217
330
1F
100
AcDbEntity
  8
0
  6
Continuous
 62
     7
100
AcDbLine
 10
630.7647875891
 20
-861.6546655267
 30
0.0
 11
630.7647875891
 21
-830.4546655267
 31
0.0
  0
LINE
  5
218
330
1F
100
AcDbEntity
  8
0
  6
Continuous
 62
     7
100
AcDbLine
 10
633.1647875891
 20
-828.0546655267
 30
0.0
 11
642.7647875891
 21
-828.0546655267
 31
0.0
  0
LINE
  5
219
330
1F
100
AcDbEntity
  8
0
  6
Continuous
 62
     7
100
AcDbLine
 10
642.7647875891
 20
-828.0546655267
 30
0.0
 11
642.7647875891
 21
-792.0546655267
 31
0.0
  0
LINE
  5
21A
330
1F
100
AcDbEntity
  8
0
  6
Continuous
 62
     7
100
AcDbLine
 10
642.7647875891
 20
-792.0546655267
 30
0.0
 11
-482.2352124109
 21
-792.0546655267
 31
0.0
  0
MTEXT
  5
21C
330
1F
100
AcDbEntity
  8
0
  6
Continuous
 62
     7
100
AcDbMText
 10
-508.8474968861
 20
-1189.0742319183
 30
0.0
 40
4.83362
 41
0.0
 71
     1
 72
     1
  1
SOLIDWORKS Educational Product.
  7
SLDTEXTSTYLE0
 73
     1
 44
1.0
  0
MTEXT
  5
21D
330
1F
100
AcDbEntity
  8
0
  6
Continuous
 62
     7
100
AcDbMText
 10
-508.8474968861
 20
-1196.3246619183
 30
0.0
 40
4.83362
 41
0.0
 71
     1
 72
     1
  1
For Instructional Use Only.
  7
SLDTEXTSTYLE0
 73
     1
 44
1.0
  0
ENDSEC
  0
SECTION
  2
OBJECTS
  0
DICTIONARY
  5
C
330
0
100
AcDbDictionary
281
     1
  3
ACAD_GROUP
350
D
  3
ACAD_LAYOUT
350
1A
  3
ACAD_MLINESTYLE
350
17
  3
ACAD_PLOTSETTINGS
350
19
  3
ACAD_PLOTSTYLENAME
350
E
  3
ACAD_SCALELIST
350
47
  0
DICTIONARY
  5
D
102
{ACAD_REACTORS
330
C
102
}
330
C
100
AcDbDictionary
281
     1
  0
DICTIONARY
  5
1A
102
{ACAD_REACTORS
330
C
102
}
330
C
100
AcDbDictionary
281
     1
  3
Layout1
350
1E
  3
Layout2
350
26
  3
Model
350
22
  0
DICTIONARY
  5
17
102
{ACAD_REACTORS
330
C
102
}
330
C
100
AcDbDictionary
281
     1
  3
Standard
350
18
  0
DICTIONARY
  5
19
102
{ACAD_REACTORS
330
C
102
}
330
C
100
AcDbDictionary
281
     1
  0
ACDBDICTIONARYWDFLT
  5
E
102
{ACAD_REACTORS
330
C
102
}
330
C
100
AcDbDictionary
281
     1
  3
Normal
350
F
100
AcDbDictionaryWithDefault
340
F
  0
DICTIONARY
  5
47
102
{ACAD_REACTORS
330
C
102
}
330
C
100
AcDbDictionary
281
     1
  3
A0
350
48
  3
A1
350
49
  3
A2
350
4A
  3
A3
350
4B
  3
A4
350
4C
  3
A5
350
4D
  3
A6
350
4E
  3
A7
350
4F
  3
A8
350
50
  3
A9
350
51
  3
B0
350
52
  3
B1
350
53
  3
B2
350
54
  3
B3
350
55
  3
B4
350
56
  3
B5
350
57
  3
B6
350
58
  3
B7
350
59
  3
B8
350
5A
  3
B9
350
5B
  3
C0
350
5C
  3
C1
350
5D
  3
C2
350
5E
  3
C3
350
5F
  3
C4
350
60
  3
C5
350
61
  3
C6
350
62
  3
C7
350
63
  3
C8
350
64
  3
C9
350
65
  3
D0
350
66
  3
D1
350
67
  3
D2
350
68
  0
LAYOUT
  5
1E
102
{ACAD_REACTORS
330
1A
102
}
330
1A
100
AcDbPlotSettings
  1

  2
none_device
  4

  6

 40
0.0
 41
0.0
 42
0.0
 43
0.0
 44
0.0
 45
0.0
 46
0.0
 47
0.0
 48
0.0
 49
0.0
140
0.0
141
0.0
142
1.0
143
1.0
 70
   688
 72
     1
 73
     0
 74
     5
  7

 75
    16
147
1.0
148
0.0
149
0.0
100
AcDbLayout
  1
Layout1
 70
     1
 71
     1
 10
0.0
 20
0.0
 11
420.0
 21
297.0
 12
0.0
 22
0.0
 32
0.0
 14
1.0000000000E+20
 24
1.0000000000E+20
 34
1.0000000000E+20
 15
-1.0000000000E+20
 25
-1.0000000000E+20
 35
-1.0000000000E+20
146
0.0
 13
0.0
 23
0.0
 33
0.0
 16
1.0
 26
0.0
 36
0.0
 17
0.0
 27
1.0
 37
0.0
 76
     0
330
1B
  0
LAYOUT
  5
26
102
{ACAD_REACTORS
330
1A
102
}
330
1A
100
AcDbPlotSettings
  1

  2
none_device
  4

  6

 40
0.0
 41
0.0
 42
0.0
 43
0.0
 44
0.0
 45
0.0
 46
0.0
 47
0.0
 48
0.0
 49
0.0
140
0.0
141
0.0
142
1.0
143
1.0
 70
   688
 72
     1
 73
     0
 74
     5
  7

 75
    16
147
1.0
148
0.0
149
0.0
100
AcDbLayout
  1
Layout2
 70
     1
 71
     2
 10
0.0
 20
0.0
 11
0.0
 21
0.0
 12
0.0
 22
0.0
 32
0.0
 14
0.0
 24
0.0
 34
0.0
 15
0.0
 25
0.0
 35
0.0
146
0.0
 13
0.0
 23
0.0
 33
0.0
 16
1.0
 26
0.0
 36
0.0
 17
0.0
 27
1.0
 37
0.0
 76
     0
330
23
  0
LAYOUT
  5
22
102
{ACAD_REACTORS
330
1A
102
}
330
1A
100
AcDbPlotSettings
  1

  2
none_device
  4
ANSI_A_(11.00_x_8.50_Inches)
  6

 40
6.35
 41
19.05
 42
6.35000508
 43
19.05000254
 44
279.4
 45
215.9
 46
125.1905475816
 47
126.803522237
 48
0.0
 49
0.0
140
0.0
141
0.0
142
0.004797561
143
1.0
 70
  1696
 72
     0
 73
     0
 74
     0
  7

 75
     0
147
0.0179189148
148
-1300.4909072572
149
0.0
100
AcDbLayout
  1
Model
 70
     1
 71
     0
 10
0.0
 20
0.0
 11
420.0
 21
297.0
 12
0.0
 22
0.0
 32
0.0
 14
-508.8474968861
 24
-1188.0546655267
 34
0.0
 15
642.7647875891
 25
565.9616014324
 35
0.0
146
0.0
 13
0.0
 23
0.0
 33
0.0
 16
1.0
 26
0.0
 36
0.0
 17
0.0
 27
1.0
 37
0.0
 76
     0
330
1F
331
29
  0
MLINESTYLE
  5
18
102
{ACAD_REACTORS
330
17
102
}
330
17
100
AcDbMlineStyle
  2
Standard
 70
     0
  3

 62
   256
 51
90.0
 52
90.0
 71
     2
 49
0.5
 62
   256
  6
BYLAYER
 49
-0.5
 62
   256
  6
BYLAYER
  0
ACDBPLACEHOLDER
  5
F
102
{ACAD_REACTORS
330
E
102
}
330
E
  0
SCALE
  5
48
102
{ACAD_REACTORS
330
47
102
}
330
47
100
AcDbScale
 70
     0
300
1:1
140
1.0
141
1.0
290
     1
  0
SCALE
  5
49
102
{ACAD_REACTORS
330
47
102
}
330
47
100
AcDbScale
 70
     0
300
1:2
140
1.0
141
2.0
290
     0
  0
SCALE
  5
4A
102
{ACAD_REACTORS
330
47
102
}
330
47
100
AcDbScale
 70
     0
300
1:4
140
1.0
141
4.0
290
     0
  0
SCALE
  5
4B
102
{ACAD_REACTORS
330
47
102
}
330
47
100
AcDbScale
 70
     0
300
1:5
140
1.0
141
5.0
290
     0
  0
SCALE
  5
4C
102
{ACAD_REACTORS
330
47
102
}
330
47
100
AcDbScale
 70
     0
300
1:8
140
1.0
141
8.0
290
     0
  0
SCALE
  5
4D
102
{ACAD_REACTORS
330
47
102
}
330
47
100
AcDbScale
 70
     0
300
1:10
140
1.0
141
10.0
290
     0
  0
SCALE
  5
4E
102
{ACAD_REACTORS
330
47
102
}
330
47
100
AcDbScale
 70
     0
300
1:16
140
1.0
141
16.0
290
     0
  0
SCALE
  5
4F
102
{ACAD_REACTORS
330
47
102
}
330
47
100
AcDbScale
 70
     0
300
1:20
140
1.0
141
20.0
290
     0
  0
SCALE
  5
50
102
{ACAD_REACTORS
330
47
102
}
330
47
100
AcDbScale
 70
     0
300
1:30
140
1.0
141
30.0
290
     0
  0
SCALE
  5
51
102
{ACAD_REACTORS
330
47
102
}
330
47
100
AcDbScale
 70
     0
300
1:40
140
1.0
141
40.0
290
     0
  0
SCALE
  5
52
102
{ACAD_REACTORS
330
47
102
}
330
47
100
AcDbScale
 70
     0
300
1:50
140
1.0
141
50.0
290
     0
  0
SCALE
  5
53
102
{ACAD_REACTORS
330
47
102
}
330
47
100
AcDbScale
 70
     0
300
1:100
140
1.0
141
100.0
290
     0
  0
SCALE
  5
54
102
{ACAD_REACTORS
330
47
102
}
330
47
100
AcDbScale
 70
     0
300
2:1
140
2.0
141
1.0
290
     0
  0
SCALE
  5
55
102
{ACAD_REACTORS
330
47
102
}
330
47
100
AcDbScale
 70
     0
300
4:1
140
4.0
141
1.0
290
     0
  0
SCALE
  5
56
102
{ACAD_REACTORS
330
47
102
}
330
47
100
AcDbScale
 70
     0
300
8:1
140
8.0
141
1.0
290
     0
  0
SCALE
  5
57
102
{ACAD_REACTORS
330
47
102
}
330
47
100
AcDbScale
 70
     0
300
10:1
140
10.0
141
1.0
290
     0
  0
SCALE
  5
58
102
{ACAD_REACTORS
330
47
102
}
330
47
100
AcDbScale
 70
     0
300
100:1
140
100.0
141
1.0
290
     0
  0
SCALE
  5
59
102
{ACAD_REACTORS
330
47
102
}
330
47
100
AcDbScale
 70
     0
300
1/128" = 1'-0"
140
0.0078125
141
12.0
290
     0
  0
SCALE
  5
5A
102
{ACAD_REACTORS
330
47
102
}
330
47
100
AcDbScale
 70
     0
300
1/64" = 1'-0"
140
0.015625
141
12.0
290
     0
  0
SCALE
  5
5B
102
{ACAD_REACTORS
330
47
102
}
330
47
100
AcDbScale
 70
     0
300
1/32" = 1'-0"
140
0.03125
141
12.0
290
     0
  0
SCALE
  5
5C
102
{ACAD_REACTORS
330
47
102
}
330
47
100
AcDbScale
 70
     0
300
1/16" = 1'-0"
140
0.0625
141
12.0
290
     0
  0
SCALE
  5
5D
102
{ACAD_REACTORS
330
47
102
}
330
47
100
AcDbScale
 70
     0
300
3/32" = 1'-0"
140
0.09375
141
12.0
290
     0
  0
SCALE
  5
5E
102
{ACAD_REACTORS
330
47
102
}
330
47
100
AcDbScale
 70
     0
300
1/8" = 1'-0"
140
0.125
141
12.0
290
     0
  0
SCALE
  5
5F
102
{ACAD_REACTORS
330
47
102
}
330
47
100
AcDbScale
 70
     0
300
3/16" = 1'-0"
140
0.1875
141
12.0
290
     0
  0
SCALE
  5
60
102
{ACAD_REACTORS
330
47
102
}
330
47
100
AcDbScale
 70
     0
300
1/4" = 1'-0"
140
0.25
141
12.0
290
     0
  0
SCALE
  5
61
102
{ACAD_REACTORS
330
47
102
}
330
47
100
AcDbScale
 70
     0
300
3/8" = 1'-0"
140
0.375
141
12.0
290
     0
  0
SCALE
  5
62
102
{ACAD_REACTORS
330
47
102
}
330
47
100
AcDbScale
 70
     0
300
1/2" = 1'-0"
140
0.5
141
12.0
290
     0
  0
SCALE
  5
63
102
{ACAD_REACTORS
330
47
102
}
330
47
100
AcDbScale
 70
     0
300
3/4" = 1'-0"
140
0.75
141
12.0
290
     0
  0
SCALE
  5
64
102
{ACAD_REACTORS
330
47
102
}
330
47
100
AcDbScale
 70
     0
300
1" = 1'-0"
140
1.0
141
12.0
290
     0
  0
SCALE
  5
65
102
{ACAD_REACTORS
330
47
102
}
330
47
100
AcDbScale
 70
     0
300
1-1/2" = 1'-0"
140
1.5
141
12.0
290
     0
  0
SCALE
  5
66
102
{ACAD_REACTORS
330
47
102
}
330
47
100
AcDbScale
 70
     0
300
3" = 1'-0"
140
3.0
141
12.0
290
     0
  0
SCALE
  5
67
102
{ACAD_REACTORS
330
47
102
}
330
47
100
AcDbScale
 70
     0
300
6" = 1'-0"
140
6.0
141
12.0
290
     0
  0
SCALE
  5
68
102
{ACAD_REACTORS
330
47
102
}
330
47
100
AcDbScale
 70
     0
300
1'-0" = 1'-0"
140
12.0
141
12.0
290
     0
  0
ENDSEC
  0
EOF
