  0
SECTION
  2
HEADER
  9
$ACADVER
  1
AC1018
  9
$ACADMAINTVER
 70
     0
  9
$DWGCODEPAGE
  3
ANSI_1252
  9
$INSBASE
 10
0.0
 20
0.0
 30
0.0
  9
$EXTMIN
 10
1.000000000000000E+20
 20
1.000000000000000E+20
 30
1.000000000000000E+20
  9
$EXTMAX
 10
-1.000000000000000E+20
 20
-1.000000000000000E+20
 30
-1.000000000000000E+20
  9
$LIMMIN
 10
0.0
 20
0.0
  9
$LIMMAX
 10
12.0
 20
9.0
  9
$ORTHOMODE
 70
     0
  9
$REGENMODE
 70
     1
  9
$FILLMODE
 70
     1
  9
$QTEXTMODE
 70
     0
  9
$MIRRTEXT
 70
     1
  9
$LTSCALE
 40
1.0
  9
$ATTMODE
 70
     1
  9
$TEXTSIZE
 40
0.2
  9
$TRACEWID
 40
0.05
  9
$TEXTSTYLE
  7
Standard
  9
$CLAYER
  8
0
  9
$CELTYPE
  6
ByLayer
  9
$CECOLOR
 62
   256
  9
$CELTSCALE
 40
1.0
  9
$DISPSILH
 70
     0
  9
$DIMSCALE
 40
1.0
  9
$DIMASZ
 40
0.18
  9
$DIMEXO
 40
0.0625
  9
$DIMDLI
 40
0.38
  9
$DIMRND
 40
0.0
  9
$DIMDLE
 40
0.0
  9
$DIMEXE
 40
0.18
  9
$DIMTP
 40
0.0
  9
$DIMTM
 40
0.0
  9
$DIMTXT
 40
0.18
  9
$DIMCEN
 40
0.09
  9
$DIMTSZ
 40
0.0
  9
$DIMTOL
 70
     0
  9
$DIMLIM
 70
     0
  9
$DIMTIH
 70
     1
  9
$DIMTOH
 70
     1
  9
$DIMSE1
 70
     0
  9
$DIMSE2
 70
     0
  9
$DIMTAD
 70
     0
  9
$DIMZIN
 70
     0
  9
$DIMBLK
  1

  9
$DIMASO
 70
     1
  9
$DIMSHO
 70
     1
  9
$DIMPOST
  1

  9
$DIMAPOST
  1

  9
$DIMALT
 70
     0
  9
$DIMALTD
 70
     2
  9
$DIMALTF
 40
25.4
  9
$DIMLFAC
 40
1.0
  9
$DIMTOFL
 70
     0
  9
$DIMTVP
 40
0.0
  9
$DIMTIX
 70
     0
  9
$DIMSOXD
 70
     0
  9
$DIMSAH
 70
     0
  9
$DIMBLK1
  1

  9
$DIMBLK2
  1

  9
$DIMSTYLE
  2
Standard
  9
$DIMCLRD
 70
     0
  9
$DIMCLRE
 70
     0
  9
$DIMCLRT
 70
     0
  9
$DIMTFAC
 40
1.0
  9
$DIMGAP
 40
0.09
  9
$DIMJUST
 70
     0
  9
$DIMSD1
 70
     0
  9
$DIMSD2
 70
     0
  9
$DIMTOLJ
 70
     1
  9
$DIMTZIN
 70
     0
  9
$DIMALTZ
 70
     0
  9
$DIMALTTZ
 70
     0
  9
$DIMUPT
 70
     0
  9
$DIMDEC
 70
     4
  9
$DIMTDEC
 70
     4
  9
$DIMALTU
 70
     2
  9
$DIMALTTD
 70
     2
  9
$DIMTXSTY
  7
Standard
  9
$DIMAUNIT
 70
     0
  9
$DIMADEC
 70
     0
  9
$DIMALTRND
 40
0.0
  9
$DIMAZIN
 70
     0
  9
$DIMDSEP
 70
    46
  9
$DIMATFIT
 70
     3
  9
$DIMFRAC
 70
     0
  9
$DIMLDRBLK
  1

  9
$DIMLUNIT
 70
     2
  9
$DIMLWD
 70
    -2
  9
$DIMLWE
 70
    -2
  9
$DIMTMOVE
 70
     0
  9
$LUNITS
 70
     2
  9
$LUPREC
 70
     4
  9
$SKETCHINC
 40
0.1
  9
$FILLETRAD
 40
0.5
  9
$AUNITS
 70
     0
  9
$AUPREC
 70
     0
  9
$MENU
  1
.
  9
$ELEVATION
 40
0.0
  9
$PELEVATION
 40
0.0
  9
$THICKNESS
 40
0.0
  9
$LIMCHECK
 70
     0
  9
$CHAMFERA
 40
0.5
  9
$CHAMFERB
 40
0.5
  9
$CHAMFERC
 40
1.0
  9
$CHAMFERD
 40
0.0
  9
$SKPOLY
 70
     0
  9
$TDCREATE
 40
2458529.711863345
  9
$TDUCREATE
 40
2458529.920196678
  9
$TDUPDATE
 40
2458529.711863357
  9
$TDUUPDATE
 40
2458529.92019669
  9
$TDINDWG
 40
0.0000000116
  9
$TDUSRTIMER
 40
0.0000000116
  9
$USRTIMER
 70
     1
  9
$ANGBASE
 50
0.0
  9
$ANGDIR
 70
     0
  9
$PDMODE
 70
     0
  9
$PDSIZE
 40
0.0
  9
$PLINEWID
 40
0.0
  9
$SPLFRAME
 70
     0
  9
$SPLINETYPE
 70
     6
  9
$SPLINESEGS
 70
     8
  9
$HANDSEED
  5
49
  9
$SURFTAB1
 70
     6
  9
$SURFTAB2
 70
     6
  9
$SURFTYPE
 70
     6
  9
$SURFU
 70
     6
  9
$SURFV
 70
     6
  9
$UCSBASE
  2

  9
$UCSNAME
  2

  9
$UCSORG
 10
0.0
 20
0.0
 30
0.0
  9
$UCSXDIR
 10
1.0
 20
0.0
 30
0.0
  9
$UCSYDIR
 10
0.0
 20
1.0
 30
0.0
  9
$UCSORTHOREF
  2

  9
$UCSORTHOVIEW
 70
     0
  9
$UCSORGTOP
 10
0.0
 20
0.0
 30
0.0
  9
$UCSORGBOTTOM
 10
0.0
 20
0.0
 30
0.0
  9
$UCSORGLEFT
 10
0.0
 20
0.0
 30
0.0
  9
$UCSORGRIGHT
 10
0.0
 20
0.0
 30
0.0
  9
$UCSORGFRONT
 10
0.0
 20
0.0
 30
0.0
  9
$UCSORGBACK
 10
0.0
 20
0.0
 30
0.0
  9
$PUCSBASE
  2

  9
$PUCSNAME
  2

  9
$PUCSORG
 10
0.0
 20
0.0
 30
0.0
  9
$PUCSXDIR
 10
1.0
 20
0.0
 30
0.0
  9
$PUCSYDIR
 10
0.0
 20
1.0
 30
0.0
  9
$PUCSORTHOREF
  2

  9
$PUCSORTHOVIEW
 70
     0
  9
$PUCSORGTOP
 10
0.0
 20
0.0
 30
0.0
  9
$PUCSORGBOTTOM
 10
0.0
 20
0.0
 30
0.0
  9
$PUCSORGLEFT
 10
0.0
 20
0.0
 30
0.0
  9
$PUCSORGRIGHT
 10
0.0
 20
0.0
 30
0.0
  9
$PUCSORGFRONT
 10
0.0
 20
0.0
 30
0.0
  9
$PUCSORGBACK
 10
0.0
 20
0.0
 30
0.0
  9
$USERI1
 70
     0
  9
$USERI2
 70
     0
  9
$USERI3
 70
     0
  9
$USERI4
 70
     0
  9
$USERI5
 70
     0
  9
$USERR1
 40
0.0
  9
$USERR2
 40
0.0
  9
$USERR3
 40
0.0
  9
$USERR4
 40
0.0
  9
$USERR5
 40
0.0
  9
$WORLDVIEW
 70
     1
  9
$SHADEDGE
 70
     3
  9
$SHADEDIF
 70
    70
  9
$TILEMODE
 70
     1
  9
$MAXACTVP
 70
    64
  9
$PINSBASE
 10
0.0
 20
0.0
 30
0.0
  9
$PLIMCHECK
 70
     0
  9
$PEXTMIN
 10
1.000000000000000E+20
 20
1.000000000000000E+20
 30
1.000000000000000E+20
  9
$PEXTMAX
 10
-1.000000000000000E+20
 20
-1.000000000000000E+20
 30
-1.000000000000000E+20
  9
$PLIMMIN
 10
0.0
 20
0.0
  9
$PLIMMAX
 10
12.0
 20
9.0
  9
$UNITMODE
 70
     0
  9
$VISRETAIN
 70
     1
  9
$PLINEGEN
 70
     0
  9
$PSLTSCALE
 70
     1
  9
$TREEDEPTH
 70
  3020
  9
$CMLSTYLE
  2
Standard
  9
$CMLJUST
 70
     0
  9
$CMLSCALE
 40
1.0
  9
$PROXYGRAPHICS
 70
     1
  9
$MEASUREMENT
 70
     0
  9
$CELWEIGHT
370
    -1
  9
$ENDCAPS
280
     0
  9
$JOINSTYLE
280
     0
  9
$LWDISPLAY
290
     1
  9
$INSUNITS
 70
     1
  9
$HYPERLINKBASE
  1

  9
$STYLESHEET
  1

  9
$XEDIT
290
     1
  9
$CEPSNTYPE
380
     0
  9
$PSTYLEMODE
290
     1
  9
$FINGERPRINTGUID
  2
{0BDE4CD4-02D5-427A-AB46-A0B5CDBACA27}
  9
$VERSIONGUID
  2
{FAEB1C32-E019-11D5-929B-00C0DF256EC4}
  9
$EXTNAMES
290
     1
  9
$PSVPSCALE
 40
0.0
  9
$OLESTARTUP
290
     0
  9
$SORTENTS
280
   127
  9
$INDEXCTL
280
     0
  9
$HIDETEXT
280
     1
  9
$XCLIPFRAME
290
     0
  9
$HALOGAP
280
     0
  9
$OBSCOLOR
 70
   257
  9
$OBSLTYPE
280
     0
  9
$INTERSECTIONDISPLAY
280
     0
  9
$INTERSECTIONCOLOR
 70
   257
  9
$DIMASSOC
280
     2
  9
$PROJECTNAME
  1

  0
ENDSEC
  0
SECTION
  2
CLASSES
  0
CLASS
  1
ACDBDICTIONARYWDFLT
  2
AcDbDictionaryWithDefault
  3
ObjectDBX Classes
 90
        0
 91
        3
280
     0
281
     0
  0
CLASS
  1
VISUALSTYLE
  2
AcDbVisualStyle
  3
ObjectDBX Classes
 90
     4095
 91
        3
280
     0
281
     0
  0
ENDSEC
  0
SECTION
  2
TABLES
  0
TABLE
  2
VPORT
  5
8
330
0
100
AcDbSymbolTable
 70
     1
  0
VPORT
  5
29
330
8
100
AcDbSymbolTableRecord
100
AcDbViewportTableRecord
  2
*Active
 70
     0
 10
0.0
 20
0.0
 11
1.0
 21
1.0
 12
0.0
 22
0.0
 13
0.0
 23
0.0
 14
0.5
 24
0.5
 15
0.5
 25
0.5
 16
0.0
 26
0.0
 36
1.0
 17
349.9996526902779
 27
-500.0008326657984
 37
0.0
 40
1000.001665331597
 41
0.699998139651536
 42
50.0
 43
0.0
 44
0.0
 50
0.0
 51
0.0
 71
     0
 72
   100
 73
     1
 74
     3
 75
     0
 76
     0
 77
     0
 78
     0
281
     0
 65
     1
110
0.0
120
0.0
130
0.0
111
1.0
121
0.0
131
0.0
112
0.0
122
1.0
132
0.0
 79
     0
146
0.0
  0
ENDTAB
  0
TABLE
  2
LTYPE
  5
5
330
0
100
AcDbSymbolTable
 70
     1
  0
LTYPE
  5
14
330
5
100
AcDbSymbolTableRecord
100
AcDbLinetypeTableRecord
  2
ByBlock
 70
     0
  3

 72
    65
 73
     0
 40
0.0
  0
LTYPE
  5
15
330
5
100
AcDbSymbolTableRecord
100
AcDbLinetypeTableRecord
  2
ByLayer
 70
     0
  3

 72
    65
 73
     0
 40
0.0
  0
LTYPE
  5
16
330
5
100
AcDbSymbolTableRecord
100
AcDbLinetypeTableRecord
  2
Continuous
 70
     0
  3
Solid line
 72
    65
 73
     0
 40
0.0
  0
ENDTAB
  0
TABLE
  2
LAYER
  5
2
330
0
100
AcDbSymbolTable
 70
     2
  0
LAYER
  5
10
330
2
100
AcDbSymbolTableRecord
100
AcDbLayerTableRecord
  2
0
 70
     0
 62
     7
  6
Continuous
370
    -3
390
F
  0
LAYER
  5
3B
330
2
100
AcDbSymbolTableRecord
100
AcDbLayerTableRecord
  2
Layer 1
 70
     0
 62
     7
  6
Continuous
370
    -3
390
F
  0
ENDTAB
  0
TABLE
  2
STYLE
  5
3
330
0
100
AcDbSymbolTable
 70
     1
  0
STYLE
  5
11
330
3
100
AcDbSymbolTableRecord
100
AcDbTextStyleTableRecord
  2
Standard
 70
     0
 40
0.0
 41
1.0
 50
0.0
 71
     0
 42
0.2
  3
txt
  4

  0
ENDTAB
  0
TABLE
  2
VIEW
  5
6
330
0
100
AcDbSymbolTable
 70
     0
  0
ENDTAB
  0
TABLE
  2
UCS
  5
7
330
0
100
AcDbSymbolTable
 70
     0
  0
ENDTAB
  0
TABLE
  2
APPID
  5
9
330
0
100
AcDbSymbolTable
 70
     1
  0
APPID
  5
12
330
9
100
AcDbSymbolTableRecord
100
AcDbRegAppTableRecord
  2
ACAD
 70
     0
  0
ENDTAB
  0
TABLE
  2
DIMSTYLE
  5
A
330
0
100
AcDbSymbolTable
 70
     1
100
AcDbDimStyleTable
  0
DIMSTYLE
105
27
330
A
100
AcDbSymbolTableRecord
100
AcDbDimStyleTableRecord
  2
Standard
 70
     0
340
11
  0
ENDTAB
  0
TABLE
  2
BLOCK_RECORD
  5
1
330
0
100
AcDbSymbolTable
 70
     1
  0
BLOCK_RECORD
  5
1F
330
1
100
AcDbSymbolTableRecord
100
AcDbBlockTableRecord
  2
*Model_Space
340
22
  0
BLOCK_RECORD
  5
1B
330
1
100
AcDbSymbolTableRecord
100
AcDbBlockTableRecord
  2
*Paper_Space
340
1E
  0
BLOCK_RECORD
  5
23
330
1
100
AcDbSymbolTableRecord
100
AcDbBlockTableRecord
  2
*Paper_Space0
340
26
  0
ENDTAB
  0
ENDSEC
  0
SECTION
  2
BLOCKS
  0
BLOCK
  5
20
330
1F
100
AcDbEntity
  8
0
100
AcDbBlockBegin
  2
*Model_Space
 70
     0
 71
     0
 10
0.0
 20
0.0
 30
0.0
  3
*Model_Space
  1

  0
ENDBLK
  5
21
330
1F
100
AcDbEntity
  8
0
100
AcDbBlockEnd
  0
BLOCK
  5
1C
330
1B
100
AcDbEntity
 67
     1
  8
0
100
AcDbBlockBegin
  2
*Paper_Space
 70
     0
 71
     0
 10
0.0
 20
0.0
 30
0.0
  3
*Paper_Space
  1

  0
ENDBLK
  5
1D
330
1B
100
AcDbEntity
 67
     1
  8
0
100
AcDbBlockEnd
  0
BLOCK
  5
24
330
23
100
AcDbEntity
  8
0
100
AcDbBlockBegin
  2
*Paper_Space0
 70
     0
 71
     0
 10
0.0
 20
0.0
 30
0.0
  3
*Paper_Space0
  1

  0
ENDBLK
  5
25
330
23
100
AcDbEntity
  8
0
100
AcDbBlockEnd
  0
ENDSEC
  0
SECTION
  2
ENTITIES
  0
SPLINE
  5
3C
330
1F
100
AcDbEntity
  8
Layer 1
370
     0
100
AcDbSpline
210
0.0
220
0.0
230
1.0
 70
    11
 71
     3
 72
   497
 73
   493
 74
     0
 42
0.0000000001
 43
0.0000000001
 40
0.0
 40
0.0
 40
0.0
 40
0.0
 40
1.0
 40
1.0
 40
1.0
 40
2.0
 40
2.0
 40
2.0
 40
3.0
 40
3.0
 40
3.0
 40
4.0
 40
4.0
 40
4.0
 40
5.0
 40
5.0
 40
5.0
 40
6.0
 40
6.0
 40
6.0
 40
7.0
 40
7.0
 40
7.0
 40
8.0
 40
8.0
 40
8.0
 40
9.0
 40
9.0
 40
9.0
 40
10.0
 40
10.0
 40
10.0
 40
11.0
 40
11.0
 40
11.0
 40
12.0
 40
12.0
 40
12.0
 40
13.0
 40
13.0
 40
13.0
 40
14.0
 40
14.0
 40
14.0
 40
15.0
 40
15.0
 40
15.0
 40
16.0
 40
16.0
 40
16.0
 40
17.0
 40
17.0
 40
17.0
 40
18.0
 40
18.0
 40
18.0
 40
19.0
 40
19.0
 40
19.0
 40
20.0
 40
20.0
 40
20.0
 40
21.0
 40
21.0
 40
21.0
 40
22.0
 40
22.0
 40
22.0
 40
23.0
 40
23.0
 40
23.0
 40
24.0
 40
24.0
 40
24.0
 40
25.0
 40
25.0
 40
25.0
 40
26.0
 40
26.0
 40
26.0
 40
27.0
 40
27.0
 40
27.0
 40
28.0
 40
28.0
 40
28.0
 40
29.0
 40
29.0
 40
29.0
 40
30.0
 40
30.0
 40
30.0
 40
31.0
 40
31.0
 40
31.0
 40
32.0
 40
32.0
 40
32.0
 40
33.0
 40
33.0
 40
33.0
 40
34.0
 40
34.0
 40
34.0
 40
35.0
 40
35.0
 40
35.0
 40
36.0
 40
36.0
 40
36.0
 40
37.0
 40
37.0
 40
37.0
 40
38.0
 40
38.0
 40
38.0
 40
39.0
 40
39.0
 40
39.0
 40
40.0
 40
40.0
 40
40.0
 40
41.0
 40
41.0
 40
41.0
 40
42.0
 40
42.0
 40
42.0
 40
43.0
 40
43.0
 40
43.0
 40
44.0
 40
44.0
 40
44.0
 40
45.0
 40
45.0
 40
45.0
 40
46.0
 40
46.0
 40
46.0
 40
47.0
 40
47.0
 40
47.0
 40
48.0
 40
48.0
 40
48.0
 40
49.0
 40
49.0
 40
49.0
 40
50.0
 40
50.0
 40
50.0
 40
51.0
 40
51.0
 40
51.0
 40
52.0
 40
52.0
 40
52.0
 40
53.0
 40
53.0
 40
53.0
 40
54.0
 40
54.0
 40
54.0
 40
55.0
 40
55.0
 40
55.0
 40
56.0
 40
56.0
 40
56.0
 40
57.0
 40
57.0
 40
57.0
 40
58.0
 40
58.0
 40
58.0
 40
59.0
 40
59.0
 40
59.0
 40
60.0
 40
60.0
 40
60.0
 40
61.0
 40
61.0
 40
61.0
 40
62.0
 40
62.0
 40
62.0
 40
63.0
 40
63.0
 40
63.0
 40
64.0
 40
64.0
 40
64.0
 40
65.0
 40
65.0
 40
65.0
 40
66.0
 40
66.0
 40
66.0
 40
67.0
 40
67.0
 40
67.0
 40
68.0
 40
68.0
 40
68.0
 40
69.0
 40
69.0
 40
69.0
 40
70.0
 40
70.0
 40
70.0
 40
71.0
 40
71.0
 40
71.0
 40
72.0
 40
72.0
 40
72.0
 40
73.0
 40
73.0
 40
73.0
 40
74.0
 40
74.0
 40
74.0
 40
75.0
 40
75.0
 40
75.0
 40
76.0
 40
76.0
 40
76.0
 40
77.0
 40
77.0
 40
77.0
 40
78.0
 40
78.0
 40
78.0
 40
79.0
 40
79.0
 40
79.0
 40
80.0
 40
80.0
 40
80.0
 40
81.0
 40
81.0
 40
81.0
 40
82.0
 40
82.0
 40
82.0
 40
83.0
 40
83.0
 40
83.0
 40
84.0
 40
84.0
 40
84.0
 40
85.0
 40
85.0
 40
85.0
 40
86.0
 40
86.0
 40
86.0
 40
87.0
 40
87.0
 40
87.0
 40
88.0
 40
88.0
 40
88.0
 40
89.0
 40
89.0
 40
89.0
 40
90.0
 40
90.0
 40
90.0
 40
91.0
 40
91.0
 40
91.0
 40
92.0
 40
92.0
 40
92.0
 40
93.0
 40
93.0
 40
93.0
 40
94.0
 40
94.0
 40
94.0
 40
95.0
 40
95.0
 40
95.0
 40
96.0
 40
96.0
 40
96.0
 40
97.0
 40
97.0
 40
97.0
 40
98.0
 40
98.0
 40
98.0
 40
99.0
 40
99.0
 40
99.0
 40
100.0
 40
100.0
 40
100.0
 40
101.0
 40
101.0
 40
101.0
 40
102.0
 40
102.0
 40
102.0
 40
103.0
 40
103.0
 40
103.0
 40
104.0
 40
104.0
 40
104.0
 40
105.0
 40
105.0
 40
105.0
 40
106.0
 40
106.0
 40
106.0
 40
107.0
 40
107.0
 40
107.0
 40
108.0
 40
108.0
 40
108.0
 40
109.0
 40
109.0
 40
109.0
 40
110.0
 40
110.0
 40
110.0
 40
111.0
 40
111.0
 40
111.0
 40
112.0
 40
112.0
 40
112.0
 40
113.0
 40
113.0
 40
113.0
 40
114.0
 40
114.0
 40
114.0
 40
115.0
 40
115.0
 40
115.0
 40
116.0
 40
116.0
 40
116.0
 40
117.0
 40
117.0
 40
117.0
 40
118.0
 40
118.0
 40
118.0
 40
119.0
 40
119.0
 40
119.0
 40
120.0
 40
120.0
 40
120.0
 40
121.0
 40
121.0
 40
121.0
 40
122.0
 40
122.0
 40
122.0
 40
123.0
 40
123.0
 40
123.0
 40
124.0
 40
124.0
 40
124.0
 40
125.0
 40
125.0
 40
125.0
 40
126.0
 40
126.0
 40
126.0
 40
127.0
 40
127.0
 40
127.0
 40
128.0
 40
128.0
 40
128.0
 40
129.0
 40
129.0
 40
129.0
 40
130.0
 40
130.0
 40
130.0
 40
131.0
 40
131.0
 40
131.0
 40
132.0
 40
132.0
 40
132.0
 40
133.0
 40
133.0
 40
133.0
 40
134.0
 40
134.0
 40
134.0
 40
135.0
 40
135.0
 40
135.0
 40
136.0
 40
136.0
 40
136.0
 40
137.0
 40
137.0
 40
137.0
 40
138.0
 40
138.0
 40
138.0
 40
139.0
 40
139.0
 40
139.0
 40
140.0
 40
140.0
 40
140.0
 40
141.0
 40
141.0
 40
141.0
 40
142.0
 40
142.0
 40
142.0
 40
143.0
 40
143.0
 40
143.0
 40
144.0
 40
144.0
 40
144.0
 40
145.0
 40
145.0
 40
145.0
 40
146.0
 40
146.0
 40
146.0
 40
147.0
 40
147.0
 40
147.0
 40
148.0
 40
148.0
 40
148.0
 40
149.0
 40
149.0
 40
149.0
 40
150.0
 40
150.0
 40
150.0
 40
151.0
 40
151.0
 40
151.0
 40
152.0
 40
152.0
 40
152.0
 40
153.0
 40
153.0
 40
153.0
 40
154.0
 40
154.0
 40
154.0
 40
155.0
 40
155.0
 40
155.0
 40
156.0
 40
156.0
 40
156.0
 40
157.0
 40
157.0
 40
157.0
 40
158.0
 40
158.0
 40
158.0
 40
159.0
 40
159.0
 40
159.0
 40
160.0
 40
160.0
 40
160.0
 40
161.0
 40
161.0
 40
161.0
 40
162.0
 40
162.0
 40
162.0
 40
163.0
 40
163.0
 40
163.0
 40
164.0
 40
164.0
 40
164.0
 40
164.0
 10
334.2939791373466
 20
-498.937503944276
 30
0.0
 10
334.7594115374039
 20
-498.6283066244749
 30
0.0
 10
335.2246716826869
 20
-498.3189370498994
 30
0.0
 10
336.008947669904
 20
-497.7978663577554
 30
0.0
 10
333.6841972364575
 20
-497.1458820371719
 30
0.0
 10
331.6779458806222
 20
-496.5832979444306
 30
0.0
 10
329.4668835981889
 20
-495.9633530118599
 30
0.0
 10
329.8768499609336
 20
-495.5974838713263
 30
0.0
 10
330.1441893705889
 20
-495.3589110089728
 30
0.0
 10
330.6668103557014
 20
-494.8926173350442
 30
0.0
 10
330.4361612129639
 20
-494.7906425086808
 30
0.0
 10
330.2329005793342
 20
-494.6473265364945
 30
0.0
 10
330.0120699587296
 20
-494.6114975434479
 30
0.0
 10
327.2950954042873
 20
-494.1700085570131
 30
0.0
 10
325.4874538031768
 20
-492.3923392866242
 30
0.0
 10
323.8276067983834
 20
-490.4076197775717
 30
0.0
 10
323.2982678770747
 20
-489.7745834821571
 30
0.0
 10
321.8940469572869
 20
-489.5988836124093
 30
0.0
 10
322.6486951233309
 20
-488.2430662841892
 30
0.0
 10
322.6833183329576
 20
-488.1807100559062
 30
0.0
 10
322.4853975973301
 20
-487.9216388754155
 30
0.0
 10
322.3456989754032
 20
-487.839301093318
 30
0.0
 10
320.4428004841254
 20
-486.7163722199008
 30
0.0
 10
319.9976941474312
 20
-484.5621540129741
 30
0.0
 10
318.896469375571
 20
-482.8855982950772
 30
0.0
 10
317.8860228697473
 20
-481.3471909061389
 30
0.0
 10
317.1792615309483
 20
-479.6091402338304
 30
0.0
 10
316.3228107933152
 20
-477.9279336370284
 30
0.0
 10
316.5191812359744
 20
-477.9279336370284
 30
0.0
 10
316.8158039572544
 20
-477.9279336370284
 30
0.0
 10
317.2822698859572
 20
-477.9279336370284
 30
0.0
 10
316.8034016135075
 20
-476.9600340604475
 30
0.0
 10
316.186212757325
 20
-476.1247706600487
 30
0.0
 10
315.9931151553768
 20
-475.2009683056789
 30
0.0
 10
315.8187933238231
 20
-474.3665661791514
 30
0.0
 10
316.1080090898098
 20
-473.4350123599399
 30
0.0
 10
316.192758438747
 20
-472.5463499795197
 30
0.0
 10
316.3691473275917
 20
-472.5031140311798
 30
0.0
 10
316.5455362164366
 20
-472.4598780828399
 30
0.0
 10
316.7219251052813
 20
-472.4164698797258
 30
0.0
 10
316.234788603667
 20
-472.0349255547343
 30
0.0
 10
315.6444714922695
 20
-471.7300346042898
 30
0.0
 10
315.2882486190946
 20
-471.2509940770657
 30
0.0
 10
314.8944742051306
 20
-470.7216551557571
 30
0.0
 10
313.5834431182187
 20
-470.1275484393258
 30
0.0
 10
315.1125487493469
 20
-469.3377602993323
 30
0.0
 10
315.2396727727526
 20
-469.2721312303382
 30
0.0
 10
315.2257201360374
 20
-468.8101439257662
 30
0.0
 10
315.1790390922122
 20
-468.5498669618556
 30
0.0
 10
314.7561536213978
 20
-466.1954887072359
 30
0.0
 10
314.0313055313012
 20
-463.8405936882933
 30
0.0
 10
315.4868583738192
 20
-461.5525335217646
 30
0.0
 10
315.5984794675414
 20
-461.3770059067912
 30
0.0
 10
315.3013399819386
 20
-460.9417180922298
 30
0.0
 10
315.2052218179001
 20
-460.6599092815364
 30
0.0
 10
315.8702975013276
 20
-460.5413979968438
 30
0.0
 10
316.5500148405674
 20
-460.4203028905373
 30
0.0
 10
317.4698553351291
 20
-460.2564886002137
 30
0.0
 10
315.1072088513448
 20
-458.6019814934224
 30
0.0
 10
315.2269259194572
 20
-458.6214462829141
 30
0.0
 10
315.6851236189954
 20
-455.7900945583615
 30
0.0
 10
316.3531276335854
 20
-451.662697912258
 30
0.0
 10
318.5536823747887
 20
-448.226731930044
 30
0.0
 10
320.3904350327496
 20
-444.6162718615022
 30
0.0
 10
320.8277899046021
 20
-443.7565482831581
 30
0.0
 10
321.2205307899206
 20
-442.8739148198371
 30
0.0
 10
321.7848374304045
 20
-441.6829453105862
 30
0.0
 10
322.6865911736687
 20
-444.0319836672038
 30
0.0
 10
321.388134685278
 20
-445.6766722518621
 30
0.0
 10
321.0620563975991
 20
-447.6500229458132
 30
0.0
 10
322.1441608895161
 20
-446.8421480545221
 30
0.0
 10
323.2262653814331
 20
-446.0344454180053
 30
0.0
 10
324.5410860733786
 20
-445.0531099690319
 30
0.0
 10
324.3915689293188
 20
-445.6863185192208
 30
0.0
 10
324.3085421281243
 20
-446.037546003942
 30
0.0
 10
324.1871025122692
 20
-446.5512097407928
 30
0.0
 10
325.5293117133226
 20
-445.826878415019
 30
0.0
 10
326.7466362030356
 20
-445.1700709607561
 30
0.0
 10
327.9637884379744
 20
-444.5132635064932
 30
0.0
 10
328.0602511115613
 20
-444.6913749430806
 30
0.0
 10
328.1565415303741
 20
-444.8696586344423
 30
0.0
 10
328.2530042039611
 20
-445.0477700710297
 30
0.0
 10
327.817199625077
 20
-445.3383638752106
 30
0.0
 10
327.3813950461928
 20
-445.6291299341656
 30
0.0
 10
326.9455904673088
 20
-445.9197237383465
 30
0.0
 10
327.0036403262352
 20
-446.04150786375
 30
0.0
 10
327.0615179303874
 20
-446.1632919891537
 30
0.0
 10
327.1193955345396
 20
-446.2850761145572
 30
0.0
 10
328.4054496791834
 20
-445.7679672822212
 30
0.0
 10
329.6913315690529
 20
-445.2510307046595
 30
0.0
 10
330.9773857136967
 20
-444.7339218723235
 30
0.0
 10
331.0294066555239
 20
-444.8352076795898
 30
0.0
 10
331.0814275973512
 20
-444.9364934868562
 30
0.0
 10
331.1336207939527
 20
-445.0376070393482
 30
0.0
 10
330.8576686455842
 20
-445.2462075709801
 30
0.0
 10
330.5817164972157
 20
-445.4546358478378
 30
0.0
 10
330.3057643488472
 20
-445.6630641246954
 30
0.0
 10
330.3061088583957
 20
-445.7975951033944
 30
0.0
 10
330.3066256227185
 20
-445.9319538273191
 30
0.0
 10
330.3071423870413
 20
-446.0664848060181
 30
0.0
 10
331.4326550820724
 20
-446.1171277096513
 30
0.0
 10
332.5579955223293
 20
-446.1677706132845
 30
0.0
 10
333.8645479851103
 20
-446.2266817460822
 30
0.0
 10
333.5376084235601
 20
-446.515897512069
 30
0.0
 10
333.361047279941
 20
-446.6721325923251
 30
0.0
 10
332.9416069046118
 20
-447.0433416308607
 30
0.0
 10
334.1120780957255
 20
-447.2576265700433
 30
0.0
 10
335.0827337486946
 20
-447.4355657518564
 30
0.0
 10
336.3274467475154
 20
-447.66363107298
 30
0.0
 10
335.7369573813435
 20
-448.0851385056002
 30
0.0
 10
335.4003715524346
 20
-448.3252616609222
 30
0.0
 10
334.7320230282962
 20
-448.802235130855
 30
0.0
 10
335.9464191868468
 20
-449.2440686268383
 30
0.0
 10
336.8784897703811
 20
-449.5830660225869
 30
0.0
 10
337.8107326086897
 20
-449.9220634183355
 30
0.0
 10
337.921836938089
 20
-450.0607285116168
 30
0.0
 10
338.032769012714
 20
-450.1992213501238
 30
0.0
 10
338.1438733421134
 20
-450.3377141886309
 30
0.0
 10
337.7626735266705
 20
-450.429698238087
 30
0.0
 10
337.3814737112276
 20
-450.5216822875432
 30
0.0
 10
336.6895262830151
 20
-450.6885971638036
 30
0.0
 10
337.5535562307158
 20
-451.2513535113191
 30
0.0
 10
338.0127874588996
 20
-451.5503877994388
 30
0.0
 10
338.8163559808341
 20
-452.0736978036483
 30
0.0
 10
338.5050916037418
 20
-450.3595905449622
 30
0.0
 10
340.1881930030606
 20
-449.3913464588327
 30
0.0
 10
339.3992661369384
 20
-447.802123911487
 30
0.0
 10
339.2263223435788
 20
-447.453652503154
 30
0.0
 10
339.6829697501487
 20
-446.8237167936761
 30
0.0
 10
339.7689248825057
 20
-446.3100530568253
 30
0.0
 10
340.0564181007498
 20
-444.5912949192341
 30
0.0
 10
340.3129054596267
 20
-442.8671968836409
 30
0.0
 10
340.5635361561786
 20
-441.1425820837248
 30
0.0
 10
340.586790550704
 20
-440.9816961245636
 30
0.0
 10
340.4848157243406
 20
-440.8023789045563
 30
0.0
 10
340.4396849734838
 20
-440.6318466780365
 30
0.0
 10
339.9044893898503
 20
-438.6180161121337
 30
0.0
 10
337.201984236446
 20
-436.3344345697358
 30
0.0
 10
335.2737642933517
 20
-436.4674152554665
 30
0.0
 10
335.649968720341
 20
-436.9728107631527
 30
0.0
 10
335.9569267280768
 20
-437.3855332022856
 30
0.0
 10
336.3763671034059
 20
-437.9493230784467
 30
0.0
 10
335.5571233970135
 20
-438.0728297515929
 30
0.0
 10
334.8333088355625
 20
-438.1820392784753
 30
0.0
 10
333.9250094108764
 20
-438.3191540787883
 30
0.0
 10
334.0938190896537
 20
-438.6324855131718
 30
0.0
 10
334.2223211512535
 20
-438.8710583755253
 30
0.0
 10
334.3816568174462
 20
-439.1669920777082
 30
0.0
 10
333.2323729635669
 20
-440.1142210813777
 30
0.0
 10
331.9649223345435
 20
-441.0225205060638
 30
0.0
 10
330.8888467597257
 20
-442.1185776346961
 30
0.0
 10
330.5057521417659
 20
-442.5089069531749
 30
0.0
 10
330.5870563952178
 20
-443.3551946591265
 30
0.0
 10
330.4232421048942
 20
-444.15549034035
 30
0.0
 10
329.8677204578977
 20
-443.9465452991697
 30
0.0
 10
329.220903780542
 20
-443.7491413278648
 30
0.0
 10
328.6147392299123
 20
-443.4649209503317
 30
0.0
 10
327.6246187874515
 20
-443.0008665884686
 30
0.0
 10
326.77712529808
 20
-442.9019923480419
 30
0.0
 10
325.6986381564226
 20
-443.4976493574416
 30
0.0
 10
324.2558321672
 20
-444.2946721979541
 30
0.0
 10
323.5683633631184
 20
-443.7031493031367
 30
0.0
 10
323.6536294763783
 20
-442.1020411763669
 30
0.0
 10
323.6732665206442
 20
-441.7339327237679
 30
0.0
 10
323.4522636452654
 20
-441.3529051630993
 30
0.0
 10
323.3700981179422
 20
-441.0733356644712
 30
0.0
 10
324.111482666368
 20
-441.617833005915
 30
0.0
 10
324.8809447429985
 20
-442.182828665496
 30
0.0
 10
325.6502345648548
 20
-442.747824325077
 30
0.0
 10
325.8114650335645
 20
-442.5485255512552
 30
0.0
 10
325.9726955022742
 20
-442.3492267774336
 30
0.0
 10
326.1340982257582
 20
-442.1499280036118
 30
0.0
 10
325.5839164767638
 20
-441.6596909160608
 30
0.0
 10
325.0337347277693
 20
-441.169626083284
 30
0.0
 10
324.2480807023582
 20
-440.4697549354555
 30
0.0
 10
324.90161531591
 20
-439.9249130844632
 30
0.0
 10
325.5298284776453
 20
-439.3821382907621
 30
0.0
 10
326.1785399575179
 20
-438.8648572036519
 30
0.0
 10
327.2728745384075
 20
-437.9923867720124
 30
0.0
 10
328.8565849329768
 20
-437.6346136058692
 30
0.0
 10
329.1263359094719
 20
-435.8931178380753
 30
0.0
 10
329.1712944055544
 20
-435.6026962886688
 30
0.0
 10
329.7066622439622
 20
-435.3617118594756
 30
0.0
 10
330.0468654231307
 20
-435.1477714298416
 30
0.0
 10
332.8363592375375
 20
-433.3933565539781
 30
0.0
 10
335.6332600072375
 20
-431.6506550027644
 30
0.0
 10
338.6461682638628
 20
-429.7680825748496
 30
0.0
 10
338.0377644011676
 20
-430.6353853632613
 30
0.0
 10
337.5311631100616
 20
-431.3578218865182
 30
0.0
 10
336.8261243190053
 20
-432.3629284943398
 30
0.0
 10
337.8682657032934
 20
-432.7949434681902
 30
0.0
 10
338.9250487433937
 20
-433.1012124568289
 30
0.0
 10
339.8393770851791
 20
-433.6463988173697
 30
0.0
 10
340.9054618830896
 20
-434.2820189343983
 30
0.0
 10
342.6874375228351
 20
-435.1300291880925
 30
0.0
 10
342.6843369368984
 20
-435.8798542204572
 30
0.0
 10
342.6752074338625
 20
-438.0869546430824
 30
0.0
 10
344.9978908100179
 20
-438.2695447038007
 30
0.0
 10
345.4622896814296
 20
-439.8515325506274
 30
0.0
 10
345.654181499958
 20
-440.5054116737278
 30
0.0
 10
345.7056856774625
 20
-441.200459687877
 30
0.0
 10
345.5310193363603
 20
-441.989903318322
 30
0.0
 10
345.2299179909495
 20
-441.5833820510625
 30
0.0
 10
344.9286443907644
 20
-441.1770330385773
 30
0.0
 10
344.5491671230641
 20
-440.6649195946949
 30
0.0
 10
344.4213540805613
 20
-442.4985716667191
 30
0.0
 10
344.3069769104511
 20
-444.1411931940863
 30
0.0
 10
344.1550481995515
 20
-446.3221108910237
 30
0.0
 10
344.9532768234839
 20
-445.2591266790498
 30
0.0
 10
345.5284355147464
 20
-444.4934542074531
 30
0.0
 10
346.1034219512346
 20
-443.7277817358563
 30
0.0
 10
346.1435573136378
 20
-443.7847980661372
 30
0.0
 10
346.1836926760409
 20
-443.841814396418
 30
0.0
 10
346.2238280384441
 20
-443.8990029814732
 30
0.0
 10
346.8849418620635
 20
-443.3283229143415
 30
0.0
 10
347.5453666665859
 20
-442.7569538281128
 30
0.0
 10
348.2078585283994
 20
-442.1879963087239
 30
0.0
 10
348.3740843855628
 20
-442.0451971008603
 30
0.0
 10
348.5301472110446
 20
-441.8217826586418
 30
0.0
 10
348.7196274627333
 20
-441.7852646464981
 30
0.0
 10
351.4865559017117
 20
-441.2543754322211
 30
0.0
 10
353.3358831581938
 20
-439.4145221883235
 30
0.0
 10
354.4545056622545
 20
-437.0792642136469
 30
0.0
 10
354.8779078973917
 20
-436.1949082025832
 30
0.0
 10
354.1048284705016
 20
-434.6766546222336
 30
0.0
 10
353.7210448334448
 20
-433.4980874567296
 30
0.0
 10
353.5804849376466
 20
-433.0662447376536
 30
0.0
 10
352.9889620428291
 20
-432.7809908314749
 30
0.0
 10
352.2114039918083
 20
-432.0709566519649
 30
0.0
 10
352.5442002156834
 20
-432.9473889434125
 30
0.0
 10
352.7019855889079
 20
-433.3637287328049
 30
0.0
 10
352.938319139196
 20
-433.985912977441
 30
0.0
 10
351.8427787748865
 20
-433.5211695964808
 30
0.0
 10
350.9026122169619
 20
-433.1223997940631
 30
0.0
 10
349.5130329529864
 20
-432.5331162113112
 30
0.0
 10
349.9820827033031
 20
-433.3234211156275
 30
0.0
 10
350.2158324319773
 20
-433.7171955295915
 30
0.0
 10
350.4302896259341
 20
-434.0785860459943
 30
0.0
 10
350.0718274406939
 20
-434.2401610242525
 30
0.0
 10
349.7066473192574
 20
-434.4048365884474
 30
0.0
 10
349.3414671978209
 20
-434.5693398978681
 30
0.0
 10
349.3988280376503
 20
-434.6482325844803
 30
0.0
 10
349.4560166227055
 20
-434.7269530163183
 30
0.0
 10
349.5132052077606
 20
-434.8056734481563
 30
0.0
 10
347.6239148436496
 20
-434.9625975475093
 30
0.0
 10
345.7344522247643
 20
-435.1193493920882
 30
0.0
 10
343.7030516718867
 20
-435.2879868160912
 30
0.0
 10
344.1276596904438
 20
-434.4046643336732
 30
0.0
 10
344.1784748488512
 20
-433.5461465387489
 30
0.0
 10
345.5274019861008
 20
-433.4098930123073
 30
0.0
 10
346.5704046442602
 20
-433.3044730904586
 30
0.0
 10
347.5817124239553
 20
-432.578246962168
 30
0.0
 10
348.5149887909095
 20
-431.9834512266396
 30
0.0
 10
348.6789753360073
 20
-431.8790648334365
 30
0.0
 10
348.4653794159219
 20
-430.6739704326961
 30
0.0
 10
348.2934691512079
 20
-430.6395194778436
 30
0.0
 10
347.5810234048582
 20
-430.4968925247543
 30
0.0
 10
346.6863321073388
 20
-430.3616725269582
 30
0.0
 10
346.0987710723295
 20
-430.6746594517932
 30
0.0
 10
344.5775891608174
 20
-431.4849459099239
 30
0.0
 10
343.3726670148513
 20
-431.1225218648756
 30
0.0
 10
341.7495102769759
 20
-429.8583440765632
 30
0.0
 10
344.0723659079055
 20
-429.5022934581626
 30
0.0
 10
346.2780882923367
 20
-429.6809216590729
 30
0.0
 10
347.8976276799527
 20
-428.7917425143299
 30
0.0
 10
350.1891329419666
 20
-427.5337658978909
 30
0.0
 10
352.0164115873432
 20
-429.6008231890408
 30
0.0
 10
354.2081813350591
 20
-428.9028468437292
 30
0.0
 10
356.0981607182671
 20
-428.3008164076817
 30
0.0
 10
358.2668483262319
 20
-428.5743569892106
 30
0.0
 10
360.3122015158248
 20
-428.4608410929716
 30
0.0
 10
360.3494085470654
 20
-428.617248428002
 30
0.0
 10
360.3862710687576
 20
-428.773483508258
 30
0.0
 10
360.4231335904498
 20
-428.9298908432884
 30
0.0
 10
358.5662271239001
 20
-429.3203924165414
 30
0.0
 10
356.7093206573505
 20
-429.7108939897945
 30
0.0
 10
354.5075601327273
 20
-430.1740870777863
 30
0.0
 10
355.2341307705665
 20
-430.4710543086149
 30
0.0
 10
355.7498615647084
 20
-430.568206001299
 30
0.0
 10
356.1136636479508
 20
-430.8567327481886
 30
0.0
 10
356.6948512563124
 20
-431.3176865241151
 30
0.0
 10
358.460462692503
 20
-431.0181354716726
 30
0.0
 10
357.4052299453709
 20
-432.6929686418268
 30
0.0
 10
357.3470078316702
 20
-432.7858139651543
 30
0.0
 10
357.9233723063525
 20
-433.2500405817917
 30
0.0
 10
358.1686631049023
 20
-433.5692286785001
 30
0.0
 10
358.6165255179848
 20
-434.1519665798301
 30
0.0
 10
359.0375161862823
 20
-434.7555473088458
 30
0.0
 10
359.7248127355896
 20
-435.7022595481925
 30
0.0
 10
358.9355413599189
 20
-435.5625609262656
 30
0.0
 10
358.6103243461113
 20
-435.5050278316619
 30
0.0
 10
358.2451442246748
 20
-435.4406045460878
 30
0.0
 10
358.3846705918274
 20
-436.8120970587657
 30
0.0
 10
358.5138616725243
 20
-438.080753471209
 30
0.0
 10
358.6909395804662
 20
-439.82173247468
 30
0.0
 10
358.1411023410203
 20
-439.2439899618036
 30
0.0
 10
357.9126925103482
 20
-439.0042113160302
 30
0.0
 10
357.5468233698147
 20
-438.6199109146506
 30
0.0
 10
357.2853406224842
 20
-439.7312987181922
 30
0.0
 10
357.0538302058754
 20
-440.7159070078766
 30
0.0
 10
356.7706433569879
 20
-441.9203123895199
 30
0.0
 10
356.4647188778977
 20
-441.4664210593383
 30
0.0
 10
356.303488409188
 20
-441.2269869231134
 30
0.0
 10
356.0471733050854
 20
-440.8463038719933
 30
0.0
 10
355.586219529159
 20
-441.9919703756132
 30
0.0
 10
355.1838323764819
 20
-442.9913925758841
 30
0.0
 10
354.7817897333532
 20
-443.9908147761551
 30
0.0
 10
354.675336282859
 20
-443.9766898846656
 30
0.0
 10
354.5685383228162
 20
-443.9627372479503
 30
0.0
 10
354.4624293818705
 20
-443.9486123564608
 30
0.0
 10
354.4093749113977
 20
-443.5708576365031
 30
0.0
 10
354.3563204409248
 20
-443.1931029165455
 30
0.0
 10
354.2302299461647
 20
-442.2966890712835
 30
0.0
 10
353.3348496295483
 20
-443.6888521568729
 30
0.0
 10
352.6730467868318
 20
-444.7180744330913
 30
0.0
 10
351.8248642783632
 20
-446.0363402205222
 30
0.0
 10
351.8248642783632
 20
-445.3881455049724
 30
0.0
 10
351.8248642783632
 20
-445.0482868353525
 30
0.0
 10
351.8248642783632
 20
-444.7082559109584
 30
0.0
 10
351.7146212228353
 20
-444.6343586127998
 30
0.0
 10
351.6043781673072
 20
-444.5604613146411
 30
0.0
 10
351.4941351117793
 20
-444.4865640164825
 30
0.0
 10
350.8140732629909
 20
-445.4794405353315
 30
0.0
 10
350.1343559237512
 20
-446.4723170541806
 30
0.0
 10
349.2587849061749
 20
-447.750964243531
 30
0.0
 10
349.2587849061749
 20
-447.0278387011771
 30
0.0
 10
349.2587849061749
 20
-446.5915173579702
 30
0.0
 10
349.2587849061749
 20
-446.1553682695376
 30
0.0
 10
349.0727497499714
 20
-446.074925289957
 30
0.0
 10
348.8868868485422
 20
-445.9944823103764
 30
0.0
 10
348.7008516923387
 20
-445.9140393307958
 30
0.0
 10
348.2471326169313
 20
-446.7698010493319
 30
0.0
 10
347.7935857962981
 20
-447.625562767868
 30
0.0
 10
347.0561631076804
 20
-449.0163478152633
 30
0.0
 10
347.0175780382456
 20
-448.7102510813988
 30
0.0
 10
347.0286023437984
 20
-448.464271263752
 30
0.0
 10
346.943680740087
 20
-448.2577377894113
 30
0.0
 10
346.898377734456
 20
-448.1476669886575
 30
0.0
 10
346.6870211264359
 20
-448.1061535880603
 30
0.0
 10
346.4250216147826
 20
-447.9669717304562
 30
0.0
 10
346.2276176434779
 20
-449.0792208078691
 30
0.0
 10
346.0467501305022
 20
-450.0984523071803
 30
0.0
 10
345.8312594078998
 20
-451.3130207205051
 30
0.0
 10
345.5148273875797
 20
-450.9128728798933
 30
0.0
 10
345.305710091625
 20
-450.6484618014004
 30
0.0
 10
344.7386473747529
 20
-449.9317096856942
 30
0.0
 10
344.7386473747529
 20
-451.6930147525281
 30
0.0
 10
344.7386473747529
 20
-452.9335936367666
 30
0.0
 10
344.7386473747529
 20
-454.1741725210051
 30
0.0
 10
344.581895530174
 20
-454.1941540748196
 30
0.0
 10
344.4253159403694
 20
-454.214135628634
 30
0.0
 10
344.2685640957905
 20
-454.2341171824484
 30
0.0
 10
344.7105698465481
 20
-454.7651786514997
 30
0.0
 10
345.1527478520799
 20
-455.2960678657767
 30
0.0
 10
345.7330741865702
 20
-455.9930106824427
 30
0.0
 10
345.1952947813227
 20
-455.9604545301071
 30
0.0
 10
344.8390719081479
 20
-455.9387504285501
 30
0.0
 10
344.482160015876
 20
-455.9185966199614
 30
0.0
 10
345.1398287440102
 20
-457.6358044645841
 30
0.0
 10
345.450748611554
 20
-457.6916150114452
 30
0.0
 10
346.9240436958211
 20
-456.3576740395565
 30
0.0
 10
348.1122571286838
 20
-457.4182466846906
 30
0.0
 10
351.1255098948575
 20
-457.658714349561
 30
0.0
 10
352.3578205499314
 20
-456.7262992564782
 30
0.0
 10
353.6741915348454
 20
-455.7303221516925
 30
0.0
 10
353.5146836138783
 20
-454.4105060712932
 30
0.0
 10
353.0251355454243
 20
-453.0539997239761
 30
0.0
 10
352.0112439441153
 20
-450.2448688653034
 30
0.0
 10
351.5285860666318
 20
-449.9456623224094
 30
0.0
 10
348.1899440318762
 20
-450.3170436157194
 30
0.0
 10
350.7603297734211
 20
-447.4968884514939
 30
0.0
 10
353.5260524289796
 20
-445.6227565075179
 30
0.0
 10
357.1606281659182
 20
-445.2272595458113
 30
0.0
 10
374.4274467379904
 20
-443.3481322133817
 30
0.0
 10
387.907416352676
 20
-457.7770533794794
 30
0.0
 10
385.0555663099861
 20
-474.9105467562724
 30
0.0
 10
383.0532768139589
 20
-486.9404756812163
 30
0.0
 10
375.5181639686205
 20
-494.361555865993
 30
0.0
 10
365.0967501257397
 20
-499.3819212618733
 30
0.0
 10
359.6025118458633
 20
-502.028271358868
 30
0.0
 10
353.8116508447068
 20
-503.7818249608601
 30
0.0
 10
347.5744777234362
 20
-503.346020381976
 30
0.0
 10
347.1059447374423
 20
-503.3132919748662
 30
0.0
 10
346.6360337132542
 20
-503.2877982682753
 30
0.0
 10
346.1707735679712
 20
-503.227853606832
 30
0.0
 10
346.0097153540358
 20
-503.2071830339204
 30
0.0
 10
345.8605427195245
 20
-503.0928058638102
 30
0.0
 10
345.5844183163817
 20
-502.9646483117589
 30
0.0
 10
348.769925856818
 20
-502.4065428431484
 30
0.0
 10
351.8410562271439
 20
-501.9066594882386
 30
0.0
 10
354.8940998461723
 20
-501.3130695361301
 30
0.0
 10
356.0995387564612
 20
-501.0788030431331
 30
0.0
 10
357.2626029922816
 20
-500.6302516109536
 30
0.0
 10
358.4477158392075
 20
-500.2888426483653
 30
0.0
 10
360.1868000401616
 20
-499.7880980195843
 30
0.0
 10
361.6061793800846
 20
-499.0560152289686
 30
0.0
 10
361.6836940285027
 20
-496.8907727164892
 30
0.0
 10
361.6974744104437
 20
-496.5099174105948
 30
0.0
 10
362.4905353911482
 20
-496.0520642206051
 30
0.0
 10
363.0083332425813
 20
-495.8141803773486
 30
0.0
 10
364.4931693967239
 20
-495.1320514712691
 30
0.0
 10
366.106852122015
 20
-494.6933185612226
 30
0.0
 10
367.513829118191
 20
-493.8861326890285
 30
0.0
 10
369.816530940532
 20
-492.5651108252094
 30
0.0
 10
369.9233289005747
 20
-491.9673867585186
 30
0.0
 10
369.0214029025364
 20
-489.97594931327
 30
0.0
 10
370.3512097598428
 20
-488.4857732611251
 30
0.0
 10
371.6823946553433
 20
-487.1569999324643
 30
0.0
 10
372.8034287262436
 20
-485.6695799567077
 30
0.0
 10
373.3670463476305
 20
-484.9216497268599
 30
0.0
 10
373.863484607055
 20
-483.8752019732153
 30
0.0
 10
373.8335122763333
 20
-482.9822332234385
 30
0.0
 10
373.7797687867634
 20
-481.3852592112509
 30
0.0
 10
372.6198051368798
 20
-480.7119152986588
 30
0.0
 10
370.8273219559043
 20
-480.9296453333266
 30
0.0
 10
371.1787216953998
 20
-480.3765352531698
 30
0.0
 10
371.3985187873587
 20
-479.9781099603006
 30
0.0
 10
371.6672362352082
 20
-479.6158581700266
 30
0.0
 10
372.974305462312
 20
-477.8548976127412
 30
0.0
 10
372.8585502540076
 20
-475.9957518341261
 30
0.0
 10
372.029315770708
 20
-474.1099065655003
 30
0.0
 10
371.6307182230645
 20
-473.2031574337826
 30
0.0
 10
370.8548827197863
 20
-472.5465222342939
 30
0.0
 10
369.9570908363302
 20
-473.1724960839638
 30
0.0
 10
369.4623751246483
 20
-473.5171778872631
 30
0.0
 10
369.1443928113598
 20
-474.5403712463823
 30
0.0
 10
369.2301756889425
 20
-475.1942503694827
 30
0.0
 10
369.3645344128672
 20
-476.2157211808593
 30
0.0
 10
370.0311603892631
 20
-477.1593328342692
 30
0.0
 10
370.2302869083105
 20
-478.1830429577112
 30
0.0
 10
370.3367403588047
 20
-478.7302963755432
 30
0.0
 10
371.333061973139
 20
-479.7917302945486
 30
0.0
 10
369.7359157061771
 20
-480.0296141378051
 30
0.0
 10
369.6766600638309
 20
-480.0385713860668
 30
0.0
 10
369.7682996037385
 20
-480.9909680329641
 30
0.0
 10
369.7710556801267
 20
-481.5037704959435
 30
0.0
 10
369.7779458710972
 20
-482.6847492282872
 30
0.0
 10
369.7731227374179
 20
-483.8660724701793
 30
0.0
 10
369.7731227374179
 20
-485.047051202523
 30
0.0
 10
369.5767522947586
 20
-485.0666882467889
 30
0.0
 10
369.3796928330023
 20
-485.0861530362806
 30
0.0
 10
369.1833223903431
 20
-485.1056178257722
 30
0.0
 10
368.9425102159241
 20
-484.7743718948655
 30
0.0
 10
368.7020425510537
 20
-484.4431259639587
 30
0.0
 10
368.5942110623653
 20
-484.2946423485444
 30
0.0
 10
368.1146537708186
 20
-485.6168699957833
 30
0.0
 10
367.6261392310101
 20
-486.9628688018704
 30
0.0
 10
367.1307345002312
 20
-488.3285046522234
 30
0.0
 10
366.9192056374369
 20
-488.0671941596672
 30
0.0
 10
366.7262802902629
 20
-487.8286212973137
 30
0.0
 10
366.6439425081654
 20
-487.7268187257246
 30
0.0
 10
365.9428655769171
 20
-489.3218979353953
 30
0.0
 10
365.2352429642468
 20
-490.9329968390723
 30
0.0
 10
364.4414929644452
 20
-492.7396049115374
 30
0.0
 10
364.0260144489241
 20
-492.2783066260624
 30
0.0
 10
363.7924369750241
 20
-492.0180296621518
 30
0.0
 10
363.6759927476227
 20
-491.8888385814549
 30
0.0
 10
362.8712184422683
 20
-493.1096081666532
 30
0.0
 10
362.0915933339563
 20
-494.2917926824167
 30
0.0
 10
361.3119682256443
 20
-495.4739771981801
 30
0.0
 10
361.164173629327
 20
-495.4143770462853
 30
0.0
 10
361.0163790330098
 20
-495.3547768943905
 30
0.0
 10
360.8685844366926
 20
-495.2951767424957
 30
0.0
 10
360.8393011250679
 20
-494.844558253025
 30
0.0
 10
360.8096733038948
 20
-494.3937675087801
 30
0.0
 10
360.8038166415699
 20
-494.3035060070665
 30
0.0
 10
359.7582301617966
 20
-495.4181666513191
 30
0.0
 10
358.646842358255
 20
-496.6186101731544
 30
0.0
 10
357.4830891033376
 20
-497.7651379506456
 30
0.0
 10
357.447949129388
 20
-497.7997611602723
 30
0.0
 10
356.8588378014103
 20
-497.2724892962548
 30
0.0
 10
356.5322427494086
 20
-497.0103175298273
 30
0.0
 10
355.9417533832368
 20
-499.4809677570742
 30
0.0
 10
352.994129686057
 20
-498.4508842069845
 30
0.0
 10
351.8534585708908
 20
-500.167230777736
 30
0.0
 10
350.8781520390166
 20
-499.1416258517771
 30
0.0
 10
350.5432887578503
 20
-499.2275809841341
 30
0.0
 10
345.1499917756917
 20
-501.7678221401831
 30
0.0
 10
345.1499917756917
 20
-501.352343624662
 30
0.0
 10
345.1499917756917
 20
-500.9888860509681
 30
0.0
 10
345.1499917756917
 20
-500.5930445797129
 30
0.0
 10
343.5323471905926
 20
-500.6901962723969
 30
0.0
 10
341.9376124904705
 20
-500.7856254173383
 30
0.0
 10
340.0147324453783
 20
-500.9010361160942
 30
0.0
 10
340.3742281592641
 20
-500.2609373749348
 30
0.0
 10
340.5476887169464
 20
-499.9519123099079
 30
0.0
 10
340.8501681005513
 20
-499.413271630789
 30
0.0
 10
338.6127508376559
 20
-499.413271630789
 30
0.0
 10
336.4957396619698
 20
-499.413271630789
 30
0.0
 10
334.3789007410581
 20
-499.413271630789
 30
0.0
 10
334.350650958079
 20
-499.2546249836933
 30
0.0
 10
334.3222289203257
 20
-499.0961505913718
 30
0.0
 10
334.2939791373466
 20
-498.937503944276
 30
0.0
  0
SPLINE
  5
3D
330
1F
100
AcDbEntity
  8
Layer 1
370
     0
100
AcDbSpline
210
0.0
220
0.0
230
1.0
 70
    11
 71
     3
 72
   254
 73
   250
 74
     0
 42
0.0000000001
 43
0.0000000001
 40
0.0
 40
0.0
 40
0.0
 40
0.0
 40
1.0
 40
1.0
 40
1.0
 40
2.0
 40
2.0
 40
2.0
 40
3.0
 40
3.0
 40
3.0
 40
4.0
 40
4.0
 40
4.0
 40
5.0
 40
5.0
 40
5.0
 40
6.0
 40
6.0
 40
6.0
 40
7.0
 40
7.0
 40
7.0
 40
8.0
 40
8.0
 40
8.0
 40
9.0
 40
9.0
 40
9.0
 40
10.0
 40
10.0
 40
10.0
 40
11.0
 40
11.0
 40
11.0
 40
12.0
 40
12.0
 40
12.0
 40
13.0
 40
13.0
 40
13.0
 40
14.0
 40
14.0
 40
14.0
 40
15.0
 40
15.0
 40
15.0
 40
16.0
 40
16.0
 40
16.0
 40
17.0
 40
17.0
 40
17.0
 40
18.0
 40
18.0
 40
18.0
 40
19.0
 40
19.0
 40
19.0
 40
20.0
 40
20.0
 40
20.0
 40
21.0
 40
21.0
 40
21.0
 40
22.0
 40
22.0
 40
22.0
 40
23.0
 40
23.0
 40
23.0
 40
24.0
 40
24.0
 40
24.0
 40
25.0
 40
25.0
 40
25.0
 40
26.0
 40
26.0
 40
26.0
 40
27.0
 40
27.0
 40
27.0
 40
28.0
 40
28.0
 40
28.0
 40
29.0
 40
29.0
 40
29.0
 40
30.0
 40
30.0
 40
30.0
 40
31.0
 40
31.0
 40
31.0
 40
32.0
 40
32.0
 40
32.0
 40
33.0
 40
33.0
 40
33.0
 40
34.0
 40
34.0
 40
34.0
 40
35.0
 40
35.0
 40
35.0
 40
36.0
 40
36.0
 40
36.0
 40
37.0
 40
37.0
 40
37.0
 40
38.0
 40
38.0
 40
38.0
 40
39.0
 40
39.0
 40
39.0
 40
40.0
 40
40.0
 40
40.0
 40
41.0
 40
41.0
 40
41.0
 40
42.0
 40
42.0
 40
42.0
 40
43.0
 40
43.0
 40
43.0
 40
44.0
 40
44.0
 40
44.0
 40
45.0
 40
45.0
 40
45.0
 40
46.0
 40
46.0
 40
46.0
 40
47.0
 40
47.0
 40
47.0
 40
48.0
 40
48.0
 40
48.0
 40
49.0
 40
49.0
 40
49.0
 40
50.0
 40
50.0
 40
50.0
 40
51.0
 40
51.0
 40
51.0
 40
52.0
 40
52.0
 40
52.0
 40
53.0
 40
53.0
 40
53.0
 40
54.0
 40
54.0
 40
54.0
 40
55.0
 40
55.0
 40
55.0
 40
56.0
 40
56.0
 40
56.0
 40
57.0
 40
57.0
 40
57.0
 40
58.0
 40
58.0
 40
58.0
 40
59.0
 40
59.0
 40
59.0
 40
60.0
 40
60.0
 40
60.0
 40
61.0
 40
61.0
 40
61.0
 40
62.0
 40
62.0
 40
62.0
 40
63.0
 40
63.0
 40
63.0
 40
64.0
 40
64.0
 40
64.0
 40
65.0
 40
65.0
 40
65.0
 40
66.0
 40
66.0
 40
66.0
 40
67.0
 40
67.0
 40
67.0
 40
68.0
 40
68.0
 40
68.0
 40
69.0
 40
69.0
 40
69.0
 40
70.0
 40
70.0
 40
70.0
 40
71.0
 40
71.0
 40
71.0
 40
72.0
 40
72.0
 40
72.0
 40
73.0
 40
73.0
 40
73.0
 40
74.0
 40
74.0
 40
74.0
 40
75.0
 40
75.0
 40
75.0
 40
76.0
 40
76.0
 40
76.0
 40
77.0
 40
77.0
 40
77.0
 40
78.0
 40
78.0
 40
78.0
 40
79.0
 40
79.0
 40
79.0
 40
80.0
 40
80.0
 40
80.0
 40
81.0
 40
81.0
 40
81.0
 40
82.0
 40
82.0
 40
82.0
 40
83.0
 40
83.0
 40
83.0
 40
83.0
 10
318.227087322787
 20
-458.1785792582853
 30
0.0
 10
318.1886745081264
 20
-457.4008489524901
 30
0.0
 10
318.1500894386917
 20
-456.6232909014692
 30
0.0
 10
318.1077147642231
 20
-455.7632228135766
 30
0.0
 10
316.568790610962
 20
-456.9571206539899
 30
0.0
 10
316.4110052377375
 20
-458.413362515605
 30
0.0
 10
317.6460719691996
 20
-459.3247625262279
 30
0.0
 10
317.8545002460572
 20
-458.9187580232912
 30
0.0
 10
318.0605169560752
 20
-458.5179211635823
 30
0.0
 10
318.2663614113188
 20
-458.1170843038735
 30
0.0
 10
317.8152261575254
 20
-459.3895303213505
 30
0.0
 10
317.3639186489576
 20
-460.6619763388276
 30
0.0
 10
316.9381048469808
 20
-461.8631088797599
 30
0.0
 10
318.0415689309063
 20
-462.0036687755581
 30
0.0
 10
317.2257703199991
 20
-463.0359916377133
 30
0.0
 10
317.2018269063767
 20
-463.7444755242549
 30
0.0
 10
317.085899443298
 20
-467.1721732773042
 30
0.0
 10
316.3031737490492
 20
-470.6846203792907
 30
0.0
 10
319.6810898723367
 20
-473.3013426551122
 30
0.0
 10
321.4587591427256
 20
-474.6785195753408
 30
0.0
 10
323.7023775774946
 20
-475.104505632092
 30
0.0
 10
325.1989270562871
 20
-473.7933022904058
 30
0.0
 10
326.7321668019976
 20
-472.450059560707
 30
0.0
 10
326.6153780650475
 20
-470.8020981353377
 30
0.0
 10
325.356367919963
 20
-468.7183321310843
 30
0.0
 10
324.459954074701
 20
-467.2347017603615
 30
0.0
 10
323.1726941466374
 20
-466.9094847465539
 30
0.0
 10
321.9533025996332
 20
-467.380084789839
 30
0.0
 10
320.8703368338449
 20
-467.7983193817483
 30
0.0
 10
320.064528999845
 20
-468.9691350824105
 30
0.0
 10
319.1829290651696
 20
-469.8541801125712
 30
0.0
 10
318.9069769168011
 20
-470.1313380443596
 30
0.0
 10
318.7826089697836
 20
-470.5592189036276
 30
0.0
 10
318.588650093964
 20
-470.9181978531906
 30
0.0
 10
318.0062567021825
 20
-470.0651922110428
 30
0.0
 10
317.5561549770346
 20
-469.2211438171565
 30
0.0
 10
317.7094617261282
 20
-468.50680326829
 30
0.0
 10
317.9702554543616
 20
-467.2922348549652
 30
0.0
 10
318.4539468604907
 20
-466.0551010662119
 30
0.0
 10
319.1384873334098
 20
-465.0226059492826
 30
0.0
 10
319.7641166735312
 20
-464.0791665506469
 30
0.0
 10
321.0224377995187
 20
-464.5704371668435
 30
0.0
 10
321.8873290210907
 20
-464.3751002528298
 30
0.0
 10
323.7166747237583
 20
-463.9622055589227
 30
0.0
 10
324.8587238771187
 20
-465.1871092587032
 30
0.0
 10
326.3551011011369
 20
-465.369354809873
 30
0.0
 10
326.8162271318376
 20
-465.4255098662825
 30
0.0
 10
327.3340249832707
 20
-465.8232461400546
 30
0.0
 10
327.6375378955212
 20
-466.2118529107908
 30
0.0
 10
328.4493746466203
 20
-467.2517549830135
 30
0.0
 10
329.5679971506809
 20
-473.4064180674123
 30
0.0
 10
329.2591443404283
 20
-474.7584457905986
 30
0.0
 10
329.2035060483415
 20
-475.0020140414057
 30
0.0
 10
329.0372801911782
 20
-475.2204330951706
 30
0.0
 10
328.9006821551881
 20
-475.4932846576024
 30
0.0
 10
328.5155204799371
 20
-475.0774616325327
 30
0.0
 10
328.235261962212
 20
-474.7748099941535
 30
0.0
 10
328.125018906684
 20
-474.6557819451382
 30
0.0
 10
327.390007784906
 20
-475.7234170360171
 30
0.0
 10
326.7023667260501
 20
-476.7218057076425
 30
0.0
 10
325.7475585123131
 20
-478.1086288952298
 30
0.0
 10
325.6349038899455
 20
-477.1987791775753
 30
0.0
 10
325.5958020561879
 20
-476.8820026477066
 30
0.0
 10
325.4707450900733
 20
-475.8719006514314
 30
0.0
 10
323.8825560713731
 20
-479.301148697449
 30
0.0
 10
321.6759724130706
 20
-476.9040512588122
 30
0.0
 10
319.4840304105804
 20
-477.15330391717
 30
0.0
 10
319.9239691040468
 20
-478.1706406139643
 30
0.0
 10
320.2121513413879
 20
-479.0326035043738
 30
0.0
 10
320.6495062132404
 20
-479.811022829266
 30
0.0
 10
321.8063692771873
 20
-481.8699841460256
 30
0.0
 10
322.8838228901992
 20
-483.9971583533931
 30
0.0
 10
324.2635836320417
 20
-485.9010903733164
 30
0.0
 10
325.6679768066039
 20
-487.8389565837695
 30
0.0
 10
327.1677991261074
 20
-489.8415905893452
 30
0.0
 10
329.0422755796318
 20
-491.2690659036584
 30
0.0
 10
331.109505125556
 20
-492.8436467951919
 30
0.0
 10
333.6008259257144
 20
-493.907492281037
 30
0.0
 10
336.0032632623534
 20
-494.9785724674012
 30
0.0
 10
337.4738022702323
 20
-495.6343463930185
 30
0.0
 10
339.1055717468208
 20
-496.1547280660655
 30
0.0
 10
340.6980671348776
 20
-496.2673826884332
 30
0.0
 10
345.2268174050128
 20
-496.5879488233357
 30
0.0
 10
349.594164951664
 20
-495.7089327102742
 30
0.0
 10
353.7348252153857
 20
-493.8258435180366
 30
0.0
 10
359.2938312903849
 20
-491.2974879414118
 30
0.0
 10
362.2228514719443
 20
-487.3966063234633
 30
0.0
 10
361.1100856302086
 20
-480.27955581526
 30
0.0
 10
360.9998425746806
 20
-479.5752060433007
 30
0.0
 10
360.2095376703643
 20
-478.9771374670613
 30
0.0
 10
359.7348035124969
 20
-478.3296317706086
 30
0.0
 10
359.2593803355324
 20
-478.9909178490023
 30
0.0
 10
358.4883679659335
 20
-479.6032835715055
 30
0.0
 10
358.3684786430468
 20
-480.3236530374712
 30
0.0
 10
358.1014837429399
 20
-481.9335461577284
 30
0.0
 10
358.2520344156454
 20
-483.6088960922054
 30
0.0
 10
358.0494628011127
 20
-485.2346366516948
 30
0.0
 10
357.9316405355171
 20
-486.1775592860077
 30
0.0
 10
357.4582844158438
 20
-487.0760401885609
 30
0.0
 10
357.1447807266861
 20
-487.9945026449285
 30
0.0
 10
356.5439560740585
 20
-485.6049844163592
 30
0.0
 10
356.5635931183244
 20
-485.7718992926195
 30
0.0
 10
354.2254068124853
 20
-486.0457843836969
 30
0.0
 10
351.3332491526181
 20
-486.3846095246712
 30
0.0
 10
348.3866589840839
 20
-486.684332831888
 30
0.0
 10
345.4969128910564
 20
-486.494680325425
 30
0.0
 10
342.6257703136491
 20
-486.3064058571561
 30
0.0
 10
342.6438570649467
 20
-486.0309704731104
 30
0.0
 10
342.1875541679253
 20
-488.8545707328211
 30
0.0
 10
341.8942042873563
 20
-490.6687580153537
 30
0.0
 10
341.0961479181982
 20
-491.3882662074481
 30
0.0
 10
339.5358641729285
 20
-491.2449502352617
 30
0.0
 10
340.5280516726805
 20
-487.6567110325997
 30
0.0
 10
339.2225327385451
 20
-485.0003701586978
 30
0.0
 10
336.1539861898331
 20
-484.7447440736923
 30
0.0
 10
334.7969630781931
 20
-484.6317449417761
 30
0.0
 10
333.3953259800193
 20
-485.0549749221391
 30
0.0
 10
332.0314126774088
 20
-485.2325695944037
 30
0.0
 10
330.9102063517342
 20
-483.2940143648536
 30
0.0
 10
333.5236557868448
 20
-483.100055489034
 30
0.0
 10
333.6042710211996
 20
-481.6438136274189
 30
0.0
 10
333.1443507739188
 20
-481.5609590809987
 30
0.0
 10
332.7180202076191
 20
-481.4843057064518
 30
0.0
 10
332.2811821000894
 20
-481.4057575293882
 30
0.0
 10
332.1215019243481
 20
-479.6470362841681
 30
0.0
 10
333.5706813402185
 20
-479.6940618375418
 30
0.0
 10
334.2869166916019
 20
-479.4372299691164
 30
0.0
 10
334.491038599103
 20
-478.8081555335098
 30
0.0
 10
334.5163600509196
 20
-478.221628027146
 30
0.0
 10
334.7492485057224
 20
-478.1222370223965
 30
0.0
 10
335.1831582820897
 20
-477.9374076496129
 30
0.0
 10
335.8995658882474
 20
-477.8226859699541
 30
0.0
 10
336.2108302653397
 20
-478.0583305011452
 30
0.0
 10
337.0340358315401
 20
-478.6815482744269
 30
0.0
 10
337.7159924828453
 20
-479.4961411019142
 30
0.0
 10
338.4306775412604
 20
-480.2566459302831
 30
0.0
 10
339.1081555684348
 20
-480.9777044153459
 30
0.0
 10
339.6347384133552
 20
-481.9152871516566
 30
0.0
 10
340.4374456614185
 20
-482.4311902005728
 30
0.0
 10
344.0355033862133
 20
-484.7442273093695
 30
0.0
 10
347.805988140045
 20
-484.485328383653
 30
0.0
 10
351.5340982194082
 20
-482.7684650485787
 30
0.0
 10
351.959912021385
 20
-482.5722668606938
 30
0.0
 10
352.4332681410584
 20
-481.385948230348
 30
0.0
 10
352.2410318129814
 20
-481.1139579417875
 30
0.0
 10
350.6914278637161
 20
-478.9220159392973
 30
0.0
 10
350.0389267788098
 20
-476.5066594945886
 30
0.0
 10
350.2907632587815
 20
-473.5585190330861
 30
0.0
 10
347.0143051975346
 20
-474.8345824008226
 30
0.0
 10
347.3021429253272
 20
-479.4229328228526
 30
0.0
 10
343.5390651267888
 20
-479.8306598735319
 30
0.0
 10
344.7448485466263
 20
-478.0505790363034
 30
0.0
 10
344.692138585702
 20
-477.8097668618844
 30
0.0
 10
342.8576252398065
 20
-477.0682100586844
 30
0.0
 10
339.5475774975784
 20
-475.7304794817618
 30
0.0
 10
336.8883082925141
 20
-473.5931422427129
 30
0.0
 10
334.8262463898178
 20
-470.6897880225185
 30
0.0
 10
334.5837116676562
 20
-470.3482068051561
 30
0.0
 10
334.2772704242432
 20
-470.0519285934245
 30
0.0
 10
333.9103677550641
 20
-469.6312824346755
 30
0.0
 10
333.053917017431
 20
-472.9354735145786
 30
0.0
 10
332.1314927012554
 20
-473.6985621645615
 30
0.0
 10
330.7494926473474
 20
-473.0491616655919
 30
0.0
 10
330.6842080879019
 20
-470.8601479942641
 30
0.0
 10
331.8383150754606
 20
-468.8364989062284
 30
0.0
 10
330.8256292575714
 20
-466.8924315239019
 30
0.0
 10
329.5366467817652
 20
-464.4179916916212
 30
0.0
 10
327.4802692866195
 20
-462.7238659867496
 30
0.0
 10
324.2215534671217
 20
-462.3037365923234
 30
0.0
 10
325.441634033223
 20
-461.4665783894077
 30
0.0
 10
326.6617145993242
 20
-460.629420186492
 30
0.0
 10
327.9510415846789
 20
-459.7447196658798
 30
0.0
 10
327.5345295405122
 20
-459.5011514150726
 30
0.0
 10
327.1634927567508
 20
-459.2842826542762
 30
0.0
 10
326.6627481279697
 20
-458.9916217928042
 30
0.0
 10
328.3294853237336
 20
-457.5248723899591
 30
0.0
 10
329.7076957726078
 20
-458.8429659226157
 30
0.0
 10
331.306392332538
 20
-459.2282998526409
 30
0.0
 10
331.1234577622712
 20
-458.7015447529462
 30
0.0
 10
330.992716388606
 20
-458.3255125807311
 30
0.0
 10
330.862147269715
 20
-457.9493081537419
 30
0.0
 10
330.9613660196902
 20
-457.8173609966568
 30
0.0
 10
331.0605847696654
 20
-457.6852415847974
 30
0.0
 10
331.1598035196406
 20
-457.5531221729381
 30
0.0
 10
331.6982719439852
 20
-457.9005600526256
 30
0.0
 10
332.5192381981202
 20
-458.1318982144601
 30
0.0
 10
332.719225991039
 20
-458.6183456969774
 30
0.0
 10
333.1987832825857
 20
-459.7843382639602
 30
0.0
 10
333.5439818502078
 20
-461.0555784980174
 30
0.0
 10
333.6619763705776
 20
-462.3106267832939
 30
0.0
 10
334.0018350401975
 20
-465.9260822402894
 30
0.0
 10
337.8515569901899
 20
-471.0535901057609
 30
0.0
 10
341.1157849624641
 20
-472.0035751858186
 30
0.0
 10
341.1016600709746
 20
-471.8244302205856
 30
0.0
 10
341.1541977771246
 20
-471.5987764663017
 30
0.0
 10
341.0663478422508
 20
-471.5066201620713
 30
0.0
 10
339.2158148023489
 20
-469.5610024867764
 30
0.0
 10
338.4355006749398
 20
-467.1344494817407
 30
0.0
 10
337.7197820878791
 20
-464.6155679177003
 30
0.0
 10
337.2584838024042
 20
-462.9920666702763
 30
0.0
 10
338.0761772158282
 20
-460.5739541491794
 30
0.0
 10
335.0930690351503
 20
-460.2940401410029
 30
0.0
 10
336.0735432102525
 20
-459.0333074481757
 30
0.0
 10
336.0104979628724
 20
-458.2088960985554
 30
0.0
 10
335.1338934166506
 20
-457.1064655432755
 30
0.0
 10
334.3375595952351
 20
-456.1051485404876
 30
0.0
 10
333.7038342807234
 20
-454.7543266007212
 30
0.0
 10
333.2356458042779
 20
-453.662920350994
 30
0.0
 10
332.3697210540603
 20
-451.6437498870891
 30
0.0
 10
330.5855061022495
 20
-451.3834729231784
 30
0.0
 10
329.2699963912068
 20
-450.2898273613859
 30
0.0
 10
327.6433945578461
 20
-448.9377996381996
 30
0.0
 10
326.0157591958398
 20
-450.1113714152499
 30
0.0
 10
324.4056938208083
 20
-450.2529648396937
 30
0.0
 10
323.8732543135629
 20
-450.2998181382931
 30
0.0
 10
323.387668104917
 20
-450.8796277084606
 30
0.0
 10
322.6676431484998
 20
-451.356945687942
 30
0.0
 10
323.3091199278533
 20
-451.411378196609
 30
0.0
 10
323.6004027511312
 20
-451.4361828841028
 30
0.0
 10
324.190892117303
 20
-451.4863090234132
 30
0.0
 10
322.9954439839213
 20
-452.3634303339578
 30
0.0
 10
322.0525213496084
 20
-453.055205507396
 30
0.0
 10
321.1095987152955
 20
-453.7469806808341
 30
0.0
 10
321.1617919118971
 20
-453.8107149473112
 30
0.0
 10
321.2139851084986
 20
-453.8744492137884
 30
0.0
 10
321.2663505598744
 20
-453.9381834802655
 30
0.0
 10
321.5753756249013
 20
-453.842065316227
 30
0.0
 10
321.8845729447025
 20
-453.7457748974143
 30
0.0
 10
322.4562865404797
 20
-453.5678357156011
 30
0.0
 10
322.0576889928363
 20
-454.2644340227187
 30
0.0
 10
321.7881102711155
 20
-454.7358953398751
 30
0.0
 10
321.4766736392489
 20
-455.2800481717703
 30
0.0
 10
321.9450343704686
 20
-455.2307833063312
 30
0.0
 10
322.2578490405293
 20
-455.1978826444471
 30
0.0
 10
322.5704914558157
 20
-455.1649819825629
 30
0.0
 10
320.6384819076876
 20
-456.6043428763003
 30
0.0
 10
321.0789373654768
 20
-458.2540268494122
 30
0.0
 10
322.2218477927084
 20
-460.1402166275865
 30
0.0
 10
321.071185900635
 20
-460.0561562977464
 30
0.0
 10
320.2822590345128
 20
-459.9984509483685
 30
0.0
 10
319.7355223810036
 20
-459.9584878407396
 30
0.0
 10
319.5469034031862
 20
-458.5155095967427
 30
0.0
 10
319.3806775460229
 20
-457.2434080888142
 30
0.0
 10
319.2144516888596
 20
-455.9713065808857
 30
0.0
 10
319.0961126589413
 20
-455.9625215873983
 30
0.0
 10
318.9777736290229
 20
-455.9537365939109
 30
0.0
 10
318.8594345991046
 20
-455.9449516004235
 30
0.0
 10
318.6496282840529
 20
-456.6875419322691
 30
0.0
 10
318.4398219690012
 20
-457.4301322641147
 30
0.0
 10
318.227087322787
 20
-458.1785792582853
 30
0.0
  0
SPLINE
  5
3E
330
1F
100
AcDbEntity
  8
Layer 1
370
     0
100
AcDbSpline
210
0.0
220
0.0
230
1.0
 70
    11
 71
     3
 72
    20
 73
    16
 74
     0
 42
0.0000000001
 43
0.0000000001
 40
0.0
 40
0.0
 40
0.0
 40
0.0
 40
1.0
 40
1.0
 40
1.0
 40
2.0
 40
2.0
 40
2.0
 40
3.0
 40
3.0
 40
3.0
 40
4.0
 40
4.0
 40
4.0
 40
5.0
 40
5.0
 40
5.0
 40
5.0
 10
326.5096136336504
 20
-442.0756861959047
 30
0.0
 10
326.7016777069531
 20
-442.1809338629791
 30
0.0
 10
326.8937417802558
 20
-442.2861815300535
 30
0.0
 10
327.0858058535584
 20
-442.3914291971279
 30
0.0
 10
328.3263847377969
 20
-441.0772975242793
 30
0.0
 10
329.5669636220354
 20
-439.7631658514308
 30
0.0
 10
331.040603215851
 20
-438.2021930870641
 30
0.0
 10
330.4337496461242
 20
-438.2021930870641
 30
0.0
 10
330.1963825671905
 20
-438.1327744130363
 30
0.0
 10
330.1242078167745
 20
-438.212700628294
 30
0.0
 10
329.3428601607199
 20
-439.0782808689631
 30
0.0
 10
328.8274738761265
 20
-440.2156791434183
 30
0.0
 10
327.3226561681694
 20
-440.2117172836103
 30
0.0
 10
327.0532497012228
 20
-440.2110282645132
 30
0.0
 10
326.7807426483395
 20
-441.4233573657726
 30
0.0
 10
326.5096136336504
 20
-442.0756861959047
 30
0.0
  0
HATCH
  5
3F
330
1F
100
AcDbEntity
  8
Layer 1
 62
     7
420
 16777215
100
AcDbHatch
 10
0.0
 20
0.0
 30
0.0
210
0.0
220
0.0
230
1.0
  2
SOLID
 70
     1
 71
     0
 91
        3
 92
        1
 93
        1
 72
     4
 94
        3
 73
     0
 74
     1
 95
      497
 96
      493
 40
0.0
 40
0.0
 40
0.0
 40
0.0
 40
1.0
 40
1.0
 40
1.0
 40
2.0
 40
2.0
 40
2.0
 40
3.0
 40
3.0
 40
3.0
 40
4.0
 40
4.0
 40
4.0
 40
5.0
 40
5.0
 40
5.0
 40
6.0
 40
6.0
 40
6.0
 40
7.0
 40
7.0
 40
7.0
 40
8.0
 40
8.0
 40
8.0
 40
9.0
 40
9.0
 40
9.0
 40
10.0
 40
10.0
 40
10.0
 40
11.0
 40
11.0
 40
11.0
 40
12.0
 40
12.0
 40
12.0
 40
13.0
 40
13.0
 40
13.0
 40
14.0
 40
14.0
 40
14.0
 40
15.0
 40
15.0
 40
15.0
 40
16.0
 40
16.0
 40
16.0
 40
17.0
 40
17.0
 40
17.0
 40
18.0
 40
18.0
 40
18.0
 40
19.0
 40
19.0
 40
19.0
 40
20.0
 40
20.0
 40
20.0
 40
21.0
 40
21.0
 40
21.0
 40
22.0
 40
22.0
 40
22.0
 40
23.0
 40
23.0
 40
23.0
 40
24.0
 40
24.0
 40
24.0
 40
25.0
 40
25.0
 40
25.0
 40
26.0
 40
26.0
 40
26.0
 40
27.0
 40
27.0
 40
27.0
 40
28.0
 40
28.0
 40
28.0
 40
29.0
 40
29.0
 40
29.0
 40
30.0
 40
30.0
 40
30.0
 40
31.0
 40
31.0
 40
31.0
 40
32.0
 40
32.0
 40
32.0
 40
33.0
 40
33.0
 40
33.0
 40
34.0
 40
34.0
 40
34.0
 40
35.0
 40
35.0
 40
35.0
 40
36.0
 40
36.0
 40
36.0
 40
37.0
 40
37.0
 40
37.0
 40
38.0
 40
38.0
 40
38.0
 40
39.0
 40
39.0
 40
39.0
 40
40.0
 40
40.0
 40
40.0
 40
41.0
 40
41.0
 40
41.0
 40
42.0
 40
42.0
 40
42.0
 40
43.0
 40
43.0
 40
43.0
 40
44.0
 40
44.0
 40
44.0
 40
45.0
 40
45.0
 40
45.0
 40
46.0
 40
46.0
 40
46.0
 40
47.0
 40
47.0
 40
47.0
 40
48.0
 40
48.0
 40
48.0
 40
49.0
 40
49.0
 40
49.0
 40
50.0
 40
50.0
 40
50.0
 40
51.0
 40
51.0
 40
51.0
 40
52.0
 40
52.0
 40
52.0
 40
53.0
 40
53.0
 40
53.0
 40
54.0
 40
54.0
 40
54.0
 40
55.0
 40
55.0
 40
55.0
 40
56.0
 40
56.0
 40
56.0
 40
57.0
 40
57.0
 40
57.0
 40
58.0
 40
58.0
 40
58.0
 40
59.0
 40
59.0
 40
59.0
 40
60.0
 40
60.0
 40
60.0
 40
61.0
 40
61.0
 40
61.0
 40
62.0
 40
62.0
 40
62.0
 40
63.0
 40
63.0
 40
63.0
 40
64.0
 40
64.0
 40
64.0
 40
65.0
 40
65.0
 40
65.0
 40
66.0
 40
66.0
 40
66.0
 40
67.0
 40
67.0
 40
67.0
 40
68.0
 40
68.0
 40
68.0
 40
69.0
 40
69.0
 40
69.0
 40
70.0
 40
70.0
 40
70.0
 40
71.0
 40
71.0
 40
71.0
 40
72.0
 40
72.0
 40
72.0
 40
73.0
 40
73.0
 40
73.0
 40
74.0
 40
74.0
 40
74.0
 40
75.0
 40
75.0
 40
75.0
 40
76.0
 40
76.0
 40
76.0
 40
77.0
 40
77.0
 40
77.0
 40
78.0
 40
78.0
 40
78.0
 40
79.0
 40
79.0
 40
79.0
 40
80.0
 40
80.0
 40
80.0
 40
81.0
 40
81.0
 40
81.0
 40
82.0
 40
82.0
 40
82.0
 40
83.0
 40
83.0
 40
83.0
 40
84.0
 40
84.0
 40
84.0
 40
85.0
 40
85.0
 40
85.0
 40
86.0
 40
86.0
 40
86.0
 40
87.0
 40
87.0
 40
87.0
 40
88.0
 40
88.0
 40
88.0
 40
89.0
 40
89.0
 40
89.0
 40
90.0
 40
90.0
 40
90.0
 40
91.0
 40
91.0
 40
91.0
 40
92.0
 40
92.0
 40
92.0
 40
93.0
 40
93.0
 40
93.0
 40
94.0
 40
94.0
 40
94.0
 40
95.0
 40
95.0
 40
95.0
 40
96.0
 40
96.0
 40
96.0
 40
97.0
 40
97.0
 40
97.0
 40
98.0
 40
98.0
 40
98.0
 40
99.0
 40
99.0
 40
99.0
 40
100.0
 40
100.0
 40
100.0
 40
101.0
 40
101.0
 40
101.0
 40
102.0
 40
102.0
 40
102.0
 40
103.0
 40
103.0
 40
103.0
 40
104.0
 40
104.0
 40
104.0
 40
105.0
 40
105.0
 40
105.0
 40
106.0
 40
106.0
 40
106.0
 40
107.0
 40
107.0
 40
107.0
 40
108.0
 40
108.0
 40
108.0
 40
109.0
 40
109.0
 40
109.0
 40
110.0
 40
110.0
 40
110.0
 40
111.0
 40
111.0
 40
111.0
 40
112.0
 40
112.0
 40
112.0
 40
113.0
 40
113.0
 40
113.0
 40
114.0
 40
114.0
 40
114.0
 40
115.0
 40
115.0
 40
115.0
 40
116.0
 40
116.0
 40
116.0
 40
117.0
 40
117.0
 40
117.0
 40
118.0
 40
118.0
 40
118.0
 40
119.0
 40
119.0
 40
119.0
 40
120.0
 40
120.0
 40
120.0
 40
121.0
 40
121.0
 40
121.0
 40
122.0
 40
122.0
 40
122.0
 40
123.0
 40
123.0
 40
123.0
 40
124.0
 40
124.0
 40
124.0
 40
125.0
 40
125.0
 40
125.0
 40
126.0
 40
126.0
 40
126.0
 40
127.0
 40
127.0
 40
127.0
 40
128.0
 40
128.0
 40
128.0
 40
129.0
 40
129.0
 40
129.0
 40
130.0
 40
130.0
 40
130.0
 40
131.0
 40
131.0
 40
131.0
 40
132.0
 40
132.0
 40
132.0
 40
133.0
 40
133.0
 40
133.0
 40
134.0
 40
134.0
 40
134.0
 40
135.0
 40
135.0
 40
135.0
 40
136.0
 40
136.0
 40
136.0
 40
137.0
 40
137.0
 40
137.0
 40
138.0
 40
138.0
 40
138.0
 40
139.0
 40
139.0
 40
139.0
 40
140.0
 40
140.0
 40
140.0
 40
141.0
 40
141.0
 40
141.0
 40
142.0
 40
142.0
 40
142.0
 40
143.0
 40
143.0
 40
143.0
 40
144.0
 40
144.0
 40
144.0
 40
145.0
 40
145.0
 40
145.0
 40
146.0
 40
146.0
 40
146.0
 40
147.0
 40
147.0
 40
147.0
 40
148.0
 40
148.0
 40
148.0
 40
149.0
 40
149.0
 40
149.0
 40
150.0
 40
150.0
 40
150.0
 40
151.0
 40
151.0
 40
151.0
 40
152.0
 40
152.0
 40
152.0
 40
153.0
 40
153.0
 40
153.0
 40
154.0
 40
154.0
 40
154.0
 40
155.0
 40
155.0
 40
155.0
 40
156.0
 40
156.0
 40
156.0
 40
157.0
 40
157.0
 40
157.0
 40
158.0
 40
158.0
 40
158.0
 40
159.0
 40
159.0
 40
159.0
 40
160.0
 40
160.0
 40
160.0
 40
161.0
 40
161.0
 40
161.0
 40
162.0
 40
162.0
 40
162.0
 40
163.0
 40
163.0
 40
163.0
 40
164.0
 40
164.0
 40
164.0
 40
164.0
 10
334.2939791373466
 20
-498.937503944276
 10
334.7594115374039
 20
-498.6283066244749
 10
335.2246716826869
 20
-498.3189370498994
 10
336.008947669904
 20
-497.7978663577554
 10
333.6841972364575
 20
-497.1458820371719
 10
331.6779458806222
 20
-496.5832979444306
 10
329.4668835981889
 20
-495.9633530118599
 10
329.8768499609336
 20
-495.5974838713263
 10
330.1441893705889
 20
-495.3589110089728
 10
330.6668103557014
 20
-494.8926173350442
 10
330.4361612129639
 20
-494.7906425086808
 10
330.2329005793342
 20
-494.6473265364945
 10
330.0120699587296
 20
-494.6114975434479
 10
327.2950954042873
 20
-494.1700085570131
 10
325.4874538031768
 20
-492.3923392866242
 10
323.8276067983834
 20
-490.4076197775717
 10
323.2982678770747
 20
-489.7745834821571
 10
321.8940469572869
 20
-489.5988836124093
 10
322.6486951233309
 20
-488.2430662841892
 10
322.6833183329576
 20
-488.1807100559062
 10
322.4853975973301
 20
-487.9216388754155
 10
322.3456989754032
 20
-487.839301093318
 10
320.4428004841254
 20
-486.7163722199008
 10
319.9976941474312
 20
-484.5621540129741
 10
318.896469375571
 20
-482.8855982950772
 10
317.8860228697473
 20
-481.3471909061389
 10
317.1792615309483
 20
-479.6091402338304
 10
316.3228107933152
 20
-477.9279336370284
 10
316.5191812359744
 20
-477.9279336370284
 10
316.8158039572544
 20
-477.9279336370284
 10
317.2822698859572
 20
-477.9279336370284
 10
316.8034016135075
 20
-476.9600340604475
 10
316.186212757325
 20
-476.1247706600487
 10
315.9931151553768
 20
-475.2009683056789
 10
315.8187933238231
 20
-474.3665661791514
 10
316.1080090898098
 20
-473.4350123599399
 10
316.192758438747
 20
-472.5463499795197
 10
316.3691473275917
 20
-472.5031140311798
 10
316.5455362164366
 20
-472.4598780828399
 10
316.7219251052813
 20
-472.4164698797258
 10
316.234788603667
 20
-472.0349255547343
 10
315.6444714922695
 20
-471.7300346042898
 10
315.2882486190946
 20
-471.2509940770657
 10
314.8944742051306
 20
-470.7216551557571
 10
313.5834431182187
 20
-470.1275484393258
 10
315.1125487493469
 20
-469.3377602993323
 10
315.2396727727526
 20
-469.2721312303382
 10
315.2257201360374
 20
-468.8101439257662
 10
315.1790390922122
 20
-468.5498669618556
 10
314.7561536213978
 20
-466.1954887072359
 10
314.0313055313012
 20
-463.8405936882933
 10
315.4868583738192
 20
-461.5525335217646
 10
315.5984794675414
 20
-461.3770059067912
 10
315.3013399819386
 20
-460.9417180922298
 10
315.2052218179001
 20
-460.6599092815364
 10
315.8702975013276
 20
-460.5413979968438
 10
316.5500148405674
 20
-460.4203028905373
 10
317.4698553351291
 20
-460.2564886002137
 10
315.1072088513448
 20
-458.6019814934224
 10
315.2269259194572
 20
-458.6214462829141
 10
315.6851236189954
 20
-455.7900945583615
 10
316.3531276335854
 20
-451.662697912258
 10
318.5536823747887
 20
-448.226731930044
 10
320.3904350327496
 20
-444.6162718615022
 10
320.8277899046021
 20
-443.7565482831581
 10
321.2205307899206
 20
-442.8739148198371
 10
321.7848374304045
 20
-441.6829453105862
 10
322.6865911736687
 20
-444.0319836672038
 10
321.388134685278
 20
-445.6766722518621
 10
321.0620563975991
 20
-447.6500229458132
 10
322.1441608895161
 20
-446.8421480545221
 10
323.2262653814331
 20
-446.0344454180053
 10
324.5410860733786
 20
-445.0531099690319
 10
324.3915689293188
 20
-445.6863185192208
 10
324.3085421281243
 20
-446.037546003942
 10
324.1871025122692
 20
-446.5512097407928
 10
325.5293117133226
 20
-445.826878415019
 10
326.7466362030356
 20
-445.1700709607561
 10
327.9637884379744
 20
-444.5132635064932
 10
328.0602511115613
 20
-444.6913749430806
 10
328.1565415303741
 20
-444.8696586344423
 10
328.2530042039611
 20
-445.0477700710297
 10
327.817199625077
 20
-445.3383638752106
 10
327.3813950461928
 20
-445.6291299341656
 10
326.9455904673088
 20
-445.9197237383465
 10
327.0036403262352
 20
-446.04150786375
 10
327.0615179303874
 20
-446.1632919891537
 10
327.1193955345396
 20
-446.2850761145572
 10
328.4054496791834
 20
-445.7679672822212
 10
329.6913315690529
 20
-445.2510307046595
 10
330.9773857136967
 20
-444.7339218723235
 10
331.0294066555239
 20
-444.8352076795898
 10
331.0814275973512
 20
-444.9364934868562
 10
331.1336207939527
 20
-445.0376070393482
 10
330.8576686455842
 20
-445.2462075709801
 10
330.5817164972157
 20
-445.4546358478378
 10
330.3057643488472
 20
-445.6630641246954
 10
330.3061088583957
 20
-445.7975951033944
 10
330.3066256227185
 20
-445.9319538273191
 10
330.3071423870413
 20
-446.0664848060181
 10
331.4326550820724
 20
-446.1171277096513
 10
332.5579955223293
 20
-446.1677706132845
 10
333.8645479851103
 20
-446.2266817460822
 10
333.5376084235601
 20
-446.515897512069
 10
333.361047279941
 20
-446.6721325923251
 10
332.9416069046118
 20
-447.0433416308607
 10
334.1120780957255
 20
-447.2576265700433
 10
335.0827337486946
 20
-447.4355657518564
 10
336.3274467475154
 20
-447.66363107298
 10
335.7369573813435
 20
-448.0851385056002
 10
335.4003715524346
 20
-448.3252616609222
 10
334.7320230282962
 20
-448.802235130855
 10
335.9464191868468
 20
-449.2440686268383
 10
336.8784897703811
 20
-449.5830660225869
 10
337.8107326086897
 20
-449.9220634183355
 10
337.921836938089
 20
-450.0607285116168
 10
338.032769012714
 20
-450.1992213501238
 10
338.1438733421134
 20
-450.3377141886309
 10
337.7626735266705
 20
-450.429698238087
 10
337.3814737112276
 20
-450.5216822875432
 10
336.6895262830151
 20
-450.6885971638036
 10
337.5535562307158
 20
-451.2513535113191
 10
338.0127874588996
 20
-451.5503877994388
 10
338.8163559808341
 20
-452.0736978036483
 10
338.5050916037418
 20
-450.3595905449622
 10
340.1881930030606
 20
-449.3913464588327
 10
339.3992661369384
 20
-447.802123911487
 10
339.2263223435788
 20
-447.453652503154
 10
339.6829697501487
 20
-446.8237167936761
 10
339.7689248825057
 20
-446.3100530568253
 10
340.0564181007498
 20
-444.5912949192341
 10
340.3129054596267
 20
-442.8671968836409
 10
340.5635361561786
 20
-441.1425820837248
 10
340.586790550704
 20
-440.9816961245636
 10
340.4848157243406
 20
-440.8023789045563
 10
340.4396849734838
 20
-440.6318466780365
 10
339.9044893898503
 20
-438.6180161121337
 10
337.201984236446
 20
-436.3344345697358
 10
335.2737642933517
 20
-436.4674152554665
 10
335.649968720341
 20
-436.9728107631527
 10
335.9569267280768
 20
-437.3855332022856
 10
336.3763671034059
 20
-437.9493230784467
 10
335.5571233970135
 20
-438.0728297515929
 10
334.8333088355625
 20
-438.1820392784753
 10
333.9250094108764
 20
-438.3191540787883
 10
334.0938190896537
 20
-438.6324855131718
 10
334.2223211512535
 20
-438.8710583755253
 10
334.3816568174462
 20
-439.1669920777082
 10
333.2323729635669
 20
-440.1142210813777
 10
331.9649223345435
 20
-441.0225205060638
 10
330.8888467597257
 20
-442.1185776346961
 10
330.5057521417659
 20
-442.5089069531749
 10
330.5870563952178
 20
-443.3551946591265
 10
330.4232421048942
 20
-444.15549034035
 10
329.8677204578977
 20
-443.9465452991697
 10
329.220903780542
 20
-443.7491413278648
 10
328.6147392299123
 20
-443.4649209503317
 10
327.6246187874515
 20
-443.0008665884686
 10
326.77712529808
 20
-442.9019923480419
 10
325.6986381564226
 20
-443.4976493574416
 10
324.2558321672
 20
-444.2946721979541
 10
323.5683633631184
 20
-443.7031493031367
 10
323.6536294763783
 20
-442.1020411763669
 10
323.6732665206442
 20
-441.7339327237679
 10
323.4522636452654
 20
-441.3529051630993
 10
323.3700981179422
 20
-441.0733356644712
 10
324.111482666368
 20
-441.617833005915
 10
324.8809447429985
 20
-442.182828665496
 10
325.6502345648548
 20
-442.747824325077
 10
325.8114650335645
 20
-442.5485255512552
 10
325.9726955022742
 20
-442.3492267774336
 10
326.1340982257582
 20
-442.1499280036118
 10
325.5839164767638
 20
-441.6596909160608
 10
325.0337347277693
 20
-441.169626083284
 10
324.2480807023582
 20
-440.4697549354555
 10
324.90161531591
 20
-439.9249130844632
 10
325.5298284776453
 20
-439.3821382907621
 10
326.1785399575179
 20
-438.8648572036519
 10
327.2728745384075
 20
-437.9923867720124
 10
328.8565849329768
 20
-437.6346136058692
 10
329.1263359094719
 20
-435.8931178380753
 10
329.1712944055544
 20
-435.6026962886688
 10
329.7066622439622
 20
-435.3617118594756
 10
330.0468654231307
 20
-435.1477714298416
 10
332.8363592375375
 20
-433.3933565539781
 10
335.6332600072375
 20
-431.6506550027644
 10
338.6461682638628
 20
-429.7680825748496
 10
338.0377644011676
 20
-430.6353853632613
 10
337.5311631100616
 20
-431.3578218865182
 10
336.8261243190053
 20
-432.3629284943398
 10
337.8682657032934
 20
-432.7949434681902
 10
338.9250487433937
 20
-433.1012124568289
 10
339.8393770851791
 20
-433.6463988173697
 10
340.9054618830896
 20
-434.2820189343983
 10
342.6874375228351
 20
-435.1300291880925
 10
342.6843369368984
 20
-435.8798542204572
 10
342.6752074338625
 20
-438.0869546430824
 10
344.9978908100179
 20
-438.2695447038007
 10
345.4622896814296
 20
-439.8515325506274
 10
345.654181499958
 20
-440.5054116737278
 10
345.7056856774625
 20
-441.200459687877
 10
345.5310193363603
 20
-441.989903318322
 10
345.2299179909495
 20
-441.5833820510625
 10
344.9286443907644
 20
-441.1770330385773
 10
344.5491671230641
 20
-440.6649195946949
 10
344.4213540805613
 20
-442.4985716667191
 10
344.3069769104511
 20
-444.1411931940863
 10
344.1550481995515
 20
-446.3221108910237
 10
344.9532768234839
 20
-445.2591266790498
 10
345.5284355147464
 20
-444.4934542074531
 10
346.1034219512346
 20
-443.7277817358563
 10
346.1435573136378
 20
-443.7847980661372
 10
346.1836926760409
 20
-443.841814396418
 10
346.2238280384441
 20
-443.8990029814732
 10
346.8849418620635
 20
-443.3283229143415
 10
347.5453666665859
 20
-442.7569538281128
 10
348.2078585283994
 20
-442.1879963087239
 10
348.3740843855628
 20
-442.0451971008603
 10
348.5301472110446
 20
-441.8217826586418
 10
348.7196274627333
 20
-441.7852646464981
 10
351.4865559017117
 20
-441.2543754322211
 10
353.3358831581938
 20
-439.4145221883235
 10
354.4545056622545
 20
-437.0792642136469
 10
354.8779078973917
 20
-436.1949082025832
 10
354.1048284705016
 20
-434.6766546222336
 10
353.7210448334448
 20
-433.4980874567296
 10
353.5804849376466
 20
-433.0662447376536
 10
352.9889620428291
 20
-432.7809908314749
 10
352.2114039918083
 20
-432.0709566519649
 10
352.5442002156834
 20
-432.9473889434125
 10
352.7019855889079
 20
-433.3637287328049
 10
352.938319139196
 20
-433.985912977441
 10
351.8427787748865
 20
-433.5211695964808
 10
350.9026122169619
 20
-433.1223997940631
 10
349.5130329529864
 20
-432.5331162113112
 10
349.9820827033031
 20
-433.3234211156275
 10
350.2158324319773
 20
-433.7171955295915
 10
350.4302896259341
 20
-434.0785860459943
 10
350.0718274406939
 20
-434.2401610242525
 10
349.7066473192574
 20
-434.4048365884474
 10
349.3414671978209
 20
-434.5693398978681
 10
349.3988280376503
 20
-434.6482325844803
 10
349.4560166227055
 20
-434.7269530163183
 10
349.5132052077606
 20
-434.8056734481563
 10
347.6239148436496
 20
-434.9625975475093
 10
345.7344522247643
 20
-435.1193493920882
 10
343.7030516718867
 20
-435.2879868160912
 10
344.1276596904438
 20
-434.4046643336732
 10
344.1784748488512
 20
-433.5461465387489
 10
345.5274019861008
 20
-433.4098930123073
 10
346.5704046442602
 20
-433.3044730904586
 10
347.5817124239553
 20
-432.578246962168
 10
348.5149887909095
 20
-431.9834512266396
 10
348.6789753360073
 20
-431.8790648334365
 10
348.4653794159219
 20
-430.6739704326961
 10
348.2934691512079
 20
-430.6395194778436
 10
347.5810234048582
 20
-430.4968925247543
 10
346.6863321073388
 20
-430.3616725269582
 10
346.0987710723295
 20
-430.6746594517932
 10
344.5775891608174
 20
-431.4849459099239
 10
343.3726670148513
 20
-431.1225218648756
 10
341.7495102769759
 20
-429.8583440765632
 10
344.0723659079055
 20
-429.5022934581626
 10
346.2780882923367
 20
-429.6809216590729
 10
347.8976276799527
 20
-428.7917425143299
 10
350.1891329419666
 20
-427.5337658978909
 10
352.0164115873432
 20
-429.6008231890408
 10
354.2081813350591
 20
-428.9028468437292
 10
356.0981607182671
 20
-428.3008164076817
 10
358.2668483262319
 20
-428.5743569892106
 10
360.3122015158248
 20
-428.4608410929716
 10
360.3494085470654
 20
-428.617248428002
 10
360.3862710687576
 20
-428.773483508258
 10
360.4231335904498
 20
-428.9298908432884
 10
358.5662271239001
 20
-429.3203924165414
 10
356.7093206573505
 20
-429.7108939897945
 10
354.5075601327273
 20
-430.1740870777863
 10
355.2341307705665
 20
-430.4710543086149
 10
355.7498615647084
 20
-430.568206001299
 10
356.1136636479508
 20
-430.8567327481886
 10
356.6948512563124
 20
-431.3176865241151
 10
358.460462692503
 20
-431.0181354716726
 10
357.4052299453709
 20
-432.6929686418268
 10
357.3470078316702
 20
-432.7858139651543
 10
357.9233723063525
 20
-433.2500405817917
 10
358.1686631049023
 20
-433.5692286785001
 10
358.6165255179848
 20
-434.1519665798301
 10
359.0375161862823
 20
-434.7555473088458
 10
359.7248127355896
 20
-435.7022595481925
 10
358.9355413599189
 20
-435.5625609262656
 10
358.6103243461113
 20
-435.5050278316619
 10
358.2451442246748
 20
-435.4406045460878
 10
358.3846705918274
 20
-436.8120970587657
 10
358.5138616725243
 20
-438.080753471209
 10
358.6909395804662
 20
-439.82173247468
 10
358.1411023410203
 20
-439.2439899618036
 10
357.9126925103482
 20
-439.0042113160302
 10
357.5468233698147
 20
-438.6199109146506
 10
357.2853406224842
 20
-439.7312987181922
 10
357.0538302058754
 20
-440.7159070078766
 10
356.7706433569879
 20
-441.9203123895199
 10
356.4647188778977
 20
-441.4664210593383
 10
356.303488409188
 20
-441.2269869231134
 10
356.0471733050854
 20
-440.8463038719933
 10
355.586219529159
 20
-441.9919703756132
 10
355.1838323764819
 20
-442.9913925758841
 10
354.7817897333532
 20
-443.9908147761551
 10
354.675336282859
 20
-443.9766898846656
 10
354.5685383228162
 20
-443.9627372479503
 10
354.4624293818705
 20
-443.9486123564608
 10
354.4093749113977
 20
-443.5708576365031
 10
354.3563204409248
 20
-443.1931029165455
 10
354.2302299461647
 20
-442.2966890712835
 10
353.3348496295483
 20
-443.6888521568729
 10
352.6730467868318
 20
-444.7180744330913
 10
351.8248642783632
 20
-446.0363402205222
 10
351.8248642783632
 20
-445.3881455049724
 10
351.8248642783632
 20
-445.0482868353525
 10
351.8248642783632
 20
-444.7082559109584
 10
351.7146212228353
 20
-444.6343586127998
 10
351.6043781673072
 20
-444.5604613146411
 10
351.4941351117793
 20
-444.4865640164825
 10
350.8140732629909
 20
-445.4794405353315
 10
350.1343559237512
 20
-446.4723170541806
 10
349.2587849061749
 20
-447.750964243531
 10
349.2587849061749
 20
-447.0278387011771
 10
349.2587849061749
 20
-446.5915173579702
 10
349.2587849061749
 20
-446.1553682695376
 10
349.0727497499714
 20
-446.074925289957
 10
348.8868868485422
 20
-445.9944823103764
 10
348.7008516923387
 20
-445.9140393307958
 10
348.2471326169313
 20
-446.7698010493319
 10
347.7935857962981
 20
-447.625562767868
 10
347.0561631076804
 20
-449.0163478152633
 10
347.0175780382456
 20
-448.7102510813988
 10
347.0286023437984
 20
-448.464271263752
 10
346.943680740087
 20
-448.2577377894113
 10
346.898377734456
 20
-448.1476669886575
 10
346.6870211264359
 20
-448.1061535880603
 10
346.4250216147826
 20
-447.9669717304562
 10
346.2276176434779
 20
-449.0792208078691
 10
346.0467501305022
 20
-450.0984523071803
 10
345.8312594078998
 20
-451.3130207205051
 10
345.5148273875797
 20
-450.9128728798933
 10
345.305710091625
 20
-450.6484618014004
 10
344.7386473747529
 20
-449.9317096856942
 10
344.7386473747529
 20
-451.6930147525281
 10
344.7386473747529
 20
-452.9335936367666
 10
344.7386473747529
 20
-454.1741725210051
 10
344.581895530174
 20
-454.1941540748196
 10
344.4253159403694
 20
-454.214135628634
 10
344.2685640957905
 20
-454.2341171824484
 10
344.7105698465481
 20
-454.7651786514997
 10
345.1527478520799
 20
-455.2960678657767
 10
345.7330741865702
 20
-455.9930106824427
 10
345.1952947813227
 20
-455.9604545301071
 10
344.8390719081479
 20
-455.9387504285501
 10
344.482160015876
 20
-455.9185966199614
 10
345.1398287440102
 20
-457.6358044645841
 10
345.450748611554
 20
-457.6916150114452
 10
346.9240436958211
 20
-456.3576740395565
 10
348.1122571286838
 20
-457.4182466846906
 10
351.1255098948575
 20
-457.658714349561
 10
352.3578205499314
 20
-456.7262992564782
 10
353.6741915348454
 20
-455.7303221516925
 10
353.5146836138783
 20
-454.4105060712932
 10
353.0251355454243
 20
-453.0539997239761
 10
352.0112439441153
 20
-450.2448688653034
 10
351.5285860666318
 20
-449.9456623224094
 10
348.1899440318762
 20
-450.3170436157194
 10
350.7603297734211
 20
-447.4968884514939
 10
353.5260524289796
 20
-445.6227565075179
 10
357.1606281659182
 20
-445.2272595458113
 10
374.4274467379904
 20
-443.3481322133817
 10
387.907416352676
 20
-457.7770533794794
 10
385.0555663099861
 20
-474.9105467562724
 10
383.0532768139589
 20
-486.9404756812163
 10
375.5181639686205
 20
-494.361555865993
 10
365.0967501257397
 20
-499.3819212618733
 10
359.6025118458633
 20
-502.028271358868
 10
353.8116508447068
 20
-503.7818249608601
 10
347.5744777234362
 20
-503.346020381976
 10
347.1059447374423
 20
-503.3132919748662
 10
346.6360337132542
 20
-503.2877982682753
 10
346.1707735679712
 20
-503.227853606832
 10
346.0097153540358
 20
-503.2071830339204
 10
345.8605427195245
 20
-503.0928058638102
 10
345.5844183163817
 20
-502.9646483117589
 10
348.769925856818
 20
-502.4065428431484
 10
351.8410562271439
 20
-501.9066594882386
 10
354.8940998461723
 20
-501.3130695361301
 10
356.0995387564612
 20
-501.0788030431331
 10
357.2626029922816
 20
-500.6302516109536
 10
358.4477158392075
 20
-500.2888426483653
 10
360.1868000401616
 20
-499.7880980195843
 10
361.6061793800846
 20
-499.0560152289686
 10
361.6836940285027
 20
-496.8907727164892
 10
361.6974744104437
 20
-496.5099174105948
 10
362.4905353911482
 20
-496.0520642206051
 10
363.0083332425813
 20
-495.8141803773486
 10
364.4931693967239
 20
-495.1320514712691
 10
366.106852122015
 20
-494.6933185612226
 10
367.513829118191
 20
-493.8861326890285
 10
369.816530940532
 20
-492.5651108252094
 10
369.9233289005747
 20
-491.9673867585186
 10
369.0214029025364
 20
-489.97594931327
 10
370.3512097598428
 20
-488.4857732611251
 10
371.6823946553433
 20
-487.1569999324643
 10
372.8034287262436
 20
-485.6695799567077
 10
373.3670463476305
 20
-484.9216497268599
 10
373.863484607055
 20
-483.8752019732153
 10
373.8335122763333
 20
-482.9822332234385
 10
373.7797687867634
 20
-481.3852592112509
 10
372.6198051368798
 20
-480.7119152986588
 10
370.8273219559043
 20
-480.9296453333266
 10
371.1787216953998
 20
-480.3765352531698
 10
371.3985187873587
 20
-479.9781099603006
 10
371.6672362352082
 20
-479.6158581700266
 10
372.974305462312
 20
-477.8548976127412
 10
372.8585502540076
 20
-475.9957518341261
 10
372.029315770708
 20
-474.1099065655003
 10
371.6307182230645
 20
-473.2031574337826
 10
370.8548827197863
 20
-472.5465222342939
 10
369.9570908363302
 20
-473.1724960839638
 10
369.4623751246483
 20
-473.5171778872631
 10
369.1443928113598
 20
-474.5403712463823
 10
369.2301756889425
 20
-475.1942503694827
 10
369.3645344128672
 20
-476.2157211808593
 10
370.0311603892631
 20
-477.1593328342692
 10
370.2302869083105
 20
-478.1830429577112
 10
370.3367403588047
 20
-478.7302963755432
 10
371.333061973139
 20
-479.7917302945486
 10
369.7359157061771
 20
-480.0296141378051
 10
369.6766600638309
 20
-480.0385713860668
 10
369.7682996037385
 20
-480.9909680329641
 10
369.7710556801267
 20
-481.5037704959435
 10
369.7779458710972
 20
-482.6847492282872
 10
369.7731227374179
 20
-483.8660724701793
 10
369.7731227374179
 20
-485.047051202523
 10
369.5767522947586
 20
-485.0666882467889
 10
369.3796928330023
 20
-485.0861530362806
 10
369.1833223903431
 20
-485.1056178257722
 10
368.9425102159241
 20
-484.7743718948655
 10
368.7020425510537
 20
-484.4431259639587
 10
368.5942110623653
 20
-484.2946423485444
 10
368.1146537708186
 20
-485.6168699957833
 10
367.6261392310101
 20
-486.9628688018704
 10
367.1307345002312
 20
-488.3285046522234
 10
366.9192056374369
 20
-488.0671941596672
 10
366.7262802902629
 20
-487.8286212973137
 10
366.6439425081654
 20
-487.7268187257246
 10
365.9428655769171
 20
-489.3218979353953
 10
365.2352429642468
 20
-490.9329968390723
 10
364.4414929644452
 20
-492.7396049115374
 10
364.0260144489241
 20
-492.2783066260624
 10
363.7924369750241
 20
-492.0180296621518
 10
363.6759927476227
 20
-491.8888385814549
 10
362.8712184422683
 20
-493.1096081666532
 10
362.0915933339563
 20
-494.2917926824167
 10
361.3119682256443
 20
-495.4739771981801
 10
361.164173629327
 20
-495.4143770462853
 10
361.0163790330098
 20
-495.3547768943905
 10
360.8685844366926
 20
-495.2951767424957
 10
360.8393011250679
 20
-494.844558253025
 10
360.8096733038948
 20
-494.3937675087801
 10
360.8038166415699
 20
-494.3035060070665
 10
359.7582301617966
 20
-495.4181666513191
 10
358.646842358255
 20
-496.6186101731544
 10
357.4830891033376
 20
-497.7651379506456
 10
357.447949129388
 20
-497.7997611602723
 10
356.8588378014103
 20
-497.2724892962548
 10
356.5322427494086
 20
-497.0103175298273
 10
355.9417533832368
 20
-499.4809677570742
 10
352.994129686057
 20
-498.4508842069845
 10
351.8534585708908
 20
-500.167230777736
 10
350.8781520390166
 20
-499.1416258517771
 10
350.5432887578503
 20
-499.2275809841341
 10
345.1499917756917
 20
-501.7678221401831
 10
345.1499917756917
 20
-501.352343624662
 10
345.1499917756917
 20
-500.9888860509681
 10
345.1499917756917
 20
-500.5930445797129
 10
343.5323471905926
 20
-500.6901962723969
 10
341.9376124904705
 20
-500.7856254173383
 10
340.0147324453783
 20
-500.9010361160942
 10
340.3742281592641
 20
-500.2609373749348
 10
340.5476887169464
 20
-499.9519123099079
 10
340.8501681005513
 20
-499.413271630789
 10
338.6127508376559
 20
-499.413271630789
 10
336.4957396619698
 20
-499.413271630789
 10
334.3789007410581
 20
-499.413271630789
 10
334.350650958079
 20
-499.2546249836933
 10
334.3222289203257
 20
-499.0961505913718
 10
334.2939791373466
 20
-498.937503944276
 97
        0
 92
        1
 93
        1
 72
     4
 94
        3
 73
     0
 74
     1
 95
      254
 96
      250
 40
0.0
 40
0.0
 40
0.0
 40
0.0
 40
1.0
 40
1.0
 40
1.0
 40
2.0
 40
2.0
 40
2.0
 40
3.0
 40
3.0
 40
3.0
 40
4.0
 40
4.0
 40
4.0
 40
5.0
 40
5.0
 40
5.0
 40
6.0
 40
6.0
 40
6.0
 40
7.0
 40
7.0
 40
7.0
 40
8.0
 40
8.0
 40
8.0
 40
9.0
 40
9.0
 40
9.0
 40
10.0
 40
10.0
 40
10.0
 40
11.0
 40
11.0
 40
11.0
 40
12.0
 40
12.0
 40
12.0
 40
13.0
 40
13.0
 40
13.0
 40
14.0
 40
14.0
 40
14.0
 40
15.0
 40
15.0
 40
15.0
 40
16.0
 40
16.0
 40
16.0
 40
17.0
 40
17.0
 40
17.0
 40
18.0
 40
18.0
 40
18.0
 40
19.0
 40
19.0
 40
19.0
 40
20.0
 40
20.0
 40
20.0
 40
21.0
 40
21.0
 40
21.0
 40
22.0
 40
22.0
 40
22.0
 40
23.0
 40
23.0
 40
23.0
 40
24.0
 40
24.0
 40
24.0
 40
25.0
 40
25.0
 40
25.0
 40
26.0
 40
26.0
 40
26.0
 40
27.0
 40
27.0
 40
27.0
 40
28.0
 40
28.0
 40
28.0
 40
29.0
 40
29.0
 40
29.0
 40
30.0
 40
30.0
 40
30.0
 40
31.0
 40
31.0
 40
31.0
 40
32.0
 40
32.0
 40
32.0
 40
33.0
 40
33.0
 40
33.0
 40
34.0
 40
34.0
 40
34.0
 40
35.0
 40
35.0
 40
35.0
 40
36.0
 40
36.0
 40
36.0
 40
37.0
 40
37.0
 40
37.0
 40
38.0
 40
38.0
 40
38.0
 40
39.0
 40
39.0
 40
39.0
 40
40.0
 40
40.0
 40
40.0
 40
41.0
 40
41.0
 40
41.0
 40
42.0
 40
42.0
 40
42.0
 40
43.0
 40
43.0
 40
43.0
 40
44.0
 40
44.0
 40
44.0
 40
45.0
 40
45.0
 40
45.0
 40
46.0
 40
46.0
 40
46.0
 40
47.0
 40
47.0
 40
47.0
 40
48.0
 40
48.0
 40
48.0
 40
49.0
 40
49.0
 40
49.0
 40
50.0
 40
50.0
 40
50.0
 40
51.0
 40
51.0
 40
51.0
 40
52.0
 40
52.0
 40
52.0
 40
53.0
 40
53.0
 40
53.0
 40
54.0
 40
54.0
 40
54.0
 40
55.0
 40
55.0
 40
55.0
 40
56.0
 40
56.0
 40
56.0
 40
57.0
 40
57.0
 40
57.0
 40
58.0
 40
58.0
 40
58.0
 40
59.0
 40
59.0
 40
59.0
 40
60.0
 40
60.0
 40
60.0
 40
61.0
 40
61.0
 40
61.0
 40
62.0
 40
62.0
 40
62.0
 40
63.0
 40
63.0
 40
63.0
 40
64.0
 40
64.0
 40
64.0
 40
65.0
 40
65.0
 40
65.0
 40
66.0
 40
66.0
 40
66.0
 40
67.0
 40
67.0
 40
67.0
 40
68.0
 40
68.0
 40
68.0
 40
69.0
 40
69.0
 40
69.0
 40
70.0
 40
70.0
 40
70.0
 40
71.0
 40
71.0
 40
71.0
 40
72.0
 40
72.0
 40
72.0
 40
73.0
 40
73.0
 40
73.0
 40
74.0
 40
74.0
 40
74.0
 40
75.0
 40
75.0
 40
75.0
 40
76.0
 40
76.0
 40
76.0
 40
77.0
 40
77.0
 40
77.0
 40
78.0
 40
78.0
 40
78.0
 40
79.0
 40
79.0
 40
79.0
 40
80.0
 40
80.0
 40
80.0
 40
81.0
 40
81.0
 40
81.0
 40
82.0
 40
82.0
 40
82.0
 40
83.0
 40
83.0
 40
83.0
 40
83.0
 10
318.227087322787
 20
-458.1785792582853
 10
318.1886745081264
 20
-457.4008489524901
 10
318.1500894386917
 20
-456.6232909014692
 10
318.1077147642231
 20
-455.7632228135766
 10
316.568790610962
 20
-456.9571206539899
 10
316.4110052377375
 20
-458.413362515605
 10
317.6460719691996
 20
-459.3247625262279
 10
317.8545002460572
 20
-458.9187580232912
 10
318.0605169560752
 20
-458.5179211635823
 10
318.2663614113188
 20
-458.1170843038735
 10
317.8152261575254
 20
-459.3895303213505
 10
317.3639186489576
 20
-460.6619763388276
 10
316.9381048469808
 20
-461.8631088797599
 10
318.0415689309063
 20
-462.0036687755581
 10
317.2257703199991
 20
-463.0359916377133
 10
317.2018269063767
 20
-463.7444755242549
 10
317.085899443298
 20
-467.1721732773042
 10
316.3031737490492
 20
-470.6846203792907
 10
319.6810898723367
 20
-473.3013426551122
 10
321.4587591427256
 20
-474.6785195753408
 10
323.7023775774946
 20
-475.104505632092
 10
325.1989270562871
 20
-473.7933022904058
 10
326.7321668019976
 20
-472.450059560707
 10
326.6153780650475
 20
-470.8020981353377
 10
325.356367919963
 20
-468.7183321310843
 10
324.459954074701
 20
-467.2347017603615
 10
323.1726941466374
 20
-466.9094847465539
 10
321.9533025996332
 20
-467.380084789839
 10
320.8703368338449
 20
-467.7983193817483
 10
320.064528999845
 20
-468.9691350824105
 10
319.1829290651696
 20
-469.8541801125712
 10
318.9069769168011
 20
-470.1313380443596
 10
318.7826089697836
 20
-470.5592189036276
 10
318.588650093964
 20
-470.9181978531906
 10
318.0062567021825
 20
-470.0651922110428
 10
317.5561549770346
 20
-469.2211438171565
 10
317.7094617261282
 20
-468.50680326829
 10
317.9702554543616
 20
-467.2922348549652
 10
318.4539468604907
 20
-466.0551010662119
 10
319.1384873334098
 20
-465.0226059492826
 10
319.7641166735312
 20
-464.0791665506469
 10
321.0224377995187
 20
-464.5704371668435
 10
321.8873290210907
 20
-464.3751002528298
 10
323.7166747237583
 20
-463.9622055589227
 10
324.8587238771187
 20
-465.1871092587032
 10
326.3551011011369
 20
-465.369354809873
 10
326.8162271318376
 20
-465.4255098662825
 10
327.3340249832707
 20
-465.8232461400546
 10
327.6375378955212
 20
-466.2118529107908
 10
328.4493746466203
 20
-467.2517549830135
 10
329.5679971506809
 20
-473.4064180674123
 10
329.2591443404283
 20
-474.7584457905986
 10
329.2035060483415
 20
-475.0020140414057
 10
329.0372801911782
 20
-475.2204330951706
 10
328.9006821551881
 20
-475.4932846576024
 10
328.5155204799371
 20
-475.0774616325327
 10
328.235261962212
 20
-474.7748099941535
 10
328.125018906684
 20
-474.6557819451382
 10
327.390007784906
 20
-475.7234170360171
 10
326.7023667260501
 20
-476.7218057076425
 10
325.7475585123131
 20
-478.1086288952298
 10
325.6349038899455
 20
-477.1987791775753
 10
325.5958020561879
 20
-476.8820026477066
 10
325.4707450900733
 20
-475.8719006514314
 10
323.8825560713731
 20
-479.301148697449
 10
321.6759724130706
 20
-476.9040512588122
 10
319.4840304105804
 20
-477.15330391717
 10
319.9239691040468
 20
-478.1706406139643
 10
320.2121513413879
 20
-479.0326035043738
 10
320.6495062132404
 20
-479.811022829266
 10
321.8063692771873
 20
-481.8699841460256
 10
322.8838228901992
 20
-483.9971583533931
 10
324.2635836320417
 20
-485.9010903733164
 10
325.6679768066039
 20
-487.8389565837695
 10
327.1677991261074
 20
-489.8415905893452
 10
329.0422755796318
 20
-491.2690659036584
 10
331.109505125556
 20
-492.8436467951919
 10
333.6008259257144
 20
-493.907492281037
 10
336.0032632623534
 20
-494.9785724674012
 10
337.4738022702323
 20
-495.6343463930185
 10
339.1055717468208
 20
-496.1547280660655
 10
340.6980671348776
 20
-496.2673826884332
 10
345.2268174050128
 20
-496.5879488233357
 10
349.594164951664
 20
-495.7089327102742
 10
353.7348252153857
 20
-493.8258435180366
 10
359.2938312903849
 20
-491.2974879414118
 10
362.2228514719443
 20
-487.3966063234633
 10
361.1100856302086
 20
-480.27955581526
 10
360.9998425746806
 20
-479.5752060433007
 10
360.2095376703643
 20
-478.9771374670613
 10
359.7348035124969
 20
-478.3296317706086
 10
359.2593803355324
 20
-478.9909178490023
 10
358.4883679659335
 20
-479.6032835715055
 10
358.3684786430468
 20
-480.3236530374712
 10
358.1014837429399
 20
-481.9335461577284
 10
358.2520344156454
 20
-483.6088960922054
 10
358.0494628011127
 20
-485.2346366516948
 10
357.9316405355171
 20
-486.1775592860077
 10
357.4582844158438
 20
-487.0760401885609
 10
357.1447807266861
 20
-487.9945026449285
 10
356.5439560740585
 20
-485.6049844163592
 10
356.5635931183244
 20
-485.7718992926195
 10
354.2254068124853
 20
-486.0457843836969
 10
351.3332491526181
 20
-486.3846095246712
 10
348.3866589840839
 20
-486.684332831888
 10
345.4969128910564
 20
-486.494680325425
 10
342.6257703136491
 20
-486.3064058571561
 10
342.6438570649467
 20
-486.0309704731104
 10
342.1875541679253
 20
-488.8545707328211
 10
341.8942042873563
 20
-490.6687580153537
 10
341.0961479181982
 20
-491.3882662074481
 10
339.5358641729285
 20
-491.2449502352617
 10
340.5280516726805
 20
-487.6567110325997
 10
339.2225327385451
 20
-485.0003701586978
 10
336.1539861898331
 20
-484.7447440736923
 10
334.7969630781931
 20
-484.6317449417761
 10
333.3953259800193
 20
-485.0549749221391
 10
332.0314126774088
 20
-485.2325695944037
 10
330.9102063517342
 20
-483.2940143648536
 10
333.5236557868448
 20
-483.100055489034
 10
333.6042710211996
 20
-481.6438136274189
 10
333.1443507739188
 20
-481.5609590809987
 10
332.7180202076191
 20
-481.4843057064518
 10
332.2811821000894
 20
-481.4057575293882
 10
332.1215019243481
 20
-479.6470362841681
 10
333.5706813402185
 20
-479.6940618375418
 10
334.2869166916019
 20
-479.4372299691164
 10
334.491038599103
 20
-478.8081555335098
 10
334.5163600509196
 20
-478.221628027146
 10
334.7492485057224
 20
-478.1222370223965
 10
335.1831582820897
 20
-477.9374076496129
 10
335.8995658882474
 20
-477.8226859699541
 10
336.2108302653397
 20
-478.0583305011452
 10
337.0340358315401
 20
-478.6815482744269
 10
337.7159924828453
 20
-479.4961411019142
 10
338.4306775412604
 20
-480.2566459302831
 10
339.1081555684348
 20
-480.9777044153459
 10
339.6347384133552
 20
-481.9152871516566
 10
340.4374456614185
 20
-482.4311902005728
 10
344.0355033862133
 20
-484.7442273093695
 10
347.805988140045
 20
-484.485328383653
 10
351.5340982194082
 20
-482.7684650485787
 10
351.959912021385
 20
-482.5722668606938
 10
352.4332681410584
 20
-481.385948230348
 10
352.2410318129814
 20
-481.1139579417875
 10
350.6914278637161
 20
-478.9220159392973
 10
350.0389267788098
 20
-476.5066594945886
 10
350.2907632587815
 20
-473.5585190330861
 10
347.0143051975346
 20
-474.8345824008226
 10
347.3021429253272
 20
-479.4229328228526
 10
343.5390651267888
 20
-479.8306598735319
 10
344.7448485466263
 20
-478.0505790363034
 10
344.692138585702
 20
-477.8097668618844
 10
342.8576252398065
 20
-477.0682100586844
 10
339.5475774975784
 20
-475.7304794817618
 10
336.8883082925141
 20
-473.5931422427129
 10
334.8262463898178
 20
-470.6897880225185
 10
334.5837116676562
 20
-470.3482068051561
 10
334.2772704242432
 20
-470.0519285934245
 10
333.9103677550641
 20
-469.6312824346755
 10
333.053917017431
 20
-472.9354735145786
 10
332.1314927012554
 20
-473.6985621645615
 10
330.7494926473474
 20
-473.0491616655919
 10
330.6842080879019
 20
-470.8601479942641
 10
331.8383150754606
 20
-468.8364989062284
 10
330.8256292575714
 20
-466.8924315239019
 10
329.5366467817652
 20
-464.4179916916212
 10
327.4802692866195
 20
-462.7238659867496
 10
324.2215534671217
 20
-462.3037365923234
 10
325.441634033223
 20
-461.4665783894077
 10
326.6617145993242
 20
-460.629420186492
 10
327.9510415846789
 20
-459.7447196658798
 10
327.5345295405122
 20
-459.5011514150726
 10
327.1634927567508
 20
-459.2842826542762
 10
326.6627481279697
 20
-458.9916217928042
 10
328.3294853237336
 20
-457.5248723899591
 10
329.7076957726078
 20
-458.8429659226157
 10
331.306392332538
 20
-459.2282998526409
 10
331.1234577622712
 20
-458.7015447529462
 10
330.992716388606
 20
-458.3255125807311
 10
330.862147269715
 20
-457.9493081537419
 10
330.9613660196902
 20
-457.8173609966568
 10
331.0605847696654
 20
-457.6852415847974
 10
331.1598035196406
 20
-457.5531221729381
 10
331.6982719439852
 20
-457.9005600526256
 10
332.5192381981202
 20
-458.1318982144601
 10
332.719225991039
 20
-458.6183456969774
 10
333.1987832825857
 20
-459.7843382639602
 10
333.5439818502078
 20
-461.0555784980174
 10
333.6619763705776
 20
-462.3106267832939
 10
334.0018350401975
 20
-465.9260822402894
 10
337.8515569901899
 20
-471.0535901057609
 10
341.1157849624641
 20
-472.0035751858186
 10
341.1016600709746
 20
-471.8244302205856
 10
341.1541977771246
 20
-471.5987764663017
 10
341.0663478422508
 20
-471.5066201620713
 10
339.2158148023489
 20
-469.5610024867764
 10
338.4355006749398
 20
-467.1344494817407
 10
337.7197820878791
 20
-464.6155679177003
 10
337.2584838024042
 20
-462.9920666702763
 10
338.0761772158282
 20
-460.5739541491794
 10
335.0930690351503
 20
-460.2940401410029
 10
336.0735432102525
 20
-459.0333074481757
 10
336.0104979628724
 20
-458.2088960985554
 10
335.1338934166506
 20
-457.1064655432755
 10
334.3375595952351
 20
-456.1051485404876
 10
333.7038342807234
 20
-454.7543266007212
 10
333.2356458042779
 20
-453.662920350994
 10
332.3697210540603
 20
-451.6437498870891
 10
330.5855061022495
 20
-451.3834729231784
 10
329.2699963912068
 20
-450.2898273613859
 10
327.6433945578461
 20
-448.9377996381996
 10
326.0157591958398
 20
-450.1113714152499
 10
324.4056938208083
 20
-450.2529648396937
 10
323.8732543135629
 20
-450.2998181382931
 10
323.387668104917
 20
-450.8796277084606
 10
322.6676431484998
 20
-451.356945687942
 10
323.3091199278533
 20
-451.411378196609
 10
323.6004027511312
 20
-451.4361828841028
 10
324.190892117303
 20
-451.4863090234132
 10
322.9954439839213
 20
-452.3634303339578
 10
322.0525213496084
 20
-453.055205507396
 10
321.1095987152955
 20
-453.7469806808341
 10
321.1617919118971
 20
-453.8107149473112
 10
321.2139851084986
 20
-453.8744492137884
 10
321.2663505598744
 20
-453.9381834802655
 10
321.5753756249013
 20
-453.842065316227
 10
321.8845729447025
 20
-453.7457748974143
 10
322.4562865404797
 20
-453.5678357156011
 10
322.0576889928363
 20
-454.2644340227187
 10
321.7881102711155
 20
-454.7358953398751
 10
321.4766736392489
 20
-455.2800481717703
 10
321.9450343704686
 20
-455.2307833063312
 10
322.2578490405293
 20
-455.1978826444471
 10
322.5704914558157
 20
-455.1649819825629
 10
320.6384819076876
 20
-456.6043428763003
 10
321.0789373654768
 20
-458.2540268494122
 10
322.2218477927084
 20
-460.1402166275865
 10
321.071185900635
 20
-460.0561562977464
 10
320.2822590345128
 20
-459.9984509483685
 10
319.7355223810036
 20
-459.9584878407396
 10
319.5469034031862
 20
-458.5155095967427
 10
319.3806775460229
 20
-457.2434080888142
 10
319.2144516888596
 20
-455.9713065808857
 10
319.0961126589413
 20
-455.9625215873983
 10
318.9777736290229
 20
-455.9537365939109
 10
318.8594345991046
 20
-455.9449516004235
 10
318.6496282840529
 20
-456.6875419322691
 10
318.4398219690012
 20
-457.4301322641147
 10
318.227087322787
 20
-458.1785792582853
 97
        0
 92
        1
 93
        1
 72
     4
 94
        3
 73
     0
 74
     1
 95
       20
 96
       16
 40
0.0
 40
0.0
 40
0.0
 40
0.0
 40
1.0
 40
1.0
 40
1.0
 40
2.0
 40
2.0
 40
2.0
 40
3.0
 40
3.0
 40
3.0
 40
4.0
 40
4.0
 40
4.0
 40
5.0
 40
5.0
 40
5.0
 40
5.0
 10
326.5096136336504
 20
-442.0756861959047
 10
326.7016777069531
 20
-442.1809338629791
 10
326.8937417802558
 20
-442.2861815300535
 10
327.0858058535584
 20
-442.3914291971279
 10
328.3263847377969
 20
-441.0772975242793
 10
329.5669636220354
 20
-439.7631658514308
 10
331.040603215851
 20
-438.2021930870641
 10
330.4337496461242
 20
-438.2021930870641
 10
330.1963825671905
 20
-438.1327744130363
 10
330.1242078167745
 20
-438.212700628294
 10
329.3428601607199
 20
-439.0782808689631
 10
328.8274738761265
 20
-440.2156791434183
 10
327.3226561681694
 20
-440.2117172836103
 10
327.0532497012228
 20
-440.2110282645132
 10
326.7807426483395
 20
-441.4233573657726
 10
326.5096136336504
 20
-442.0756861959047
 97
        0
 75
     0
 76
     1
 98
        0
  0
SPLINE
  5
40
330
1F
100
AcDbEntity
  8
Layer 1
370
     0
100
AcDbSpline
210
0.0
220
0.0
230
1.0
 70
    11
 71
     3
 72
   128
 73
   124
 74
     0
 42
0.0000000001
 43
0.0000000001
 40
0.0
 40
0.0
 40
0.0
 40
0.0
 40
1.0
 40
1.0
 40
1.0
 40
2.0
 40
2.0
 40
2.0
 40
3.0
 40
3.0
 40
3.0
 40
4.0
 40
4.0
 40
4.0
 40
5.0
 40
5.0
 40
5.0
 40
6.0
 40
6.0
 40
6.0
 40
7.0
 40
7.0
 40
7.0
 40
8.0
 40
8.0
 40
8.0
 40
9.0
 40
9.0
 40
9.0
 40
10.0
 40
10.0
 40
10.0
 40
11.0
 40
11.0
 40
11.0
 40
12.0
 40
12.0
 40
12.0
 40
13.0
 40
13.0
 40
13.0
 40
14.0
 40
14.0
 40
14.0
 40
15.0
 40
15.0
 40
15.0
 40
16.0
 40
16.0
 40
16.0
 40
17.0
 40
17.0
 40
17.0
 40
18.0
 40
18.0
 40
18.0
 40
19.0
 40
19.0
 40
19.0
 40
20.0
 40
20.0
 40
20.0
 40
21.0
 40
21.0
 40
21.0
 40
22.0
 40
22.0
 40
22.0
 40
23.0
 40
23.0
 40
23.0
 40
24.0
 40
24.0
 40
24.0
 40
25.0
 40
25.0
 40
25.0
 40
26.0
 40
26.0
 40
26.0
 40
27.0
 40
27.0
 40
27.0
 40
28.0
 40
28.0
 40
28.0
 40
29.0
 40
29.0
 40
29.0
 40
30.0
 40
30.0
 40
30.0
 40
31.0
 40
31.0
 40
31.0
 40
32.0
 40
32.0
 40
32.0
 40
33.0
 40
33.0
 40
33.0
 40
34.0
 40
34.0
 40
34.0
 40
35.0
 40
35.0
 40
35.0
 40
36.0
 40
36.0
 40
36.0
 40
37.0
 40
37.0
 40
37.0
 40
38.0
 40
38.0
 40
38.0
 40
39.0
 40
39.0
 40
39.0
 40
40.0
 40
40.0
 40
40.0
 40
41.0
 40
41.0
 40
41.0
 40
41.0
 10
368.0130234540037
 20
-437.0277600361424
 30
0.0
 10
368.7265027289989
 20
-437.6935247386669
 30
0.0
 10
369.4403265135427
 20
-438.3592894411914
 30
0.0
 10
370.5089951330672
 20
-439.3559555650742
 30
0.0
 10
369.630840293877
 20
-440.7386446380792
 30
0.0
 10
368.6107475206945
 20
-442.3452649176255
 30
0.0
 10
367.8555825903278
 20
-443.5341673695852
 30
0.0
 10
366.218473215737
 20
-443.82734499538
 30
0.0
 10
365.0275037064862
 20
-444.047831106436
 30
0.0
 10
363.8330891017501
 20
-444.2457518420636
 30
0.0
 10
363.6715141234919
 20
-444.2724513320742
 30
0.0
 10
363.487890534128
 20
-444.196831486173
 30
0.0
 10
363.3204588935449
 20
-444.1487724041538
 30
0.0
 10
360.2619031217401
 20
-443.2735458961261
 30
0.0
 10
358.7353813122259
 20
-439.3407971449391
 30
0.0
 10
360.31564661131
 20
-436.5726629225409
 30
0.0
 10
360.5926322883241
 20
-436.0879379877662
 30
0.0
 10
360.5251084168132
 20
-435.406670355558
 30
0.0
 10
360.6339734341471
 20
-434.7042153861156
 30
0.0
 10
361.4525281214424
 20
-434.540401095792
 30
0.0
 10
362.3661674441307
 20
-434.3576387802995
 30
0.0
 10
363.5113171834278
 20
-434.1283676757561
 30
0.0
 10
361.8638725223813
 20
-432.8874442819691
 30
0.0
 10
359.3827147539043
 20
-433.1211940106433
 30
0.0
 10
358.605501212432
 20
-430.8221095385618
 30
0.0
 10
361.5662162724557
 20
-429.7238130978642
 30
0.0
 10
363.9343749090164
 20
-431.120110298036
 30
0.0
 10
366.2804849344716
 20
-432.4425102000491
 30
0.0
 10
366.5788302034942
 20
-432.6106308597293
 30
0.0
 10
366.576074127106
 20
-433.3120523005261
 30
0.0
 10
366.8020723909384
 20
-434.0629108615364
 30
0.0
 10
366.9825953943655
 20
-434.154550401444
 30
0.0
 10
367.50004873625
 20
-434.4175834417429
 30
0.0
 10
368.1132757326245
 20
-434.7290200736094
 30
0.0
 10
368.3027559843132
 20
-434.3473034938438
 30
0.0
 10
368.4626084148288
 20
-434.0260483398442
 30
0.0
 10
368.6806829590451
 20
-433.5867986654749
 30
0.0
 10
369.7066323945525
 20
-434.4425603840109
 30
0.0
 10
370.6426648378949
 20
-435.223563530517
 30
0.0
 10
371.6689587829508
 20
-436.0794975038274
 30
0.0
 10
371.9424993644797
 20
-435.695369357222
 30
0.0
 10
372.1640190041812
 20
-435.3844494896782
 30
0.0
 10
372.4940591516682
 20
-434.9207396373636
 30
0.0
 10
373.4752223458673
 20
-436.360789550198
 30
0.0
 10
374.421934585214
 20
-437.7505410689478
 30
0.0
 10
375.462697931308
 20
-439.2784409166561
 30
0.0
 10
375.7810247541451
 20
-438.828166936734
 30
0.0
 10
376.000821846104
 20
-438.5172470691901
 30
0.0
 10
376.3198376880381
 20
-438.0659395606224
 30
0.0
 10
376.5861435690479
 20
-438.6543618695031
 30
0.0
 10
376.7363497322048
 20
-439.2257309557318
 30
0.0
 10
377.0657008605947
 20
-439.6618800441644
 30
0.0
 10
377.6665255132223
 20
-440.4580416108057
 30
0.0
 10
377.0050671800543
 20
-442.3204602301317
 30
0.0
 10
378.9832410076847
 20
-441.9909368469675
 30
0.0
 10
379.0507648791956
 20
-441.9795680318662
 30
0.0
 10
379.2181965197788
 20
-442.251730575201
 30
0.0
 10
379.2533364937283
 20
-442.4107217318452
 30
0.0
 10
379.8176431342123
 20
-444.9600923909301
 30
0.0
 10
382.4366047220992
 20
-446.6008191157804
 30
0.0
 10
382.3587455641326
 20
-449.4326876046557
 30
0.0
 10
382.3573675259385
 20
-449.4826414891918
 30
0.0
 10
382.4138670918966
 20
-449.5343179214706
 30
0.0
 10
382.4627874477871
 20
-449.6185505060849
 30
0.0
 10
382.7497639017084
 20
-449.5591226089644
 30
0.0
 10
383.0484536802796
 20
-449.4974553997785
 30
0.0
 10
383.3516220829816
 20
-449.4347546619469
 30
0.0
 10
383.5052733416237
 20
-450.4279756903444
 30
0.0
 10
383.6465222565189
 20
-451.3419595225812
 30
0.0
 10
383.7994844960641
 20
-452.332079965042
 30
0.0
 10
384.1798230376356
 20
-452.1477673565811
 30
0.0
 10
384.4258028552825
 20
-452.0283947980172
 30
0.0
 10
384.7902939576219
 20
-451.8516613996239
 30
0.0
 10
384.8984699558587
 20
-453.1570080789851
 30
0.0
 10
385.0032008586103
 20
-454.4173962622637
 30
0.0
 10
385.1217121433029
 20
-455.8471108886424
 30
0.0
 10
385.6753389877826
 20
-455.6166340006792
 30
0.0
 10
386.0574000770968
 20
-455.4576428440349
 30
0.0
 10
386.7567544606025
 20
-455.1667045303056
 30
0.0
 10
386.7567544606025
 20
-459.4808253517097
 30
0.0
 10
386.7567544606025
 20
-463.5763548645747
 30
0.0
 10
386.7567544606025
 20
-466.9096570013282
 30
0.0
 10
385.6574244912593
 20
-464.2453924078102
 30
0.0
 10
383.9703612321324
 20
-460.958254550559
 30
0.0
 10
382.9816188278657
 20
-457.4728514481318
 30
0.0
 10
382.344620672643
 20
-455.2276827203945
 30
0.0
 10
381.4995387501112
 20
-453.3130709044669
 30
0.0
 10
380.0505315890152
 20
-451.5310952647214
 30
0.0
 10
379.2815862767074
 20
-450.5857610635688
 30
0.0
 10
378.8654187420892
 20
-449.353450408495
 30
0.0
 10
378.2187743195078
 20
-448.113216033805
 30
0.0
 10
378.2053384471154
 20
-448.1226900463895
 30
0.0
 10
378.4547633602475
 20
-447.9454398836734
 30
0.0
 10
378.6993651397001
 20
-447.7711180521197
 30
0.0
 10
378.2883652483098
 20
-446.1729382565123
 30
0.0
 10
375.7655218244614
 20
-446.3033351206291
 30
0.0
 10
375.6063584130429
 20
-444.0266437692017
 30
0.0
 10
375.2191296805008
 20
-443.8369912627387
 30
0.0
 10
374.4929035522101
 20
-443.4812851538866
 30
0.0
 10
373.6137151843744
 20
-443.0506482182304
 30
0.0
 10
373.8962130141649
 20
-442.7147514084186
 30
0.0
 10
374.1504610609763
 20
-442.4122720248136
 30
0.0
 10
374.5921223021853
 20
-441.8872394728616
 30
0.0
 10
372.4616752541068
 20
-441.4679713523066
 30
0.0
 10
371.5652614088448
 20
-440.0484197576095
 30
0.0
 10
370.823876860419
 20
-438.2299261057203
 30
0.0
 10
370.5537813743754
 20
-437.5665729700355
 30
0.0
 10
368.9652478461268
 20
-437.4408269848238
 30
0.0
 10
367.9768499514086
 20
-437.0709959844823
 30
0.0
 10
366.5684949170384
 20
-436.9912420239987
 30
0.0
 10
365.1077744312925
 20
-436.64294287044
 30
0.0
 10
363.7696993448215
 20
-436.9095932609983
 30
0.0
 10
362.6042235421614
 20
-437.1416204419299
 30
0.0
 10
362.0426729780658
 20
-439.363018010819
 30
0.0
 10
362.6169703954569
 20
-440.3245441607522
 30
0.0
 10
363.3128796834774
 20
-441.4896754538637
 30
0.0
 10
364.9279404469625
 20
-441.7074054885315
 30
0.0
 10
366.2074489101843
 20
-441.0862547725409
 30
0.0
 10
368.175287451359
 20
-440.1311020492554
 30
0.0
 10
366.9915526426271
 20
-438.6249063031042
 30
0.0
 10
367.0504637754249
 20
-437.2627155482364
 30
0.0
 10
367.3587998213548
 20
-437.1874402118837
 30
0.0
 10
367.6860838924535
 20
-437.1076862514002
 30
0.0
 10
368.0130234540037
 20
-437.0277600361424
 30
0.0
  0
HATCH
  5
41
330
1F
100
AcDbEntity
  8
Layer 1
 62
     7
420
 16777215
100
AcDbHatch
 10
0.0
 20
0.0
 30
0.0
210
0.0
220
0.0
230
1.0
  2
SOLID
 70
     1
 71
     0
 91
        1
 92
        1
 93
        1
 72
     4
 94
        3
 73
     0
 74
     1
 95
      128
 96
      124
 40
0.0
 40
0.0
 40
0.0
 40
0.0
 40
1.0
 40
1.0
 40
1.0
 40
2.0
 40
2.0
 40
2.0
 40
3.0
 40
3.0
 40
3.0
 40
4.0
 40
4.0
 40
4.0
 40
5.0
 40
5.0
 40
5.0
 40
6.0
 40
6.0
 40
6.0
 40
7.0
 40
7.0
 40
7.0
 40
8.0
 40
8.0
 40
8.0
 40
9.0
 40
9.0
 40
9.0
 40
10.0
 40
10.0
 40
10.0
 40
11.0
 40
11.0
 40
11.0
 40
12.0
 40
12.0
 40
12.0
 40
13.0
 40
13.0
 40
13.0
 40
14.0
 40
14.0
 40
14.0
 40
15.0
 40
15.0
 40
15.0
 40
16.0
 40
16.0
 40
16.0
 40
17.0
 40
17.0
 40
17.0
 40
18.0
 40
18.0
 40
18.0
 40
19.0
 40
19.0
 40
19.0
 40
20.0
 40
20.0
 40
20.0
 40
21.0
 40
21.0
 40
21.0
 40
22.0
 40
22.0
 40
22.0
 40
23.0
 40
23.0
 40
23.0
 40
24.0
 40
24.0
 40
24.0
 40
25.0
 40
25.0
 40
25.0
 40
26.0
 40
26.0
 40
26.0
 40
27.0
 40
27.0
 40
27.0
 40
28.0
 40
28.0
 40
28.0
 40
29.0
 40
29.0
 40
29.0
 40
30.0
 40
30.0
 40
30.0
 40
31.0
 40
31.0
 40
31.0
 40
32.0
 40
32.0
 40
32.0
 40
33.0
 40
33.0
 40
33.0
 40
34.0
 40
34.0
 40
34.0
 40
35.0
 40
35.0
 40
35.0
 40
36.0
 40
36.0
 40
36.0
 40
37.0
 40
37.0
 40
37.0
 40
38.0
 40
38.0
 40
38.0
 40
39.0
 40
39.0
 40
39.0
 40
40.0
 40
40.0
 40
40.0
 40
41.0
 40
41.0
 40
41.0
 40
41.0
 10
368.0130234540037
 20
-437.0277600361424
 10
368.7265027289989
 20
-437.6935247386669
 10
369.4403265135427
 20
-438.3592894411914
 10
370.5089951330672
 20
-439.3559555650742
 10
369.630840293877
 20
-440.7386446380792
 10
368.6107475206945
 20
-442.3452649176255
 10
367.8555825903278
 20
-443.5341673695852
 10
366.218473215737
 20
-443.82734499538
 10
365.0275037064862
 20
-444.047831106436
 10
363.8330891017501
 20
-444.2457518420636
 10
363.6715141234919
 20
-444.2724513320742
 10
363.487890534128
 20
-444.196831486173
 10
363.3204588935449
 20
-444.1487724041538
 10
360.2619031217401
 20
-443.2735458961261
 10
358.7353813122259
 20
-439.3407971449391
 10
360.31564661131
 20
-436.5726629225409
 10
360.5926322883241
 20
-436.0879379877662
 10
360.5251084168132
 20
-435.406670355558
 10
360.6339734341471
 20
-434.7042153861156
 10
361.4525281214424
 20
-434.540401095792
 10
362.3661674441307
 20
-434.3576387802995
 10
363.5113171834278
 20
-434.1283676757561
 10
361.8638725223813
 20
-432.8874442819691
 10
359.3827147539043
 20
-433.1211940106433
 10
358.605501212432
 20
-430.8221095385618
 10
361.5662162724557
 20
-429.7238130978642
 10
363.9343749090164
 20
-431.120110298036
 10
366.2804849344716
 20
-432.4425102000491
 10
366.5788302034942
 20
-432.6106308597293
 10
366.576074127106
 20
-433.3120523005261
 10
366.8020723909384
 20
-434.0629108615364
 10
366.9825953943655
 20
-434.154550401444
 10
367.50004873625
 20
-434.4175834417429
 10
368.1132757326245
 20
-434.7290200736094
 10
368.3027559843132
 20
-434.3473034938438
 10
368.4626084148288
 20
-434.0260483398442
 10
368.6806829590451
 20
-433.5867986654749
 10
369.7066323945525
 20
-434.4425603840109
 10
370.6426648378949
 20
-435.223563530517
 10
371.6689587829508
 20
-436.0794975038274
 10
371.9424993644797
 20
-435.695369357222
 10
372.1640190041812
 20
-435.3844494896782
 10
372.4940591516682
 20
-434.9207396373636
 10
373.4752223458673
 20
-436.360789550198
 10
374.421934585214
 20
-437.7505410689478
 10
375.462697931308
 20
-439.2784409166561
 10
375.7810247541451
 20
-438.828166936734
 10
376.000821846104
 20
-438.5172470691901
 10
376.3198376880381
 20
-438.0659395606224
 10
376.5861435690479
 20
-438.6543618695031
 10
376.7363497322048
 20
-439.2257309557318
 10
377.0657008605947
 20
-439.6618800441644
 10
377.6665255132223
 20
-440.4580416108057
 10
377.0050671800543
 20
-442.3204602301317
 10
378.9832410076847
 20
-441.9909368469675
 10
379.0507648791956
 20
-441.9795680318662
 10
379.2181965197788
 20
-442.251730575201
 10
379.2533364937283
 20
-442.4107217318452
 10
379.8176431342123
 20
-444.9600923909301
 10
382.4366047220992
 20
-446.6008191157804
 10
382.3587455641326
 20
-449.4326876046557
 10
382.3573675259385
 20
-449.4826414891918
 10
382.4138670918966
 20
-449.5343179214706
 10
382.4627874477871
 20
-449.6185505060849
 10
382.7497639017084
 20
-449.5591226089644
 10
383.0484536802796
 20
-449.4974553997785
 10
383.3516220829816
 20
-449.4347546619469
 10
383.5052733416237
 20
-450.4279756903444
 10
383.6465222565189
 20
-451.3419595225812
 10
383.7994844960641
 20
-452.332079965042
 10
384.1798230376356
 20
-452.1477673565811
 10
384.4258028552825
 20
-452.0283947980172
 10
384.7902939576219
 20
-451.8516613996239
 10
384.8984699558587
 20
-453.1570080789851
 10
385.0032008586103
 20
-454.4173962622637
 10
385.1217121433029
 20
-455.8471108886424
 10
385.6753389877826
 20
-455.6166340006792
 10
386.0574000770968
 20
-455.4576428440349
 10
386.7567544606025
 20
-455.1667045303056
 10
386.7567544606025
 20
-459.4808253517097
 10
386.7567544606025
 20
-463.5763548645747
 10
386.7567544606025
 20
-466.9096570013282
 10
385.6574244912593
 20
-464.2453924078102
 10
383.9703612321324
 20
-460.958254550559
 10
382.9816188278657
 20
-457.4728514481318
 10
382.344620672643
 20
-455.2276827203945
 10
381.4995387501112
 20
-453.3130709044669
 10
380.0505315890152
 20
-451.5310952647214
 10
379.2815862767074
 20
-450.5857610635688
 10
378.8654187420892
 20
-449.353450408495
 10
378.2187743195078
 20
-448.113216033805
 10
378.2053384471154
 20
-448.1226900463895
 10
378.4547633602475
 20
-447.9454398836734
 10
378.6993651397001
 20
-447.7711180521197
 10
378.2883652483098
 20
-446.1729382565123
 10
375.7655218244614
 20
-446.3033351206291
 10
375.6063584130429
 20
-444.0266437692017
 10
375.2191296805008
 20
-443.8369912627387
 10
374.4929035522101
 20
-443.4812851538866
 10
373.6137151843744
 20
-443.0506482182304
 10
373.8962130141649
 20
-442.7147514084186
 10
374.1504610609763
 20
-442.4122720248136
 10
374.5921223021853
 20
-441.8872394728616
 10
372.4616752541068
 20
-441.4679713523066
 10
371.5652614088448
 20
-440.0484197576095
 10
370.823876860419
 20
-438.2299261057203
 10
370.5537813743754
 20
-437.5665729700355
 10
368.9652478461268
 20
-437.4408269848238
 10
367.9768499514086
 20
-437.0709959844823
 10
366.5684949170384
 20
-436.9912420239987
 10
365.1077744312925
 20
-436.64294287044
 10
363.7696993448215
 20
-436.9095932609983
 10
362.6042235421614
 20
-437.1416204419299
 10
362.0426729780658
 20
-439.363018010819
 10
362.6169703954569
 20
-440.3245441607522
 10
363.3128796834774
 20
-441.4896754538637
 10
364.9279404469625
 20
-441.7074054885315
 10
366.2074489101843
 20
-441.0862547725409
 10
368.175287451359
 20
-440.1311020492554
 10
366.9915526426271
 20
-438.6249063031042
 10
367.0504637754249
 20
-437.2627155482364
 10
367.3587998213548
 20
-437.1874402118837
 10
367.6860838924535
 20
-437.1076862514002
 10
368.0130234540037
 20
-437.0277600361424
 97
        0
 75
     0
 76
     1
 98
        0
  0
SPLINE
  5
42
330
1F
100
AcDbEntity
  8
Layer 1
370
     0
100
AcDbSpline
210
0.0
220
0.0
230
1.0
 70
    11
 71
     3
 72
    11
 73
     7
 74
     0
 42
0.0000000001
 43
0.0000000001
 40
0.0
 40
0.0
 40
0.0
 40
0.0
 40
1.0
 40
1.0
 40
1.0
 40
2.0
 40
2.0
 40
2.0
 40
2.0
 10
339.0097980923309
 20
-431.0153793952844
 30
0.0
 10
340.8966768896022
 20
-431.2572250983489
 30
0.0
 10
341.9712021714516
 20
-433.7878199870392
 30
0.0
 10
344.1457464417414
 20
-432.2035928281471
 30
0.0
 10
341.9675848211921
 20
-433.8295056424107
 30
0.0
 10
340.3969657894667
 20
-433.4650145400713
 30
0.0
 10
339.0097980923309
 20
-431.0153793952844
 30
0.0
  0
HATCH
  5
43
330
1F
100
AcDbEntity
  8
Layer 1
 62
     7
420
 16777215
100
AcDbHatch
 10
0.0
 20
0.0
 30
0.0
210
0.0
220
0.0
230
1.0
  2
SOLID
 70
     1
 71
     0
 91
        1
 92
        1
 93
        1
 72
     4
 94
        3
 73
     0
 74
     1
 95
       11
 96
        7
 40
0.0
 40
0.0
 40
0.0
 40
0.0
 40
1.0
 40
1.0
 40
1.0
 40
2.0
 40
2.0
 40
2.0
 40
2.0
 10
339.0097980923309
 20
-431.0153793952844
 10
340.8966768896022
 20
-431.2572250983489
 10
341.9712021714516
 20
-433.7878199870392
 10
344.1457464417414
 20
-432.2035928281471
 10
341.9675848211921
 20
-433.8295056424107
 10
340.3969657894667
 20
-433.4650145400713
 10
339.0097980923309
 20
-431.0153793952844
 97
        0
 75
     0
 76
     1
 98
        0
  0
SPLINE
  5
44
330
1F
100
AcDbEntity
  8
Layer 1
370
     0
100
AcDbSpline
210
0.0
220
0.0
230
1.0
 70
    11
 71
     3
 72
   248
 73
   244
 74
     0
 42
0.0000000001
 43
0.0000000001
 40
0.0
 40
0.0
 40
0.0
 40
0.0
 40
1.0
 40
1.0
 40
1.0
 40
2.0
 40
2.0
 40
2.0
 40
3.0
 40
3.0
 40
3.0
 40
4.0
 40
4.0
 40
4.0
 40
5.0
 40
5.0
 40
5.0
 40
6.0
 40
6.0
 40
6.0
 40
7.0
 40
7.0
 40
7.0
 40
8.0
 40
8.0
 40
8.0
 40
9.0
 40
9.0
 40
9.0
 40
10.0
 40
10.0
 40
10.0
 40
11.0
 40
11.0
 40
11.0
 40
12.0
 40
12.0
 40
12.0
 40
13.0
 40
13.0
 40
13.0
 40
14.0
 40
14.0
 40
14.0
 40
15.0
 40
15.0
 40
15.0
 40
16.0
 40
16.0
 40
16.0
 40
17.0
 40
17.0
 40
17.0
 40
18.0
 40
18.0
 40
18.0
 40
19.0
 40
19.0
 40
19.0
 40
20.0
 40
20.0
 40
20.0
 40
21.0
 40
21.0
 40
21.0
 40
22.0
 40
22.0
 40
22.0
 40
23.0
 40
23.0
 40
23.0
 40
24.0
 40
24.0
 40
24.0
 40
25.0
 40
25.0
 40
25.0
 40
26.0
 40
26.0
 40
26.0
 40
27.0
 40
27.0
 40
27.0
 40
28.0
 40
28.0
 40
28.0
 40
29.0
 40
29.0
 40
29.0
 40
30.0
 40
30.0
 40
30.0
 40
31.0
 40
31.0
 40
31.0
 40
32.0
 40
32.0
 40
32.0
 40
33.0
 40
33.0
 40
33.0
 40
34.0
 40
34.0
 40
34.0
 40
35.0
 40
35.0
 40
35.0
 40
36.0
 40
36.0
 40
36.0
 40
37.0
 40
37.0
 40
37.0
 40
38.0
 40
38.0
 40
38.0
 40
39.0
 40
39.0
 40
39.0
 40
40.0
 40
40.0
 40
40.0
 40
41.0
 40
41.0
 40
41.0
 40
42.0
 40
42.0
 40
42.0
 40
43.0
 40
43.0
 40
43.0
 40
44.0
 40
44.0
 40
44.0
 40
45.0
 40
45.0
 40
45.0
 40
46.0
 40
46.0
 40
46.0
 40
47.0
 40
47.0
 40
47.0
 40
48.0
 40
48.0
 40
48.0
 40
49.0
 40
49.0
 40
49.0
 40
50.0
 40
50.0
 40
50.0
 40
51.0
 40
51.0
 40
51.0
 40
52.0
 40
52.0
 40
52.0
 40
53.0
 40
53.0
 40
53.0
 40
54.0
 40
54.0
 40
54.0
 40
55.0
 40
55.0
 40
55.0
 40
56.0
 40
56.0
 40
56.0
 40
57.0
 40
57.0
 40
57.0
 40
58.0
 40
58.0
 40
58.0
 40
59.0
 40
59.0
 40
59.0
 40
60.0
 40
60.0
 40
60.0
 40
61.0
 40
61.0
 40
61.0
 40
62.0
 40
62.0
 40
62.0
 40
63.0
 40
63.0
 40
63.0
 40
64.0
 40
64.0
 40
64.0
 40
65.0
 40
65.0
 40
65.0
 40
66.0
 40
66.0
 40
66.0
 40
67.0
 40
67.0
 40
67.0
 40
68.0
 40
68.0
 40
68.0
 40
69.0
 40
69.0
 40
69.0
 40
70.0
 40
70.0
 40
70.0
 40
71.0
 40
71.0
 40
71.0
 40
72.0
 40
72.0
 40
72.0
 40
73.0
 40
73.0
 40
73.0
 40
74.0
 40
74.0
 40
74.0
 40
75.0
 40
75.0
 40
75.0
 40
76.0
 40
76.0
 40
76.0
 40
77.0
 40
77.0
 40
77.0
 40
78.0
 40
78.0
 40
78.0
 40
79.0
 40
79.0
 40
79.0
 40
80.0
 40
80.0
 40
80.0
 40
81.0
 40
81.0
 40
81.0
 40
81.0
 10
318.2298433991752
 20
-458.1727225959603
 30
0.0
 10
318.4398219690012
 20
-457.4301322641147
 30
0.0
 10
318.6496282840529
 20
-456.6875419322691
 30
0.0
 10
318.8594345991046
 20
-455.9449516004235
 30
0.0
 10
318.9777736290229
 20
-455.9537365939109
 30
0.0
 10
319.0961126589413
 20
-455.9625215873983
 30
0.0
 10
319.2144516888596
 20
-455.9713065808857
 30
0.0
 10
319.3806775460229
 20
-457.2434080888142
 30
0.0
 10
319.5469034031862
 20
-458.5155095967427
 30
0.0
 10
319.7355223810036
 20
-459.9584878407396
 30
0.0
 10
320.2822590345128
 20
-459.9984509483685
 30
0.0
 10
321.071185900635
 20
-460.0561562977464
 30
0.0
 10
322.2218477927084
 20
-460.1402166275865
 30
0.0
 10
321.0789373654768
 20
-458.2540268494122
 30
0.0
 10
320.6384819076876
 20
-456.6043428763003
 30
0.0
 10
322.5704914558157
 20
-455.1649819825629
 30
0.0
 10
322.2578490405293
 20
-455.1978826444471
 30
0.0
 10
321.9450343704686
 20
-455.2307833063312
 30
0.0
 10
321.4766736392489
 20
-455.2800481717703
 30
0.0
 10
321.7881102711155
 20
-454.7358953398751
 30
0.0
 10
322.0576889928363
 20
-454.2644340227187
 30
0.0
 10
322.4562865404797
 20
-453.5678357156011
 30
0.0
 10
321.8845729447025
 20
-453.7457748974143
 30
0.0
 10
321.5753756249013
 20
-453.842065316227
 30
0.0
 10
321.2663505598744
 20
-453.9381834802655
 30
0.0
 10
321.2139851084986
 20
-453.8744492137884
 30
0.0
 10
321.1617919118971
 20
-453.8107149473112
 30
0.0
 10
321.1095987152955
 20
-453.7469806808341
 30
0.0
 10
322.0525213496084
 20
-453.055205507396
 30
0.0
 10
322.9954439839213
 20
-452.3634303339578
 30
0.0
 10
324.190892117303
 20
-451.4863090234132
 30
0.0
 10
323.6004027511312
 20
-451.4361828841028
 30
0.0
 10
323.3091199278533
 20
-451.411378196609
 30
0.0
 10
322.6676431484998
 20
-451.356945687942
 30
0.0
 10
323.387668104917
 20
-450.8796277084606
 30
0.0
 10
323.8732543135629
 20
-450.2998181382931
 30
0.0
 10
324.4056938208083
 20
-450.2529648396937
 30
0.0
 10
326.0157591958398
 20
-450.1113714152499
 30
0.0
 10
327.6433945578461
 20
-448.9377996381996
 30
0.0
 10
329.2699963912068
 20
-450.2898273613859
 30
0.0
 10
330.5855061022495
 20
-451.3834729231784
 30
0.0
 10
332.3697210540603
 20
-451.6437498870891
 30
0.0
 10
333.2356458042779
 20
-453.662920350994
 30
0.0
 10
333.7038342807234
 20
-454.7543266007212
 30
0.0
 10
334.3375595952351
 20
-456.1051485404876
 30
0.0
 10
335.1338934166506
 20
-457.1064655432755
 30
0.0
 10
336.0104979628724
 20
-458.2088960985554
 30
0.0
 10
336.0735432102525
 20
-459.0333074481757
 30
0.0
 10
335.0930690351503
 20
-460.2940401410029
 30
0.0
 10
338.0761772158282
 20
-460.5739541491794
 30
0.0
 10
337.2584838024042
 20
-462.9920666702763
 30
0.0
 10
337.7197820878791
 20
-464.6155679177003
 30
0.0
 10
338.4355006749398
 20
-467.1344494817407
 30
0.0
 10
339.2158148023489
 20
-469.5610024867764
 30
0.0
 10
341.0663478422508
 20
-471.5066201620713
 30
0.0
 10
341.1541977771246
 20
-471.5987764663017
 30
0.0
 10
341.1016600709746
 20
-471.8244302205856
 30
0.0
 10
341.1157849624641
 20
-472.0035751858186
 30
0.0
 10
337.8515569901899
 20
-471.0535901057609
 30
0.0
 10
334.0018350401975
 20
-465.9260822402894
 30
0.0
 10
333.6619763705776
 20
-462.3106267832939
 30
0.0
 10
333.5439818502078
 20
-461.0555784980174
 30
0.0
 10
333.1987832825857
 20
-459.7843382639602
 30
0.0
 10
332.719225991039
 20
-458.6183456969774
 30
0.0
 10
332.5192381981202
 20
-458.1318982144601
 30
0.0
 10
331.6982719439852
 20
-457.9005600526256
 30
0.0
 10
331.1598035196406
 20
-457.5531221729381
 30
0.0
 10
331.0605847696654
 20
-457.6852415847974
 30
0.0
 10
330.9613660196902
 20
-457.8173609966568
 30
0.0
 10
330.862147269715
 20
-457.9493081537419
 30
0.0
 10
330.992716388606
 20
-458.3255125807311
 30
0.0
 10
331.1234577622712
 20
-458.7015447529462
 30
0.0
 10
331.306392332538
 20
-459.2282998526409
 30
0.0
 10
329.7076957726078
 20
-458.8429659226157
 30
0.0
 10
328.3294853237336
 20
-457.5248723899591
 30
0.0
 10
326.6627481279697
 20
-458.9916217928042
 30
0.0
 10
327.1634927567508
 20
-459.2842826542762
 30
0.0
 10
327.5345295405122
 20
-459.5011514150726
 30
0.0
 10
327.9510415846789
 20
-459.7447196658798
 30
0.0
 10
326.6617145993242
 20
-460.629420186492
 30
0.0
 10
325.441634033223
 20
-461.4665783894077
 30
0.0
 10
324.2215534671217
 20
-462.3037365923234
 30
0.0
 10
327.4802692866195
 20
-462.7238659867496
 30
0.0
 10
329.5366467817652
 20
-464.4179916916212
 30
0.0
 10
330.8256292575714
 20
-466.8924315239019
 30
0.0
 10
331.8383150754606
 20
-468.8364989062284
 30
0.0
 10
330.6842080879019
 20
-470.8601479942641
 30
0.0
 10
330.7494926473474
 20
-473.0491616655919
 30
0.0
 10
332.1314927012554
 20
-473.6985621645615
 30
0.0
 10
333.053917017431
 20
-472.9354735145786
 30
0.0
 10
333.9103677550641
 20
-469.6312824346755
 30
0.0
 10
334.2772704242432
 20
-470.0519285934245
 30
0.0
 10
334.5837116676562
 20
-470.3482068051561
 30
0.0
 10
334.8262463898178
 20
-470.6897880225185
 30
0.0
 10
336.8883082925141
 20
-473.5931422427129
 30
0.0
 10
339.5475774975784
 20
-475.7304794817618
 30
0.0
 10
342.8576252398065
 20
-477.0682100586844
 30
0.0
 10
344.692138585702
 20
-477.8097668618844
 30
0.0
 10
344.7448485466263
 20
-478.0505790363034
 30
0.0
 10
343.5390651267888
 20
-479.8306598735319
 30
0.0
 10
347.3021429253272
 20
-479.4229328228526
 30
0.0
 10
347.0143051975346
 20
-474.8345824008226
 30
0.0
 10
350.2907632587815
 20
-473.5585190330861
 30
0.0
 10
350.0389267788098
 20
-476.5066594945886
 30
0.0
 10
350.6914278637161
 20
-478.9220159392973
 30
0.0
 10
352.2410318129814
 20
-481.1139579417875
 30
0.0
 10
352.4332681410584
 20
-481.385948230348
 30
0.0
 10
351.959912021385
 20
-482.5722668606938
 30
0.0
 10
351.5340982194082
 20
-482.7684650485787
 30
0.0
 10
347.805988140045
 20
-484.485328383653
 30
0.0
 10
344.0355033862133
 20
-484.7442273093695
 30
0.0
 10
340.4374456614185
 20
-482.4311902005728
 30
0.0
 10
339.6347384133552
 20
-481.9152871516566
 30
0.0
 10
339.1081555684348
 20
-480.9777044153459
 30
0.0
 10
338.4306775412604
 20
-480.2566459302831
 30
0.0
 10
337.7159924828453
 20
-479.4961411019142
 30
0.0
 10
337.0340358315401
 20
-478.6815482744269
 30
0.0
 10
336.2108302653397
 20
-478.0583305011452
 30
0.0
 10
335.8995658882474
 20
-477.8226859699541
 30
0.0
 10
335.1831582820897
 20
-477.9374076496129
 30
0.0
 10
334.7492485057224
 20
-478.1222370223965
 30
0.0
 10
334.5163600509196
 20
-478.221628027146
 30
0.0
 10
334.491038599103
 20
-478.8081555335098
 30
0.0
 10
334.2869166916019
 20
-479.4372299691164
 30
0.0
 10
333.5706813402185
 20
-479.6940618375418
 30
0.0
 10
332.1215019243481
 20
-479.6470362841681
 30
0.0
 10
332.2811821000894
 20
-481.4057575293882
 30
0.0
 10
332.7180202076191
 20
-481.4843057064518
 30
0.0
 10
333.1443507739188
 20
-481.5609590809987
 30
0.0
 10
333.6042710211996
 20
-481.6438136274189
 30
0.0
 10
333.5236557868448
 20
-483.100055489034
 30
0.0
 10
330.9102063517342
 20
-483.2940143648536
 30
0.0
 10
332.0314126774088
 20
-485.2325695944037
 30
0.0
 10
333.3953259800193
 20
-485.0549749221391
 30
0.0
 10
334.7969630781931
 20
-484.6317449417761
 30
0.0
 10
336.1539861898331
 20
-484.7447440736923
 30
0.0
 10
339.2225327385451
 20
-485.0003701586978
 30
0.0
 10
340.5280516726805
 20
-487.6567110325997
 30
0.0
 10
339.5358641729285
 20
-491.2449502352617
 30
0.0
 10
341.0961479181982
 20
-491.3882662074481
 30
0.0
 10
341.8942042873563
 20
-490.6687580153537
 30
0.0
 10
342.1875541679253
 20
-488.8545707328211
 30
0.0
 10
342.6438570649467
 20
-486.0309704731104
 30
0.0
 10
342.6257703136491
 20
-486.3064058571561
 30
0.0
 10
345.4969128910564
 20
-486.494680325425
 30
0.0
 10
348.3866589840839
 20
-486.684332831888
 30
0.0
 10
351.3332491526181
 20
-486.3846095246712
 30
0.0
 10
354.2254068124853
 20
-486.0457843836969
 30
0.0
 10
356.5635931183244
 20
-485.7718992926195
 30
0.0
 10
356.5439560740585
 20
-485.6049844163592
 30
0.0
 10
357.1447807266861
 20
-487.9945026449285
 30
0.0
 10
357.4582844158438
 20
-487.0760401885609
 30
0.0
 10
357.9316405355171
 20
-486.1775592860077
 30
0.0
 10
358.0494628011127
 20
-485.2346366516948
 30
0.0
 10
358.2520344156454
 20
-483.6088960922054
 30
0.0
 10
358.1014837429399
 20
-481.9335461577284
 30
0.0
 10
358.3684786430468
 20
-480.3236530374712
 30
0.0
 10
358.4883679659335
 20
-479.6032835715055
 30
0.0
 10
359.2593803355324
 20
-478.9909178490023
 30
0.0
 10
359.7348035124969
 20
-478.3296317706086
 30
0.0
 10
360.2095376703643
 20
-478.9771374670613
 30
0.0
 10
360.9998425746806
 20
-479.5752060433007
 30
0.0
 10
361.1100856302086
 20
-480.27955581526
 30
0.0
 10
362.2228514719443
 20
-487.3966063234633
 30
0.0
 10
359.2938312903849
 20
-491.2974879414118
 30
0.0
 10
353.7348252153857
 20
-493.8258435180366
 30
0.0
 10
349.594164951664
 20
-495.7089327102742
 30
0.0
 10
345.2268174050128
 20
-496.5879488233357
 30
0.0
 10
340.6980671348776
 20
-496.2673826884332
 30
0.0
 10
339.1055717468208
 20
-496.1547280660655
 30
0.0
 10
337.4738022702323
 20
-495.6343463930185
 30
0.0
 10
336.0032632623534
 20
-494.9785724674012
 30
0.0
 10
333.6008259257144
 20
-493.907492281037
 30
0.0
 10
331.109505125556
 20
-492.8436467951919
 30
0.0
 10
329.0422755796318
 20
-491.2690659036584
 30
0.0
 10
327.1677991261074
 20
-489.8415905893452
 30
0.0
 10
325.6679768066039
 20
-487.8389565837695
 30
0.0
 10
324.2635836320417
 20
-485.9010903733164
 30
0.0
 10
322.8838228901992
 20
-483.9971583533931
 30
0.0
 10
321.8063692771873
 20
-481.8699841460256
 30
0.0
 10
320.6495062132404
 20
-479.811022829266
 30
0.0
 10
320.2121513413879
 20
-479.0326035043738
 30
0.0
 10
319.9239691040468
 20
-478.1706406139643
 30
0.0
 10
319.4840304105804
 20
-477.15330391717
 30
0.0
 10
321.6759724130706
 20
-476.9040512588122
 30
0.0
 10
323.8825560713731
 20
-479.301148697449
 30
0.0
 10
325.4707450900733
 20
-475.8719006514314
 30
0.0
 10
325.5958020561879
 20
-476.8820026477066
 30
0.0
 10
325.6349038899455
 20
-477.1987791775753
 30
0.0
 10
325.7475585123131
 20
-478.1086288952298
 30
0.0
 10
326.7023667260501
 20
-476.7218057076425
 30
0.0
 10
327.390007784906
 20
-475.7234170360171
 30
0.0
 10
328.125018906684
 20
-474.6557819451382
 30
0.0
 10
328.235261962212
 20
-474.7748099941535
 30
0.0
 10
328.5155204799371
 20
-475.0774616325327
 30
0.0
 10
328.9006821551881
 20
-475.4932846576024
 30
0.0
 10
329.0372801911782
 20
-475.2204330951706
 30
0.0
 10
329.2035060483415
 20
-475.0020140414057
 30
0.0
 10
329.2591443404283
 20
-474.7584457905986
 30
0.0
 10
329.5679971506809
 20
-473.4064180674123
 30
0.0
 10
328.4493746466203
 20
-467.2517549830135
 30
0.0
 10
327.6375378955212
 20
-466.2118529107908
 30
0.0
 10
327.3340249832707
 20
-465.8232461400546
 30
0.0
 10
326.8162271318376
 20
-465.4255098662825
 30
0.0
 10
326.3551011011369
 20
-465.369354809873
 30
0.0
 10
324.8587238771187
 20
-465.1871092587032
 30
0.0
 10
323.7166747237583
 20
-463.9622055589227
 30
0.0
 10
321.8873290210907
 20
-464.3751002528298
 30
0.0
 10
321.0224377995187
 20
-464.5704371668435
 30
0.0
 10
319.7641166735312
 20
-464.0791665506469
 30
0.0
 10
319.1384873334098
 20
-465.0226059492826
 30
0.0
 10
318.4539468604907
 20
-466.0551010662119
 30
0.0
 10
317.9702554543616
 20
-467.2922348549652
 30
0.0
 10
317.7094617261282
 20
-468.50680326829
 30
0.0
 10
317.5561549770346
 20
-469.2211438171565
 30
0.0
 10
318.0062567021825
 20
-470.0651922110428
 30
0.0
 10
318.588650093964
 20
-470.9181978531906
 30
0.0
 10
318.7826089697836
 20
-470.5592189036276
 30
0.0
 10
318.9069769168011
 20
-470.1313380443596
 30
0.0
 10
319.1829290651696
 20
-469.8541801125712
 30
0.0
 10
320.064528999845
 20
-468.9691350824105
 30
0.0
 10
320.8703368338449
 20
-467.7983193817483
 30
0.0
 10
321.9533025996332
 20
-467.380084789839
 30
0.0
 10
323.1726941466374
 20
-466.9094847465539
 30
0.0
 10
324.459954074701
 20
-467.2347017603615
 30
0.0
 10
325.356367919963
 20
-468.7183321310843
 30
0.0
 10
326.6153780650475
 20
-470.8020981353377
 30
0.0
 10
326.7321668019976
 20
-472.450059560707
 30
0.0
 10
325.1989270562871
 20
-473.7933022904058
 30
0.0
 10
323.7023775774946
 20
-475.104505632092
 30
0.0
 10
321.4587591427256
 20
-474.6785195753408
 30
0.0
 10
319.6810898723367
 20
-473.3013426551122
 30
0.0
 10
316.3031737490492
 20
-470.6846203792907
 30
0.0
 10
317.085899443298
 20
-467.1721732773042
 30
0.0
 10
317.2018269063767
 20
-463.7444755242549
 30
0.0
 10
317.2257703199991
 20
-463.0359916377133
 30
0.0
 10
318.0415689309063
 20
-462.0036687755581
 30
0.0
 10
316.9381048469808
 20
-461.8631088797599
 30
0.0
 10
317.3639186489576
 20
-460.6619763388276
 30
0.0
 10
317.8152261575254
 20
-459.3895303213505
 30
0.0
 10
318.2663614113188
 20
-458.1170843038735
 30
0.0
 10
318.2663614113188
 20
-458.1170843038735
 30
0.0
 10
318.2298433991752
 20
-458.1727225959603
 30
0.0
 10
318.2298433991752
 20
-458.1727225959603
 30
0.0
  0
SPLINE
  5
45
330
1F
100
AcDbEntity
  8
Layer 1
370
     0
100
AcDbSpline
210
0.0
220
0.0
230
1.0
 70
    11
 71
     3
 72
    20
 73
    16
 74
     0
 42
0.0000000001
 43
0.0000000001
 40
0.0
 40
0.0
 40
0.0
 40
0.0
 40
1.0
 40
1.0
 40
1.0
 40
2.0
 40
2.0
 40
2.0
 40
3.0
 40
3.0
 40
3.0
 40
4.0
 40
4.0
 40
4.0
 40
5.0
 40
5.0
 40
5.0
 40
5.0
 10
326.5096136336504
 20
-442.0756861959047
 30
0.0
 10
326.7807426483395
 20
-441.4233573657726
 30
0.0
 10
327.0532497012228
 20
-440.2110282645132
 30
0.0
 10
327.3226561681694
 20
-440.2117172836103
 30
0.0
 10
328.8274738761265
 20
-440.2156791434183
 30
0.0
 10
329.3428601607199
 20
-439.0782808689631
 30
0.0
 10
330.1242078167745
 20
-438.212700628294
 30
0.0
 10
330.1963825671905
 20
-438.1327744130363
 30
0.0
 10
330.4337496461242
 20
-438.2021930870641
 30
0.0
 10
331.040603215851
 20
-438.2021930870641
 30
0.0
 10
329.5669636220354
 20
-439.7631658514308
 30
0.0
 10
328.3263847377969
 20
-441.0772975242793
 30
0.0
 10
327.0858058535584
 20
-442.3914291971279
 30
0.0
 10
326.8937417802558
 20
-442.2861815300535
 30
0.0
 10
326.7016777069531
 20
-442.1809338629791
 30
0.0
 10
326.5096136336504
 20
-442.0756861959047
 30
0.0
  0
SPLINE
  5
46
330
1F
100
AcDbEntity
  8
Layer 1
370
     0
100
AcDbSpline
210
0.0
220
0.0
230
1.0
 70
    11
 71
     3
 72
    17
 73
    13
 74
     0
 42
0.0000000001
 43
0.0000000001
 40
0.0
 40
0.0
 40
0.0
 40
0.0
 40
1.0
 40
1.0
 40
1.0
 40
2.0
 40
2.0
 40
2.0
 40
3.0
 40
3.0
 40
3.0
 40
4.0
 40
4.0
 40
4.0
 40
4.0
 10
318.2663614113188
 20
-458.1170843038735
 30
0.0
 10
318.0605169560752
 20
-458.5179211635823
 30
0.0
 10
317.8545002460572
 20
-458.9187580232912
 30
0.0
 10
317.6460719691996
 20
-459.3247625262279
 30
0.0
 10
316.4110052377375
 20
-458.413362515605
 30
0.0
 10
316.568790610962
 20
-456.9571206539899
 30
0.0
 10
318.1077147642231
 20
-455.7632228135766
 30
0.0
 10
318.1500894386917
 20
-456.6232909014692
 30
0.0
 10
318.1886745081264
 20
-457.4008489524901
 30
0.0
 10
318.2284653609811
 20
-458.1756509271228
 30
0.0
 10
318.2298433991752
 20
-458.1727225959603
 30
0.0
 10
318.2663614113188
 20
-458.1170843038735
 30
0.0
 10
318.2663614113188
 20
-458.1170843038735
 30
0.0
  0
SPLINE
  5
47
330
1F
100
AcDbEntity
  8
Layer 1
370
     0
100
AcDbSpline
210
0.0
220
0.0
230
1.0
 70
    11
 71
     3
 72
    23
 73
    19
 74
     0
 42
0.0000000001
 43
0.0000000001
 40
0.0
 40
0.0
 40
0.0
 40
0.0
 40
1.0
 40
1.0
 40
1.0
 40
2.0
 40
2.0
 40
2.0
 40
3.0
 40
3.0
 40
3.0
 40
4.0
 40
4.0
 40
4.0
 40
5.0
 40
5.0
 40
5.0
 40
6.0
 40
6.0
 40
6.0
 40
6.0
 10
368.0130234540037
 20
-437.0277600361424
 30
0.0
 10
367.6860838924535
 20
-437.1076862514002
 30
0.0
 10
367.3587998213548
 20
-437.1874402118837
 30
0.0
 10
367.0504637754249
 20
-437.2627155482364
 30
0.0
 10
366.9915526426271
 20
-438.6249063031042
 30
0.0
 10
368.175287451359
 20
-440.1311020492554
 30
0.0
 10
366.2074489101843
 20
-441.0862547725409
 30
0.0
 10
364.9279404469625
 20
-441.7074054885315
 30
0.0
 10
363.3128796834774
 20
-441.4896754538637
 30
0.0
 10
362.6169703954569
 20
-440.3245441607522
 30
0.0
 10
362.0426729780658
 20
-439.363018010819
 30
0.0
 10
362.6042235421614
 20
-437.1416204419299
 30
0.0
 10
363.7696993448215
 20
-436.9095932609983
 30
0.0
 10
365.1077744312925
 20
-436.64294287044
 30
0.0
 10
366.5684949170384
 20
-436.9912420239987
 30
0.0
 10
367.9768499514086
 20
-437.0709959844823
 30
0.0
 10
367.9782279896027
 20
-437.0696179462882
 30
0.0
 10
368.0130234540037
 20
-437.0277600361424
 30
0.0
 10
368.0130234540037
 20
-437.0277600361424
 30
0.0
  0
ENDSEC
  0
SECTION
  2
OBJECTS
  0
DICTIONARY
  5
C
330
0
100
AcDbDictionary
281
     1
  3
ACAD_GROUP
350
D
  3
ACAD_LAYOUT
350
1A
  3
ACAD_MLINESTYLE
350
17
  3
ACAD_PLOTSETTINGS
350
19
  3
ACAD_PLOTSTYLENAME
350
E
  3
ACAD_TABLESTYLE
350
48
  3
ACAD_VISUALSTYLE
350
2A
  0
DICTIONARY
  5
D
102
{ACAD_REACTORS
330
C
102
}
330
C
100
AcDbDictionary
281
     1
  0
DICTIONARY
  5
1A
102
{ACAD_REACTORS
330
C
102
}
330
C
100
AcDbDictionary
281
     1
  3
Layout1
350
1E
  3
Layout2
350
26
  3
Model
350
22
  0
DICTIONARY
  5
17
102
{ACAD_REACTORS
330
C
102
}
330
C
100
AcDbDictionary
281
     1
  3
Standard
350
18
  0
DICTIONARY
  5
19
102
{ACAD_REACTORS
330
C
102
}
330
C
100
AcDbDictionary
281
     1
  0
ACDBDICTIONARYWDFLT
  5
E
102
{ACAD_REACTORS
330
C
102
}
330
C
100
AcDbDictionary
281
     1
  3
Normal
350
F
100
AcDbDictionaryWithDefault
340
F
  0
DICTIONARY
  5
48
102
{ACAD_REACTORS
330
C
102
}
330
C
100
AcDbDictionary
281
     1
  0
DICTIONARY
  5
2A
102
{ACAD_REACTORS
330
C
102
}
330
C
100
AcDbDictionary
281
     1
  3
2dWireframe
350
2F
  3
3D Hidden
350
31
  3
3dWireframe
350
30
  3
Basic
350
32
  3
Brighten
350
36
  3
ColorChange
350
3A
  3
Conceptual
350
34
  3
Dim
350
35
  3
Facepattern
350
39
  3
Flat
350
2B
  3
FlatWithEdges
350
2C
  3
Gouraud
350
2D
  3
GouraudWithEdges
350
2E
  3
Linepattern
350
38
  3
Realistic
350
33
  3
Thicken
350
37
  0
LAYOUT
  5
1E
102
{ACAD_REACTORS
330
1A
102
}
330
1A
100
AcDbPlotSettings
  1

  2
none_device
  4

  6

 40
0.0
 41
0.0
 42
0.0
 43
0.0
 44
0.0
 45
0.0
 46
0.0
 47
0.0
 48
0.0
 49
0.0
140
0.0
141
0.0
142
1.0
143
1.0
 70
   688
 72
     0
 73
     0
 74
     5
  7

 75
    16
 76
     0
 77
     2
 78
   300
147
1.0
148
0.0
149
0.0
100
AcDbLayout
  1
Layout1
 70
     1
 71
     1
 10
0.0
 20
0.0
 11
12.0
 21
9.0
 12
0.0
 22
0.0
 32
0.0
 14
1.000000000000000E+20
 24
1.000000000000000E+20
 34
1.000000000000000E+20
 15
-1.000000000000000E+20
 25
-1.000000000000000E+20
 35
-1.000000000000000E+20
146
0.0
 13
0.0
 23
0.0
 33
0.0
 16
1.0
 26
0.0
 36
0.0
 17
0.0
 27
1.0
 37
0.0
 76
     0
330
1B
  0
LAYOUT
  5
26
102
{ACAD_REACTORS
330
1A
102
}
330
1A
100
AcDbPlotSettings
  1

  2
none_device
  4

  6

 40
0.0
 41
0.0
 42
0.0
 43
0.0
 44
0.0
 45
0.0
 46
0.0
 47
0.0
 48
0.0
 49
0.0
140
0.0
141
0.0
142
1.0
143
1.0
 70
   688
 72
     0
 73
     0
 74
     5
  7

 75
    16
 76
     0
 77
     2
 78
   300
147
1.0
148
0.0
149
0.0
100
AcDbLayout
  1
Layout2
 70
     1
 71
     2
 10
0.0
 20
0.0
 11
0.0
 21
0.0
 12
0.0
 22
0.0
 32
0.0
 14
0.0
 24
0.0
 34
0.0
 15
0.0
 25
0.0
 35
0.0
146
0.0
 13
0.0
 23
0.0
 33
0.0
 16
1.0
 26
0.0
 36
0.0
 17
0.0
 27
1.0
 37
0.0
 76
     0
330
23
  0
LAYOUT
  5
22
102
{ACAD_REACTORS
330
1A
102
}
330
1A
100
AcDbPlotSettings
  1

  2
none_device
  4

  6

 40
0.0
 41
0.0
 42
0.0
 43
0.0
 44
0.0
 45
0.0
 46
0.0
 47
0.0
 48
0.0
 49
0.0
140
0.0
141
0.0
142
1.0
143
1.0
 70
  1712
 72
     0
 73
     0
 74
     0
  7

 75
     0
 76
     0
 77
     2
 78
   300
147
1.0
148
0.0
149
0.0
100
AcDbLayout
  1
Model
 70
     1
 71
     0
 10
0.0
 20
0.0
 11
12.0
 21
9.0
 12
0.0
 22
0.0
 32
0.0
 14
1.000000000000000E+20
 24
1.000000000000000E+20
 34
1.000000000000000E+20
 15
-1.000000000000000E+20
 25
-1.000000000000000E+20
 35
-1.000000000000000E+20
146
0.0
 13
0.0
 23
0.0
 33
0.0
 16
1.0
 26
0.0
 36
0.0
 17
0.0
 27
1.0
 37
0.0
 76
     0
330
1F
331
29
  0
MLINESTYLE
  5
18
102
{ACAD_REACTORS
330
17
102
}
330
17
100
AcDbMlineStyle
  2
Standard
 70
     0
  3

 62
   256
 51
90.0
 52
90.0
 71
     2
 49
0.5
 62
   256
  6
BYLAYER
 49
-0.5
 62
   256
  6
BYLAYER
  0
ACDBPLACEHOLDER
  5
F
102
{ACAD_REACTORS
330
E
102
}
330
E
  0
VISUALSTYLE
  5
2F
102
{ACAD_REACTORS
330
2A
102
}
330
2A
100
AcDbVisualStyle
  2
2dWireframe
 70
     4
 71
     0
 72
     2
 73
     0
 90
        0
 40
-0.6
 41
-30.0
 62
     5
 63
     7
421
 16777215
 74
     1
 91
        4
 64
     7
 65
   257
 75
     1
175
     1
 42
1.0
 92
        0
 66
   257
 43
1.0
 76
     1
 77
     6
 78
     2
 67
     7
 79
     5
170
     0
171
     0
290
     0
174
     0
 93
        1
 44
0.0
173
     0
291
     0
 45
0.0
1001
ACAD
1000
AcDbSavedByObjectVersion
1070
     0
  0
VISUALSTYLE
  5
31
102
{ACAD_REACTORS
330
2A
102
}
330
2A
100
AcDbVisualStyle
  2
3D Hidden
 70
     6
 71
     1
 72
     2
 73
     2
 90
        0
 40
-0.6
 41
-30.0
 62
     5
 63
     7
421
 16777215
 74
     2
 91
        2
 64
     7
 65
   257
 75
     2
175
     1
 42
40.0
 92
        0
 66
   257
 43
1.0
 76
     1
 77
     6
 78
     2
 67
     7
 79
     3
170
     0
171
     0
290
     0
174
     0
 93
        1
 44
0.0
173
     0
291
     0
 45
0.0
1001
ACAD
1000
AcDbSavedByObjectVersion
1070
     0
  0
VISUALSTYLE
  5
30
102
{ACAD_REACTORS
330
2A
102
}
330
2A
100
AcDbVisualStyle
  2
3dWireframe
 70
     5
 71
     0
 72
     2
 73
     0
 90
        0
 40
-0.6
 41
-30.0
 62
     5
 63
     7
421
 16777215
 74
     1
 91
        4
 64
     7
 65
   257
 75
     1
175
     1
 42
1.0
 92
        0
 66
   257
 43
1.0
 76
     1
 77
     6
 78
     2
 67
     7
 79
     5
170
     0
171
     0
290
     0
174
     0
 93
        1
 44
0.0
173
     0
291
     0
 45
0.0
1001
ACAD
1000
AcDbSavedByObjectVersion
1070
     0
  0
VISUALSTYLE
  5
32
102
{ACAD_REACTORS
330
2A
102
}
330
2A
100
AcDbVisualStyle
  2
Basic
 70
     7
 71
     1
 72
     0
 73
     1
 90
        0
 40
-0.6
 41
-30.0
 62
     5
 63
     7
421
 16777215
 74
     0
 91
        4
 64
     7
 65
   257
 75
     1
175
     1
 42
1.0
 92
        8
 66
     7
 43
1.0
 76
     1
 77
     6
 78
     2
 67
     7
 79
     5
170
     0
171
     0
290
     0
174
     0
 93
        1
 44
0.0
173
     0
291
     1
 45
0.0
1001
ACAD
1000
AcDbSavedByObjectVersion
1070
     0
  0
VISUALSTYLE
  5
36
102
{ACAD_REACTORS
330
2A
102
}
330
2A
100
AcDbVisualStyle
  2
Brighten
 70
    12
 71
     2
 72
     2
 73
     0
 90
        0
 40
-0.6
 41
-30.0
 62
     5
 63
     7
421
 16777215
 74
     1
 91
        4
 64
     7
 65
   257
 75
     1
175
     1
 42
1.0
 92
        8
 66
     7
 43
1.0
 76
     1
 77
     6
 78
     2
 67
     7
 79
     5
170
     0
171
     0
290
     0
174
     0
 93
        1
 44
50.0
173
     0
291
     1
 45
0.0
1001
ACAD
1000
AcDbSavedByObjectVersion
1070
     0
  0
VISUALSTYLE
  5
3A
102
{ACAD_REACTORS
330
2A
102
}
330
2A
100
AcDbVisualStyle
  2
ColorChange
 70
    16
 71
     2
 72
     2
 73
     3
 90
        0
 40
-0.6
 41
-30.0
 62
     5
 63
     8
421
  8421504
 74
     1
 91
        4
 64
     7
 65
   257
 75
     1
175
     1
 42
1.0
 92
        8
 66
     8
424
  8421504
 43
1.0
 76
     1
 77
     6
 78
     2
 67
     7
 79
     5
170
     0
171
     0
290
     0
174
     0
 93
        1
 44
0.0
173
     0
291
     1
 45
0.0
1001
ACAD
1000
AcDbSavedByObjectVersion
1070
     0
  0
VISUALSTYLE
  5
34
102
{ACAD_REACTORS
330
2A
102
}
330
2A
100
AcDbVisualStyle
  2
Conceptual
 70
     9
 71
     3
 72
     2
 73
     0
 90
        0
 40
-0.6
 41
-30.0
 62
     5
 63
     7
421
 16777215
 74
     2
 91
        2
 64
     7
 65
   257
 75
     1
175
     1
 42
40.0
 92
        8
 66
     7
 43
1.0
 76
     1
 77
     6
 78
     2
 67
     7
 79
     3
170
     0
171
     0
290
     0
174
     0
 93
        1
 44
0.0
173
     0
291
     0
 45
0.0
1001
ACAD
1000
AcDbSavedByObjectVersion
1070
     0
  0
VISUALSTYLE
  5
35
102
{ACAD_REACTORS
330
2A
102
}
330
2A
100
AcDbVisualStyle
  2
Dim
 70
    11
 71
     2
 72
     2
 73
     0
 90
        0
 40
-0.6
 41
-30.0
 62
     5
 63
     7
421
 16777215
 74
     1
 91
        4
 64
     7
 65
   257
 75
     1
175
     1
 42
1.0
 92
        8
 66
     7
 43
1.0
 76
     1
 77
     6
 78
     2
 67
     7
 79
     5
170
     0
171
     0
290
     0
174
     0
 93
        1
 44
-50.0
173
     0
291
     1
 45
0.0
1001
ACAD
1000
AcDbSavedByObjectVersion
1070
     0
  0
VISUALSTYLE
  5
39
102
{ACAD_REACTORS
330
2A
102
}
330
2A
100
AcDbVisualStyle
  2
Facepattern
 70
    15
 71
     2
 72
     2
 73
     0
 90
        0
 40
-0.6
 41
-30.0
 62
     5
 63
     7
421
 16777215
 74
     1
 91
        4
 64
     7
 65
   257
 75
     1
175
     1
 42
1.0
 92
        8
 66
     7
 43
1.0
 76
     1
 77
     6
 78
     2
 67
     7
 79
     5
170
     0
171
     0
290
     0
174
     0
 93
        1
 44
0.0
173
     0
291
     1
 45
0.0
1001
ACAD
1000
AcDbSavedByObjectVersion
1070
     0
  0
VISUALSTYLE
  5
2B
102
{ACAD_REACTORS
330
2A
102
}
330
2A
100
AcDbVisualStyle
  2
Flat
 70
     0
 71
     2
 72
     1
 73
     1
 90
        2
 40
-0.6
 41
30.0
 62
     5
 63
     7
421
 16777215
 74
     0
 91
        4
 64
     7
 65
   257
 75
     1
175
     1
 42
1.0
 92
        8
 66
     7
 43
1.0
 76
     1
 77
     6
 78
     2
 67
     7
 79
     5
170
     0
171
     0
290
     0
174
     0
 93
       13
 44
0.0
173
     0
291
     1
 45
0.0
1001
ACAD
1000
AcDbSavedByObjectVersion
1070
     0
  0
VISUALSTYLE
  5
2C
102
{ACAD_REACTORS
330
2A
102
}
330
2A
100
AcDbVisualStyle
  2
FlatWithEdges
 70
     1
 71
     2
 72
     1
 73
     1
 90
        2
 40
-0.6
 41
30.0
 62
     5
 63
     7
421
 16777215
 74
     1
 91
        4
 64
     7
 65
   257
 75
     1
175
     1
 42
1.0
 92
        0
 66
   257
 43
1.0
 76
     1
 77
     6
 78
     2
 67
     7
 79
     5
170
     0
171
     0
290
     0
174
     0
 93
       13
 44
0.0
173
     0
291
     1
 45
0.0
1001
ACAD
1000
AcDbSavedByObjectVersion
1070
     0
  0
VISUALSTYLE
  5
2D
102
{ACAD_REACTORS
330
2A
102
}
330
2A
100
AcDbVisualStyle
  2
Gouraud
 70
     2
 71
     2
 72
     2
 73
     1
 90
        2
 40
-0.6
 41
30.0
 62
     5
 63
     7
421
 16777215
 74
     0
 91
        4
 64
     7
 65
   257
 75
     1
175
     1
 42
1.0
 92
        0
 66
     7
 43
1.0
 76
     1
 77
     6
 78
     2
 67
     7
 79
     5
170
     0
171
     0
290
     0
174
     0
 93
       13
 44
0.0
173
     0
291
     1
 45
0.0
1001
ACAD
1000
AcDbSavedByObjectVersion
1070
     0
  0
VISUALSTYLE
  5
2E
102
{ACAD_REACTORS
330
2A
102
}
330
2A
100
AcDbVisualStyle
  2
GouraudWithEdges
 70
     3
 71
     2
 72
     2
 73
     1
 90
        2
 40
-0.6
 41
30.0
 62
     5
 63
     7
421
 16777215
 74
     1
 91
        4
 64
     7
 65
   257
 75
     1
175
     1
 42
1.0
 92
        0
 66
   257
 43
1.0
 76
     1
 77
     6
 78
     2
 67
     7
 79
     5
170
     0
171
     0
290
     0
174
     0
 93
       13
 44
0.0
173
     0
291
     1
 45
0.0
1001
ACAD
1000
AcDbSavedByObjectVersion
1070
     0
  0
VISUALSTYLE
  5
38
102
{ACAD_REACTORS
330
2A
102
}
330
2A
100
AcDbVisualStyle
  2
Linepattern
 70
    14
 71
     2
 72
     2
 73
     0
 90
        0
 40
-0.6
 41
-30.0
 62
     5
 63
     7
421
 16777215
 74
     1
 91
        4
 64
     7
 65
   257
 75
     7
175
     7
 42
1.0
 92
        8
 66
     7
 43
1.0
 76
     1
 77
     6
 78
     2
 67
     7
 79
     5
170
     0
171
     0
290
     0
174
     0
 93
        1
 44
0.0
173
     0
291
     1
 45
0.0
1001
ACAD
1000
AcDbSavedByObjectVersion
1070
     0
  0
VISUALSTYLE
  5
33
102
{ACAD_REACTORS
330
2A
102
}
330
2A
100
AcDbVisualStyle
  2
Realistic
 70
     8
 71
     2
 72
     2
 73
     0
 90
        0
 40
-0.6
 41
-30.0
 62
     5
 63
     7
421
 16777215
 74
     1
 91
        0
 64
     7
 65
   257
 75
     1
175
     1
 42
1.0
 92
        8
 66
     8
424
  7895160
 43
1.0
 76
     1
 77
     6
 78
     2
 67
     7
 79
     5
170
     0
171
     0
290
     0
174
     0
 93
       13
 44
0.0
173
     0
291
     0
 45
0.0
1001
ACAD
1000
AcDbSavedByObjectVersion
1070
     0
  0
VISUALSTYLE
  5
37
102
{ACAD_REACTORS
330
2A
102
}
330
2A
100
AcDbVisualStyle
  2
Thicken
 70
    13
 71
     2
 72
     2
 73
     0
 90
        0
 40
-0.6
 41
-30.0
 62
     5
 63
     7
421
 16777215
 74
     1
 91
        4
 64
     7
 65
   257
 75
     1
175
     1
 42
1.0
 92
       12
 66
     7
 43
1.0
 76
     1
 77
     6
 78
     2
 67
     7
 79
     5
170
     0
171
     0
290
     0
174
     0
 93
        1
 44
0.0
173
     0
291
     1
 45
0.0
1001
ACAD
1000
AcDbSavedByObjectVersion
1070
     0
  0
ENDSEC
  0
EOF
