  0
SECTION
  2
HEADER
  9
$ACADVER
  1
AC1015
  9
$ACADMAINTVER
 70
    20
  9
$DWGCODEPAGE
  3
ANSI_1252
  9
$INSBASE
 10
0.0
 20
0.0
 30
0.0
  9
$EXTMIN
 10
-31.65221415201565
 20
-101.635473688329
 30
0.0
  9
$EXTMAX
 10
224.4515137303497
 20
29.61031779817749
 30
0.0
  9
$LIMMIN
 10
0.0
 20
0.0
  9
$LIMMAX
 10
12.0
 20
9.0
  9
$ORTHOMODE
 70
     0
  9
$REGENMODE
 70
     1
  9
$FILLMODE
 70
     1
  9
$QTEXTMODE
 70
     0
  9
$MIRRTEXT
 70
     0
  9
$LTSCALE
 40
1.0
  9
$ATTMODE
 70
     1
  9
$TEXTSIZE
 40
0.2
  9
$TRACEWID
 40
0.05
  9
$TEXTSTYLE
  7
Standard
  9
$CLAYER
  8
0
  9
$CELTYPE
  6
ByLayer
  9
$CECOLOR
 62
   256
  9
$CELTSCALE
 40
1.0
  9
$DISPSILH
 70
     0
  9
$DIMSCALE
 40
1.0
  9
$DIMASZ
 40
0.18
  9
$DIMEXO
 40
0.0625
  9
$DIMDLI
 40
0.38
  9
$DIMRND
 40
0.0
  9
$DIMDLE
 40
0.0
  9
$DIMEXE
 40
0.18
  9
$DIMTP
 40
0.0
  9
$DIMTM
 40
0.0
  9
$DIMTXT
 40
0.18
  9
$DIMCEN
 40
0.09
  9
$DIMTSZ
 40
0.0
  9
$DIMTOL
 70
     0
  9
$DIMLIM
 70
     0
  9
$DIMTIH
 70
     1
  9
$DIMTOH
 70
     1
  9
$DIMSE1
 70
     0
  9
$DIMSE2
 70
     0
  9
$DIMTAD
 70
     0
  9
$DIMZIN
 70
     0
  9
$DIMBLK
  1

  9
$DIMASO
 70
     1
  9
$DIMSHO
 70
     1
  9
$DIMPOST
  1

  9
$DIMAPOST
  1

  9
$DIMALT
 70
     0
  9
$DIMALTD
 70
     2
  9
$DIMALTF
 40
25.4
  9
$DIMLFAC
 40
1.0
  9
$DIMTOFL
 70
     0
  9
$DIMTVP
 40
0.0
  9
$DIMTIX
 70
     0
  9
$DIMSOXD
 70
     0
  9
$DIMSAH
 70
     0
  9
$DIMBLK1
  1

  9
$DIMBLK2
  1

  9
$DIMSTYLE
  2
Standard
  9
$DIMCLRD
 70
     0
  9
$DIMCLRE
 70
     0
  9
$DIMCLRT
 70
     0
  9
$DIMTFAC
 40
1.0
  9
$DIMGAP
 40
0.09
  9
$DIMJUST
 70
     0
  9
$DIMSD1
 70
     0
  9
$DIMSD2
 70
     0
  9
$DIMTOLJ
 70
     1
  9
$DIMTZIN
 70
     0
  9
$DIMALTZ
 70
     0
  9
$DIMALTTZ
 70
     0
  9
$DIMUPT
 70
     0
  9
$DIMDEC
 70
     4
  9
$DIMTDEC
 70
     4
  9
$DIMALTU
 70
     2
  9
$DIMALTTD
 70
     2
  9
$DIMTXSTY
  7
Standard
  9
$DIMAUNIT
 70
     0
  9
$DIMADEC
 70
     0
  9
$DIMALTRND
 40
0.0
  9
$DIMAZIN
 70
     0
  9
$DIMDSEP
 70
    46
  9
$DIMATFIT
 70
     3
  9
$DIMFRAC
 70
     0
  9
$DIMLDRBLK
  1

  9
$DIMLUNIT
 70
     2
  9
$DIMLWD
 70
    -2
  9
$DIMLWE
 70
    -2
  9
$DIMTMOVE
 70
     0
  9
$LUNITS
 70
     2
  9
$LUPREC
 70
     4
  9
$SKETCHINC
 40
0.1
  9
$FILLETRAD
 40
0.0
  9
$AUNITS
 70
     0
  9
$AUPREC
 70
     0
  9
$MENU
  1
.
  9
$ELEVATION
 40
0.0
  9
$PELEVATION
 40
0.0
  9
$THICKNESS
 40
0.0
  9
$LIMCHECK
 70
     0
  9
$CHAMFERA
 40
0.0
  9
$CHAMFERB
 40
0.0
  9
$CHAMFERC
 40
0.0
  9
$CHAMFERD
 40
0.0
  9
$SKPOLY
 70
     0
  9
$TDCREATE
 40
2458633.897071759
  9
$TDUCREATE
 40
2458634.105405093
  9
$TDUPDATE
 40
2458633.897916667
  9
$TDUUPDATE
 40
2458634.106250000
  9
$TDINDWG
 40
0.0006828704
  9
$TDUSRTIMER
 40
0.0006828704
  9
$USRTIMER
 70
     1
  9
$ANGBASE
 50
0.0
  9
$ANGDIR
 70
     0
  9
$PDMODE
 70
     0
  9
$PDSIZE
 40
0.0
  9
$PLINEWID
 40
0.0
  9
$SPLFRAME
 70
     0
  9
$SPLINETYPE
 70
     6
  9
$SPLINESEGS
 70
     8
  9
$HANDSEED
  5
49D
  9
$SURFTAB1
 70
     6
  9
$SURFTAB2
 70
     6
  9
$SURFTYPE
 70
     6
  9
$SURFU
 70
     6
  9
$SURFV
 70
     6
  9
$UCSBASE
  2

  9
$UCSNAME
  2

  9
$UCSORG
 10
0.0
 20
0.0
 30
0.0
  9
$UCSXDIR
 10
1.0
 20
0.0
 30
0.0
  9
$UCSYDIR
 10
0.0
 20
1.0
 30
0.0
  9
$UCSORTHOREF
  2

  9
$UCSORTHOVIEW
 70
     0
  9
$UCSORGTOP
 10
0.0
 20
0.0
 30
0.0
  9
$UCSORGBOTTOM
 10
0.0
 20
0.0
 30
0.0
  9
$UCSORGLEFT
 10
0.0
 20
0.0
 30
0.0
  9
$UCSORGRIGHT
 10
0.0
 20
0.0
 30
0.0
  9
$UCSORGFRONT
 10
0.0
 20
0.0
 30
0.0
  9
$UCSORGBACK
 10
0.0
 20
0.0
 30
0.0
  9
$PUCSBASE
  2

  9
$PUCSNAME
  2

  9
$PUCSORG
 10
0.0
 20
0.0
 30
0.0
  9
$PUCSXDIR
 10
1.0
 20
0.0
 30
0.0
  9
$PUCSYDIR
 10
0.0
 20
1.0
 30
0.0
  9
$PUCSORTHOREF
  2

  9
$PUCSORTHOVIEW
 70
     0
  9
$PUCSORGTOP
 10
0.0
 20
0.0
 30
0.0
  9
$PUCSORGBOTTOM
 10
0.0
 20
0.0
 30
0.0
  9
$PUCSORGLEFT
 10
0.0
 20
0.0
 30
0.0
  9
$PUCSORGRIGHT
 10
0.0
 20
0.0
 30
0.0
  9
$PUCSORGFRONT
 10
0.0
 20
0.0
 30
0.0
  9
$PUCSORGBACK
 10
0.0
 20
0.0
 30
0.0
  9
$USERI1
 70
     0
  9
$USERI2
 70
     0
  9
$USERI3
 70
     0
  9
$USERI4
 70
     0
  9
$USERI5
 70
     0
  9
$USERR1
 40
0.0
  9
$USERR2
 40
0.0
  9
$USERR3
 40
0.0
  9
$USERR4
 40
0.0
  9
$USERR5
 40
0.0
  9
$WORLDVIEW
 70
     1
  9
$SHADEDGE
 70
     3
  9
$SHADEDIF
 70
    70
  9
$TILEMODE
 70
     1
  9
$MAXACTVP
 70
    64
  9
$PINSBASE
 10
0.0
 20
0.0
 30
0.0
  9
$PLIMCHECK
 70
     0
  9
$PEXTMIN
 10
1.000000000000000E+20
 20
1.000000000000000E+20
 30
1.000000000000000E+20
  9
$PEXTMAX
 10
-1.000000000000000E+20
 20
-1.000000000000000E+20
 30
-1.000000000000000E+20
  9
$PLIMMIN
 10
0.0
 20
0.0
  9
$PLIMMAX
 10
12.0
 20
9.0
  9
$UNITMODE
 70
     0
  9
$VISRETAIN
 70
     1
  9
$PLINEGEN
 70
     0
  9
$PSLTSCALE
 70
     1
  9
$TREEDEPTH
 70
  3020
  9
$CMLSTYLE
  2
Standard
  9
$CMLJUST
 70
     0
  9
$CMLSCALE
 40
1.0
  9
$PROXYGRAPHICS
 70
     1
  9
$MEASUREMENT
 70
     1
  9
$CELWEIGHT
370
    -1
  9
$ENDCAPS
280
     0
  9
$JOINSTYLE
280
     0
  9
$LWDISPLAY
290
     1
  9
$INSUNITS
 70
     4
  9
$HYPERLINKBASE
  1

  9
$STYLESHEET
  1

  9
$XEDIT
290
     1
  9
$CEPSNTYPE
380
     0
  9
$PSTYLEMODE
290
     1
  9
$FINGERPRINTGUID
  2
{CF8688BB-770A-3B4F-B1CE-81B4ED9519AA}
  9
$VERSIONGUID
  2
{A9B78124-78A2-F14D-94ED-F3EACAA65D83}
  9
$EXTNAMES
290
     1
  9
$PSVPSCALE
 40
0.0
  9
$OLESTARTUP
290
     0
  0
ENDSEC
  0
SECTION
  2
CLASSES
  0
CLASS
  1
ACDBDICTIONARYWDFLT
  2
AcDbDictionaryWithDefault
  3
ObjectDBX Classes
 90
        0
280
     0
281
     0
  0
CLASS
  1
MATERIAL
  2
AcDbMaterial
  3
ObjectDBX Classes
 90
     1153
280
     0
281
     0
  0
CLASS
  1
VISUALSTYLE
  2
AcDbVisualStyle
  3
ObjectDBX Classes
 90
     4095
280
     0
281
     0
  0
CLASS
  1
SCALE
  2
AcDbScale
  3
ObjectDBX Classes
 90
     1153
280
     0
281
     0
  0
CLASS
  1
TABLESTYLE
  2
AcDbTableStyle
  3
ObjectDBX Classes
 90
     4095
280
     0
281
     0
  0
CLASS
  1
MLEADERSTYLE
  2
AcDbMLeaderStyle
  3
ACDB_MLEADERSTYLE_CLASS
 90
     4095
280
     0
281
     0
  0
CLASS
  1
ACDBSECTIONVIEWSTYLE
  2
AcDbSectionViewStyle
  3
ObjectDBX Classes
 90
     1025
280
     0
281
     0
  0
CLASS
  1
ACDBDETAILVIEWSTYLE
  2
AcDbDetailViewStyle
  3
ObjectDBX Classes
 90
     1025
280
     0
281
     0
  0
CLASS
  1
DICTIONARYVAR
  2
AcDbDictionaryVar
  3
ObjectDBX Classes
 90
        0
280
     0
281
     0
  0
CLASS
  1
EXACXREFPANELOBJECT
  2
ExAcXREFPanelObject
  3
EXAC_ESW
 90
     1025
280
     0
281
     0
  0
CLASS
  1
NPOCOLLECTION
  2
AcDbImpNonPersistentObjectsCollection
  3
ObjectDBX Classes
 90
     1153
280
     0
281
     0
  0
CLASS
  1
CELLSTYLEMAP
  2
AcDbCellStyleMap
  3
ObjectDBX Classes
 90
     1152
280
     0
281
     0
  0
CLASS
  1
ACDBPLACEHOLDER
  2
AcDbPlaceHolder
  3
ObjectDBX Classes
 90
        0
280
     0
281
     0
  0
CLASS
  1
LAYOUT
  2
AcDbLayout
  3
ObjectDBX Classes
 90
        0
280
     0
281
     0
  0
ENDSEC
  0
SECTION
  2
TABLES
  0
TABLE
  2
VPORT
  5
8
330
0
100
AcDbSymbolTable
 70
     1
  0
VPORT
  5
57
330
8
100
AcDbSymbolTableRecord
100
AcDbViewportTableRecord
  2
*Active
 70
     0
 10
0.0
 20
0.0
 11
1.0
 21
1.0
 12
45.1915189363699
 22
-14.85990160937985
 13
0.0
 23
0.0
 14
1.0
 24
1.0
 15
0.0
 25
0.0
 16
0.0
 26
0.0
 36
1.0
 17
0.0
 27
0.0
 37
0.0
 40
389.8957197740906
 41
2.318681318681318
 42
50.0
 43
0.0
 44
0.0
 50
0.0
 51
0.0
 71
     0
 72
   100
 73
     1
 74
     1
 75
     0
 76
     0
 77
     0
 78
     0
281
     0
 65
     1
110
0.0
120
0.0
130
0.0
111
1.0
121
0.0
131
0.0
112
0.0
122
1.0
132
0.0
 79
     0
146
0.0
1001
ACAD_NAV_VCDISPLAY
1070
     3
  0
ENDTAB
  0
TABLE
  2
LTYPE
  5
5
330
0
100
AcDbSymbolTable
 70
     1
  0
LTYPE
  5
5B
330
5
100
AcDbSymbolTableRecord
100
AcDbLinetypeTableRecord
  2
ByBlock
 70
     0
  3

 72
    65
 73
     0
 40
0.0
  0
LTYPE
  5
5C
330
5
100
AcDbSymbolTableRecord
100
AcDbLinetypeTableRecord
  2
ByLayer
 70
     0
  3

 72
    65
 73
     0
 40
0.0
  0
LTYPE
  5
5D
330
5
100
AcDbSymbolTableRecord
100
AcDbLinetypeTableRecord
  2
Continuous
 70
     0
  3
Solid line
 72
    65
 73
     0
 40
0.0
  0
ENDTAB
  0
TABLE
  2
LAYER
  5
2
330
0
100
AcDbSymbolTable
 70
     1
  0
LAYER
  5
54
330
2
100
AcDbSymbolTableRecord
100
AcDbLayerTableRecord
  2
0
 70
     0
 62
     7
  6
Continuous
370
    -3
390
F
  0
ENDTAB
  0
TABLE
  2
STYLE
  5
3
330
0
100
AcDbSymbolTable
 70
     2
  0
STYLE
  5
55
330
3
100
AcDbSymbolTableRecord
100
AcDbTextStyleTableRecord
  2
Standard
 70
     0
 40
0.0
 41
1.0
 50
0.0
 71
     0
 42
0.2
  3
txt
  4

  0
STYLE
  5
5A
330
3
100
AcDbSymbolTableRecord
100
AcDbTextStyleTableRecord
  2
Annotative
 70
     0
 40
0.0
 41
1.0
 50
0.0
 71
     0
 42
0.2
  3
txt
  4

1001
AcadAnnotative
1000
AnnotativeData
1002
{
1070
     1
1070
     1
1002
}
  0
ENDTAB
  0
TABLE
  2
VIEW
  5
6
330
0
100
AcDbSymbolTable
 70
     0
  0
ENDTAB
  0
TABLE
  2
UCS
  5
7
330
0
100
AcDbSymbolTable
 70
     0
  0
ENDTAB
  0
TABLE
  2
APPID
  5
9
330
0
100
AcDbSymbolTable
 70
     4
  0
APPID
  5
56
330
9
100
AcDbSymbolTableRecord
100
AcDbRegAppTableRecord
  2
ACAD
 70
     0
  0
APPID
  5
5E
330
9
100
AcDbSymbolTableRecord
100
AcDbRegAppTableRecord
  2
AcadAnnotative
 70
     0
  0
APPID
  5
C8
330
9
100
AcDbSymbolTableRecord
100
AcDbRegAppTableRecord
  2
ACAD_NAV_VCDISPLAY
 70
     0
  0
APPID
  5
48C
330
9
100
AcDbSymbolTableRecord
100
AcDbRegAppTableRecord
  2
ACAD_MLEADERVER
 70
     0
  0
ENDTAB
  0
TABLE
  2
DIMSTYLE
  5
A
330
0
100
AcDbSymbolTable
 70
     2
100
AcDbDimStyleTable
 71
     0
  0
DIMSTYLE
105
58
330
A
100
AcDbSymbolTableRecord
100
AcDbDimStyleTableRecord
  2
Standard
 70
     0
340
55
  0
DIMSTYLE
105
59
330
A
100
AcDbSymbolTableRecord
100
AcDbDimStyleTableRecord
  2
Annotative
 70
     0
340
55
1001
AcadAnnotative
1000
AnnotativeData
1002
{
1070
     1
1070
     1
1002
}
  0
ENDTAB
  0
TABLE
  2
BLOCK_RECORD
  5
1
330
0
100
AcDbSymbolTable
 70
     5
  0
BLOCK_RECORD
  5
70
330
1
100
AcDbSymbolTableRecord
100
AcDbBlockTableRecord
  2
*Model_Space
340
73
  0
BLOCK_RECORD
  5
6C
330
1
100
AcDbSymbolTableRecord
100
AcDbBlockTableRecord
  2
*Paper_Space
340
6F
  0
BLOCK_RECORD
  5
74
330
1
100
AcDbSymbolTableRecord
100
AcDbBlockTableRecord
  2
*Paper_Space0
340
77
  0
ENDTAB
  0
ENDSEC
  0
SECTION
  2
BLOCKS
  0
BLOCK
  5
71
330
70
100
AcDbEntity
  8
0
100
AcDbBlockBegin
  2
*Model_Space
 70
     0
 10
0.0
 20
0.0
 30
0.0
  3
*Model_Space
  1

  0
ENDBLK
  5
72
330
70
100
AcDbEntity
  8
0
100
AcDbBlockEnd
  0
BLOCK
  5
6D
330
6C
100
AcDbEntity
 67
     1
  8
0
100
AcDbBlockBegin
  2
*Paper_Space
 70
     0
 10
0.0
 20
0.0
 30
0.0
  3
*Paper_Space
  1

  0
ENDBLK
  5
6E
330
6C
100
AcDbEntity
 67
     1
  8
0
100
AcDbBlockEnd
  0
BLOCK
  5
75
330
74
100
AcDbEntity
 67
     1
  8
0
100
AcDbBlockBegin
  2
*Paper_Space0
 70
     0
 10
0.0
 20
0.0
 30
0.0
  3
*Paper_Space0
  1

  0
ENDBLK
  5
76
330
74
100
AcDbEntity
 67
     1
  8
0
100
AcDbBlockEnd
  0
ENDSEC
  0
SECTION
  2
ENTITIES
  0
LINE
  5
83
330
70
100
AcDbEntity
  8
0
100
AcDbLine
 10
27.25327862357725
 20
1.875000000000002
 30
0.0
 11
20.69077862357725
 21
1.875000000000001
 31
0.0
  0
LINE
  5
84
330
70
100
AcDbEntity
  8
0
100
AcDbLine
 10
20.69077862357725
 20
1.875000000000001
 30
0.0
 11
20.69077862357725
 21
-1.874999999999998
 31
0.0
  0
LINE
  5
85
330
70
100
AcDbEntity
  8
0
100
AcDbLine
 10
20.69077862357725
 20
-1.874999999999998
 30
0.0
 11
27.25327862357725
 21
-1.874999999999997
 31
0.0
  0
LINE
  5
86
330
70
100
AcDbEntity
  8
0
100
AcDbLine
 10
28.19077862357725
 20
10.26060429977005
 30
0.0
 11
28.19077862357725
 21
2.812500000000001
 31
0.0
  0
LINE
  5
87
330
70
100
AcDbEntity
  8
0
100
AcDbLine
 10
28.19077862357725
 20
-2.812499999999997
 30
0.0
 11
28.19077862357725
 21
-10.26060429977007
 31
0.0
  0
LINE
  5
88
330
70
100
AcDbEntity
  8
0
100
AcDbLine
 10
28.19077862357725
 20
2.812500000000002
 30
0.0
 11
27.25327862357725
 21
1.875000000000002
 31
0.0
  0
LINE
  5
89
330
70
100
AcDbEntity
  8
0
100
AcDbLine
 10
27.25327862357725
 20
-1.874999999999997
 30
0.0
 11
28.19077862357725
 21
-2.812499999999997
 31
0.0
  0
LINE
  5
8A
330
70
100
AcDbEntity
  8
0
100
AcDbLine
 10
19.67199587820232
 20
18.95440315341857
 30
0.0
 11
14.64482922023402
 21
14.73610946485065
 31
0.0
  0
LINE
  5
8B
330
70
100
AcDbEntity
  8
0
100
AcDbLine
 10
14.64482922023402
 20
14.73610946485065
 30
0.0
 11
17.05528275655855
 21
11.86344280315448
 31
0.0
  0
LINE
  5
8C
330
70
100
AcDbEntity
  8
0
100
AcDbLine
 10
17.05528275655855
 20
11.86344280315448
 30
0.0
 11
22.08244941452685
 21
16.0817364917224
 31
0.0
  0
LINE
  5
8D
330
70
100
AcDbEntity
  8
0
100
AcDbLine
 10
22.08244941452685
 20
16.0817364917224
 30
0.0
 11
23.40322946403202
 21
15.96618321037948
 31
0.0
  0
LINE
  5
8E
330
70
100
AcDbEntity
  8
0
100
AcDbLine
 10
23.40322946403202
 20
15.96618321037948
 30
0.0
 11
28.19077862357726
 21
10.26060429977005
 31
0.0
  0
LINE
  5
8F
330
70
100
AcDbEntity
  8
0
100
AcDbLine
 10
19.78754915954523
 20
20.27518320292374
 30
0.0
 11
19.67199587820232
 21
18.95440315341857
 31
0.0
  0
LINE
  5
90
330
70
100
AcDbEntity
  8
0
100
AcDbLine
 10
15.00000000000001
 20
25.98076211353316
 30
0.0
 11
19.78754915954523
 21
20.27518320292374
 31
0.0
  0
LINE
  5
91
330
70
100
AcDbEntity
  8
0
100
AcDbLine
 10
2.885967631535407
 20
27.16483041662625
 30
0.0
 11
1.746401465596174
 21
20.70202953748364
 31
0.0
  0
LINE
  5
92
330
70
100
AcDbEntity
  8
0
100
AcDbLine
 10
1.746401465596174
 20
20.70202953748364
 30
0.0
 11
5.439430539391954
 21
20.05084887123267
 31
0.0
  0
LINE
  5
93
330
70
100
AcDbEntity
  8
0
100
AcDbLine
 10
5.439430539391954
 20
20.05084887123267
 30
0.0
 11
6.578996705331175
 21
26.51364975037528
 31
0.0
  0
LINE
  5
94
330
70
100
AcDbEntity
  8
0
100
AcDbLine
 10
6.578996705331175
 20
26.51364975037528
 30
0.0
 11
7.665049140342881
 21
27.27411185226147
 31
0.0
  0
LINE
  5
95
330
70
100
AcDbEntity
  8
0
100
AcDbLine
 10
7.665049140342881
 20
27.27411185226147
 30
0.0
 11
15.00000000000001
 21
25.98076211353317
 31
0.0
  0
LINE
  5
96
330
70
100
AcDbEntity
  8
0
100
AcDbLine
 10
2.125505529649212
 20
28.25088285163795
 30
0.0
 11
2.885967631535407
 21
27.16483041662625
 31
0.0
  0
LINE
  5
97
330
70
100
AcDbEntity
  8
0
100
AcDbLine
 10
-5.209445330007902
 20
29.54423259036625
 30
0.0
 11
2.125505529649212
 21
28.25088285163795
 31
0.0
  0
LINE
  5
98
330
70
100
AcDbEntity
  8
0
100
AcDbLine
 10
-15.25043694388445
 20
22.6645316244333
 30
0.0
 11
-11.96918694388445
 21
16.98123991209793
 31
0.0
  0
LINE
  5
99
330
70
100
AcDbEntity
  8
0
100
AcDbLine
 10
-11.96918694388445
 20
16.98123991209793
 30
0.0
 11
-8.721591679692815
 21
18.85623991209793
 31
0.0
  0
LINE
  5
9A
330
70
100
AcDbEntity
  8
0
100
AcDbLine
 10
-8.721591679692814
 20
18.85623991209793
 30
0.0
 11
-12.00284167969282
 21
24.5395316244333
 31
0.0
  0
LINE
  5
9B
330
70
100
AcDbEntity
  8
0
100
AcDbLine
 10
-12.00284167969282
 20
24.5395316244333
 30
0.0
 11
-11.6596928636449
 21
25.82018044048122
 31
0.0
  0
LINE
  5
9C
330
70
100
AcDbEntity
  8
0
100
AcDbLine
 10
-11.6596928636449
 20
25.82018044048123
 30
0.0
 11
-5.20944533000791
 21
29.54423259036625
 31
0.0
  0
LINE
  5
9D
330
70
100
AcDbEntity
  8
0
100
AcDbLine
 10
-16.53108575993236
 20
23.00768044048123
 30
0.0
 11
-15.25043694388445
 21
22.66453162443331
 31
0.0
  0
LINE
  5
9E
330
70
100
AcDbEntity
  8
0
100
AcDbLine
 10
-22.98133329356935
 20
19.28362829059619
 30
0.0
 11
-16.53108575993236
 21
23.00768044048122
 31
0.0
  0
LINE
  5
9F
330
70
100
AcDbEntity
  8
0
100
AcDbLine
 10
-26.25099258353352
 20
7.559246596956698
 30
0.0
 11
-20.084259759626
 21
5.314739406381998
 31
0.0
  0
LINE
  5
A0
330
70
100
AcDbEntity
  8
0
100
AcDbLine
 10
-20.08425975962599
 20
5.314739406381997
 30
0.0
 11
-18.80168422215474
 21
8.838586734329151
 31
0.0
  0
LINE
  5
A1
330
70
100
AcDbEntity
  8
0
100
AcDbLine
 10
-18.80168422215474
 20
8.838586734329151
 30
0.0
 11
-24.96841704606227
 21
11.08309392490385
 31
0.0
  0
LINE
  5
A2
330
70
100
AcDbEntity
  8
0
100
AcDbLine
 10
-24.96841704606227
 20
11.08309392490385
 30
0.0
 11
-25.52873499368124
 21
12.28469964125846
 31
0.0
  0
LINE
  5
A3
330
70
100
AcDbEntity
  8
0
100
AcDbLine
 10
-25.52873499368124
 20
12.28469964125846
 30
0.0
 11
-22.98133329356935
 21
19.28362829059619
 31
0.0
  0
LINE
  5
A4
330
70
100
AcDbEntity
  8
0
100
AcDbLine
 10
-27.45259829988813
 20
6.998928649337729
 30
0.0
 11
-26.25099258353352
 21
7.559246596956697
 31
0.0
  0
LINE
  5
A5
330
70
100
AcDbEntity
  8
0
100
AcDbLine
 10
-30.00000000000002
 20
0.0000000000000092
 30
0.0
 11
-27.45259829988813
 21
6.99892864933773
 31
0.0
  0
LINE
  5
A6
330
70
100
AcDbEntity
  8
0
100
AcDbLine
 10
-24.96841704606226
 20
-11.08309392490385
 30
0.0
 11
-18.80168422215474
 21
-8.838586734329156
 31
0.0
  0
LINE
  5
A7
330
70
100
AcDbEntity
  8
0
100
AcDbLine
 10
-18.80168422215474
 20
-8.838586734329156
 30
0.0
 11
-20.084259759626
 21
-5.314739406382003
 31
0.0
  0
LINE
  5
A8
330
70
100
AcDbEntity
  8
0
100
AcDbLine
 10
-20.08425975962599
 20
-5.314739406382003
 30
0.0
 11
-26.25099258353352
 21
-7.559246596956708
 31
0.0
  0
LINE
  5
A9
330
70
100
AcDbEntity
  8
0
100
AcDbLine
 10
-26.25099258353352
 20
-7.559246596956707
 30
0.0
 11
-27.45259829988812
 21
-6.998928649337722
 31
0.0
  0
LINE
  5
AA
330
70
100
AcDbEntity
  8
0
100
AcDbLine
 10
-27.45259829988812
 20
-6.998928649337722
 30
0.0
 11
-30.00000000000001
 21
0.0000000000000071
 31
0.0
  0
LINE
  5
AB
330
70
100
AcDbEntity
  8
0
100
AcDbLine
 10
-25.52873499368124
 20
-12.28469964125846
 30
0.0
 11
-24.96841704606226
 21
-11.08309392490386
 31
0.0
  0
LINE
  5
AC
330
70
100
AcDbEntity
  8
0
100
AcDbLine
 10
-22.98133329356936
 20
-19.28362829059618
 30
0.0
 11
-25.52873499368124
 21
-12.28469964125846
 31
0.0
  0
LINE
  5
AD
330
70
100
AcDbEntity
  8
0
100
AcDbLine
 10
-12.00284167969281
 20
-24.53953162443331
 30
0.0
 11
-8.72159167969281
 21
-18.85623991209793
 31
0.0
  0
LINE
  5
AE
330
70
100
AcDbEntity
  8
0
100
AcDbLine
 10
-8.721591679692808
 20
-18.85623991209793
 30
0.0
 11
-11.96918694388445
 21
-16.98123991209793
 31
0.0
  0
LINE
  5
AF
330
70
100
AcDbEntity
  8
0
100
AcDbLine
 10
-11.96918694388445
 20
-16.98123991209793
 30
0.0
 11
-15.25043694388444
 21
-22.66453162443331
 31
0.0
  0
LINE
  5
B0
330
70
100
AcDbEntity
  8
0
100
AcDbLine
 10
-15.25043694388444
 20
-22.66453162443331
 30
0.0
 11
-16.53108575993236
 21
-23.00768044048121
 31
0.0
  0
LINE
  5
B1
330
70
100
AcDbEntity
  8
0
100
AcDbLine
 10
-16.53108575993236
 20
-23.00768044048121
 30
0.0
 11
-22.98133329356935
 21
-19.28362829059618
 31
0.0
  0
LINE
  5
B2
330
70
100
AcDbEntity
  8
0
100
AcDbLine
 10
-11.6596928636449
 20
-25.82018044048123
 30
0.0
 11
-12.00284167969281
 21
-24.53953162443331
 31
0.0
  0
LINE
  5
B3
330
70
100
AcDbEntity
  8
0
100
AcDbLine
 10
-5.209445330007927
 20
-29.54423259036627
 30
0.0
 11
-11.6596928636449
 21
-25.82018044048123
 31
0.0
  0
LINE
  5
B4
330
70
100
AcDbEntity
  8
0
100
AcDbLine
 10
6.57899670533119
 20
-26.51364975037527
 30
0.0
 11
5.43943053939196
 21
-20.05084887123266
 31
0.0
  0
LINE
  5
B5
330
70
100
AcDbEntity
  8
0
100
AcDbLine
 10
5.439430539391959
 20
-20.05084887123266
 30
0.0
 11
1.74640146559618
 21
-20.70202953748364
 31
0.0
  0
LINE
  5
B6
330
70
100
AcDbEntity
  8
0
100
AcDbLine
 10
1.746401465596181
 20
-20.70202953748364
 30
0.0
 11
2.885967631535411
 21
-27.16483041662625
 31
0.0
  0
LINE
  5
B7
330
70
100
AcDbEntity
  8
0
100
AcDbLine
 10
2.885967631535412
 20
-27.16483041662625
 30
0.0
 11
2.125505529649209
 21
-28.25088285163794
 31
0.0
  0
LINE
  5
B8
330
70
100
AcDbEntity
  8
0
100
AcDbLine
 10
2.125505529649209
 20
-28.25088285163794
 30
0.0
 11
-5.209445330007917
 21
-29.54423259036624
 31
0.0
  0
LINE
  5
B9
330
70
100
AcDbEntity
  8
0
100
AcDbLine
 10
7.66504914034288
 20
-27.27411185226149
 30
0.0
 11
6.57899670533119
 21
-26.51364975037528
 31
0.0
  0
LINE
  5
BA
330
70
100
AcDbEntity
  8
0
100
AcDbLine
 10
15.0
 20
-25.98076211353319
 30
0.0
 11
7.665049140342877
 21
-27.27411185226149
 31
0.0
  0
LINE
  5
BB
330
70
100
AcDbEntity
  8
0
100
AcDbLine
 10
22.08244941452686
 20
-16.0817364917224
 30
0.0
 11
17.05528275655856
 21
-11.86344280315449
 31
0.0
  0
LINE
  5
BC
330
70
100
AcDbEntity
  8
0
100
AcDbLine
 10
17.05528275655856
 20
-11.86344280315449
 30
0.0
 11
14.64482922023403
 21
-14.73610946485065
 31
0.0
  0
LINE
  5
BD
330
70
100
AcDbEntity
  8
0
100
AcDbLine
 10
14.64482922023403
 20
-14.73610946485065
 30
0.0
 11
19.67199587820233
 21
-18.95440315341857
 31
0.0
  0
LINE
  5
BE
330
70
100
AcDbEntity
  8
0
100
AcDbLine
 10
19.67199587820233
 20
-18.95440315341856
 30
0.0
 11
19.78754915954523
 21
-20.27518320292374
 31
0.0
  0
LINE
  5
BF
330
70
100
AcDbEntity
  8
0
100
AcDbLine
 10
19.78754915954523
 20
-20.27518320292374
 30
0.0
 11
15.0
 21
-25.98076211353316
 31
0.0
  0
LINE
  5
C0
330
70
100
AcDbEntity
  8
0
100
AcDbLine
 10
23.40322946403203
 20
-15.9661832103795
 30
0.0
 11
22.08244941452686
 21
-16.0817364917224
 31
0.0
  0
LINE
  5
C1
330
70
100
AcDbEntity
  8
0
100
AcDbLine
 10
28.19077862357727
 20
-10.26060429977008
 30
0.0
 11
23.40322946403203
 21
-15.9661832103795
 31
0.0
  0
LINE
  5
10C
330
70
100
AcDbEntity
  8
0
100
AcDbLine
 10
90.98707744304689
 20
1.941085207811244
 30
0.0
 11
84.42457744304689
 21
1.941085207811241
 31
0.0
  0
LINE
  5
10D
330
70
100
AcDbEntity
  8
0
100
AcDbLine
 10
84.42457744304689
 20
1.941085207811241
 30
0.0
 11
84.42457744304689
 21
-1.808914792188758
 31
0.0
  0
LINE
  5
10E
330
70
100
AcDbEntity
  8
0
100
AcDbLine
 10
84.42457744304689
 20
-1.808914792188758
 30
0.0
 11
90.98707744304689
 21
-1.808914792188755
 31
0.0
  0
LINE
  5
10F
330
70
100
AcDbEntity
  8
0
100
AcDbLine
 10
91.92457744304689
 20
10.32668950758129
 30
0.0
 11
91.92457744304689
 21
2.878585207811241
 31
0.0
  0
LINE
  5
110
330
70
100
AcDbEntity
  8
0
100
AcDbLine
 10
91.92457744304689
 20
-2.746414792188755
 30
0.0
 11
91.92457744304689
 21
-10.19451909195883
 31
0.0
  0
LINE
  5
111
330
70
100
AcDbEntity
  8
0
100
AcDbLine
 10
91.92457744304689
 20
2.878585207811241
 30
0.0
 11
90.98707744304689
 21
1.941085207811244
 31
0.0
  0
LINE
  5
112
330
70
100
AcDbEntity
  8
0
100
AcDbLine
 10
90.98707744304689
 20
-1.808914792188755
 30
0.0
 11
91.92457744304689
 21
-2.746414792188755
 31
0.0
  0
LINE
  5
113
330
70
100
AcDbEntity
  8
0
100
AcDbLine
 10
83.40579469767197
 20
19.02048836122981
 30
0.0
 11
78.37862803970368
 21
14.80219467266189
 31
0.0
  0
LINE
  5
114
330
70
100
AcDbEntity
  8
0
100
AcDbLine
 10
78.37862803970368
 20
14.8021946726619
 30
0.0
 11
80.78908157602821
 21
11.92952801096572
 31
0.0
  0
LINE
  5
115
330
70
100
AcDbEntity
  8
0
100
AcDbLine
 10
80.78908157602821
 20
11.92952801096572
 30
0.0
 11
85.8162482339965
 21
16.14782169953364
 31
0.0
  0
LINE
  5
116
330
70
100
AcDbEntity
  8
0
100
AcDbLine
 10
85.8162482339965
 20
16.14782169953364
 30
0.0
 11
87.13702828350168
 21
16.03226841819072
 31
0.0
  0
LINE
  5
117
330
70
100
AcDbEntity
  8
0
100
AcDbLine
 10
87.13702828350168
 20
16.03226841819072
 30
0.0
 11
91.92457744304691
 21
10.32668950758129
 31
0.0
  0
LINE
  5
118
330
70
100
AcDbEntity
  8
0
100
AcDbLine
 10
83.5213479790149
 20
20.34126841073498
 30
0.0
 11
83.40579469767197
 21
19.02048836122981
 31
0.0
  0
LINE
  5
119
330
70
100
AcDbEntity
  8
0
100
AcDbLine
 10
78.73379881946966
 20
26.0468473213444
 30
0.0
 11
83.5213479790149
 21
20.34126841073498
 31
0.0
  0
LINE
  5
11A
330
70
100
AcDbEntity
  8
0
100
AcDbLine
 10
66.61976645100506
 20
27.2309156244375
 30
0.0
 11
65.48020028506583
 21
20.76811474529488
 31
0.0
  0
LINE
  5
11B
330
70
100
AcDbEntity
  8
0
100
AcDbLine
 10
65.48020028506583
 20
20.76811474529488
 30
0.0
 11
69.17322935886161
 21
20.11693407904391
 31
0.0
  0
LINE
  5
11C
330
70
100
AcDbEntity
  8
0
100
AcDbLine
 10
69.17322935886161
 20
20.11693407904391
 30
0.0
 11
70.31279552480083
 21
26.57973495818652
 31
0.0
  0
LINE
  5
11D
330
70
100
AcDbEntity
  8
0
100
AcDbLine
 10
70.31279552480083
 20
26.57973495818652
 30
0.0
 11
71.39884795981254
 21
27.34019706007271
 31
0.0
  0
LINE
  5
11E
330
70
100
AcDbEntity
  8
0
100
AcDbLine
 10
71.39884795981254
 20
27.34019706007271
 30
0.0
 11
78.73379881946966
 21
26.04684732134442
 31
0.0
  0
LINE
  5
11F
330
70
100
AcDbEntity
  8
0
100
AcDbLine
 10
65.85930434911887
 20
28.31696805944919
 30
0.0
 11
66.61976645100506
 21
27.23091562443749
 31
0.0
  0
LINE
  5
120
330
70
100
AcDbEntity
  8
0
100
AcDbLine
 10
58.52435348946175
 20
29.61031779817749
 30
0.0
 11
65.85930434911887
 21
28.31696805944919
 31
0.0
  0
LINE
  5
121
330
70
100
AcDbEntity
  8
0
100
AcDbLine
 10
48.4833618755852
 20
22.73061683224455
 30
0.0
 11
51.7646118755852
 21
17.04732511990917
 31
0.0
  0
LINE
  5
122
330
70
100
AcDbEntity
  8
0
100
AcDbLine
 10
51.7646118755852
 20
17.04732511990917
 30
0.0
 11
55.01220713977684
 21
18.92232511990917
 31
0.0
  0
LINE
  5
123
330
70
100
AcDbEntity
  8
0
100
AcDbLine
 10
55.01220713977684
 20
18.92232511990917
 30
0.0
 11
51.73095713977684
 21
24.60561683224455
 31
0.0
  0
LINE
  5
124
330
70
100
AcDbEntity
  8
0
100
AcDbLine
 10
51.73095713977684
 20
24.60561683224455
 30
0.0
 11
52.07410595582476
 21
25.88626564829247
 31
0.0
  0
LINE
  5
125
330
70
100
AcDbEntity
  8
0
100
AcDbLine
 10
52.07410595582476
 20
25.88626564829247
 30
0.0
 11
58.52435348946174
 21
29.61031779817749
 31
0.0
  0
LINE
  5
126
330
70
100
AcDbEntity
  8
0
100
AcDbLine
 10
47.20271305953729
 20
23.07376564829247
 30
0.0
 11
48.4833618755852
 21
22.73061683224455
 31
0.0
  0
LINE
  5
127
330
70
100
AcDbEntity
  8
0
100
AcDbLine
 10
40.7524655259003
 20
19.34971349840744
 30
0.0
 11
47.20271305953729
 21
23.07376564829247
 31
0.0
  0
LINE
  5
128
330
70
100
AcDbEntity
  8
0
100
AcDbLine
 10
37.48280623593614
 20
7.625331804767938
 30
0.0
 11
43.64953905984366
 21
5.380824614193237
 31
0.0
  0
LINE
  5
129
330
70
100
AcDbEntity
  8
0
100
AcDbLine
 10
43.64953905984366
 20
5.380824614193237
 30
0.0
 11
44.93211459731491
 21
8.904671942140396
 31
0.0
  0
LINE
  5
12A
330
70
100
AcDbEntity
  8
0
100
AcDbLine
 10
44.93211459731491
 20
8.904671942140396
 30
0.0
 11
38.76538177340739
 21
11.14917913271509
 31
0.0
  0
LINE
  5
12B
330
70
100
AcDbEntity
  8
0
100
AcDbLine
 10
38.76538177340739
 20
11.14917913271509
 30
0.0
 11
38.20506382578842
 21
12.3507848490697
 31
0.0
  0
LINE
  5
12C
330
70
100
AcDbEntity
  8
0
100
AcDbLine
 10
38.20506382578841
 20
12.3507848490697
 30
0.0
 11
40.7524655259003
 21
19.34971349840743
 31
0.0
  0
LINE
  5
12D
330
70
100
AcDbEntity
  8
0
100
AcDbLine
 10
36.28120051958153
 20
7.065013857148969
 30
0.0
 11
37.48280623593614
 21
7.625331804767938
 31
0.0
  0
LINE
  5
12E
330
70
100
AcDbEntity
  8
0
100
AcDbLine
 10
33.73379881946964
 20
0.0660852078112519
 30
0.0
 11
36.28120051958153
 21
7.065013857148969
 31
0.0
  0
LINE
  5
12F
330
70
100
AcDbEntity
  8
0
100
AcDbLine
 10
38.7653817734074
 20
-11.01700871709261
 30
0.0
 11
44.93211459731491
 21
-8.772501526517913
 31
0.0
  0
LINE
  5
130
330
70
100
AcDbEntity
  8
0
100
AcDbLine
 10
44.93211459731491
 20
-8.772501526517913
 30
0.0
 11
43.64953905984366
 21
-5.248654198570761
 31
0.0
  0
LINE
  5
131
330
70
100
AcDbEntity
  8
0
100
AcDbLine
 10
43.64953905984366
 20
-5.248654198570761
 30
0.0
 11
37.48280623593614
 21
-7.493161389145466
 31
0.0
  0
LINE
  5
132
330
70
100
AcDbEntity
  8
0
100
AcDbLine
 10
37.48280623593614
 20
-7.493161389145466
 30
0.0
 11
36.28120051958154
 21
-6.932843441526479
 31
0.0
  0
LINE
  5
133
330
70
100
AcDbEntity
  8
0
100
AcDbLine
 10
36.28120051958154
 20
-6.932843441526479
 30
0.0
 11
33.73379881946965
 21
0.0660852078112484
 31
0.0
  0
LINE
  5
134
330
70
100
AcDbEntity
  8
0
100
AcDbLine
 10
38.20506382578841
 20
-12.21861443344722
 30
0.0
 11
38.7653817734074
 21
-11.01700871709261
 31
0.0
  0
LINE
  5
135
330
70
100
AcDbEntity
  8
0
100
AcDbLine
 10
40.75246552590029
 20
-19.21754308278494
 30
0.0
 11
38.20506382578841
 21
-12.21861443344722
 31
0.0
  0
LINE
  5
136
330
70
100
AcDbEntity
  8
0
100
AcDbLine
 10
51.73095713977684
 20
-24.47344641662207
 30
0.0
 11
55.01220713977684
 21
-18.79015470428669
 31
0.0
  0
LINE
  5
137
330
70
100
AcDbEntity
  8
0
100
AcDbLine
 10
55.01220713977684
 20
-18.79015470428669
 30
0.0
 11
51.7646118755852
 21
-16.91515470428669
 31
0.0
  0
LINE
  5
138
330
70
100
AcDbEntity
  8
0
100
AcDbLine
 10
51.7646118755852
 20
-16.91515470428669
 30
0.0
 11
48.48336187558521
 21
-22.59844641662207
 31
0.0
  0
LINE
  5
139
330
70
100
AcDbEntity
  8
0
100
AcDbLine
 10
48.48336187558521
 20
-22.59844641662207
 30
0.0
 11
47.20271305953729
 21
-22.94159523266997
 31
0.0
  0
LINE
  5
13A
330
70
100
AcDbEntity
  8
0
100
AcDbLine
 10
47.20271305953729
 20
-22.94159523266997
 30
0.0
 11
40.7524655259003
 21
-19.21754308278493
 31
0.0
  0
LINE
  5
13B
330
70
100
AcDbEntity
  8
0
100
AcDbLine
 10
52.07410595582475
 20
-25.75409523266999
 30
0.0
 11
51.73095713977684
 21
-24.47344641662207
 31
0.0
  0
LINE
  5
13C
330
70
100
AcDbEntity
  8
0
100
AcDbLine
 10
58.52435348946173
 20
-29.47814738255502
 30
0.0
 11
52.07410595582475
 21
-25.75409523266999
 31
0.0
  0
LINE
  5
13D
330
70
100
AcDbEntity
  8
0
100
AcDbLine
 10
70.31279552480085
 20
-26.44756454256403
 30
0.0
 11
69.17322935886161
 21
-19.98476366342142
 31
0.0
  0
LINE
  5
13E
330
70
100
AcDbEntity
  8
0
100
AcDbLine
 10
69.17322935886161
 20
-19.98476366342142
 30
0.0
 11
65.48020028506583
 21
-20.6359443296724
 31
0.0
  0
LINE
  5
13F
330
70
100
AcDbEntity
  8
0
100
AcDbLine
 10
65.48020028506583
 20
-20.6359443296724
 30
0.0
 11
66.61976645100506
 21
-27.09874520881501
 31
0.0
  0
LINE
  5
140
330
70
100
AcDbEntity
  8
0
100
AcDbLine
 10
66.61976645100506
 20
-27.09874520881502
 30
0.0
 11
65.85930434911887
 21
-28.1847976438267
 31
0.0
  0
LINE
  5
141
330
70
100
AcDbEntity
  8
0
100
AcDbLine
 10
65.85930434911887
 20
-28.1847976438267
 30
0.0
 11
58.52435348946174
 21
-29.478147382555
 31
0.0
  0
LINE
  5
142
330
70
100
AcDbEntity
  8
0
100
AcDbLine
 10
71.39884795981254
 20
-27.20802664445024
 30
0.0
 11
70.31279552480085
 21
-26.44756454256404
 31
0.0
  0
LINE
  5
143
330
70
100
AcDbEntity
  8
0
100
AcDbLine
 10
78.73379881946966
 20
-25.91467690572195
 30
0.0
 11
71.39884795981254
 21
-27.20802664445024
 31
0.0
  0
LINE
  5
144
330
70
100
AcDbEntity
  8
0
100
AcDbLine
 10
85.8162482339965
 20
-16.01565128391116
 30
0.0
 11
80.78908157602823
 21
-11.79735759534325
 31
0.0
  0
LINE
  5
145
330
70
100
AcDbEntity
  8
0
100
AcDbLine
 10
80.78908157602823
 20
-11.79735759534325
 30
0.0
 11
78.37862803970368
 21
-14.6700242570394
 31
0.0
  0
LINE
  5
146
330
70
100
AcDbEntity
  8
0
100
AcDbLine
 10
78.37862803970368
 20
-14.67002425703941
 30
0.0
 11
83.40579469767197
 21
-18.88831794560733
 31
0.0
  0
LINE
  5
147
330
70
100
AcDbEntity
  8
0
100
AcDbLine
 10
83.40579469767197
 20
-18.88831794560732
 30
0.0
 11
83.5213479790149
 21
-20.20909799511249
 31
0.0
  0
LINE
  5
148
330
70
100
AcDbEntity
  8
0
100
AcDbLine
 10
83.5213479790149
 20
-20.20909799511249
 30
0.0
 11
78.73379881946966
 21
-25.91467690572192
 31
0.0
  0
LINE
  5
149
330
70
100
AcDbEntity
  8
0
100
AcDbLine
 10
87.1370282835017
 20
-15.90009800256826
 30
0.0
 11
85.8162482339965
 21
-16.01565128391116
 31
0.0
  0
LINE
  5
14A
330
70
100
AcDbEntity
  8
0
100
AcDbLine
 10
91.92457744304693
 20
-10.19451909195884
 30
0.0
 11
87.1370282835017
 21
-15.90009800256826
 31
0.0
  0
LINE
  5
1CD
330
70
100
AcDbEntity
  8
0
100
AcDbLine
 10
159.78021491088
 20
0.1551818347623488
 30
0.0
 11
153.21771491088
 21
0.1551818347623453
 31
0.0
  0
LINE
  5
1CE
330
70
100
AcDbEntity
  8
0
100
AcDbLine
 10
153.21771491088
 20
0.1551818347623453
 30
0.0
 11
153.21771491088
 21
-3.594818165237654
 31
0.0
  0
LINE
  5
1CF
330
70
100
AcDbEntity
  8
0
100
AcDbLine
 10
153.21771491088
 20
-3.594818165237654
 30
0.0
 11
159.78021491088
 21
-3.594818165237651
 31
0.0
  0
LINE
  5
1D0
330
70
100
AcDbEntity
  8
0
100
AcDbLine
 10
160.71771491088
 20
8.540786134532396
 30
0.0
 11
160.71771491088
 21
1.092681834762345
 31
0.0
  0
LINE
  5
1D1
330
70
100
AcDbEntity
  8
0
100
AcDbLine
 10
160.71771491088
 20
-4.532318165237651
 30
0.0
 11
160.71771491088
 21
-11.98042246500772
 31
0.0
  0
LINE
  5
1D2
330
70
100
AcDbEntity
  8
0
100
AcDbLine
 10
160.71771491088
 20
1.092681834762345
 30
0.0
 11
159.78021491088
 21
0.1551818347623488
 31
0.0
  0
LINE
  5
1D3
330
70
100
AcDbEntity
  8
0
100
AcDbLine
 10
159.78021491088
 20
-3.594818165237651
 30
0.0
 11
160.71771491088
 21
-4.532318165237651
 31
0.0
  0
LINE
  5
1D4
330
70
100
AcDbEntity
  8
0
100
AcDbLine
 10
152.1989321655051
 20
17.23458498818091
 30
0.0
 11
147.1717655075368
 21
13.01629129961299
 31
0.0
  0
LINE
  5
1D5
330
70
100
AcDbEntity
  8
0
100
AcDbLine
 10
147.1717655075368
 20
13.016291299613
 30
0.0
 11
149.5822190438613
 21
10.14362463791683
 31
0.0
  0
LINE
  5
1D6
330
70
100
AcDbEntity
  8
0
100
AcDbLine
 10
149.5822190438613
 20
10.14362463791683
 30
0.0
 11
154.6093857018296
 21
14.36191832648474
 31
0.0
  0
LINE
  5
1D7
330
70
100
AcDbEntity
  8
0
100
AcDbLine
 10
154.6093857018296
 20
14.36191832648474
 30
0.0
 11
155.9301657513348
 21
14.24636504514183
 31
0.0
  0
LINE
  5
1D8
330
70
100
AcDbEntity
  8
0
100
AcDbLine
 10
155.9301657513348
 20
14.24636504514183
 30
0.0
 11
160.71771491088
 21
8.540786134532396
 31
0.0
  0
LINE
  5
1D9
330
70
100
AcDbEntity
  8
0
100
AcDbLine
 10
152.314485446848
 20
18.55536503768608
 30
0.0
 11
152.1989321655051
 21
17.23458498818091
 31
0.0
  0
LINE
  5
1DA
330
70
100
AcDbEntity
  8
0
100
AcDbLine
 10
147.5269362873027
 20
24.26094394829551
 30
0.0
 11
152.314485446848
 21
18.55536503768608
 31
0.0
  0
LINE
  5
1DB
330
70
100
AcDbEntity
  8
0
100
AcDbLine
 10
135.4129039188382
 20
25.44501225138861
 30
0.0
 11
134.2733377528989
 21
18.98221137224598
 31
0.0
  0
LINE
  5
1DC
330
70
100
AcDbEntity
  8
0
100
AcDbLine
 10
134.2733377528989
 20
18.98221137224598
 30
0.0
 11
137.9663668266947
 21
18.33103070599501
 31
0.0
  0
LINE
  5
1DD
330
70
100
AcDbEntity
  8
0
100
AcDbLine
 10
137.9663668266947
 20
18.33103070599501
 30
0.0
 11
139.1059329926339
 21
24.79383158513762
 31
0.0
  0
LINE
  5
1DE
330
70
100
AcDbEntity
  8
0
100
AcDbLine
 10
139.1059329926339
 20
24.79383158513762
 30
0.0
 11
140.1919854276456
 21
25.55429368702382
 31
0.0
  0
LINE
  5
1DF
330
70
100
AcDbEntity
  8
0
100
AcDbLine
 10
140.1919854276456
 20
25.55429368702382
 30
0.0
 11
147.5269362873027
 21
24.26094394829552
 31
0.0
  0
LINE
  5
1E0
330
70
100
AcDbEntity
  8
0
100
AcDbLine
 10
134.6524418169519
 20
26.53106468640029
 30
0.0
 11
135.4129039188382
 21
25.4450122513886
 31
0.0
  0
LINE
  5
1E1
330
70
100
AcDbEntity
  8
0
100
AcDbLine
 10
127.3174909572948
 20
27.8244144251286
 30
0.0
 11
134.6524418169519
 21
26.53106468640029
 31
0.0
  0
LINE
  5
1E2
330
70
100
AcDbEntity
  8
0
100
AcDbLine
 10
117.2764993434183
 20
20.94471345919565
 30
0.0
 11
120.5577493434183
 21
15.26142174686027
 31
0.0
  0
LINE
  5
1E3
330
70
100
AcDbEntity
  8
0
100
AcDbLine
 10
120.5577493434183
 20
15.26142174686027
 30
0.0
 11
123.8053446076099
 21
17.13642174686028
 31
0.0
  0
LINE
  5
1E4
330
70
100
AcDbEntity
  8
0
100
AcDbLine
 10
123.8053446076099
 20
17.13642174686028
 30
0.0
 11
120.5240946076099
 21
22.81971345919565
 31
0.0
  0
LINE
  5
1E5
330
70
100
AcDbEntity
  8
0
100
AcDbLine
 10
120.5240946076099
 20
22.81971345919565
 30
0.0
 11
120.8672434236578
 21
24.10036227524357
 31
0.0
  0
LINE
  5
1E6
330
70
100
AcDbEntity
  8
0
100
AcDbLine
 10
120.8672434236578
 20
24.10036227524357
 30
0.0
 11
127.3174909572948
 21
27.8244144251286
 31
0.0
  0
LINE
  5
1E7
330
70
100
AcDbEntity
  8
0
100
AcDbLine
 10
115.9958505273704
 20
21.28786227524357
 30
0.0
 11
117.2764993434183
 21
20.94471345919565
 31
0.0
  0
LINE
  5
1E8
330
70
100
AcDbEntity
  8
0
100
AcDbLine
 10
109.5456029937334
 20
17.56381012535854
 30
0.0
 11
115.9958505273704
 21
21.28786227524357
 31
0.0
  0
LINE
  5
1E9
330
70
100
AcDbEntity
  8
0
100
AcDbLine
 10
106.2759437037692
 20
5.839428431719042
 30
0.0
 11
112.4426765276767
 21
3.594921241144341
 31
0.0
  0
LINE
  5
1EA
330
70
100
AcDbEntity
  8
0
100
AcDbLine
 10
112.4426765276767
 20
3.594921241144341
 30
0.0
 11
113.725252065148
 21
7.1187685690915
 31
0.0
  0
LINE
  5
1EB
330
70
100
AcDbEntity
  8
0
100
AcDbLine
 10
113.725252065148
 20
7.1187685690915
 30
0.0
 11
107.5585192412405
 21
9.363275759666194
 31
0.0
  0
LINE
  5
1EC
330
70
100
AcDbEntity
  8
0
100
AcDbLine
 10
107.5585192412405
 20
9.363275759666194
 30
0.0
 11
106.9982012936215
 21
10.56488147602081
 31
0.0
  0
LINE
  5
1ED
330
70
100
AcDbEntity
  8
0
100
AcDbLine
 10
106.9982012936215
 20
10.56488147602081
 30
0.0
 11
109.5456029937334
 21
17.56381012535853
 31
0.0
  0
LINE
  5
1EE
330
70
100
AcDbEntity
  8
0
100
AcDbLine
 10
105.0743379874146
 20
5.279110484100073
 30
0.0
 11
106.2759437037692
 21
5.839428431719042
 31
0.0
  0
LINE
  5
1EF
330
70
100
AcDbEntity
  8
0
100
AcDbLine
 10
102.5269362873027
 20
-1.719818165237644
 30
0.0
 11
105.0743379874146
 21
5.279110484100073
 31
0.0
  0
LINE
  5
1F0
330
70
100
AcDbEntity
  8
0
100
AcDbLine
 10
107.5585192412405
 20
-12.80291209014151
 30
0.0
 11
113.725252065148
 21
-10.55840489956681
 31
0.0
  0
LINE
  5
1F1
330
70
100
AcDbEntity
  8
0
100
AcDbLine
 10
113.725252065148
 20
-10.55840489956681
 30
0.0
 11
112.4426765276767
 21
-7.034557571619657
 31
0.0
  0
LINE
  5
1F2
330
70
100
AcDbEntity
  8
0
100
AcDbLine
 10
112.4426765276767
 20
-7.034557571619657
 30
0.0
 11
106.2759437037692
 21
-9.279064762194362
 31
0.0
  0
LINE
  5
1F3
330
70
100
AcDbEntity
  8
0
100
AcDbLine
 10
106.2759437037692
 20
-9.279064762194362
 30
0.0
 11
105.0743379874146
 21
-8.718746814575375
 31
0.0
  0
LINE
  5
1F4
330
70
100
AcDbEntity
  8
0
100
AcDbLine
 10
105.0743379874146
 20
-8.718746814575375
 30
0.0
 11
102.5269362873027
 21
-1.719818165237647
 31
0.0
  0
LINE
  5
1F5
330
70
100
AcDbEntity
  8
0
100
AcDbLine
 10
106.9982012936215
 20
-14.00451780649612
 30
0.0
 11
107.5585192412405
 21
-12.80291209014151
 31
0.0
  0
LINE
  5
1F6
330
70
100
AcDbEntity
  8
0
100
AcDbLine
 10
109.5456029937334
 20
-21.00344645583384
 30
0.0
 11
106.9982012936215
 21
-14.00451780649611
 31
0.0
  0
LINE
  5
1F7
330
70
100
AcDbEntity
  8
0
100
AcDbLine
 10
120.5240946076099
 20
-26.25934978967097
 30
0.0
 11
123.8053446076099
 21
-20.57605807733558
 31
0.0
  0
LINE
  5
1F8
330
70
100
AcDbEntity
  8
0
100
AcDbLine
 10
123.8053446076099
 20
-20.57605807733559
 30
0.0
 11
120.5577493434183
 21
-18.70105807733558
 31
0.0
  0
LINE
  5
1F9
330
70
100
AcDbEntity
  8
0
100
AcDbLine
 10
120.5577493434183
 20
-18.70105807733558
 30
0.0
 11
117.2764993434183
 21
-24.38434978967097
 31
0.0
  0
LINE
  5
1FA
330
70
100
AcDbEntity
  8
0
100
AcDbLine
 10
117.2764993434183
 20
-24.38434978967097
 30
0.0
 11
115.9958505273704
 21
-24.72749860571886
 31
0.0
  0
LINE
  5
1FB
330
70
100
AcDbEntity
  8
0
100
AcDbLine
 10
115.9958505273704
 20
-24.72749860571887
 30
0.0
 11
109.5456029937334
 21
-21.00344645583383
 31
0.0
  0
LINE
  5
1FC
330
70
100
AcDbEntity
  8
0
100
AcDbLine
 10
120.8672434236578
 20
-27.53999860571888
 30
0.0
 11
120.5240946076099
 21
-26.25934978967097
 31
0.0
  0
LINE
  5
1FD
330
70
100
AcDbEntity
  8
0
100
AcDbLine
 10
127.3174909572948
 20
-31.26405075560392
 30
0.0
 11
120.8672434236578
 21
-27.53999860571888
 31
0.0
  0
LINE
  5
1FE
330
70
100
AcDbEntity
  8
0
100
AcDbLine
 10
139.1059329926339
 20
-28.23346791561293
 30
0.0
 11
137.9663668266947
 21
-21.77066703647032
 31
0.0
  0
LINE
  5
1FF
330
70
100
AcDbEntity
  8
0
100
AcDbLine
 10
137.9663668266947
 20
-21.77066703647032
 30
0.0
 11
134.2733377528989
 21
-22.4218477027213
 31
0.0
  0
LINE
  5
200
330
70
100
AcDbEntity
  8
0
100
AcDbLine
 10
134.2733377528989
 20
-22.4218477027213
 30
0.0
 11
135.4129039188382
 21
-28.88464858186391
 31
0.0
  0
LINE
  5
201
330
70
100
AcDbEntity
  8
0
100
AcDbLine
 10
135.4129039188382
 20
-28.88464858186391
 30
0.0
 11
134.6524418169519
 21
-29.9707010168756
 31
0.0
  0
LINE
  5
202
330
70
100
AcDbEntity
  8
0
100
AcDbLine
 10
134.6524418169519
 20
-29.9707010168756
 30
0.0
 11
127.3174909572948
 21
-31.2640507556039
 31
0.0
  0
LINE
  5
203
330
70
100
AcDbEntity
  8
0
100
AcDbLine
 10
140.1919854276456
 20
-28.99393001749914
 30
0.0
 11
139.1059329926339
 21
-28.23346791561293
 31
0.0
  0
LINE
  5
204
330
70
100
AcDbEntity
  8
0
100
AcDbLine
 10
147.5269362873027
 20
-27.70058027877084
 30
0.0
 11
140.1919854276456
 21
-28.99393001749914
 31
0.0
  0
LINE
  5
205
330
70
100
AcDbEntity
  8
0
100
AcDbLine
 10
154.6093857018296
 20
-17.80155465696006
 30
0.0
 11
149.5822190438613
 21
-13.58326096839215
 31
0.0
  0
LINE
  5
206
330
70
100
AcDbEntity
  8
0
100
AcDbLine
 10
149.5822190438613
 20
-13.58326096839215
 30
0.0
 11
147.1717655075368
 21
-16.4559276300883
 31
0.0
  0
LINE
  5
207
330
70
100
AcDbEntity
  8
0
100
AcDbLine
 10
147.1717655075368
 20
-16.4559276300883
 30
0.0
 11
152.1989321655051
 21
-20.67422131865622
 31
0.0
  0
LINE
  5
208
330
70
100
AcDbEntity
  8
0
100
AcDbLine
 10
152.1989321655051
 20
-20.67422131865622
 30
0.0
 11
152.314485446848
 21
-21.99500136816139
 31
0.0
  0
LINE
  5
209
330
70
100
AcDbEntity
  8
0
100
AcDbLine
 10
152.314485446848
 20
-21.99500136816139
 30
0.0
 11
147.5269362873027
 21
-27.70058027877082
 31
0.0
  0
LINE
  5
20A
330
70
100
AcDbEntity
  8
0
100
AcDbLine
 10
155.9301657513348
 20
-17.68600137561716
 30
0.0
 11
154.6093857018296
 21
-17.80155465696006
 31
0.0
  0
LINE
  5
20B
330
70
100
AcDbEntity
  8
0
100
AcDbLine
 10
160.71771491088
 20
-11.98042246500774
 30
0.0
 11
155.9301657513348
 21
-17.68600137561715
 31
0.0
  0
LINE
  5
20C
330
70
100
AcDbEntity
  8
0
100
AcDbLine
 10
223.5140137303496
 20
0.2212670425735901
 30
0.0
 11
216.9515137303497
 21
0.2212670425735865
 31
0.0
  0
LINE
  5
20D
330
70
100
AcDbEntity
  8
0
100
AcDbLine
 10
216.9515137303497
 20
0.2212670425735865
 30
0.0
 11
216.9515137303497
 21
-3.528732957426413
 31
0.0
  0
LINE
  5
20E
330
70
100
AcDbEntity
  8
0
100
AcDbLine
 10
216.9515137303497
 20
-3.528732957426413
 30
0.0
 11
223.5140137303496
 21
-3.528732957426409
 31
0.0
  0
LINE
  5
20F
330
70
100
AcDbEntity
  8
0
100
AcDbLine
 10
224.4515137303497
 20
8.606871342343637
 30
0.0
 11
224.4515137303497
 21
1.158767042573586
 31
0.0
  0
LINE
  5
210
330
70
100
AcDbEntity
  8
0
100
AcDbLine
 10
224.4515137303497
 20
-4.466232957426409
 30
0.0
 11
224.4515137303497
 21
-11.91433725719648
 31
0.0
  0
LINE
  5
211
330
70
100
AcDbEntity
  8
0
100
AcDbLine
 10
224.4515137303497
 20
1.158767042573586
 30
0.0
 11
223.5140137303496
 21
0.2212670425735901
 31
0.0
  0
LINE
  5
212
330
70
100
AcDbEntity
  8
0
100
AcDbLine
 10
223.5140137303496
 20
-3.528732957426409
 30
0.0
 11
224.4515137303497
 21
-4.466232957426409
 31
0.0
  0
LINE
  5
213
330
70
100
AcDbEntity
  8
0
100
AcDbLine
 10
215.9327309849747
 20
17.30067019599215
 30
0.0
 11
210.9055643270064
 21
13.08237650742423
 31
0.0
  0
LINE
  5
214
330
70
100
AcDbEntity
  8
0
100
AcDbLine
 10
210.9055643270064
 20
13.08237650742424
 30
0.0
 11
213.316017863331
 21
10.20970984572807
 31
0.0
  0
LINE
  5
215
330
70
100
AcDbEntity
  8
0
100
AcDbLine
 10
213.316017863331
 20
10.20970984572807
 30
0.0
 11
218.3431845212993
 21
14.42800353429598
 31
0.0
  0
LINE
  5
216
330
70
100
AcDbEntity
  8
0
100
AcDbLine
 10
218.3431845212993
 20
14.42800353429598
 30
0.0
 11
219.6639645708045
 21
14.31245025295307
 31
0.0
  0
LINE
  5
217
330
70
100
AcDbEntity
  8
0
100
AcDbLine
 10
219.6639645708045
 20
14.31245025295307
 30
0.0
 11
224.4515137303497
 21
8.606871342343637
 31
0.0
  0
LINE
  5
218
330
70
100
AcDbEntity
  8
0
100
AcDbLine
 10
216.0482842663177
 20
18.62145024549732
 30
0.0
 11
215.9327309849747
 21
17.30067019599215
 31
0.0
  0
LINE
  5
219
330
70
100
AcDbEntity
  8
0
100
AcDbLine
 10
211.2607351067724
 20
24.32702915610675
 30
0.0
 11
216.0482842663177
 21
18.62145024549732
 31
0.0
  0
LINE
  5
21A
330
70
100
AcDbEntity
  8
0
100
AcDbLine
 10
199.1467027383078
 20
25.51109745919985
 30
0.0
 11
198.0071365723686
 21
19.04829658005722
 31
0.0
  0
LINE
  5
21B
330
70
100
AcDbEntity
  8
0
100
AcDbLine
 10
198.0071365723686
 20
19.04829658005722
 30
0.0
 11
201.7001656461644
 21
18.39711591380625
 31
0.0
  0
LINE
  5
21C
330
70
100
AcDbEntity
  8
0
100
AcDbLine
 10
201.7001656461644
 20
18.39711591380625
 30
0.0
 11
202.8397318121036
 21
24.85991679294887
 31
0.0
  0
LINE
  5
21D
330
70
100
AcDbEntity
  8
0
100
AcDbLine
 10
202.8397318121036
 20
24.85991679294887
 30
0.0
 11
203.9257842471153
 21
25.62037889483506
 31
0.0
  0
LINE
  5
21E
330
70
100
AcDbEntity
  8
0
100
AcDbLine
 10
203.9257842471153
 20
25.62037889483506
 30
0.0
 11
211.2607351067724
 21
24.32702915610676
 31
0.0
  0
LINE
  5
21F
330
70
100
AcDbEntity
  8
0
100
AcDbLine
 10
198.3862406364216
 20
26.59714989421154
 30
0.0
 11
199.1467027383078
 21
25.51109745919984
 31
0.0
  0
LINE
  5
220
330
70
100
AcDbEntity
  8
0
100
AcDbLine
 10
191.0512897767645
 20
27.89049963293984
 30
0.0
 11
198.3862406364216
 21
26.59714989421154
 31
0.0
  0
LINE
  5
221
330
70
100
AcDbEntity
  8
0
100
AcDbLine
 10
181.010298162888
 20
21.01079866700689
 30
0.0
 11
184.291548162888
 21
15.32750695467151
 31
0.0
  0
LINE
  5
222
330
70
100
AcDbEntity
  8
0
100
AcDbLine
 10
184.291548162888
 20
15.32750695467151
 30
0.0
 11
187.5391434270796
 21
17.20250695467152
 31
0.0
  0
LINE
  5
223
330
70
100
AcDbEntity
  8
0
100
AcDbLine
 10
187.5391434270796
 20
17.20250695467152
 30
0.0
 11
184.2578934270796
 21
22.88579866700689
 31
0.0
  0
LINE
  5
224
330
70
100
AcDbEntity
  8
0
100
AcDbLine
 10
184.2578934270796
 20
22.88579866700689
 30
0.0
 11
184.6010422431275
 21
24.16644748305481
 31
0.0
  0
LINE
  5
225
330
70
100
AcDbEntity
  8
0
100
AcDbLine
 10
184.6010422431275
 20
24.16644748305481
 30
0.0
 11
191.0512897767645
 21
27.89049963293984
 31
0.0
  0
LINE
  5
226
330
70
100
AcDbEntity
  8
0
100
AcDbLine
 10
179.72964934684
 20
21.35394748305481
 30
0.0
 11
181.010298162888
 21
21.0107986670069
 31
0.0
  0
LINE
  5
227
330
70
100
AcDbEntity
  8
0
100
AcDbLine
 10
173.279401813203
 20
17.62989533316978
 30
0.0
 11
179.72964934684
 21
21.35394748305481
 31
0.0
  0
LINE
  5
228
330
70
100
AcDbEntity
  8
0
100
AcDbLine
 10
170.0097425232389
 20
5.905513639530283
 30
0.0
 11
176.1764753471464
 21
3.661006448955582
 31
0.0
  0
LINE
  5
229
330
70
100
AcDbEntity
  8
0
100
AcDbLine
 10
176.1764753471464
 20
3.661006448955582
 30
0.0
 11
177.4590508846177
 21
7.184853776902741
 31
0.0
  0
LINE
  5
22A
330
70
100
AcDbEntity
  8
0
100
AcDbLine
 10
177.4590508846177
 20
7.184853776902741
 30
0.0
 11
171.2923180607101
 21
9.429360967477435
 31
0.0
  0
LINE
  5
22B
330
70
100
AcDbEntity
  8
0
100
AcDbLine
 10
171.2923180607101
 20
9.429360967477435
 30
0.0
 11
170.7320001130911
 21
10.63096668383205
 31
0.0
  0
LINE
  5
22C
330
70
100
AcDbEntity
  8
0
100
AcDbLine
 10
170.7320001130911
 20
10.63096668383205
 30
0.0
 11
173.279401813203
 21
17.62989533316978
 31
0.0
  0
LINE
  5
22D
330
70
100
AcDbEntity
  8
0
100
AcDbLine
 10
168.8081368068843
 20
5.345195691911314
 30
0.0
 11
170.0097425232389
 21
5.905513639530283
 31
0.0
  0
LINE
  5
22E
330
70
100
AcDbEntity
  8
0
100
AcDbLine
 10
166.2607351067724
 20
-1.653732957426402
 30
0.0
 11
168.8081368068843
 21
5.345195691911314
 31
0.0
  0
LINE
  5
22F
330
70
100
AcDbEntity
  8
0
100
AcDbLine
 10
171.2923180607101
 20
-12.73682688233027
 30
0.0
 11
177.4590508846177
 21
-10.49231969175557
 31
0.0
  0
LINE
  5
230
330
70
100
AcDbEntity
  8
0
100
AcDbLine
 10
177.4590508846177
 20
-10.49231969175557
 30
0.0
 11
176.1764753471464
 21
-6.968472363808416
 31
0.0
  0
LINE
  5
231
330
70
100
AcDbEntity
  8
0
100
AcDbLine
 10
176.1764753471464
 20
-6.968472363808416
 30
0.0
 11
170.0097425232389
 21
-9.212979554383121
 31
0.0
  0
LINE
  5
232
330
70
100
AcDbEntity
  8
0
100
AcDbLine
 10
170.0097425232389
 20
-9.212979554383121
 30
0.0
 11
168.8081368068843
 21
-8.652661606764134
 31
0.0
  0
LINE
  5
233
330
70
100
AcDbEntity
  8
0
100
AcDbLine
 10
168.8081368068843
 20
-8.652661606764134
 30
0.0
 11
166.2607351067724
 21
-1.653732957426406
 31
0.0
  0
LINE
  5
234
330
70
100
AcDbEntity
  8
0
100
AcDbLine
 10
170.7320001130911
 20
-13.93843259868488
 30
0.0
 11
171.2923180607101
 21
-12.73682688233027
 31
0.0
  0
LINE
  5
235
330
70
100
AcDbEntity
  8
0
100
AcDbLine
 10
173.279401813203
 20
-20.9373612480226
 30
0.0
 11
170.7320001130911
 21
-13.93843259868487
 31
0.0
  0
LINE
  5
236
330
70
100
AcDbEntity
  8
0
100
AcDbLine
 10
184.2578934270796
 20
-26.19326458185972
 30
0.0
 11
187.5391434270796
 21
-20.50997286952434
 31
0.0
  0
LINE
  5
237
330
70
100
AcDbEntity
  8
0
100
AcDbLine
 10
187.5391434270796
 20
-20.50997286952435
 30
0.0
 11
184.291548162888
 21
-18.63497286952434
 31
0.0
  0
LINE
  5
238
330
70
100
AcDbEntity
  8
0
100
AcDbLine
 10
184.291548162888
 20
-18.63497286952434
 30
0.0
 11
181.010298162888
 21
-24.31826458185972
 31
0.0
  0
LINE
  5
239
330
70
100
AcDbEntity
  8
0
100
AcDbLine
 10
181.010298162888
 20
-24.31826458185972
 30
0.0
 11
179.72964934684
 21
-24.66141339790762
 31
0.0
  0
LINE
  5
23A
330
70
100
AcDbEntity
  8
0
100
AcDbLine
 10
179.72964934684
 20
-24.66141339790763
 30
0.0
 11
173.279401813203
 21
-20.93736124802259
 31
0.0
  0
LINE
  5
23B
330
70
100
AcDbEntity
  8
0
100
AcDbLine
 10
184.6010422431275
 20
-27.47391339790764
 30
0.0
 11
184.2578934270796
 21
-26.19326458185973
 31
0.0
  0
LINE
  5
23C
330
70
100
AcDbEntity
  8
0
100
AcDbLine
 10
191.0512897767645
 20
-31.19796554779268
 30
0.0
 11
184.6010422431275
 21
-27.47391339790764
 31
0.0
  0
LINE
  5
23D
330
70
100
AcDbEntity
  8
0
100
AcDbLine
 10
202.8397318121036
 20
-28.16738270780169
 30
0.0
 11
201.7001656461644
 21
-21.70458182865907
 31
0.0
  0
LINE
  5
23E
330
70
100
AcDbEntity
  8
0
100
AcDbLine
 10
201.7001656461644
 20
-21.70458182865907
 30
0.0
 11
198.0071365723686
 21
-22.35576249491005
 31
0.0
  0
LINE
  5
23F
330
70
100
AcDbEntity
  8
0
100
AcDbLine
 10
198.0071365723686
 20
-22.35576249491005
 30
0.0
 11
199.1467027383078
 21
-28.81856337405267
 31
0.0
  0
LINE
  5
240
330
70
100
AcDbEntity
  8
0
100
AcDbLine
 10
199.1467027383078
 20
-28.81856337405267
 30
0.0
 11
198.3862406364216
 21
-29.90461580906436
 31
0.0
  0
LINE
  5
241
330
70
100
AcDbEntity
  8
0
100
AcDbLine
 10
198.3862406364216
 20
-29.90461580906436
 30
0.0
 11
191.0512897767645
 21
-31.19796554779266
 31
0.0
  0
LINE
  5
242
330
70
100
AcDbEntity
  8
0
100
AcDbLine
 10
203.9257842471153
 20
-28.9278448096879
 30
0.0
 11
202.8397318121036
 21
-28.16738270780169
 31
0.0
  0
LINE
  5
243
330
70
100
AcDbEntity
  8
0
100
AcDbLine
 10
211.2607351067724
 20
-27.6344950709596
 30
0.0
 11
203.9257842471153
 21
-28.9278448096879
 31
0.0
  0
LINE
  5
244
330
70
100
AcDbEntity
  8
0
100
AcDbLine
 10
218.3431845212993
 20
-17.73546944914882
 30
0.0
 11
213.316017863331
 21
-13.51717576058091
 31
0.0
  0
LINE
  5
245
330
70
100
AcDbEntity
  8
0
100
AcDbLine
 10
213.316017863331
 20
-13.5171757605809
 30
0.0
 11
210.9055643270064
 21
-16.38984242227706
 31
0.0
  0
LINE
  5
246
330
70
100
AcDbEntity
  8
0
100
AcDbLine
 10
210.9055643270064
 20
-16.38984242227706
 30
0.0
 11
215.9327309849747
 21
-20.60813611084498
 31
0.0
  0
LINE
  5
247
330
70
100
AcDbEntity
  8
0
100
AcDbLine
 10
215.9327309849747
 20
-20.60813611084498
 30
0.0
 11
216.0482842663177
 21
-21.92891616035015
 31
0.0
  0
LINE
  5
248
330
70
100
AcDbEntity
  8
0
100
AcDbLine
 10
216.0482842663177
 20
-21.92891616035015
 30
0.0
 11
211.2607351067724
 21
-27.63449507095958
 31
0.0
  0
LINE
  5
249
330
70
100
AcDbEntity
  8
0
100
AcDbLine
 10
219.6639645708045
 20
-17.61991616780592
 30
0.0
 11
218.3431845212993
 21
-17.73546944914882
 31
0.0
  0
LINE
  5
24A
330
70
100
AcDbEntity
  8
0
100
AcDbLine
 10
224.4515137303497
 20
-11.91433725719649
 30
0.0
 11
219.6639645708045
 21
-17.61991616780591
 31
0.0
  0
LINE
  5
2CD
330
70
100
AcDbEntity
  8
0
100
AcDbLine
 10
25.60106447156162
 20
-70.21624109796272
 30
0.0
 11
19.03856447156161
 21
-70.21624109796272
 31
0.0
  0
LINE
  5
2CE
330
70
100
AcDbEntity
  8
0
100
AcDbLine
 10
19.03856447156161
 20
-70.21624109796272
 30
0.0
 11
19.03856447156162
 21
-73.96624109796272
 31
0.0
  0
LINE
  5
2CF
330
70
100
AcDbEntity
  8
0
100
AcDbLine
 10
19.03856447156162
 20
-73.96624109796272
 30
0.0
 11
25.60106447156162
 21
-73.96624109796272
 31
0.0
  0
LINE
  5
2D0
330
70
100
AcDbEntity
  8
0
100
AcDbLine
 10
26.53856447156162
 20
-61.83063679819267
 30
0.0
 11
26.53856447156162
 21
-69.27874109796272
 31
0.0
  0
LINE
  5
2D1
330
70
100
AcDbEntity
  8
0
100
AcDbLine
 10
26.53856447156162
 20
-74.90374109796272
 30
0.0
 11
26.53856447156162
 21
-82.3518453977328
 31
0.0
  0
LINE
  5
2D2
330
70
100
AcDbEntity
  8
0
100
AcDbLine
 10
26.53856447156162
 20
-69.27874109796272
 30
0.0
 11
25.60106447156162
 21
-70.21624109796272
 31
0.0
  0
LINE
  5
2D3
330
70
100
AcDbEntity
  8
0
100
AcDbLine
 10
25.60106447156162
 20
-73.96624109796272
 30
0.0
 11
26.53856447156162
 21
-74.90374109796272
 31
0.0
  0
LINE
  5
2D4
330
70
100
AcDbEntity
  8
0
100
AcDbLine
 10
18.01978172618669
 20
-53.13683794454416
 30
0.0
 11
12.9926150682184
 21
-57.35513163311207
 31
0.0
  0
LINE
  5
2D5
330
70
100
AcDbEntity
  8
0
100
AcDbLine
 10
12.9926150682184
 20
-57.35513163311207
 30
0.0
 11
15.40306860454292
 21
-60.22779829480824
 31
0.0
  0
LINE
  5
2D6
330
70
100
AcDbEntity
  8
0
100
AcDbLine
 10
15.40306860454292
 20
-60.22779829480824
 30
0.0
 11
20.43023526251122
 21
-56.00950460624033
 31
0.0
  0
LINE
  5
2D7
330
70
100
AcDbEntity
  8
0
100
AcDbLine
 10
20.43023526251122
 20
-56.00950460624033
 30
0.0
 11
21.75101531201638
 21
-56.12505788758324
 31
0.0
  0
LINE
  5
2D8
330
70
100
AcDbEntity
  8
0
100
AcDbLine
 10
21.75101531201638
 20
-56.12505788758324
 30
0.0
 11
26.53856447156163
 21
-61.83063679819267
 31
0.0
  0
LINE
  5
2D9
330
70
100
AcDbEntity
  8
0
100
AcDbLine
 10
18.1353350075296
 20
-51.81605789503898
 30
0.0
 11
18.01978172618669
 21
-53.13683794454416
 31
0.0
  0
LINE
  5
2DA
330
70
100
AcDbEntity
  8
0
100
AcDbLine
 10
13.34778584798437
 20
-46.11047898442956
 30
0.0
 11
18.1353350075296
 21
-51.81605789503898
 31
0.0
  0
LINE
  5
2DB
330
70
100
AcDbEntity
  8
0
100
AcDbLine
 10
1.233753479519776
 20
-44.92641068133646
 30
0.0
 11
0.0941873135805445
 21
-51.38921156047908
 31
0.0
  0
LINE
  5
2DC
330
70
100
AcDbEntity
  8
0
100
AcDbLine
 10
0.0941873135805445
 20
-51.38921156047908
 30
0.0
 11
3.787216387376325
 21
-52.04039222673006
 31
0.0
  0
LINE
  5
2DD
330
70
100
AcDbEntity
  8
0
100
AcDbLine
 10
3.787216387376325
 20
-52.04039222673006
 30
0.0
 11
4.926782553315547
 21
-45.57759134758744
 31
0.0
  0
LINE
  5
2DE
330
70
100
AcDbEntity
  8
0
100
AcDbLine
 10
4.926782553315547
 20
-45.57759134758744
 30
0.0
 11
6.012834988327249
 21
-44.81712924570125
 31
0.0
  0
LINE
  5
2DF
330
70
100
AcDbEntity
  8
0
100
AcDbLine
 10
6.012834988327249
 20
-44.81712924570125
 30
0.0
 11
13.34778584798437
 21
-46.11047898442954
 31
0.0
  0
LINE
  5
2E0
330
70
100
AcDbEntity
  8
0
100
AcDbLine
 10
0.4732913776335792
 20
-43.84035824632477
 30
0.0
 11
1.233753479519776
 21
-44.92641068133647
 31
0.0
  0
LINE
  5
2E1
330
70
100
AcDbEntity
  8
0
100
AcDbLine
 10
-6.861659482023533
 20
-42.54700850759647
 30
0.0
 11
0.4732913776335792
 21
-43.84035824632477
 31
0.0
  0
LINE
  5
2E2
330
70
100
AcDbEntity
  8
0
100
AcDbLine
 10
-16.90265109590008
 20
-49.42670947352942
 30
0.0
 11
-13.62140109590008
 21
-55.1100011858648
 31
0.0
  0
LINE
  5
2E3
330
70
100
AcDbEntity
  8
0
100
AcDbLine
 10
-13.62140109590008
 20
-55.1100011858648
 30
0.0
 11
-10.37380583170844
 21
-53.23500118586479
 31
0.0
  0
LINE
  5
2E4
330
70
100
AcDbEntity
  8
0
100
AcDbLine
 10
-10.37380583170844
 20
-53.23500118586479
 30
0.0
 11
-13.65505583170845
 21
-47.55170947352942
 31
0.0
  0
LINE
  5
2E5
330
70
100
AcDbEntity
  8
0
100
AcDbLine
 10
-13.65505583170845
 20
-47.55170947352942
 30
0.0
 11
-13.31190701566053
 21
-46.2710606574815
 31
0.0
  0
LINE
  5
2E6
330
70
100
AcDbEntity
  8
0
100
AcDbLine
 10
-13.31190701566053
 20
-46.2710606574815
 30
0.0
 11
-6.86165948202354
 21
-42.54700850759647
 31
0.0
  0
LINE
  5
2E7
330
70
100
AcDbEntity
  8
0
100
AcDbLine
 10
-18.18329991194799
 20
-49.0835606574815
 30
0.0
 11
-16.90265109590008
 21
-49.42670947352941
 31
0.0
  0
LINE
  5
2E8
330
70
100
AcDbEntity
  8
0
100
AcDbLine
 10
-24.63354744558498
 20
-52.80761280736652
 30
0.0
 11
-18.18329991194799
 21
-49.0835606574815
 31
0.0
  0
LINE
  5
2E9
330
70
100
AcDbEntity
  8
0
100
AcDbLine
 10
-27.90320673554915
 20
-64.53199450100602
 30
0.0
 11
-21.73647391164163
 21
-66.77650169158074
 31
0.0
  0
LINE
  5
2EA
330
70
100
AcDbEntity
  8
0
100
AcDbLine
 10
-21.73647391164163
 20
-66.77650169158074
 30
0.0
 11
-20.45389837417037
 21
-63.25265436363356
 31
0.0
  0
LINE
  5
2EB
330
70
100
AcDbEntity
  8
0
100
AcDbLine
 10
-20.45389837417037
 20
-63.25265436363356
 30
0.0
 11
-26.6206311980779
 21
-61.00814717305887
 31
0.0
  0
LINE
  5
2EC
330
70
100
AcDbEntity
  8
0
100
AcDbLine
 10
-26.6206311980779
 20
-61.00814717305887
 30
0.0
 11
-27.18094914569686
 21
-59.80654145670426
 31
0.0
  0
LINE
  5
2ED
330
70
100
AcDbEntity
  8
0
100
AcDbLine
 10
-27.18094914569687
 20
-59.80654145670426
 30
0.0
 11
-24.63354744558498
 21
-52.80761280736653
 31
0.0
  0
LINE
  5
2EE
330
70
100
AcDbEntity
  8
0
100
AcDbLine
 10
-29.10481245190376
 20
-65.09231244862499
 30
0.0
 11
-27.90320673554915
 21
-64.53199450100602
 31
0.0
  0
LINE
  5
2EF
330
70
100
AcDbEntity
  8
0
100
AcDbLine
 10
-31.65221415201565
 20
-72.0912410979627
 30
0.0
 11
-29.10481245190376
 21
-65.09231244862499
 31
0.0
  0
LINE
  5
2F0
330
70
100
AcDbEntity
  8
0
100
AcDbLine
 10
-26.62063119807789
 20
-83.17433502286659
 30
0.0
 11
-20.45389837417037
 21
-80.92982783229187
 31
0.0
  0
LINE
  5
2F1
330
70
100
AcDbEntity
  8
0
100
AcDbLine
 10
-20.45389837417037
 20
-80.92982783229187
 30
0.0
 11
-21.73647391164163
 21
-77.40598050434472
 31
0.0
  0
LINE
  5
2F2
330
70
100
AcDbEntity
  8
0
100
AcDbLine
 10
-21.73647391164163
 20
-77.40598050434472
 30
0.0
 11
-27.90320673554915
 21
-79.65048769491943
 31
0.0
  0
LINE
  5
2F3
330
70
100
AcDbEntity
  8
0
100
AcDbLine
 10
-27.90320673554915
 20
-79.65048769491943
 30
0.0
 11
-29.10481245190375
 21
-79.09016974730045
 31
0.0
  0
LINE
  5
2F4
330
70
100
AcDbEntity
  8
0
100
AcDbLine
 10
-29.10481245190375
 20
-79.09016974730045
 30
0.0
 11
-31.65221415201564
 21
-72.09124109796272
 31
0.0
  0
LINE
  5
2F5
330
70
100
AcDbEntity
  8
0
100
AcDbLine
 10
-27.18094914569687
 20
-84.37594073922118
 30
0.0
 11
-26.62063119807789
 21
-83.17433502286659
 31
0.0
  0
LINE
  5
2F6
330
70
100
AcDbEntity
  8
0
100
AcDbLine
 10
-24.633547445585
 20
-91.37486938855891
 30
0.0
 11
-27.18094914569687
 21
-84.37594073922118
 31
0.0
  0
LINE
  5
2F7
330
70
100
AcDbEntity
  8
0
100
AcDbLine
 10
-13.65505583170844
 20
-96.63077272239604
 30
0.0
 11
-10.37380583170844
 21
-90.94748101006066
 31
0.0
  0
LINE
  5
2F8
330
70
100
AcDbEntity
  8
0
100
AcDbLine
 10
-10.37380583170844
 20
-90.94748101006066
 30
0.0
 11
-13.62140109590008
 21
-89.07248101006066
 31
0.0
  0
LINE
  5
2F9
330
70
100
AcDbEntity
  8
0
100
AcDbLine
 10
-13.62140109590008
 20
-89.07248101006066
 30
0.0
 11
-16.90265109590007
 21
-94.75577272239602
 31
0.0
  0
LINE
  5
2FA
330
70
100
AcDbEntity
  8
0
100
AcDbLine
 10
-16.90265109590007
 20
-94.75577272239602
 30
0.0
 11
-18.18329991194799
 21
-95.09892153844393
 31
0.0
  0
LINE
  5
2FB
330
70
100
AcDbEntity
  8
0
100
AcDbLine
 10
-18.18329991194799
 20
-95.09892153844393
 30
0.0
 11
-24.63354744558498
 21
-91.37486938855889
 31
0.0
  0
LINE
  5
2FC
330
70
100
AcDbEntity
  8
0
100
AcDbLine
 10
-13.31190701566053
 20
-97.91142153844395
 30
0.0
 11
-13.65505583170844
 21
-96.63077272239604
 31
0.0
  0
LINE
  5
2FD
330
70
100
AcDbEntity
  8
0
100
AcDbLine
 10
-6.861659482023558
 20
-101.635473688329
 30
0.0
 11
-13.31190701566054
 21
-97.91142153844395
 31
0.0
  0
LINE
  5
2FE
330
70
100
AcDbEntity
  8
0
100
AcDbLine
 10
4.926782553315561
 20
-98.60489084833799
 30
0.0
 11
3.787216387376332
 21
-92.14208996919538
 31
0.0
  0
LINE
  5
2FF
330
70
100
AcDbEntity
  8
0
100
AcDbLine
 10
3.787216387376325
 20
-92.14208996919538
 30
0.0
 11
0.094187313580548
 21
-92.79327063544636
 31
0.0
  0
LINE
  5
300
330
70
100
AcDbEntity
  8
0
100
AcDbLine
 10
0.0941873135805516
 20
-92.79327063544636
 30
0.0
 11
1.233753479519783
 21
-99.25607151458898
 31
0.0
  0
LINE
  5
301
330
70
100
AcDbEntity
  8
0
100
AcDbLine
 10
1.233753479519783
 20
-99.25607151458898
 30
0.0
 11
0.4732913776335792
 21
-100.3421239496006
 31
0.0
  0
LINE
  5
302
330
70
100
AcDbEntity
  8
0
100
AcDbLine
 10
0.4732913776335792
 20
-100.3421239496006
 30
0.0
 11
-6.861659482023547
 21
-101.6354736883289
 31
0.0
  0
LINE
  5
303
330
70
100
AcDbEntity
  8
0
100
AcDbLine
 10
6.012834988327249
 20
-99.36535295022421
 30
0.0
 11
4.926782553315561
 21
-98.60489084833801
 31
0.0
  0
LINE
  5
304
330
70
100
AcDbEntity
  8
0
100
AcDbLine
 10
13.34778584798437
 20
-98.07200321149592
 30
0.0
 11
6.012834988327249
 21
-99.36535295022421
 31
0.0
  0
LINE
  5
305
330
70
100
AcDbEntity
  8
0
100
AcDbLine
 10
20.43023526251122
 20
-88.17297758968512
 30
0.0
 11
15.40306860454293
 21
-83.95468390111721
 31
0.0
  0
LINE
  5
306
330
70
100
AcDbEntity
  8
0
100
AcDbLine
 10
15.40306860454293
 20
-83.95468390111721
 30
0.0
 11
12.9926150682184
 21
-86.82735056281336
 31
0.0
  0
LINE
  5
307
330
70
100
AcDbEntity
  8
0
100
AcDbLine
 10
12.9926150682184
 20
-86.82735056281336
 30
0.0
 11
18.0197817261867
 21
-91.04564425138129
 31
0.0
  0
LINE
  5
308
330
70
100
AcDbEntity
  8
0
100
AcDbLine
 10
18.01978172618669
 20
-91.04564425138129
 30
0.0
 11
18.1353350075296
 21
-92.36642430088645
 31
0.0
  0
LINE
  5
309
330
70
100
AcDbEntity
  8
0
100
AcDbLine
 10
18.1353350075296
 20
-92.36642430088645
 30
0.0
 11
13.34778584798437
 21
-98.07200321149588
 31
0.0
  0
LINE
  5
30A
330
70
100
AcDbEntity
  8
0
100
AcDbLine
 10
21.75101531201641
 20
-88.05742430834222
 30
0.0
 11
20.43023526251122
 21
-88.17297758968512
 31
0.0
  0
LINE
  5
30B
330
70
100
AcDbEntity
  8
0
100
AcDbLine
 10
26.53856447156164
 20
-82.3518453977328
 30
0.0
 11
21.75101531201641
 21
-88.05742430834222
 31
0.0
  0
LINE
  5
30C
330
70
100
AcDbEntity
  8
0
100
AcDbLine
 10
89.33486329103127
 20
-70.15015589015148
 30
0.0
 11
82.77236329103127
 21
-70.15015589015148
 31
0.0
  0
LINE
  5
30D
330
70
100
AcDbEntity
  8
0
100
AcDbLine
 10
82.77236329103127
 20
-70.15015589015148
 30
0.0
 11
82.77236329103127
 21
-73.90015589015148
 31
0.0
  0
LINE
  5
30E
330
70
100
AcDbEntity
  8
0
100
AcDbLine
 10
82.77236329103127
 20
-73.90015589015148
 30
0.0
 11
89.33486329103127
 21
-73.90015589015148
 31
0.0
  0
LINE
  5
30F
330
70
100
AcDbEntity
  8
0
100
AcDbLine
 10
90.27236329103127
 20
-61.76455159038143
 30
0.0
 11
90.27236329103127
 21
-69.21265589015148
 31
0.0
  0
LINE
  5
310
330
70
100
AcDbEntity
  8
0
100
AcDbLine
 10
90.27236329103127
 20
-74.83765589015148
 30
0.0
 11
90.27236329103127
 21
-82.28576018992155
 31
0.0
  0
LINE
  5
311
330
70
100
AcDbEntity
  8
0
100
AcDbLine
 10
90.27236329103127
 20
-69.21265589015148
 30
0.0
 11
89.33486329103127
 21
-70.15015589015148
 31
0.0
  0
LINE
  5
312
330
70
100
AcDbEntity
  8
0
100
AcDbLine
 10
89.33486329103127
 20
-73.90015589015148
 30
0.0
 11
90.27236329103127
 21
-74.83765589015148
 31
0.0
  0
LINE
  5
313
330
70
100
AcDbEntity
  8
0
100
AcDbLine
 10
81.75358054565634
 20
-53.07075273673291
 30
0.0
 11
76.72641388768806
 21
-57.28904642530083
 31
0.0
  0
LINE
  5
314
330
70
100
AcDbEntity
  8
0
100
AcDbLine
 10
76.72641388768806
 20
-57.28904642530082
 30
0.0
 11
79.13686742401258
 21
-60.161713086997
 31
0.0
  0
LINE
  5
315
330
70
100
AcDbEntity
  8
0
100
AcDbLine
 10
79.13686742401258
 20
-60.161713086997
 30
0.0
 11
84.16403408198087
 21
-55.94341939842909
 31
0.0
  0
LINE
  5
316
330
70
100
AcDbEntity
  8
0
100
AcDbLine
 10
84.16403408198087
 20
-55.94341939842909
 30
0.0
 11
85.48481413148605
 21
-56.058972679772
 31
0.0
  0
LINE
  5
317
330
70
100
AcDbEntity
  8
0
100
AcDbLine
 10
85.48481413148605
 20
-56.058972679772
 30
0.0
 11
90.27236329103129
 21
-61.76455159038143
 31
0.0
  0
LINE
  5
318
330
70
100
AcDbEntity
  8
0
100
AcDbLine
 10
81.86913382699925
 20
-51.74997268722774
 30
0.0
 11
81.75358054565634
 21
-53.07075273673291
 31
0.0
  0
LINE
  5
319
330
70
100
AcDbEntity
  8
0
100
AcDbLine
 10
77.08158466745402
 20
-46.04439377661832
 30
0.0
 11
81.86913382699925
 21
-51.74997268722774
 31
0.0
  0
LINE
  5
31A
330
70
100
AcDbEntity
  8
0
100
AcDbLine
 10
64.96755229898943
 20
-44.86032547352522
 30
0.0
 11
63.8279861330502
 21
-51.32312635266784
 31
0.0
  0
LINE
  5
31B
330
70
100
AcDbEntity
  8
0
100
AcDbLine
 10
63.8279861330502
 20
-51.32312635266784
 30
0.0
 11
67.52101520684599
 21
-51.97430701891882
 31
0.0
  0
LINE
  5
31C
330
70
100
AcDbEntity
  8
0
100
AcDbLine
 10
67.52101520684599
 20
-51.97430701891882
 30
0.0
 11
68.6605813727852
 21
-45.5115061397762
 31
0.0
  0
LINE
  5
31D
330
70
100
AcDbEntity
  8
0
100
AcDbLine
 10
68.6605813727852
 20
-45.5115061397762
 30
0.0
 11
69.74663380779691
 21
-44.75104403789001
 31
0.0
  0
LINE
  5
31E
330
70
100
AcDbEntity
  8
0
100
AcDbLine
 10
69.74663380779691
 20
-44.75104403789001
 30
0.0
 11
77.08158466745402
 21
-46.0443937766183
 31
0.0
  0
LINE
  5
31F
330
70
100
AcDbEntity
  8
0
100
AcDbLine
 10
64.20709019710324
 20
-43.77427303851353
 30
0.0
 11
64.96755229898943
 21
-44.86032547352523
 31
0.0
  0
LINE
  5
320
330
70
100
AcDbEntity
  8
0
100
AcDbLine
 10
56.87213933744613
 20
-42.48092329978523
 30
0.0
 11
64.20709019710324
 21
-43.77427303851353
 31
0.0
  0
LINE
  5
321
330
70
100
AcDbEntity
  8
0
100
AcDbLine
 10
46.83114772356957
 20
-49.36062426571818
 30
0.0
 11
50.11239772356957
 21
-55.04391597805355
 31
0.0
  0
LINE
  5
322
330
70
100
AcDbEntity
  8
0
100
AcDbLine
 10
50.11239772356957
 20
-55.04391597805355
 30
0.0
 11
53.35999298776122
 21
-53.16891597805355
 31
0.0
  0
LINE
  5
323
330
70
100
AcDbEntity
  8
0
100
AcDbLine
 10
53.35999298776122
 20
-53.16891597805355
 30
0.0
 11
50.0787429877612
 21
-47.48562426571818
 31
0.0
  0
LINE
  5
324
330
70
100
AcDbEntity
  8
0
100
AcDbLine
 10
50.0787429877612
 20
-47.48562426571818
 30
0.0
 11
50.42189180380913
 21
-46.20497544967025
 31
0.0
  0
LINE
  5
325
330
70
100
AcDbEntity
  8
0
100
AcDbLine
 10
50.42189180380913
 20
-46.20497544967025
 30
0.0
 11
56.87213933744612
 21
-42.48092329978523
 31
0.0
  0
LINE
  5
326
330
70
100
AcDbEntity
  8
0
100
AcDbLine
 10
45.55049890752165
 20
-49.01747544967026
 30
0.0
 11
46.83114772356957
 21
-49.36062426571817
 31
0.0
  0
LINE
  5
327
330
70
100
AcDbEntity
  8
0
100
AcDbLine
 10
39.10025137388468
 20
-52.74152759955528
 30
0.0
 11
45.55049890752165
 21
-49.01747544967026
 31
0.0
  0
LINE
  5
328
330
70
100
AcDbEntity
  8
0
100
AcDbLine
 10
35.83059208392051
 20
-64.46590929319478
 30
0.0
 11
41.99732490782802
 21
-66.71041648376948
 31
0.0
  0
LINE
  5
329
330
70
100
AcDbEntity
  8
0
100
AcDbLine
 10
41.99732490782802
 20
-66.71041648376948
 30
0.0
 11
43.27990044529928
 21
-63.18656915582232
 31
0.0
  0
LINE
  5
32A
330
70
100
AcDbEntity
  8
0
100
AcDbLine
 10
43.27990044529928
 20
-63.18656915582232
 30
0.0
 11
37.11316762139177
 21
-60.94206196524763
 31
0.0
  0
LINE
  5
32B
330
70
100
AcDbEntity
  8
0
100
AcDbLine
 10
37.11316762139177
 20
-60.94206196524763
 30
0.0
 11
36.55284967377279
 21
-59.74045624889302
 31
0.0
  0
LINE
  5
32C
330
70
100
AcDbEntity
  8
0
100
AcDbLine
 10
36.55284967377279
 20
-59.74045624889302
 30
0.0
 11
39.10025137388468
 21
-52.74152759955529
 31
0.0
  0
LINE
  5
32D
330
70
100
AcDbEntity
  8
0
100
AcDbLine
 10
34.6289863675659
 20
-65.02622724081375
 30
0.0
 11
35.83059208392051
 21
-64.46590929319478
 31
0.0
  0
LINE
  5
32E
330
70
100
AcDbEntity
  8
0
100
AcDbLine
 10
32.08158466745401
 20
-72.02515589015146
 30
0.0
 11
34.6289863675659
 21
-65.02622724081375
 31
0.0
  0
LINE
  5
32F
330
70
100
AcDbEntity
  8
0
100
AcDbLine
 10
37.11316762139177
 20
-83.10824981505533
 30
0.0
 11
43.27990044529928
 21
-80.86374262448064
 31
0.0
  0
LINE
  5
330
330
70
100
AcDbEntity
  8
0
100
AcDbLine
 10
43.27990044529928
 20
-80.86374262448064
 30
0.0
 11
41.99732490782802
 21
-77.33989529653348
 31
0.0
  0
LINE
  5
331
330
70
100
AcDbEntity
  8
0
100
AcDbLine
 10
41.99732490782802
 20
-77.33989529653348
 30
0.0
 11
35.83059208392051
 21
-79.58440248710819
 31
0.0
  0
LINE
  5
332
330
70
100
AcDbEntity
  8
0
100
AcDbLine
 10
35.83059208392051
 20
-79.58440248710819
 30
0.0
 11
34.62898636756591
 21
-79.02408453948919
 31
0.0
  0
LINE
  5
333
330
70
100
AcDbEntity
  8
0
100
AcDbLine
 10
34.62898636756591
 20
-79.02408453948919
 30
0.0
 11
32.08158466745402
 21
-72.02515589015146
 31
0.0
  0
LINE
  5
334
330
70
100
AcDbEntity
  8
0
100
AcDbLine
 10
36.55284967377279
 20
-84.30985553140994
 30
0.0
 11
37.11316762139177
 21
-83.10824981505533
 31
0.0
  0
LINE
  5
335
330
70
100
AcDbEntity
  8
0
100
AcDbLine
 10
39.10025137388466
 20
-91.30878418074766
 30
0.0
 11
36.55284967377279
 21
-84.30985553140994
 31
0.0
  0
LINE
  5
336
330
70
100
AcDbEntity
  8
0
100
AcDbLine
 10
50.07874298776122
 20
-96.56468751458479
 30
0.0
 11
53.35999298776122
 21
-90.88139580224941
 31
0.0
  0
LINE
  5
337
330
70
100
AcDbEntity
  8
0
100
AcDbLine
 10
53.35999298776122
 20
-90.88139580224941
 30
0.0
 11
50.11239772356957
 21
-89.00639580224941
 31
0.0
  0
LINE
  5
338
330
70
100
AcDbEntity
  8
0
100
AcDbLine
 10
50.11239772356957
 20
-89.00639580224941
 30
0.0
 11
46.83114772356958
 21
-94.68968751458479
 31
0.0
  0
LINE
  5
339
330
70
100
AcDbEntity
  8
0
100
AcDbLine
 10
46.83114772356958
 20
-94.68968751458479
 30
0.0
 11
45.55049890752165
 21
-95.03283633063269
 31
0.0
  0
LINE
  5
33A
330
70
100
AcDbEntity
  8
0
100
AcDbLine
 10
45.55049890752165
 20
-95.03283633063269
 30
0.0
 11
39.10025137388468
 21
-91.30878418074766
 31
0.0
  0
LINE
  5
33B
330
70
100
AcDbEntity
  8
0
100
AcDbLine
 10
50.42189180380912
 20
-97.8453363306327
 30
0.0
 11
50.07874298776122
 21
-96.56468751458479
 31
0.0
  0
LINE
  5
33C
330
70
100
AcDbEntity
  8
0
100
AcDbLine
 10
56.8721393374461
 20
-101.5693884805177
 30
0.0
 11
50.42189180380912
 21
-97.8453363306327
 31
0.0
  0
LINE
  5
33D
330
70
100
AcDbEntity
  8
0
100
AcDbLine
 10
68.66058137278521
 20
-98.53880564052676
 30
0.0
 11
67.52101520684599
 21
-92.07600476138415
 31
0.0
  0
LINE
  5
33E
330
70
100
AcDbEntity
  8
0
100
AcDbLine
 10
67.52101520684599
 20
-92.07600476138415
 30
0.0
 11
63.8279861330502
 21
-92.72718542763511
 31
0.0
  0
LINE
  5
33F
330
70
100
AcDbEntity
  8
0
100
AcDbLine
 10
63.8279861330502
 20
-92.72718542763511
 30
0.0
 11
64.96755229898943
 21
-99.18998630677775
 31
0.0
  0
LINE
  5
340
330
70
100
AcDbEntity
  8
0
100
AcDbLine
 10
64.96755229898943
 20
-99.18998630677775
 30
0.0
 11
64.20709019710324
 21
-100.2760387417894
 31
0.0
  0
LINE
  5
341
330
70
100
AcDbEntity
  8
0
100
AcDbLine
 10
64.20709019710324
 20
-100.2760387417894
 30
0.0
 11
56.8721393374461
 21
-101.5693884805177
 31
0.0
  0
LINE
  5
342
330
70
100
AcDbEntity
  8
0
100
AcDbLine
 10
69.74663380779691
 20
-99.29926774241296
 30
0.0
 11
68.66058137278521
 21
-98.53880564052676
 31
0.0
  0
LINE
  5
343
330
70
100
AcDbEntity
  8
0
100
AcDbLine
 10
77.08158466745402
 20
-98.00591800368467
 30
0.0
 11
69.74663380779691
 21
-99.29926774241296
 31
0.0
  0
LINE
  5
344
330
70
100
AcDbEntity
  8
0
100
AcDbLine
 10
84.16403408198087
 20
-88.10689238187389
 30
0.0
 11
79.13686742401259
 21
-83.88859869330598
 31
0.0
  0
LINE
  5
345
330
70
100
AcDbEntity
  8
0
100
AcDbLine
 10
79.13686742401259
 20
-83.88859869330596
 30
0.0
 11
76.72641388768806
 21
-86.76126535500213
 31
0.0
  0
LINE
  5
346
330
70
100
AcDbEntity
  8
0
100
AcDbLine
 10
76.72641388768806
 20
-86.76126535500214
 30
0.0
 11
81.75358054565634
 21
-90.97955904357005
 31
0.0
  0
LINE
  5
347
330
70
100
AcDbEntity
  8
0
100
AcDbLine
 10
81.75358054565634
 20
-90.97955904357005
 30
0.0
 11
81.86913382699925
 21
-92.30033909307522
 31
0.0
  0
LINE
  5
348
330
70
100
AcDbEntity
  8
0
100
AcDbLine
 10
81.86913382699925
 20
-92.30033909307522
 30
0.0
 11
77.08158466745402
 21
-98.00591800368465
 31
0.0
  0
LINE
  5
349
330
70
100
AcDbEntity
  8
0
100
AcDbLine
 10
85.48481413148605
 20
-87.99133910053098
 30
0.0
 11
84.16403408198087
 21
-88.10689238187389
 31
0.0
  0
LINE
  5
34A
330
70
100
AcDbEntity
  8
0
100
AcDbLine
 10
90.2723632910313
 20
-82.28576018992155
 30
0.0
 11
85.48481413148605
 21
-87.99133910053098
 31
0.0
  0
LINE
  5
3CD
330
70
100
AcDbEntity
  8
0
100
AcDbLine
 10
157.4011518226647
 20
-66.88786272487488
 30
0.0
 11
150.8386518226647
 21
-66.88786272487488
 31
0.0
  0
LINE
  5
3CE
330
70
100
AcDbEntity
  8
0
100
AcDbLine
 10
150.8386518226647
 20
-66.88786272487488
 30
0.0
 11
150.8386518226647
 21
-70.63786272487488
 31
0.0
  0
LINE
  5
3CF
330
70
100
AcDbEntity
  8
0
100
AcDbLine
 10
150.8386518226647
 20
-70.63786272487488
 30
0.0
 11
157.4011518226647
 21
-70.63786272487488
 31
0.0
  0
LINE
  5
3D0
330
70
100
AcDbEntity
  8
0
100
AcDbLine
 10
158.3386518226647
 20
-58.50225842510482
 30
0.0
 11
158.3386518226647
 21
-65.95036272487488
 31
0.0
  0
LINE
  5
3D1
330
70
100
AcDbEntity
  8
0
100
AcDbLine
 10
158.3386518226647
 20
-71.57536272487488
 30
0.0
 11
158.3386518226647
 21
-79.02346702464495
 31
0.0
  0
LINE
  5
3D2
330
70
100
AcDbEntity
  8
0
100
AcDbLine
 10
158.3386518226647
 20
-65.95036272487488
 30
0.0
 11
157.4011518226647
 21
-66.88786272487488
 31
0.0
  0
LINE
  5
3D3
330
70
100
AcDbEntity
  8
0
100
AcDbLine
 10
157.4011518226647
 20
-70.63786272487488
 30
0.0
 11
158.3386518226647
 21
-71.57536272487488
 31
0.0
  0
LINE
  5
3D4
330
70
100
AcDbEntity
  8
0
100
AcDbLine
 10
149.8198690772898
 20
-49.80845957145631
 30
0.0
 11
144.7927024193215
 21
-54.02675326002423
 31
0.0
  0
LINE
  5
3D5
330
70
100
AcDbEntity
  8
0
100
AcDbLine
 10
144.7927024193215
 20
-54.02675326002422
 30
0.0
 11
147.203155955646
 21
-56.89941992172039
 31
0.0
  0
LINE
  5
3D6
330
70
100
AcDbEntity
  8
0
100
AcDbLine
 10
147.203155955646
 20
-56.89941992172039
 30
0.0
 11
152.2303226136143
 21
-52.68112623315248
 31
0.0
  0
LINE
  5
3D7
330
70
100
AcDbEntity
  8
0
100
AcDbLine
 10
152.2303226136143
 20
-52.68112623315248
 30
0.0
 11
153.5511026631195
 21
-52.79667951449539
 31
0.0
  0
LINE
  5
3D8
330
70
100
AcDbEntity
  8
0
100
AcDbLine
 10
153.5511026631195
 20
-52.79667951449539
 30
0.0
 11
158.3386518226647
 21
-58.50225842510482
 31
0.0
  0
LINE
  5
3D9
330
70
100
AcDbEntity
  8
0
100
AcDbLine
 10
149.9354223586327
 20
-48.48767952195114
 30
0.0
 11
149.8198690772898
 21
-49.80845957145631
 31
0.0
  0
LINE
  5
3DA
330
70
100
AcDbEntity
  8
0
100
AcDbLine
 10
145.1478731990875
 20
-42.78210061134172
 30
0.0
 11
149.9354223586327
 21
-48.48767952195114
 31
0.0
  0
LINE
  5
3DB
330
70
100
AcDbEntity
  8
0
100
AcDbLine
 10
133.0338408306229
 20
-41.59803230824862
 30
0.0
 11
131.8942746646836
 21
-48.06083318739124
 31
0.0
  0
LINE
  5
3DC
330
70
100
AcDbEntity
  8
0
100
AcDbLine
 10
131.8942746646836
 20
-48.06083318739124
 30
0.0
 11
135.5873037384794
 21
-48.71201385364221
 31
0.0
  0
LINE
  5
3DD
330
70
100
AcDbEntity
  8
0
100
AcDbLine
 10
135.5873037384794
 20
-48.71201385364221
 30
0.0
 11
136.7268699044186
 21
-42.24921297449959
 31
0.0
  0
LINE
  5
3DE
330
70
100
AcDbEntity
  8
0
100
AcDbLine
 10
136.7268699044186
 20
-42.24921297449959
 30
0.0
 11
137.8129223394303
 21
-41.4887508726134
 31
0.0
  0
LINE
  5
3DF
330
70
100
AcDbEntity
  8
0
100
AcDbLine
 10
137.8129223394303
 20
-41.4887508726134
 30
0.0
 11
145.1478731990875
 21
-42.7821006113417
 31
0.0
  0
LINE
  5
3E0
330
70
100
AcDbEntity
  8
0
100
AcDbLine
 10
132.2733787287367
 20
-40.51197987323693
 30
0.0
 11
133.0338408306229
 21
-41.59803230824862
 31
0.0
  0
LINE
  5
3E1
330
70
100
AcDbEntity
  8
0
100
AcDbLine
 10
124.9384278690796
 20
-39.21863013450863
 30
0.0
 11
132.2733787287367
 21
-40.51197987323693
 31
0.0
  0
LINE
  5
3E2
330
70
100
AcDbEntity
  8
0
100
AcDbLine
 10
114.897436255203
 20
-46.09833110044157
 30
0.0
 11
118.178686255203
 21
-51.78162281277695
 31
0.0
  0
LINE
  5
3E3
330
70
100
AcDbEntity
  8
0
100
AcDbLine
 10
118.178686255203
 20
-51.78162281277695
 30
0.0
 11
121.4262815193946
 21
-49.90662281277694
 31
0.0
  0
LINE
  5
3E4
330
70
100
AcDbEntity
  8
0
100
AcDbLine
 10
121.4262815193946
 20
-49.90662281277694
 30
0.0
 11
118.1450315193946
 21
-44.22333110044157
 31
0.0
  0
LINE
  5
3E5
330
70
100
AcDbEntity
  8
0
100
AcDbLine
 10
118.1450315193946
 20
-44.22333110044157
 30
0.0
 11
118.4881803354426
 21
-42.94268228439365
 31
0.0
  0
LINE
  5
3E6
330
70
100
AcDbEntity
  8
0
100
AcDbLine
 10
118.4881803354426
 20
-42.94268228439365
 30
0.0
 11
124.9384278690796
 21
-39.21863013450863
 31
0.0
  0
LINE
  5
3E7
330
70
100
AcDbEntity
  8
0
100
AcDbLine
 10
113.6167874391551
 20
-45.75518228439365
 30
0.0
 11
114.897436255203
 21
-46.09833110044156
 31
0.0
  0
LINE
  5
3E8
330
70
100
AcDbEntity
  8
0
100
AcDbLine
 10
107.1665399055181
 20
-49.47923443427868
 30
0.0
 11
113.6167874391551
 21
-45.75518228439365
 31
0.0
  0
LINE
  5
3E9
330
70
100
AcDbEntity
  8
0
100
AcDbLine
 10
103.8968806155539
 20
-61.20361612791818
 30
0.0
 11
110.0636134394615
 21
-63.44812331849288
 31
0.0
  0
LINE
  5
3EA
330
70
100
AcDbEntity
  8
0
100
AcDbLine
 10
110.0636134394615
 20
-63.44812331849288
 30
0.0
 11
111.3461889769327
 21
-59.92427599054572
 31
0.0
  0
LINE
  5
3EB
330
70
100
AcDbEntity
  8
0
100
AcDbLine
 10
111.3461889769327
 20
-59.92427599054572
 30
0.0
 11
105.1794561530252
 21
-57.67976879997103
 31
0.0
  0
LINE
  5
3EC
330
70
100
AcDbEntity
  8
0
100
AcDbLine
 10
105.1794561530252
 20
-57.67976879997103
 30
0.0
 11
104.6191382054062
 21
-56.47816308361641
 31
0.0
  0
LINE
  5
3ED
330
70
100
AcDbEntity
  8
0
100
AcDbLine
 10
104.6191382054062
 20
-56.47816308361641
 30
0.0
 11
107.1665399055181
 21
-49.47923443427868
 31
0.0
  0
LINE
  5
3EE
330
70
100
AcDbEntity
  8
0
100
AcDbLine
 10
102.6952748991993
 20
-61.76393407553715
 30
0.0
 11
103.8968806155539
 21
-61.20361612791818
 31
0.0
  0
LINE
  5
3EF
330
70
100
AcDbEntity
  8
0
100
AcDbLine
 10
100.1478731990874
 20
-68.76286272487487
 30
0.0
 11
102.6952748991993
 21
-61.76393407553715
 31
0.0
  0
LINE
  5
3F0
330
70
100
AcDbEntity
  8
0
100
AcDbLine
 10
105.1794561530252
 20
-79.84595664977874
 30
0.0
 11
111.3461889769327
 21
-77.60144945920403
 31
0.0
  0
LINE
  5
3F1
330
70
100
AcDbEntity
  8
0
100
AcDbLine
 10
111.3461889769327
 20
-77.60144945920403
 30
0.0
 11
110.0636134394615
 21
-74.07760213125688
 31
0.0
  0
LINE
  5
3F2
330
70
100
AcDbEntity
  8
0
100
AcDbLine
 10
110.0636134394615
 20
-74.07760213125688
 30
0.0
 11
103.8968806155539
 21
-76.32210932183159
 31
0.0
  0
LINE
  5
3F3
330
70
100
AcDbEntity
  8
0
100
AcDbLine
 10
103.8968806155539
 20
-76.32210932183159
 30
0.0
 11
102.6952748991994
 21
-75.7617913742126
 31
0.0
  0
LINE
  5
3F4
330
70
100
AcDbEntity
  8
0
100
AcDbLine
 10
102.6952748991994
 20
-75.7617913742126
 30
0.0
 11
100.1478731990875
 21
-68.76286272487488
 31
0.0
  0
LINE
  5
3F5
330
70
100
AcDbEntity
  8
0
100
AcDbLine
 10
104.6191382054062
 20
-81.04756236613335
 30
0.0
 11
105.1794561530252
 21
-79.84595664977874
 31
0.0
  0
LINE
  5
3F6
330
70
100
AcDbEntity
  8
0
100
AcDbLine
 10
107.1665399055181
 20
-88.04649101547106
 30
0.0
 11
104.6191382054062
 21
-81.04756236613333
 31
0.0
  0
LINE
  5
3F7
330
70
100
AcDbEntity
  8
0
100
AcDbLine
 10
118.1450315193947
 20
-93.30239434930819
 30
0.0
 11
121.4262815193946
 21
-87.61910263697281
 31
0.0
  0
LINE
  5
3F8
330
70
100
AcDbEntity
  8
0
100
AcDbLine
 10
121.4262815193946
 20
-87.61910263697281
 30
0.0
 11
118.178686255203
 21
-85.74410263697281
 31
0.0
  0
LINE
  5
3F9
330
70
100
AcDbEntity
  8
0
100
AcDbLine
 10
118.178686255203
 20
-85.74410263697281
 30
0.0
 11
114.897436255203
 21
-91.42739434930819
 31
0.0
  0
LINE
  5
3FA
330
70
100
AcDbEntity
  8
0
100
AcDbLine
 10
114.897436255203
 20
-91.42739434930819
 30
0.0
 11
113.6167874391551
 21
-91.77054316535608
 31
0.0
  0
LINE
  5
3FB
330
70
100
AcDbEntity
  8
0
100
AcDbLine
 10
113.6167874391551
 20
-91.77054316535608
 30
0.0
 11
107.1665399055181
 21
-88.04649101547104
 31
0.0
  0
LINE
  5
3FC
330
70
100
AcDbEntity
  8
0
100
AcDbLine
 10
118.4881803354425
 20
-94.5830431653561
 30
0.0
 11
118.1450315193947
 21
-93.30239434930819
 31
0.0
  0
LINE
  5
3FD
330
70
100
AcDbEntity
  8
0
100
AcDbLine
 10
124.9384278690795
 20
-98.30709531524114
 30
0.0
 11
118.4881803354425
 21
-94.5830431653561
 31
0.0
  0
LINE
  5
3FE
330
70
100
AcDbEntity
  8
0
100
AcDbLine
 10
136.7268699044186
 20
-95.27651247525014
 30
0.0
 11
135.5873037384794
 21
-88.81371159610754
 31
0.0
  0
LINE
  5
3FF
330
70
100
AcDbEntity
  8
0
100
AcDbLine
 10
135.5873037384794
 20
-88.81371159610754
 30
0.0
 11
131.8942746646837
 21
-89.46489226235852
 31
0.0
  0
LINE
  5
400
330
70
100
AcDbEntity
  8
0
100
AcDbLine
 10
131.8942746646837
 20
-89.46489226235852
 30
0.0
 11
133.0338408306229
 21
-95.92769314150112
 31
0.0
  0
LINE
  5
401
330
70
100
AcDbEntity
  8
0
100
AcDbLine
 10
133.0338408306229
 20
-95.92769314150114
 30
0.0
 11
132.2733787287367
 21
-97.01374557651282
 31
0.0
  0
LINE
  5
402
330
70
100
AcDbEntity
  8
0
100
AcDbLine
 10
132.2733787287367
 20
-97.01374557651282
 30
0.0
 11
124.9384278690795
 21
-98.30709531524114
 31
0.0
  0
LINE
  5
403
330
70
100
AcDbEntity
  8
0
100
AcDbLine
 10
137.8129223394303
 20
-96.03697457713636
 30
0.0
 11
136.7268699044186
 21
-95.27651247525016
 31
0.0
  0
LINE
  5
404
330
70
100
AcDbEntity
  8
0
100
AcDbLine
 10
145.1478731990875
 20
-94.74362483840806
 30
0.0
 11
137.8129223394303
 21
-96.03697457713636
 31
0.0
  0
LINE
  5
405
330
70
100
AcDbEntity
  8
0
100
AcDbLine
 10
152.2303226136143
 20
-84.84459921659729
 30
0.0
 11
147.203155955646
 21
-80.62630552802938
 31
0.0
  0
LINE
  5
406
330
70
100
AcDbEntity
  8
0
100
AcDbLine
 10
147.203155955646
 20
-80.62630552802938
 30
0.0
 11
144.7927024193215
 21
-83.49897218972552
 31
0.0
  0
LINE
  5
407
330
70
100
AcDbEntity
  8
0
100
AcDbLine
 10
144.7927024193215
 20
-83.49897218972552
 30
0.0
 11
149.8198690772898
 21
-87.71726587829345
 31
0.0
  0
LINE
  5
408
330
70
100
AcDbEntity
  8
0
100
AcDbLine
 10
149.8198690772898
 20
-87.71726587829345
 30
0.0
 11
149.9354223586327
 21
-89.03804592779861
 31
0.0
  0
LINE
  5
409
330
70
100
AcDbEntity
  8
0
100
AcDbLine
 10
149.9354223586327
 20
-89.03804592779861
 30
0.0
 11
145.1478731990875
 21
-94.74362483840804
 31
0.0
  0
LINE
  5
40A
330
70
100
AcDbEntity
  8
0
100
AcDbLine
 10
153.5511026631195
 20
-84.72904593525438
 30
0.0
 11
152.2303226136143
 21
-84.84459921659729
 31
0.0
  0
LINE
  5
40B
330
70
100
AcDbEntity
  8
0
100
AcDbLine
 10
158.3386518226647
 20
-79.02346702464495
 30
0.0
 11
153.5511026631195
 21
-84.72904593525438
 31
0.0
  0
LINE
  5
40C
330
70
100
AcDbEntity
  8
0
100
AcDbLine
 10
221.1349506421344
 20
-66.82177751706364
 30
0.0
 11
214.5724506421344
 21
-66.82177751706364
 31
0.0
  0
LINE
  5
40D
330
70
100
AcDbEntity
  8
0
100
AcDbLine
 10
214.5724506421344
 20
-66.82177751706364
 30
0.0
 11
214.5724506421344
 21
-70.57177751706364
 31
0.0
  0
LINE
  5
40E
330
70
100
AcDbEntity
  8
0
100
AcDbLine
 10
214.5724506421344
 20
-70.57177751706364
 30
0.0
 11
221.1349506421344
 21
-70.57177751706364
 31
0.0
  0
LINE
  5
40F
330
70
100
AcDbEntity
  8
0
100
AcDbLine
 10
222.0724506421344
 20
-58.43617321729358
 30
0.0
 11
222.0724506421344
 21
-65.88427751706364
 31
0.0
  0
LINE
  5
410
330
70
100
AcDbEntity
  8
0
100
AcDbLine
 10
222.0724506421344
 20
-71.50927751706364
 30
0.0
 11
222.0724506421344
 21
-78.9573818168337
 31
0.0
  0
LINE
  5
411
330
70
100
AcDbEntity
  8
0
100
AcDbLine
 10
222.0724506421344
 20
-65.88427751706364
 30
0.0
 11
221.1349506421344
 21
-66.82177751706364
 31
0.0
  0
LINE
  5
412
330
70
100
AcDbEntity
  8
0
100
AcDbLine
 10
221.1349506421344
 20
-70.57177751706364
 30
0.0
 11
222.0724506421344
 21
-71.50927751706364
 31
0.0
  0
LINE
  5
413
330
70
100
AcDbEntity
  8
0
100
AcDbLine
 10
213.5536678967595
 20
-49.74237436364507
 30
0.0
 11
208.5265012387912
 21
-53.96066805221298
 31
0.0
  0
LINE
  5
414
330
70
100
AcDbEntity
  8
0
100
AcDbLine
 10
208.5265012387912
 20
-53.96066805221298
 30
0.0
 11
210.9369547751157
 21
-56.83333471390915
 31
0.0
  0
LINE
  5
415
330
70
100
AcDbEntity
  8
0
100
AcDbLine
 10
210.9369547751157
 20
-56.83333471390915
 30
0.0
 11
215.964121433084
 21
-52.61504102534124
 31
0.0
  0
LINE
  5
416
330
70
100
AcDbEntity
  8
0
100
AcDbLine
 10
215.964121433084
 20
-52.61504102534124
 30
0.0
 11
217.2849014825892
 21
-52.73059430668415
 31
0.0
  0
LINE
  5
417
330
70
100
AcDbEntity
  8
0
100
AcDbLine
 10
217.2849014825892
 20
-52.73059430668415
 30
0.0
 11
222.0724506421344
 21
-58.43617321729358
 31
0.0
  0
LINE
  5
418
330
70
100
AcDbEntity
  8
0
100
AcDbLine
 10
213.6692211781024
 20
-48.4215943141399
 30
0.0
 11
213.5536678967595
 21
-49.74237436364507
 31
0.0
  0
LINE
  5
419
330
70
100
AcDbEntity
  8
0
100
AcDbLine
 10
208.8816720185572
 20
-42.71601540353048
 30
0.0
 11
213.6692211781024
 21
-48.4215943141399
 31
0.0
  0
LINE
  5
41A
330
70
100
AcDbEntity
  8
0
100
AcDbLine
 10
196.7676396500925
 20
-41.53194710043737
 30
0.0
 11
195.6280734841533
 21
-47.99474797958
 31
0.0
  0
LINE
  5
41B
330
70
100
AcDbEntity
  8
0
100
AcDbLine
 10
195.6280734841533
 20
-47.99474797958
 30
0.0
 11
199.3211025579491
 21
-48.64592864583097
 31
0.0
  0
LINE
  5
41C
330
70
100
AcDbEntity
  8
0
100
AcDbLine
 10
199.3211025579491
 20
-48.64592864583097
 30
0.0
 11
200.4606687238883
 21
-42.18312776668835
 31
0.0
  0
LINE
  5
41D
330
70
100
AcDbEntity
  8
0
100
AcDbLine
 10
200.4606687238883
 20
-42.18312776668835
 30
0.0
 11
201.5467211589
 21
-41.42266566480216
 31
0.0
  0
LINE
  5
41E
330
70
100
AcDbEntity
  8
0
100
AcDbLine
 10
201.5467211589
 20
-41.42266566480216
 30
0.0
 11
208.8816720185572
 21
-42.71601540353046
 31
0.0
  0
LINE
  5
41F
330
70
100
AcDbEntity
  8
0
100
AcDbLine
 10
196.0071775482063
 20
-40.44589466542569
 30
0.0
 11
196.7676396500925
 21
-41.53194710043738
 31
0.0
  0
LINE
  5
420
330
70
100
AcDbEntity
  8
0
100
AcDbLine
 10
188.6722266885492
 20
-39.15254492669739
 30
0.0
 11
196.0071775482063
 21
-40.44589466542569
 31
0.0
  0
LINE
  5
421
330
70
100
AcDbEntity
  8
0
100
AcDbLine
 10
178.6312350746727
 20
-46.03224589263033
 30
0.0
 11
181.9124850746727
 21
-51.71553760496571
 31
0.0
  0
LINE
  5
422
330
70
100
AcDbEntity
  8
0
100
AcDbLine
 10
181.9124850746727
 20
-51.71553760496571
 30
0.0
 11
185.1600803388643
 21
-49.8405376049657
 31
0.0
  0
LINE
  5
423
330
70
100
AcDbEntity
  8
0
100
AcDbLine
 10
185.1600803388643
 20
-49.8405376049657
 30
0.0
 11
181.8788303388643
 21
-44.15724589263033
 31
0.0
  0
LINE
  5
424
330
70
100
AcDbEntity
  8
0
100
AcDbLine
 10
181.8788303388643
 20
-44.15724589263033
 30
0.0
 11
182.2219791549122
 21
-42.87659707658241
 31
0.0
  0
LINE
  5
425
330
70
100
AcDbEntity
  8
0
100
AcDbLine
 10
182.2219791549122
 20
-42.87659707658241
 30
0.0
 11
188.6722266885492
 21
-39.15254492669739
 31
0.0
  0
LINE
  5
426
330
70
100
AcDbEntity
  8
0
100
AcDbLine
 10
177.3505862586248
 20
-45.68909707658241
 30
0.0
 11
178.6312350746727
 21
-46.03224589263033
 31
0.0
  0
LINE
  5
427
330
70
100
AcDbEntity
  8
0
100
AcDbLine
 10
170.9003387249878
 20
-49.41314922646744
 30
0.0
 11
177.3505862586248
 21
-45.68909707658241
 31
0.0
  0
LINE
  5
428
330
70
100
AcDbEntity
  8
0
100
AcDbLine
 10
167.6306794350236
 20
-61.13753092010694
 30
0.0
 11
173.7974122589311
 21
-63.38203811068164
 31
0.0
  0
LINE
  5
429
330
70
100
AcDbEntity
  8
0
100
AcDbLine
 10
173.7974122589311
 20
-63.38203811068164
 30
0.0
 11
175.0799877964024
 21
-59.85819078273448
 31
0.0
  0
LINE
  5
42A
330
70
100
AcDbEntity
  8
0
100
AcDbLine
 10
175.0799877964024
 20
-59.85819078273448
 30
0.0
 11
168.9132549724949
 21
-57.61368359215978
 31
0.0
  0
LINE
  5
42B
330
70
100
AcDbEntity
  8
0
100
AcDbLine
 10
168.9132549724949
 20
-57.61368359215978
 30
0.0
 11
168.3529370248759
 21
-56.41207787580517
 31
0.0
  0
LINE
  5
42C
330
70
100
AcDbEntity
  8
0
100
AcDbLine
 10
168.3529370248759
 20
-56.41207787580517
 30
0.0
 11
170.9003387249878
 21
-49.41314922646744
 31
0.0
  0
LINE
  5
42D
330
70
100
AcDbEntity
  8
0
100
AcDbLine
 10
166.429073718669
 20
-61.69784886772591
 30
0.0
 11
167.6306794350236
 21
-61.13753092010694
 31
0.0
  0
LINE
  5
42E
330
70
100
AcDbEntity
  8
0
100
AcDbLine
 10
163.8816720185571
 20
-68.69677751706362
 30
0.0
 11
166.429073718669
 21
-61.69784886772591
 31
0.0
  0
LINE
  5
42F
330
70
100
AcDbEntity
  8
0
100
AcDbLine
 10
168.9132549724949
 20
-79.77987144196749
 30
0.0
 11
175.0799877964024
 21
-77.53536425139279
 31
0.0
  0
LINE
  5
430
330
70
100
AcDbEntity
  8
0
100
AcDbLine
 10
175.0799877964024
 20
-77.53536425139279
 30
0.0
 11
173.7974122589311
 21
-74.01151692344564
 31
0.0
  0
LINE
  5
431
330
70
100
AcDbEntity
  8
0
100
AcDbLine
 10
173.7974122589311
 20
-74.01151692344564
 30
0.0
 11
167.6306794350236
 21
-76.25602411402034
 31
0.0
  0
LINE
  5
432
330
70
100
AcDbEntity
  8
0
100
AcDbLine
 10
167.6306794350236
 20
-76.25602411402034
 30
0.0
 11
166.429073718669
 21
-75.69570616640135
 31
0.0
  0
LINE
  5
433
330
70
100
AcDbEntity
  8
0
100
AcDbLine
 10
166.429073718669
 20
-75.69570616640135
 30
0.0
 11
163.8816720185571
 21
-68.69677751706362
 31
0.0
  0
LINE
  5
434
330
70
100
AcDbEntity
  8
0
100
AcDbLine
 10
168.3529370248759
 20
-80.9814771583221
 30
0.0
 11
168.9132549724949
 21
-79.77987144196749
 31
0.0
  0
LINE
  5
435
330
70
100
AcDbEntity
  8
0
100
AcDbLine
 10
170.9003387249877
 20
-87.98040580765983
 30
0.0
 11
168.3529370248759
 21
-80.9814771583221
 31
0.0
  0
LINE
  5
436
330
70
100
AcDbEntity
  8
0
100
AcDbLine
 10
181.8788303388643
 20
-93.23630914149694
 30
0.0
 11
185.1600803388643
 21
-87.55301742916158
 31
0.0
  0
LINE
  5
437
330
70
100
AcDbEntity
  8
0
100
AcDbLine
 10
185.1600803388643
 20
-87.55301742916158
 30
0.0
 11
181.9124850746727
 21
-85.67801742916158
 31
0.0
  0
LINE
  5
438
330
70
100
AcDbEntity
  8
0
100
AcDbLine
 10
181.9124850746727
 20
-85.67801742916158
 30
0.0
 11
178.6312350746727
 21
-91.36130914149694
 31
0.0
  0
LINE
  5
439
330
70
100
AcDbEntity
  8
0
100
AcDbLine
 10
178.6312350746727
 20
-91.36130914149694
 30
0.0
 11
177.3505862586248
 21
-91.70445795754485
 31
0.0
  0
LINE
  5
43A
330
70
100
AcDbEntity
  8
0
100
AcDbLine
 10
177.3505862586248
 20
-91.70445795754485
 30
0.0
 11
170.9003387249878
 21
-87.98040580765983
 31
0.0
  0
LINE
  5
43B
330
70
100
AcDbEntity
  8
0
100
AcDbLine
 10
182.2219791549122
 20
-94.51695795754487
 30
0.0
 11
181.8788303388643
 21
-93.23630914149694
 31
0.0
  0
LINE
  5
43C
330
70
100
AcDbEntity
  8
0
100
AcDbLine
 10
188.6722266885492
 20
-98.24101010742991
 30
0.0
 11
182.2219791549122
 21
-94.51695795754487
 31
0.0
  0
LINE
  5
43D
330
70
100
AcDbEntity
  8
0
100
AcDbLine
 10
200.4606687238883
 20
-95.21042726743891
 30
0.0
 11
199.3211025579491
 21
-88.74762638829629
 31
0.0
  0
LINE
  5
43E
330
70
100
AcDbEntity
  8
0
100
AcDbLine
 10
199.3211025579491
 20
-88.74762638829629
 30
0.0
 11
195.6280734841533
 21
-89.39880705454728
 31
0.0
  0
LINE
  5
43F
330
70
100
AcDbEntity
  8
0
100
AcDbLine
 10
195.6280734841533
 20
-89.39880705454728
 30
0.0
 11
196.7676396500925
 21
-95.86160793368989
 31
0.0
  0
LINE
  5
440
330
70
100
AcDbEntity
  8
0
100
AcDbLine
 10
196.7676396500925
 20
-95.86160793368989
 30
0.0
 11
196.0071775482063
 21
-96.94766036870158
 31
0.0
  0
LINE
  5
441
330
70
100
AcDbEntity
  8
0
100
AcDbLine
 10
196.0071775482063
 20
-96.94766036870158
 30
0.0
 11
188.6722266885492
 21
-98.24101010742987
 31
0.0
  0
LINE
  5
442
330
70
100
AcDbEntity
  8
0
100
AcDbLine
 10
201.5467211589
 20
-95.97088936932513
 30
0.0
 11
200.4606687238883
 21
-95.21042726743891
 31
0.0
  0
LINE
  5
443
330
70
100
AcDbEntity
  8
0
100
AcDbLine
 10
208.8816720185572
 20
-94.67753963059683
 30
0.0
 11
201.5467211589
 21
-95.97088936932513
 31
0.0
  0
LINE
  5
444
330
70
100
AcDbEntity
  8
0
100
AcDbLine
 10
215.964121433084
 20
-84.77851400878604
 30
0.0
 11
210.9369547751157
 21
-80.56022032021813
 31
0.0
  0
LINE
  5
445
330
70
100
AcDbEntity
  8
0
100
AcDbLine
 10
210.9369547751157
 20
-80.56022032021813
 30
0.0
 11
208.5265012387912
 21
-83.43288698191427
 31
0.0
  0
LINE
  5
446
330
70
100
AcDbEntity
  8
0
100
AcDbLine
 10
208.5265012387912
 20
-83.43288698191429
 30
0.0
 11
213.5536678967595
 21
-87.6511806704822
 31
0.0
  0
LINE
  5
447
330
70
100
AcDbEntity
  8
0
100
AcDbLine
 10
213.5536678967595
 20
-87.6511806704822
 30
0.0
 11
213.6692211781024
 21
-88.97196071998738
 31
0.0
  0
LINE
  5
448
330
70
100
AcDbEntity
  8
0
100
AcDbLine
 10
213.6692211781024
 20
-88.97196071998738
 30
0.0
 11
208.8816720185572
 21
-94.6775396305968
 31
0.0
  0
LINE
  5
449
330
70
100
AcDbEntity
  8
0
100
AcDbLine
 10
217.2849014825892
 20
-84.66296072744313
 30
0.0
 11
215.964121433084
 21
-84.77851400878604
 31
0.0
  0
LINE
  5
44A
330
70
100
AcDbEntity
  8
0
100
AcDbLine
 10
222.0724506421344
 20
-78.95738181683372
 30
0.0
 11
217.2849014825892
 21
-84.66296072744313
 31
0.0
  0
ENDSEC
  0
SECTION
  2
OBJECTS
  0
DICTIONARY
  5
C
330
0
100
AcDbDictionary
281
     1
  3
ACAD_CIP_PREVIOUS_PRODUCT_INFO
350
78
  3
ACAD_COLOR
350
63
  3
ACAD_DETAILVIEWSTYLE
350
6A
  3
ACAD_GROUP
350
D
  3
ACAD_LAYOUT
350
62
  3
ACAD_MATERIAL
350
10
  3
ACAD_MLEADERSTYLE
350
66
  3
ACAD_MLINESTYLE
350
5F
  3
ACAD_PLOTSETTINGS
350
61
  3
ACAD_PLOTSTYLENAME
350
E
  3
ACAD_SCALELIST
350
42
  3
ACAD_SECTIONVIEWSTYLE
350
68
  3
ACAD_TABLESTYLE
350
64
  3
ACAD_VISUALSTYLE
350
29
  3
ACDB_RECOMPOSE_DATA
350
456
  3
AcDbVariableDictionary
350
79
  3
DWGPROPS
350
457
  0
XRECORD
  5
78
102
{ACAD_REACTORS
330
C
102
}
330
C
100
AcDbXrecord
280
     1
300
ACD
300
2019
300
87084ACD_2019_0F
  0
DICTIONARY
  5
63
102
{ACAD_REACTORS
330
C
102
}
330
C
100
AcDbDictionary
281
     1
  0
DICTIONARY
  5
6A
102
{ACAD_REACTORS
330
C
102
}
330
C
100
AcDbDictionary
281
     1
  3
Imperial24
350
6B
  3
Metric50
350
81
  0
DICTIONARY
  5
D
102
{ACAD_REACTORS
330
C
102
}
330
C
100
AcDbDictionary
281
     1
  0
DICTIONARY
  5
62
102
{ACAD_REACTORS
330
C
102
}
330
C
100
AcDbDictionary
281
     1
  3
Layout1
350
6F
  3
Layout2
350
77
  3
Model
350
73
  0
DICTIONARY
  5
10
102
{ACAD_REACTORS
330
C
102
}
330
C
100
AcDbDictionary
281
     1
  3
ByBlock
350
19
  3
ByLayer
350
11
  3
Global
350
21
  0
DICTIONARY
  5
66
102
{ACAD_REACTORS
330
C
102
}
330
C
100
AcDbDictionary
281
     1
  3
Standard
350
67
  0
DICTIONARY
  5
5F
102
{ACAD_REACTORS
330
C
102
}
330
C
100
AcDbDictionary
281
     1
  3
Standard
350
60
  0
DICTIONARY
  5
61
102
{ACAD_REACTORS
330
C
102
}
330
C
100
AcDbDictionary
281
     1
  0
ACDBDICTIONARYWDFLT
  5
E
102
{ACAD_REACTORS
330
C
102
}
330
C
100
AcDbDictionary
281
     1
  3
Normal
350
F
100
AcDbDictionaryWithDefault
340
F
  0
DICTIONARY
  5
42
102
{ACAD_REACTORS
330
C
102
}
330
C
100
AcDbDictionary
281
     1
  3
A0
350
43
  3
A1
350
44
  3
A2
350
45
  3
A3
350
46
  3
A4
350
47
  3
A5
350
48
  3
A6
350
49
  3
A7
350
4A
  3
A8
350
4B
  3
A9
350
4C
  3
B0
350
4D
  3
B1
350
4E
  3
B2
350
4F
  3
B3
350
50
  3
B4
350
51
  3
B5
350
52
  3
B6
350
53
  0
DICTIONARY
  5
68
102
{ACAD_REACTORS
330
C
102
}
330
C
100
AcDbDictionary
281
     1
  3
Imperial24
350
69
  3
Metric50
350
80
  0
DICTIONARY
  5
64
102
{ACAD_REACTORS
330
C
102
}
330
C
100
AcDbDictionary
281
     1
  3
Standard
350
65
  0
DICTIONARY
  5
29
102
{ACAD_REACTORS
330
C
102
}
330
C
100
AcDbDictionary
281
     1
  3
2dWireframe
350
2F
  3
Basic
350
2E
  3
Brighten
350
35
  3
ColorChange
350
39
  3
Conceptual
350
32
  3
Dim
350
34
  3
EdgeColorOff
350
41
  3
Facepattern
350
38
  3
Flat
350
2A
  3
FlatWithEdges
350
2B
  3
Gouraud
350
2C
  3
GouraudWithEdges
350
2D
  3
Hidden
350
31
  3
JitterOff
350
3F
  3
Linepattern
350
37
  3
OverhangOff
350
40
  3
Realistic
350
33
  3
Shaded
350
3E
  3
Shaded with edges
350
3D
  3
Shades of Gray
350
3A
  3
Sketchy
350
3B
  3
Thicken
350
36
  3
Wireframe
350
30
  3
X-Ray
350
3C
  0
XRECORD
  5
456
102
{ACAD_REACTORS
330
C
102
}
330
C
100
AcDbXrecord
280
     1
 90
        1
330
65
  0
DICTIONARY
  5
79
102
{ACAD_REACTORS
330
C
102
}
330
C
100
AcDbDictionary
281
     1
  3
CANNOSCALE
350
7E
  3
CMLEADERSTYLE
350
7B
  3
CTABLESTYLE
350
7A
  3
CVIEWDETAILSTYLE
350
7C
  3
CVIEWSECTIONSTYLE
350
7D
  3
DIMASSOC
350
452
  3
HIDETEXT
350
451
  3
INDEXCTL
350
450
  3
LAYEREVAL
350
44D
  3
LAYERNOTIFY
350
44E
  3
LIGHTINGUNITS
350
44C
  3
MSLTSCALE
350
44B
  3
SORTENTS
350
44F
  3
XCLIPFRAME
350
453
  0
XRECORD
  5
457
102
{ACAD_REACTORS
330
C
102
}
330
C
100
AcDbXrecord
280
     1
  1
DWGPROPS COOKIE
  2

  3

  4

  6

  7

  8
flb14
  9

300
=
301
=
302
=
303
=
304
=
305
=
306
=
307
=
308
=
309
=
 40
0.0006828703703704
 41
2458633.897071759
 42
2458633.897916667
  1

 90
        0
  0
ACDBDETAILVIEWSTYLE
  5
6B
102
{ACAD_XDICTIONARY
360
491
102
}
102
{ACAD_REACTORS
330
6A
102
}
330
6A
100
AcDbModelDocViewStyle
 70
     0
  3
Imperial24
290
     0
100
AcDbDetailViewStyle
 70
     0
 71
     0
 90
        3
 71
     1
340
55
 40
0.24
340
0
 40
0.24
300

 40
0.36
280
     3
 71
     2
340
5D
 90
       25
 71
     3
340
55
 40
0.24
 90
        1
 40
0.75
 90
        1
300
%<\AcVar ViewType \f "%tc1">% %<\AcVar ViewDetailId>%\PSCALE %<\AcVar ViewScale \f "%sn">%
 71
     4
340
5D
 90
       25
340
5D
 90
       25
280
     0
  0
ACDBDETAILVIEWSTYLE
  5
81
102
{ACAD_XDICTIONARY
360
49B
102
}
102
{ACAD_REACTORS
330
6A
102
}
330
6A
100
AcDbModelDocViewStyle
 70
     0
  3
Metric50
290
     0
100
AcDbDetailViewStyle
 70
     0
 71
     0
 90
        3
 71
     1
340
55
 40
5.0
340
0
 40
5.0
300

 40
0.0
280
     1
 71
     2
340
5D
 90
       25
 71
     3
340
55
 40
5.0
 90
        0
 40
15.0
 90
        1
300
%<\AcVar ViewDetailId>% (%<\AcVar ViewScale \f "%sn">%)
 71
     4
340
5D
 90
       25
340
5D
 90
       25
280
     0
  0
LAYOUT
  5
6F
102
{ACAD_XDICTIONARY
360
493
102
}
102
{ACAD_REACTORS
330
62
102
}
330
62
100
AcDbPlotSettings
  1

  2

  4

  6

 40
0.0
 41
0.0
 42
0.0
 43
0.0
 44
0.0
 45
0.0
 46
0.0
 47
0.0
 48
0.0
 49
0.0
140
0.0
141
0.0
142
1.0
143
1.0
 70
   688
 72
     0
 73
     0
 74
     5
  7

 75
    16
147
1.0
148
0.0
149
0.0
100
AcDbLayout
  1
Layout1
 70
     1
 71
     1
 10
0.0
 20
0.0
 11
12.0
 21
9.0
 12
0.0
 22
0.0
 32
0.0
 14
1.000000000000000E+20
 24
1.000000000000000E+20
 34
1.000000000000000E+20
 15
-1.000000000000000E+20
 25
-1.000000000000000E+20
 35
-1.000000000000000E+20
146
0.0
 13
0.0
 23
0.0
 33
0.0
 16
1.0
 26
0.0
 36
0.0
 17
0.0
 27
1.0
 37
0.0
 76
     0
330
6C
  0
LAYOUT
  5
77
102
{ACAD_XDICTIONARY
360
497
102
}
102
{ACAD_REACTORS
330
62
102
}
330
62
100
AcDbPlotSettings
  1

  2

  4

  6

 40
0.0
 41
0.0
 42
0.0
 43
0.0
 44
0.0
 45
0.0
 46
0.0
 47
0.0
 48
0.0
 49
0.0
140
0.0
141
0.0
142
1.0
143
1.0
 70
   688
 72
     0
 73
     0
 74
     5
  7

 75
    16
147
1.0
148
0.0
149
0.0
100
AcDbLayout
  1
Layout2
 70
     1
 71
     2
 10
0.0
 20
0.0
 11
12.0
 21
9.0
 12
0.0
 22
0.0
 32
0.0
 14
0.0
 24
0.0
 34
0.0
 15
0.0
 25
0.0
 35
0.0
146
0.0
 13
0.0
 23
0.0
 33
0.0
 16
1.0
 26
0.0
 36
0.0
 17
0.0
 27
1.0
 37
0.0
 76
     0
330
74
  0
LAYOUT
  5
73
102
{ACAD_XDICTIONARY
360
495
102
}
102
{ACAD_REACTORS
330
62
102
}
330
62
100
AcDbPlotSettings
  1

  2

  4

  6

 40
0.0
 41
0.0
 42
0.0
 43
0.0
 44
0.0
 45
0.0
 46
0.0
 47
0.0
 48
0.0
 49
0.0
140
0.0
141
0.0
142
1.0
143
1.0
 70
  1712
 72
     0
 73
     0
 74
     0
  7

 75
     0
147
1.0
148
0.0
149
0.0
100
AcDbLayout
  1
Model
 70
     1
 71
     0
 10
0.0
 20
0.0
 11
12.0
 21
9.0
 12
0.0
 22
0.0
 32
0.0
 14
0.0
 24
0.0
 34
0.0
 15
0.0
 25
0.0
 35
0.0
146
0.0
 13
0.0
 23
0.0
 33
0.0
 16
1.0
 26
0.0
 36
0.0
 17
0.0
 27
1.0
 37
0.0
 76
     0
330
70
331
57
  0
MATERIAL
  5
19
102
{ACAD_XDICTIONARY
360
1A
102
}
102
{ACAD_REACTORS
330
10
102
}
330
10
100
AcDbMaterial
  1
ByBlock
 72
     0
 43
0.0208333333333333
 43
0.0
 43
0.0
 43
0.0
 43
0.0
 43
0.0208333333333333
 43
0.0
 43
0.0
 43
0.0
 43
0.0
 43
1.0
 43
0.0
 43
0.0
 43
0.0
 43
0.0
 43
1.0
 77
     0
 47
0.0208333333333333
 47
0.0
 47
0.0
 47
0.0
 47
0.0
 47
0.0208333333333333
 47
0.0
 47
0.0
 47
0.0
 47
0.0
 47
1.0
 47
0.0
 47
0.0
 47
0.0
 47
0.0
 47
1.0
171
     0
 49
0.0208333333333333
 49
0.0
 49
0.0
 49
0.0
 49
0.0
 49
0.0208333333333333
 49
0.0
 49
0.0
 49
0.0
 49
0.0
 49
1.0
 49
0.0
 49
0.0
 49
0.0
 49
0.0
 49
1.0
175
     0
142
0.0208333333333333
142
0.0
142
0.0
142
0.0
142
0.0
142
0.0208333333333333
142
0.0
142
0.0
142
0.0
142
0.0
142
1.0
142
0.0
142
0.0
142
0.0
142
0.0
142
1.0
179
     0
144
0.0208333333333333
144
0.0
144
0.0
144
0.0
144
0.0
144
0.0208333333333333
144
0.0
144
0.0
144
0.0
144
0.0
144
1.0
144
0.0
144
0.0
144
0.0
144
0.0
144
1.0
147
0.0208333333333333
147
0.0
147
0.0
147
0.0
147
0.0
147
0.0208333333333333
147
0.0
147
0.0
147
0.0
147
0.0
147
1.0
147
0.0
147
0.0
147
0.0
147
0.0
147
1.0
  0
MATERIAL
  5
11
102
{ACAD_XDICTIONARY
360
12
102
}
102
{ACAD_REACTORS
330
10
102
}
330
10
100
AcDbMaterial
  1
ByLayer
 72
     0
 43
0.0208333333333333
 43
0.0
 43
0.0
 43
0.0
 43
0.0
 43
0.0208333333333333
 43
0.0
 43
0.0
 43
0.0
 43
0.0
 43
1.0
 43
0.0
 43
0.0
 43
0.0
 43
0.0
 43
1.0
 77
     0
 47
0.0208333333333333
 47
0.0
 47
0.0
 47
0.0
 47
0.0
 47
0.0208333333333333
 47
0.0
 47
0.0
 47
0.0
 47
0.0
 47
1.0
 47
0.0
 47
0.0
 47
0.0
 47
0.0
 47
1.0
171
     0
 49
0.0208333333333333
 49
0.0
 49
0.0
 49
0.0
 49
0.0
 49
0.0208333333333333
 49
0.0
 49
0.0
 49
0.0
 49
0.0
 49
1.0
 49
0.0
 49
0.0
 49
0.0
 49
0.0
 49
1.0
175
     0
142
0.0208333333333333
142
0.0
142
0.0
142
0.0
142
0.0
142
0.0208333333333333
142
0.0
142
0.0
142
0.0
142
0.0
142
1.0
142
0.0
142
0.0
142
0.0
142
0.0
142
1.0
179
     0
144
0.0208333333333333
144
0.0
144
0.0
144
0.0
144
0.0
144
0.0208333333333333
144
0.0
144
0.0
144
0.0
144
0.0
144
1.0
144
0.0
144
0.0
144
0.0
144
0.0
144
1.0
147
0.0208333333333333
147
0.0
147
0.0
147
0.0
147
0.0
147
0.0208333333333333
147
0.0
147
0.0
147
0.0
147
0.0
147
1.0
147
0.0
147
0.0
147
0.0
147
0.0
147
1.0
  0
MATERIAL
  5
21
102
{ACAD_XDICTIONARY
360
22
102
}
102
{ACAD_REACTORS
330
10
102
}
330
10
100
AcDbMaterial
  1
Global
 72
     0
 43
0.0208333333333333
 43
0.0
 43
0.0
 43
0.0
 43
0.0
 43
0.0208333333333333
 43
0.0
 43
0.0
 43
0.0
 43
0.0
 43
1.0
 43
0.0
 43
0.0
 43
0.0
 43
0.0
 43
1.0
 77
     0
 47
0.0208333333333333
 47
0.0
 47
0.0
 47
0.0
 47
0.0
 47
0.0208333333333333
 47
0.0
 47
0.0
 47
0.0
 47
0.0
 47
1.0
 47
0.0
 47
0.0
 47
0.0
 47
0.0
 47
1.0
171
     0
 49
0.0208333333333333
 49
0.0
 49
0.0
 49
0.0
 49
0.0
 49
0.0208333333333333
 49
0.0
 49
0.0
 49
0.0
 49
0.0
 49
1.0
 49
0.0
 49
0.0
 49
0.0
 49
0.0
 49
1.0
175
     0
142
0.0208333333333333
142
0.0
142
0.0
142
0.0
142
0.0
142
0.0208333333333333
142
0.0
142
0.0
142
0.0
142
0.0
142
1.0
142
0.0
142
0.0
142
0.0
142
0.0
142
1.0
179
     0
144
0.0208333333333333
144
0.0
144
0.0
144
0.0
144
0.0
144
0.0208333333333333
144
0.0
144
0.0
144
0.0
144
0.0
144
1.0
144
0.0
144
0.0
144
0.0
144
0.0
144
1.0
147
0.0208333333333333
147
0.0
147
0.0
147
0.0
147
0.0
147
0.0208333333333333
147
0.0
147
0.0
147
0.0
147
0.0
147
1.0
147
0.0
147
0.0
147
0.0
147
0.0
147
1.0
  0
MLEADERSTYLE
  5
67
102
{ACAD_XDICTIONARY
360
48D
102
}
102
{ACAD_REACTORS
330
66
102
}
330
66
100
AcDbMLeaderStyle
170
     2
171
     1
172
     0
 90
        2
 40
0.0
 41
0.0
173
     1
 91
-1056964608
340
5B
 92
       -2
290
     1
 42
0.09
291
     1
 43
0.36
  3
Standard
 44
0.18
300

342
55
174
     1
178
     6
175
     1
176
     0
 93
-1056964608
 45
0.18
292
     0
297
     0
 46
0.18
 94
-1056964608
 47
1.0
 49
1.0
140
1.0
293
     1
141
0.0
294
     1
177
     0
142
1.0
295
     0
296
     0
143
0.125
1001
ACAD_MLEADERVER
1070
     2
  0
MLINESTYLE
  5
60
102
{ACAD_REACTORS
330
5F
102
}
330
5F
100
AcDbMlineStyle
  2
STANDARD
 70
     0
  3

 62
   256
 51
90.0
 52
90.0
 71
     2
 49
0.5
 62
   256
  6
BYLAYER
 49
-0.5
 62
   256
  6
BYLAYER
  0
ACDBPLACEHOLDER
  5
F
102
{ACAD_REACTORS
330
E
102
}
330
E
  0
SCALE
  5
43
102
{ACAD_REACTORS
330
42
102
}
330
42
100
AcDbScale
 70
     0
300
1:1
140
1.0
141
1.0
290
     1
  0
SCALE
  5
44
102
{ACAD_REACTORS
330
42
102
}
330
42
100
AcDbScale
 70
     0
300
1/128" = 1'-0"
140
0.0078125
141
12.0
290
     0
  0
SCALE
  5
45
102
{ACAD_REACTORS
330
42
102
}
330
42
100
AcDbScale
 70
     0
300
1/64" = 1'-0"
140
0.015625
141
12.0
290
     0
  0
SCALE
  5
46
102
{ACAD_REACTORS
330
42
102
}
330
42
100
AcDbScale
 70
     0
300
1/32" = 1'-0"
140
0.03125
141
12.0
290
     0
  0
SCALE
  5
47
102
{ACAD_REACTORS
330
42
102
}
330
42
100
AcDbScale
 70
     0
300
1/16" = 1'-0"
140
0.0625
141
12.0
290
     0
  0
SCALE
  5
48
102
{ACAD_REACTORS
330
42
102
}
330
42
100
AcDbScale
 70
     0
300
3/32" = 1'-0"
140
0.09375
141
12.0
290
     0
  0
SCALE
  5
49
102
{ACAD_REACTORS
330
42
102
}
330
42
100
AcDbScale
 70
     0
300
1/8" = 1'-0"
140
0.125
141
12.0
290
     0
  0
SCALE
  5
4A
102
{ACAD_REACTORS
330
42
102
}
330
42
100
AcDbScale
 70
     0
300
3/16" = 1'-0"
140
0.1875
141
12.0
290
     0
  0
SCALE
  5
4B
102
{ACAD_REACTORS
330
42
102
}
330
42
100
AcDbScale
 70
     0
300
1/4" = 1'-0"
140
0.25
141
12.0
290
     0
  0
SCALE
  5
4C
102
{ACAD_REACTORS
330
42
102
}
330
42
100
AcDbScale
 70
     0
300
3/8" = 1'-0"
140
0.375
141
12.0
290
     0
  0
SCALE
  5
4D
102
{ACAD_REACTORS
330
42
102
}
330
42
100
AcDbScale
 70
     0
300
1/2" = 1'-0"
140
0.5
141
12.0
290
     0
  0
SCALE
  5
4E
102
{ACAD_REACTORS
330
42
102
}
330
42
100
AcDbScale
 70
     0
300
3/4" = 1'-0"
140
0.75
141
12.0
290
     0
  0
SCALE
  5
4F
102
{ACAD_REACTORS
330
42
102
}
330
42
100
AcDbScale
 70
     0
300
1" = 1'-0"
140
1.0
141
12.0
290
     0
  0
SCALE
  5
50
102
{ACAD_REACTORS
330
42
102
}
330
42
100
AcDbScale
 70
     0
300
1-1/2" = 1'-0"
140
1.5
141
12.0
290
     0
  0
SCALE
  5
51
102
{ACAD_REACTORS
330
42
102
}
330
42
100
AcDbScale
 70
     0
300
3" = 1'-0"
140
3.0
141
12.0
290
     0
  0
SCALE
  5
52
102
{ACAD_REACTORS
330
42
102
}
330
42
100
AcDbScale
 70
     0
300
6" = 1'-0"
140
6.0
141
12.0
290
     0
  0
SCALE
  5
53
102
{ACAD_REACTORS
330
42
102
}
330
42
100
AcDbScale
 70
     0
300
1'-0" = 1'-0"
140
12.0
141
12.0
290
     0
  0
ACDBSECTIONVIEWSTYLE
  5
69
102
{ACAD_XDICTIONARY
360
48F
102
}
102
{ACAD_REACTORS
330
68
102
}
330
68
100
AcDbModelDocViewStyle
 70
     0
  3
Imperial24
290
     0
100
AcDbSectionViewStyle
 70
     0
 71
     0
 90
       78
 71
     1
340
55
 40
0.24
340
0
340
0
 40
0.24
300
I, O, Q, S, X, Z
 40
0.48
 90
        3
 40
0.18
 90
        1
 71
     2
340
5D
 90
       25
340
5D
 90
       50
 40
0.24
 40
0.0
 40
0.24
 71
     3
340
55
 40
0.24
 90
        1
 40
0.75
 90
        1
300
%<\AcVar ViewType \f "%tc1">% %<\AcVar ViewSectionStartId>%-%<\AcVar ViewSectionEndId>%\PSCALE %<\AcVar ViewScale \f "%sn">%
 71
     4
300
ANSI31
 40
1.0
 90
        0
290
     0
290
     0
 90
        6
 40
0.0
 40
1.570796326794896
 40
0.2617993877991494
 40
1.308996938995747
 40
-0.2617993877991494
 40
1.832595714594046
  0
ACDBSECTIONVIEWSTYLE
  5
80
102
{ACAD_XDICTIONARY
360
499
102
}
102
{ACAD_REACTORS
330
68
102
}
330
68
100
AcDbModelDocViewStyle
 70
     0
  3
Metric50
290
     0
100
AcDbSectionViewStyle
 70
     0
 71
     0
 90
      102
 71
     1
340
55
 40
5.0
340
0
340
0
 40
5.0
300
I, O, Q, S, X, Z
 40
10.0
 90
        0
 40
2.5
 90
        0
 71
     2
340
5D
 90
       25
340
5D
 90
       50
 40
5.0
 40
2.5
 40
5.0
 71
     3
340
55
 40
5.0
 90
        0
 40
15.0
 90
        1
300
%<\AcVar ViewSectionStartId>%-%<\AcVar ViewSectionEndId>% (%<\AcVar ViewScale \f "%sn">%)
 71
     4
300
ANSI31
 40
1.0
 90
        0
290
     0
290
     0
 90
        6
 40
0.0
 40
1.570796326794896
 40
0.2617993877991494
 40
1.308996938995747
 40
-0.2617993877991494
 40
1.832595714594046
  0
TABLESTYLE
  5
65
102
{ACAD_XDICTIONARY
360
454
102
}
102
{ACAD_REACTORS
330
64
102
}
330
64
100
AcDbTableStyle
  3
Standard
 70
     0
 71
     0
 40
0.06
 41
0.06
280
     0
281
     0
  7
Standard
140
0.18
170
     2
 62
     0
 63
     7
283
     0
274
    -2
284
     1
 64
     0
275
    -2
285
     1
 65
     0
276
    -2
286
     1
 66
     0
277
    -2
287
     1
 67
     0
278
    -2
288
     1
 68
     0
279
    -2
289
     1
 69
     0
  7
Standard
140
0.25
170
     5
 62
     0
 63
     7
283
     0
274
    -2
284
     1
 64
     0
275
    -2
285
     1
 65
     0
276
    -2
286
     1
 66
     0
277
    -2
287
     1
 67
     0
278
    -2
288
     1
 68
     0
279
    -2
289
     1
 69
     0
  7
Standard
140
0.18
170
     5
 62
     0
 63
     7
283
     0
274
    -2
284
     1
 64
     0
275
    -2
285
     1
 65
     0
276
    -2
286
     1
 66
     0
277
    -2
287
     1
 67
     0
278
    -2
288
     1
 68
     0
279
    -2
289
     1
 69
     0
  0
VISUALSTYLE
  5
2F
102
{ACAD_XDICTIONARY
360
465
102
}
102
{ACAD_REACTORS
330
29
102
}
330
29
100
AcDbVisualStyle
  2
2dWireframe
 70
     4
 71
     0
 72
     2
 73
     0
 90
        0
 40
-0.6
 41
-30.0
 62
     5
 63
     7
 74
     1
 91
        4
 64
     7
 65
   257
 75
     1
175
     1
 42
1.0
 92
        0
 66
   257
 43
1.0
 76
     1
 77
     6
 78
     2
 67
     7
 79
     5
170
     0
171
     0
290
     0
174
     0
 93
        1
 44
0.0
173
     0
291
     0
 45
0.0
1001
ACAD
1000
AcDbSavedByObjectVersion
1070
     0
  0
VISUALSTYLE
  5
2E
102
{ACAD_XDICTIONARY
360
463
102
}
102
{ACAD_REACTORS
330
29
102
}
330
29
100
AcDbVisualStyle
  2
Basic
 70
     7
 71
     1
 72
     0
 73
     1
 90
        0
 40
-0.6
 41
-30.0
 62
     5
 63
     7
 74
     0
 91
        4
 64
     7
 65
   257
 75
     1
175
     1
 42
1.0
 92
        8
 66
     7
 43
1.0
 76
     1
 77
     6
 78
     2
 67
     7
 79
     5
170
     0
171
     0
290
     0
174
     0
 93
        1
 44
0.0
173
     0
291
     1
 45
0.0
1001
ACAD
1000
AcDbSavedByObjectVersion
1070
     0
  0
VISUALSTYLE
  5
35
102
{ACAD_XDICTIONARY
360
471
102
}
102
{ACAD_REACTORS
330
29
102
}
330
29
100
AcDbVisualStyle
  2
Brighten
 70
    12
 71
     2
 72
     2
 73
     0
 90
        0
 40
-0.6
 41
-30.0
 62
     5
 63
     7
 74
     1
 91
        4
 64
     7
 65
   257
 75
     1
175
     1
 42
1.0
 92
        8
 66
     7
 43
1.0
 76
     1
 77
     6
 78
     2
 67
     7
 79
     5
170
     0
171
     0
290
     0
174
     0
 93
        1
 44
50.0
173
     0
291
     1
 45
0.0
1001
ACAD
1000
AcDbSavedByObjectVersion
1070
     0
  0
VISUALSTYLE
  5
39
102
{ACAD_XDICTIONARY
360
479
102
}
102
{ACAD_REACTORS
330
29
102
}
330
29
100
AcDbVisualStyle
  2
ColorChange
 70
    16
 71
     2
 72
     2
 73
     3
 90
        0
 40
-0.6
 41
-30.0
 62
     5
 63
     8
 74
     1
 91
        4
 64
     7
 65
   257
 75
     1
175
     1
 42
1.0
 92
        8
 66
     8
 43
1.0
 76
     1
 77
     6
 78
     2
 67
     7
 79
     5
170
     0
171
     0
290
     0
174
     0
 93
        1
 44
0.0
173
     0
291
     1
 45
0.0
1001
ACAD
1000
AcDbSavedByObjectVersion
1070
     0
  0
VISUALSTYLE
  5
32
102
{ACAD_XDICTIONARY
360
46B
102
}
102
{ACAD_REACTORS
330
29
102
}
330
29
100
AcDbVisualStyle
  2
Conceptual
 70
     9
 71
     3
 72
     2
 73
     0
 90
        0
 40
-0.6
 41
-30.0
 62
     5
 63
     7
 74
     2
 91
        2
 64
     7
 65
   257
 75
     1
175
     1
 42
179.0
 92
        8
 66
     7
 43
1.0
 76
     1
 77
     6
 78
     2
 67
     7
 79
     3
170
     0
171
     0
290
     0
174
     0
 93
        1
 44
0.0
173
     0
291
     0
 45
0.0
1001
ACAD
1000
AcDbSavedByObjectVersion
1070
     0
  0
VISUALSTYLE
  5
34
102
{ACAD_XDICTIONARY
360
46F
102
}
102
{ACAD_REACTORS
330
29
102
}
330
29
100
AcDbVisualStyle
  2
Dim
 70
    11
 71
     2
 72
     2
 73
     0
 90
        0
 40
-0.6
 41
-30.0
 62
     5
 63
     7
 74
     1
 91
        4
 64
     7
 65
   257
 75
     1
175
     1
 42
1.0
 92
        8
 66
     7
 43
1.0
 76
     1
 77
     6
 78
     2
 67
     7
 79
     5
170
     0
171
     0
290
     0
174
     0
 93
        1
 44
-50.0
173
     0
291
     1
 45
0.0
1001
ACAD
1000
AcDbSavedByObjectVersion
1070
     0
  0
VISUALSTYLE
  5
41
102
{ACAD_XDICTIONARY
360
489
102
}
102
{ACAD_REACTORS
330
29
102
}
330
29
100
AcDbVisualStyle
  2
EdgeColorOff
 70
    22
 71
     2
 72
     2
 73
     0
 90
        0
 40
-0.6
 41
-30.0
 62
     5
 63
     7
 74
     1
 91
        4
 64
     7
 65
   257
 75
     1
175
     1
 42
1.0
 92
        8
 66
     7
 43
1.0
 76
     1
 77
     6
 78
     2
 67
     7
 79
     5
170
     0
171
     0
290
     0
174
     0
 93
        1
 44
0.0
173
     0
291
     1
 45
0.0
1001
ACAD
1000
AcDbSavedByObjectVersion
1070
     0
  0
VISUALSTYLE
  5
38
102
{ACAD_XDICTIONARY
360
477
102
}
102
{ACAD_REACTORS
330
29
102
}
330
29
100
AcDbVisualStyle
  2
Facepattern
 70
    15
 71
     2
 72
     2
 73
     0
 90
        0
 40
-0.6
 41
-30.0
 62
     5
 63
     7
 74
     1
 91
        4
 64
     7
 65
   257
 75
     1
175
     1
 42
1.0
 92
        8
 66
     7
 43
1.0
 76
     1
 77
     6
 78
     2
 67
     7
 79
     5
170
     0
171
     0
290
     0
174
     0
 93
        1
 44
0.0
173
     0
291
     1
 45
0.0
1001
ACAD
1000
AcDbSavedByObjectVersion
1070
     0
  0
VISUALSTYLE
  5
2A
102
{ACAD_XDICTIONARY
360
45B
102
}
102
{ACAD_REACTORS
330
29
102
}
330
29
100
AcDbVisualStyle
  2
Flat
 70
     0
 71
     2
 72
     1
 73
     1
 90
        2
 40
-0.6
 41
30.0
 62
     5
 63
     7
 74
     0
 91
        0
 64
     7
 65
   257
 75
     1
175
     1
 42
1.0
 92
        8
 66
     7
 43
1.0
 76
     1
 77
     6
 78
     2
 67
     7
 79
     5
170
     0
171
     0
290
     0
174
     0
 93
       13
 44
0.0
173
     0
291
     1
 45
0.0
1001
ACAD
1000
AcDbSavedByObjectVersion
1070
     0
  0
VISUALSTYLE
  5
2B
102
{ACAD_XDICTIONARY
360
45D
102
}
102
{ACAD_REACTORS
330
29
102
}
330
29
100
AcDbVisualStyle
  2
FlatWithEdges
 70
     1
 71
     2
 72
     1
 73
     1
 90
        2
 40
-0.6
 41
30.0
 62
     5
 63
     7
 74
     1
 91
        0
 64
     7
 65
   257
 75
     1
175
     1
 42
1.0
 92
        0
 66
   257
 43
1.0
 76
     1
 77
     6
 78
     2
 67
     7
 79
     5
170
     0
171
     0
290
     0
174
     0
 93
       13
 44
0.0
173
     0
291
     1
 45
0.0
1001
ACAD
1000
AcDbSavedByObjectVersion
1070
     0
  0
VISUALSTYLE
  5
2C
102
{ACAD_XDICTIONARY
360
45F
102
}
102
{ACAD_REACTORS
330
29
102
}
330
29
100
AcDbVisualStyle
  2
Gouraud
 70
     2
 71
     2
 72
     2
 73
     1
 90
        2
 40
-0.6
 41
30.0
 62
     5
 63
     7
 74
     0
 91
        0
 64
     7
 65
   257
 75
     1
175
     1
 42
1.0
 92
        0
 66
     7
 43
1.0
 76
     1
 77
     6
 78
     2
 67
     7
 79
     5
170
     0
171
     0
290
     0
174
     0
 93
       13
 44
0.0
173
     0
291
     1
 45
0.0
1001
ACAD
1000
AcDbSavedByObjectVersion
1070
     0
  0
VISUALSTYLE
  5
2D
102
{ACAD_XDICTIONARY
360
461
102
}
102
{ACAD_REACTORS
330
29
102
}
330
29
100
AcDbVisualStyle
  2
GouraudWithEdges
 70
     3
 71
     2
 72
     2
 73
     1
 90
        2
 40
-0.6
 41
30.0
 62
     5
 63
     7
 74
     1
 91
        0
 64
     7
 65
   257
 75
     1
175
     1
 42
1.0
 92
        0
 66
   257
 43
1.0
 76
     1
 77
     6
 78
     2
 67
     7
 79
     5
170
     0
171
     0
290
     0
174
     0
 93
       13
 44
0.0
173
     0
291
     1
 45
0.0
1001
ACAD
1000
AcDbSavedByObjectVersion
1070
     0
  0
VISUALSTYLE
  5
31
102
{ACAD_XDICTIONARY
360
469
102
}
102
{ACAD_REACTORS
330
29
102
}
330
29
100
AcDbVisualStyle
  2
Hidden
 70
     6
 71
     1
 72
     2
 73
     2
 90
        0
 40
-0.6
 41
-30.0
 62
     5
 63
     7
 74
     2
 91
        2
 64
     7
 65
   257
 75
     2
175
     1
 42
40.0
 92
        0
 66
   257
 43
1.0
 76
     1
 77
     6
 78
     2
 67
     7
 79
     3
170
     0
171
     0
290
     0
174
     0
 93
        1
 44
0.0
173
     0
291
     0
 45
0.0
1001
ACAD
1000
AcDbSavedByObjectVersion
1070
     0
  0
VISUALSTYLE
  5
3F
102
{ACAD_XDICTIONARY
360
485
102
}
102
{ACAD_REACTORS
330
29
102
}
330
29
100
AcDbVisualStyle
  2
JitterOff
 70
    20
 71
     2
 72
     2
 73
     0
 90
        0
 40
-0.6
 41
-30.0
 62
     5
 63
     7
 74
     1
 91
        4
 64
     7
 65
   257
 75
     1
175
     1
 42
1.0
 92
       10
 66
     7
 43
1.0
 76
     1
 77
     6
 78
     2
 67
     7
 79
     5
170
     0
171
     0
290
     0
174
     0
 93
        1
 44
0.0
173
     0
291
     1
 45
0.0
1001
ACAD
1000
AcDbSavedByObjectVersion
1070
     0
  0
VISUALSTYLE
  5
37
102
{ACAD_XDICTIONARY
360
475
102
}
102
{ACAD_REACTORS
330
29
102
}
330
29
100
AcDbVisualStyle
  2
Linepattern
 70
    14
 71
     2
 72
     2
 73
     0
 90
        0
 40
-0.6
 41
-30.0
 62
     5
 63
     7
 74
     1
 91
        4
 64
     7
 65
   257
 75
     7
175
     7
 42
1.0
 92
        8
 66
     7
 43
1.0
 76
     1
 77
     6
 78
     2
 67
     7
 79
     5
170
     0
171
     0
290
     0
174
     0
 93
        1
 44
0.0
173
     0
291
     1
 45
0.0
1001
ACAD
1000
AcDbSavedByObjectVersion
1070
     0
  0
VISUALSTYLE
  5
40
102
{ACAD_XDICTIONARY
360
487
102
}
102
{ACAD_REACTORS
330
29
102
}
330
29
100
AcDbVisualStyle
  2
OverhangOff
 70
    21
 71
     2
 72
     2
 73
     0
 90
        0
 40
-0.6
 41
-30.0
 62
     5
 63
     7
 74
     1
 91
        4
 64
     7
 65
   257
 75
     1
175
     1
 42
1.0
 92
        9
 66
     7
 43
1.0
 76
     1
 77
     6
 78
     2
 67
     7
 79
     5
170
     0
171
     0
290
     0
174
     0
 93
        1
 44
0.0
173
     0
291
     1
 45
0.0
1001
ACAD
1000
AcDbSavedByObjectVersion
1070
     0
  0
VISUALSTYLE
  5
33
102
{ACAD_XDICTIONARY
360
46D
102
}
102
{ACAD_REACTORS
330
29
102
}
330
29
100
AcDbVisualStyle
  2
Realistic
 70
     8
 71
     2
 72
     3
 73
     0
 90
        2
 40
-0.6
 41
30.0
 62
     5
 63
     7
 74
     0
 91
        0
 64
     7
 65
   257
 75
     1
175
     1
 42
1.0
 92
        8
 66
   257
 43
1.0
 76
     1
 77
     6
 78
     2
 67
     7
 79
     3
170
     0
171
     0
290
     0
174
     0
 93
       13
 44
0.0
173
     0
291
     0
 45
0.0
1001
ACAD
1000
AcDbSavedByObjectVersion
1070
     0
  0
VISUALSTYLE
  5
3E
102
{ACAD_XDICTIONARY
360
483
102
}
102
{ACAD_REACTORS
330
29
102
}
330
29
100
AcDbVisualStyle
  2
Shaded
 70
    27
 71
     2
 72
     2
 73
     1
 90
        2
 40
-0.6
 41
30.0
 62
     5
 63
     7
 74
     0
 91
        4
 64
     7
 65
   257
 75
     1
175
     1
 42
1.0
 92
        8
 66
   257
 43
1.0
 76
     1
 77
     6
 78
     2
 67
     8
 79
     3
170
     0
171
     0
290
     0
174
     0
 93
        5
 44
0.0
173
     0
291
     0
 45
0.0
1001
ACAD
1000
AcDbSavedByObjectVersion
1070
     0
  0
VISUALSTYLE
  5
3D
102
{ACAD_XDICTIONARY
360
481
102
}
102
{ACAD_REACTORS
330
29
102
}
330
29
100
AcDbVisualStyle
  2
Shaded with edges
 70
    26
 71
     2
 72
     2
 73
     1
 90
        2
 40
-0.6
 41
30.0
 62
     5
 63
     7
 74
     1
 91
        2
 64
     7
 65
   257
 75
     2
175
     1
 42
1.0
 92
        8
 66
   257
 43
1.0
 76
     1
 77
     6
 78
     2
 67
     7
 79
     3
170
     0
171
     0
290
     0
174
     0
 93
        5
 44
0.0
173
     0
291
     0
 45
0.0
1001
ACAD
1000
AcDbSavedByObjectVersion
1070
     0
  0
VISUALSTYLE
  5
3A
102
{ACAD_XDICTIONARY
360
47B
102
}
102
{ACAD_REACTORS
330
29
102
}
330
29
100
AcDbVisualStyle
  2
Shades of Gray
 70
    23
 71
     2
 72
     2
 73
     3
 90
        0
 40
-0.6
 41
-30.0
 62
     5
 63
     7
 74
     2
 91
        2
 64
     7
 65
     7
 75
     1
175
     1
 42
40.0
 92
        8
 66
     7
 43
1.0
 76
     1
 77
     6
 78
     2
 67
     7
 79
     3
170
     0
171
     0
290
     0
174
     0
 93
        1
 44
0.0
173
     0
291
     0
 45
0.0
1001
ACAD
1000
AcDbSavedByObjectVersion
1070
     0
  0
VISUALSTYLE
  5
3B
102
{ACAD_XDICTIONARY
360
47D
102
}
102
{ACAD_REACTORS
330
29
102
}
330
29
100
AcDbVisualStyle
  2
Sketchy
 70
    24
 71
     1
 72
     2
 73
     2
 90
        0
 40
-0.6
 41
-30.0
 62
     5
 63
     7
 74
     2
 91
        2
 64
     7
 65
     7
 75
     1
175
     1
 42
40.0
 92
       11
 66
     7
 43
1.0
 76
     1
 77
     6
 78
     2
 67
     7
 79
     6
170
     0
171
     0
290
     0
174
     0
 93
        1
 44
0.0
173
     0
291
     0
 45
0.0
1001
ACAD
1000
AcDbSavedByObjectVersion
1070
     0
  0
VISUALSTYLE
  5
36
102
{ACAD_XDICTIONARY
360
473
102
}
102
{ACAD_REACTORS
330
29
102
}
330
29
100
AcDbVisualStyle
  2
Thicken
 70
    13
 71
     2
 72
     2
 73
     0
 90
        0
 40
-0.6
 41
-30.0
 62
     5
 63
     7
 74
     1
 91
        4
 64
     7
 65
   257
 75
     1
175
     1
 42
1.0
 92
       12
 66
     7
 43
1.0
 76
     1
 77
     6
 78
     2
 67
     7
 79
     5
170
     0
171
     0
290
     0
174
     0
 93
        1
 44
0.0
173
     0
291
     1
 45
0.0
1001
ACAD
1000
AcDbSavedByObjectVersion
1070
     0
  0
VISUALSTYLE
  5
30
102
{ACAD_XDICTIONARY
360
467
102
}
102
{ACAD_REACTORS
330
29
102
}
330
29
100
AcDbVisualStyle
  2
Wireframe
 70
     5
 71
     0
 72
     2
 73
     0
 90
        0
 40
-0.6
 41
-30.0
 62
     5
 63
     7
 74
     1
 91
        4
 64
     7
 65
   257
 75
     1
175
     1
 42
1.0
 92
        0
 66
   257
 43
1.0
 76
     1
 77
     6
 78
     2
 67
     7
 79
     3
170
     0
171
     0
290
     0
174
     0
 93
        1
 44
0.0
173
     0
291
     0
 45
0.0
1001
ACAD
1000
AcDbSavedByObjectVersion
1070
     0
  0
VISUALSTYLE
  5
3C
102
{ACAD_XDICTIONARY
360
47F
102
}
102
{ACAD_REACTORS
330
29
102
}
330
29
100
AcDbVisualStyle
  2
X-Ray
 70
    25
 71
     2
 72
     2
 73
     1
 90
        1
 40
0.5
 41
-30.0
 62
     5
 63
     7
 74
     1
 91
        0
 64
     7
 65
   257
 75
     1
175
     1
 42
1.0
 92
        8
 66
     7
 43
1.0
 76
     1
 77
     6
 78
     2
 67
     7
 79
     3
170
     0
171
     0
290
     0
174
     0
 93
       13
 44
0.0
173
     0
291
     0
 45
0.0
1001
ACAD
1000
AcDbSavedByObjectVersion
1070
     0
  0
DICTIONARYVAR
  5
7E
102
{ACAD_REACTORS
330
79
102
}
330
79
100
DictionaryVariables
280
     0
  1
1:1
  0
DICTIONARYVAR
  5
7B
102
{ACAD_REACTORS
330
79
102
}
330
79
100
DictionaryVariables
280
     0
  1
STANDARD
  0
DICTIONARYVAR
  5
7A
102
{ACAD_REACTORS
330
79
102
}
330
79
100
DictionaryVariables
280
     0
  1
STANDARD
  0
DICTIONARYVAR
  5
7C
102
{ACAD_REACTORS
330
79
102
}
330
79
100
DictionaryVariables
280
     0
  1
Imperial24
  0
DICTIONARYVAR
  5
7D
102
{ACAD_REACTORS
330
79
102
}
330
79
100
DictionaryVariables
280
     0
  1
Imperial24
  0
DICTIONARYVAR
  5
452
102
{ACAD_REACTORS
330
79
102
}
330
79
100
DictionaryVariables
280
     0
  1
2
  0
DICTIONARYVAR
  5
451
102
{ACAD_REACTORS
330
79
102
}
330
79
100
DictionaryVariables
280
     0
  1
1
  0
DICTIONARYVAR
  5
450
102
{ACAD_REACTORS
330
79
102
}
330
79
100
DictionaryVariables
280
     0
  1
0
  0
DICTIONARYVAR
  5
44D
102
{ACAD_REACTORS
330
79
102
}
330
79
100
DictionaryVariables
280
     0
  1
0
  0
DICTIONARYVAR
  5
44E
102
{ACAD_REACTORS
330
79
102
}
330
79
100
DictionaryVariables
280
     0
  1
0
  0
DICTIONARYVAR
  5
44C
102
{ACAD_REACTORS
330
79
102
}
330
79
100
DictionaryVariables
280
     0
  1
2
  0
DICTIONARYVAR
  5
44B
102
{ACAD_REACTORS
330
79
102
}
330
79
100
DictionaryVariables
280
     0
  1
1
  0
DICTIONARYVAR
  5
44F
102
{ACAD_REACTORS
330
79
102
}
330
79
100
DictionaryVariables
280
     0
  1
127
  0
DICTIONARYVAR
  5
453
102
{ACAD_REACTORS
330
79
102
}
330
79
100
DictionaryVariables
280
     0
  1
2
  0
DICTIONARY
  5
491
330
6B
100
AcDbDictionary
280
     1
281
     1
  3
ACAD_XREC_ROUNDTRIP
360
492
  0
DICTIONARY
  5
49B
330
81
100
AcDbDictionary
280
     1
281
     1
  3
ACAD_XREC_ROUNDTRIP
360
49C
  0
DICTIONARY
  5
493
330
6F
100
AcDbDictionary
280
     1
281
     1
  3
ACAD_XREC_ROUNDTRIP
360
494
  0
DICTIONARY
  5
497
330
77
100
AcDbDictionary
280
     1
281
     1
  3
ACAD_XREC_ROUNDTRIP
360
498
  0
DICTIONARY
  5
495
330
73
100
AcDbDictionary
280
     1
281
     1
  3
ACAD_XREC_ROUNDTRIP
360
496
  0
DICTIONARY
  5
1A
330
19
100
AcDbDictionary
280
     1
281
     1
  3
ACAD_XREC_ROUNDTRIP
360
459
  3
BUMPTILE
360
1C
  3
DIFFUSETILE
360
1B
  3
OPACITYTILE
360
1F
  3
REFLECTIONTILE
360
1E
  3
REFRACTIONTILE
360
20
  3
SPECULARTILE
360
1D
  0
DICTIONARY
  5
12
330
11
100
AcDbDictionary
280
     1
281
     1
  3
ACAD_XREC_ROUNDTRIP
360
458
  3
BUMPTILE
360
14
  3
DIFFUSETILE
360
13
  3
OPACITYTILE
360
17
  3
REFLECTIONTILE
360
16
  3
REFRACTIONTILE
360
18
  3
SPECULARTILE
360
15
  0
DICTIONARY
  5
22
330
21
100
AcDbDictionary
280
     1
281
     1
  3
ACAD_XREC_ROUNDTRIP
360
45A
  3
BUMPTILE
360
24
  3
DIFFUSETILE
360
23
  3
OPACITYTILE
360
27
  3
REFLECTIONTILE
360
26
  3
REFRACTIONTILE
360
28
  3
SPECULARTILE
360
25
  0
DICTIONARY
  5
48D
330
67
100
AcDbDictionary
280
     1
281
     1
  3
ACAD_XREC_ROUNDTRIP
360
48E
  0
DICTIONARY
  5
48F
330
69
100
AcDbDictionary
280
     1
281
     1
  3
ACAD_XREC_ROUNDTRIP
360
490
  0
DICTIONARY
  5
499
330
80
100
AcDbDictionary
280
     1
281
     1
  3
ACAD_XREC_ROUNDTRIP
360
49A
  0
DICTIONARY
  5
454
330
65
100
AcDbDictionary
280
     1
281
     1
  3
ACAD_ROUNDTRIP_2008_TABLESTYLE_CELLSTYLEMAP
360
455
  3
ACAD_XREC_ROUNDTRIP
360
48B
  0
DICTIONARY
  5
465
330
2F
100
AcDbDictionary
280
     1
281
     1
  3
ACAD_XREC_ROUNDTRIP
360
466
  0
DICTIONARY
  5
463
330
2E
100
AcDbDictionary
280
     1
281
     1
  3
ACAD_XREC_ROUNDTRIP
360
464
  0
DICTIONARY
  5
471
330
35
100
AcDbDictionary
280
     1
281
     1
  3
ACAD_XREC_ROUNDTRIP
360
472
  0
DICTIONARY
  5
479
330
39
100
AcDbDictionary
280
     1
281
     1
  3
ACAD_XREC_ROUNDTRIP
360
47A
  0
DICTIONARY
  5
46B
330
32
100
AcDbDictionary
280
     1
281
     1
  3
ACAD_XREC_ROUNDTRIP
360
46C
  0
DICTIONARY
  5
46F
330
34
100
AcDbDictionary
280
     1
281
     1
  3
ACAD_XREC_ROUNDTRIP
360
470
  0
DICTIONARY
  5
489
330
41
100
AcDbDictionary
280
     1
281
     1
  3
ACAD_XREC_ROUNDTRIP
360
48A
  0
DICTIONARY
  5
477
330
38
100
AcDbDictionary
280
     1
281
     1
  3
ACAD_XREC_ROUNDTRIP
360
478
  0
DICTIONARY
  5
45B
330
2A
100
AcDbDictionary
280
     1
281
     1
  3
ACAD_XREC_ROUNDTRIP
360
45C
  0
DICTIONARY
  5
45D
330
2B
100
AcDbDictionary
280
     1
281
     1
  3
ACAD_XREC_ROUNDTRIP
360
45E
  0
DICTIONARY
  5
45F
330
2C
100
AcDbDictionary
280
     1
281
     1
  3
ACAD_XREC_ROUNDTRIP
360
460
  0
DICTIONARY
  5
461
330
2D
100
AcDbDictionary
280
     1
281
     1
  3
ACAD_XREC_ROUNDTRIP
360
462
  0
DICTIONARY
  5
469
330
31
100
AcDbDictionary
280
     1
281
     1
  3
ACAD_XREC_ROUNDTRIP
360
46A
  0
DICTIONARY
  5
485
330
3F
100
AcDbDictionary
280
     1
281
     1
  3
ACAD_XREC_ROUNDTRIP
360
486
  0
DICTIONARY
  5
475
330
37
100
AcDbDictionary
280
     1
281
     1
  3
ACAD_XREC_ROUNDTRIP
360
476
  0
DICTIONARY
  5
487
330
40
100
AcDbDictionary
280
     1
281
     1
  3
ACAD_XREC_ROUNDTRIP
360
488
  0
DICTIONARY
  5
46D
330
33
100
AcDbDictionary
280
     1
281
     1
  3
ACAD_XREC_ROUNDTRIP
360
46E
  0
DICTIONARY
  5
483
330
3E
100
AcDbDictionary
280
     1
281
     1
  3
ACAD_XREC_ROUNDTRIP
360
484
  0
DICTIONARY
  5
481
330
3D
100
AcDbDictionary
280
     1
281
     1
  3
ACAD_XREC_ROUNDTRIP
360
482
  0
DICTIONARY
  5
47B
330
3A
100
AcDbDictionary
280
     1
281
     1
  3
ACAD_XREC_ROUNDTRIP
360
47C
  0
DICTIONARY
  5
47D
330
3B
100
AcDbDictionary
280
     1
281
     1
  3
ACAD_XREC_ROUNDTRIP
360
47E
  0
DICTIONARY
  5
473
330
36
100
AcDbDictionary
280
     1
281
     1
  3
ACAD_XREC_ROUNDTRIP
360
474
  0
DICTIONARY
  5
467
330
30
100
AcDbDictionary
280
     1
281
     1
  3
ACAD_XREC_ROUNDTRIP
360
468
  0
DICTIONARY
  5
47F
330
3C
100
AcDbDictionary
280
     1
281
     1
  3
ACAD_XREC_ROUNDTRIP
360
480
  0
XRECORD
  5
492
102
{ACAD_REACTORS
330
491
102
}
330
491
100
AcDbXrecord
280
     1
102
DISPLAYNAME
  1
Imperial24
102
FLAGS
 90
        0
  0
XRECORD
  5
49C
102
{ACAD_REACTORS
330
49B
102
}
330
49B
100
AcDbXrecord
280
     1
102
DISPLAYNAME
  1
Metric50
102
FLAGS
 90
        0
  0
XRECORD
  5
494
102
{ACAD_REACTORS
330
493
102
}
330
493
100
AcDbXrecord
280
     1
102
SHADEPLOT
 70
     0
102
SHADEPLOTRESLEVEL
 70
     2
102
SHADEPLOTCUSTOMDPI
 70
   300
  0
XRECORD
  5
498
102
{ACAD_REACTORS
330
497
102
}
330
497
100
AcDbXrecord
280
     1
102
SHADEPLOT
 70
     0
102
SHADEPLOTRESLEVEL
 70
     2
102
SHADEPLOTCUSTOMDPI
 70
   300
  0
XRECORD
  5
496
102
{ACAD_REACTORS
330
495
102
}
330
495
100
AcDbXrecord
280
     1
102
SHADEPLOT
 70
     0
102
SHADEPLOTRESLEVEL
 70
     2
102
SHADEPLOTCUSTOMDPI
 70
   300
  0
XRECORD
  5
459
102
{ACAD_REACTORS
330
1A
102
}
330
1A
100
AcDbXrecord
280
     1
102
MATERIAL
148
0.0
149
0.0
149
0.0
 93
        0
 94
      127
282
     0
 72
     0
 77
     0
171
     0
175
     0
179
     0
273
     0
  0
XRECORD
  5
1C
102
{ACAD_REACTORS
330
1A
102
}
330
1A
100
AcDbXrecord
280
     1
270
     1
271
     1
  0
XRECORD
  5
1B
102
{ACAD_REACTORS
330
1A
102
}
330
1A
100
AcDbXrecord
280
     1
270
     1
271
     1
  0
XRECORD
  5
1F
102
{ACAD_REACTORS
330
1A
102
}
330
1A
100
AcDbXrecord
280
     1
270
     1
271
     1
  0
XRECORD
  5
1E
102
{ACAD_REACTORS
330
1A
102
}
330
1A
100
AcDbXrecord
280
     1
270
     1
271
     1
  0
XRECORD
  5
20
102
{ACAD_REACTORS
330
1A
102
}
330
1A
100
AcDbXrecord
280
     1
270
     1
271
     1
  0
XRECORD
  5
1D
102
{ACAD_REACTORS
330
1A
102
}
330
1A
100
AcDbXrecord
280
     1
270
     1
271
     1
  0
XRECORD
  5
458
102
{ACAD_REACTORS
330
12
102
}
330
12
100
AcDbXrecord
280
     1
102
MATERIAL
148
0.0
149
0.0
149
0.0
 93
        0
 94
      127
282
     0
 72
     0
 77
     0
171
     0
175
     0
179
     0
273
     0
  0
XRECORD
  5
14
102
{ACAD_REACTORS
330
12
102
}
330
12
100
AcDbXrecord
280
     1
270
     1
271
     1
  0
XRECORD
  5
13
102
{ACAD_REACTORS
330
12
102
}
330
12
100
AcDbXrecord
280
     1
270
     1
271
     1
  0
XRECORD
  5
17
102
{ACAD_REACTORS
330
12
102
}
330
12
100
AcDbXrecord
280
     1
270
     1
271
     1
  0
XRECORD
  5
16
102
{ACAD_REACTORS
330
12
102
}
330
12
100
AcDbXrecord
280
     1
270
     1
271
     1
  0
XRECORD
  5
18
102
{ACAD_REACTORS
330
12
102
}
330
12
100
AcDbXrecord
280
     1
270
     1
271
     1
  0
XRECORD
  5
15
102
{ACAD_REACTORS
330
12
102
}
330
12
100
AcDbXrecord
280
     1
270
     1
271
     1
  0
XRECORD
  5
45A
102
{ACAD_REACTORS
330
22
102
}
330
22
100
AcDbXrecord
280
     1
102
MATERIAL
148
0.0
149
0.0
149
0.0
 93
        0
 94
      127
282
     0
 72
     0
 77
     0
171
     0
175
     0
179
     0
273
     0
  0
XRECORD
  5
24
102
{ACAD_REACTORS
330
22
102
}
330
22
100
AcDbXrecord
280
     1
270
     1
271
     1
  0
XRECORD
  5
23
102
{ACAD_REACTORS
330
22
102
}
330
22
100
AcDbXrecord
280
     1
270
     1
271
     1
  0
XRECORD
  5
27
102
{ACAD_REACTORS
330
22
102
}
330
22
100
AcDbXrecord
280
     1
270
     1
271
     1
  0
XRECORD
  5
26
102
{ACAD_REACTORS
330
22
102
}
330
22
100
AcDbXrecord
280
     1
270
     1
271
     1
  0
XRECORD
  5
28
102
{ACAD_REACTORS
330
22
102
}
330
22
100
AcDbXrecord
280
     1
270
     1
271
     1
  0
XRECORD
  5
25
102
{ACAD_REACTORS
330
22
102
}
330
22
100
AcDbXrecord
280
     1
270
     1
271
     1
  0
XRECORD
  5
48E
102
{ACAD_REACTORS
330
48D
102
}
330
48D
100
AcDbXrecord
280
     1
102
ACAD_ROUNDTRIP_2012_MLEADER_STYLE
298
     1
  0
XRECORD
  5
490
102
{ACAD_REACTORS
330
48F
102
}
330
48F
100
AcDbXrecord
280
     1
102
DISPLAYNAME
  1
Imperial24
102
FLAGS
 90
        0
  0
XRECORD
  5
49A
102
{ACAD_REACTORS
330
499
102
}
330
499
100
AcDbXrecord
280
     1
102
DISPLAYNAME
  1
Metric50
102
FLAGS
 90
        0
  0
CELLSTYLEMAP
  5
455
102
{ACAD_REACTORS
330
454
102
}
330
454
100
AcDbCellStyleMap
 90
        3
300
CELLSTYLE
  1
TABLEFORMAT_BEGIN
 90
        5
170
     1
 91
        0
 92
    32768
 62
   257
 93
        1
300
CONTENTFORMAT
  1
CONTENTFORMAT_BEGIN
 90
        0
 91
        0
 92
      512
 93
        0
300

 40
0.0
140
1.0
 94
        5
 62
     0
340
55
144
0.25
309
CONTENTFORMAT_END
171
     0
 94
        0
309
TABLEFORMAT_END
  1
CELLSTYLE_BEGIN
 90
        1
 91
        1
300
_TITLE
309
CELLSTYLE_END
300
CELLSTYLE
  1
TABLEFORMAT_BEGIN
 90
        5
170
     1
 91
        0
 92
        0
 62
   257
 93
        1
300
CONTENTFORMAT
  1
CONTENTFORMAT_BEGIN
 90
        0
 91
        0
 92
      512
 93
        0
300

 40
0.0
140
1.0
 94
        5
 62
     0
340
55
144
0.18
309
CONTENTFORMAT_END
171
     0
 94
        0
309
TABLEFORMAT_END
  1
CELLSTYLE_BEGIN
 90
        2
 91
        1
300
_HEADER
309
CELLSTYLE_END
300
CELLSTYLE
  1
TABLEFORMAT_BEGIN
 90
        5
170
     1
 91
        0
 92
        0
 62
   257
 93
        1
300
CONTENTFORMAT
  1
CONTENTFORMAT_BEGIN
 90
        0
 91
        0
 92
      512
 93
        0
300

 40
0.0
140
1.0
 94
        2
 62
     0
340
55
144
0.18
309
CONTENTFORMAT_END
171
     0
 94
        0
309
TABLEFORMAT_END
  1
CELLSTYLE_BEGIN
 90
        3
 91
        2
300
_DATA
309
CELLSTYLE_END
  0
XRECORD
  5
48B
102
{ACAD_REACTORS
330
454
102
}
330
454
100
AcDbXrecord
280
     1
102
ACAD_ROUNDTRIP_PRE2007_TABLESTYLE
 90
      512
 91
        0
  1

 92
      512
 93
        0
  2

 94
      512
 95
        0
  3

  0
XRECORD
  5
466
102
{ACAD_REACTORS
330
465
102
}
330
465
100
AcDbXrecord
280
     1
102
RTVSPost2010Prop28
280
     1
102
RTVSPost2010PropOp28
 70
     1
102
RTVSPost2010Prop29
280
     1
102
RTVSPost2010PropOp29
 70
     1
102
RTVSPost2010Prop30
280
     0
102
RTVSPost2010PropOp30
 70
     1
102
RTVSPost2010Prop31
280
     0
102
RTVSPost2010PropOp31
 70
     1
102
RTVSPost2010Prop32
280
     0
102
RTVSPost2010PropOp32
 70
     1
102
RTVSPost2010Prop33
280
     0
102
RTVSPost2010PropOp33
 70
     1
102
RTVSPost2010Prop34
280
     0
102
RTVSPost2010PropOp34
 70
     1
102
RTVSPost2010Prop35
280
     0
102
RTVSPost2010PropOp35
 70
     1
102
RTVSPost2010Prop36
280
     0
102
RTVSPost2010PropOp36
 70
     1
102
RTVSPost2010Prop37
 90
       50
102
RTVSPost2010PropOp37
 70
     1
102
RTVSPost2010Prop38
140
0.0
102
RTVSPost2010PropOp38
 70
     1
102
RTVSPost2010Prop39
140
1.0
102
RTVSPost2010PropOp39
 70
     1
102
RTVSPost2010Prop40
 90
        0
102
RTVSPost2010PropOp40
 70
     1
102
RTVSPost2010Prop41ColorIndex
 90
       18
102
RTVSPost2010Prop41ColorRGB
 90
        0
102
RTVSPost2010PropOp41
 70
     1
102
RTVSPost2010Prop42
 90
       50
102
RTVSPost2010PropOp42
 70
     1
102
RTVSPost2010Prop43
 90
        3
102
RTVSPost2010PropOp43
 70
     1
102
RTVSPost2010Prop44ColorIndex
 90
        5
102
RTVSPost2010Prop44ColorRGB
 90
      255
102
RTVSPost2010PropOp44
 70
     1
102
RTVSPost2010Prop45
280
     0
102
RTVSPost2010PropOp45
 70
     1
102
RTVSPost2010Prop46
 90
       50
102
RTVSPost2010PropOp46
 70
     1
102
RTVSPost2010Prop47
 90
       50
102
RTVSPost2010PropOp47
 70
     1
102
RTVSPost2010Prop48
 90
       50
102
RTVSPost2010PropOp48
 70
     1
102
RTVSPost2010Prop49
280
     0
102
RTVSPost2010PropOp49
 70
     1
102
RTVSPost2010Prop50
 90
       50
102
RTVSPost2010PropOp50
 70
     1
102
RTVSPost2010Prop51ColorIndex
 90
      256
102
RTVSPost2010Prop51ColorRGB
 90
-16777216
102
RTVSPost2010PropOp51
 70
     0
102
RTVSPost2010Prop52
140
1.0
102
RTVSPost2010PropOp52
 70
     0
102
RTVSPost2010Prop53
 90
        2
102
RTVSPost2010PropOp53
 70
     1
102
RTVSPost2010Prop54
  1
strokes_ogs.tif
102
RTVSPost2010PropOp54
 70
     1
102
RTVSPost2010Prop55
280
     0
102
RTVSPost2010PropOp55
 70
     1
102
RTVSPost2010Prop56
140
1.0
102
RTVSPost2010PropOp56
 70
     1
102
RTVSPost2010Prop57
140
1.0
102
RTVSPost2010PropOp57
 70
     1
102
RTVSPropertyOp0
 70
     1
102
RTVSPropertyOp1
 70
     1
102
RTVSPropertyOp2
 70
     1
102
RTVSPropertyOp3
 70
     1
102
RTVSPropertyOp4
 70
     1
102
RTVSPropertyOp5
 70
     1
102
RTVSPropertyOp6
 70
     1
102
RTVSPropertyOp7
 70
     1
102
RTVSPropertyOp8
 70
     1
102
RTVSPropertyOp9
 70
     1
102
RTVSPropertyOp10
 70
     1
102
RTVSPropertyOp11
 70
     1
102
RTVSPropertyOp12
 70
     1
102
RTVSPropertyOp13
 70
     1
102
RTVSPropertyOp14
 70
     1
102
RTVSPropertyOp15
 70
     1
102
RTVSPropertyOp16
 70
     1
102
RTVSPropertyOp17
 70
     1
102
RTVSPropertyOp18
 70
     1
102
RTVSPropertyOp19
 70
     1
102
RTVSPropertyOp20
 70
     1
102
RTVSPropertyOp21
 70
     1
102
RTVSPropertyOp22
 70
     1
102
RTVSPropertyOp23
 70
     1
102
RTVSPropertyOp24
 70
     1
102
RTVSPropertyOp25
 70
     1
102
RTVSPropertyOp26
 70
     1
102
RTVSPropertyOp27
 70
     1
102
RTVSPropertyOp28
 70
     1
102
RTVSPropertyOp29
 70
     1
102
RTVSPropertyOp30
 70
     1
102
RTVSPropertyOp31
 70
     1
102
RTVSPropertyOp32
 70
     1
102
RTVSPropertyOp33
 70
     1
102
RTVSPropertyOp34
 70
     1
102
RTVSPropertyOp35
 70
     1
102
RTVSPropertyOp36
 70
     1
102
RTVSPropertyOp37
 70
     1
102
RTVSPropertyOp38
 70
     1
102
RTVSPropertyOp39
 70
     1
102
RTVSPropertyOp40
 70
     1
102
RTVSPropertyOp41
 70
     1
102
RTVSPropertyOp42
 70
     1
102
RTVSPropertyOp43
 70
     1
102
RTVSPropertyOp44
 70
     1
102
RTVSPropertyOp45
 70
     1
102
RTVSPropertyOp46
 70
     1
102
RTVSPropertyOp47
 70
     1
102
RTVSPropertyOp48
 70
     1
102
RTVSPropertyOp49
 70
     1
102
RTVSPropertyOp50
 70
     1
102
RTVSPropertyOp51
 70
     0
102
RTVSPropertyOp52
 70
     0
102
RTVSPropertyOp53
 70
     1
102
RTVSPropertyOp54
 70
     1
102
RTVSPropertyOp55
 70
     1
102
RTVSPropertyOp56
 70
     1
102
RTVSPropertyOp57
 70
     1
102
RTVSPropertyOp58
 70
     1
102
RTVSPropertyOp59
 70
     1
102
RTVSPropertyOp60
 70
     1
102
RTVSPropertyOp61
 70
     1
102
RTVSPropertyOp62
 70
     1
  0
XRECORD
  5
464
102
{ACAD_REACTORS
330
463
102
}
330
463
100
AcDbXrecord
280
     1
102
RTVSPost2010Prop28
280
     0
102
RTVSPost2010PropOp28
 70
     1
102
RTVSPost2010Prop29
280
     1
102
RTVSPost2010PropOp29
 70
     1
102
RTVSPost2010Prop30
280
     1
102
RTVSPost2010PropOp30
 70
     1
102
RTVSPost2010Prop31
280
     0
102
RTVSPost2010PropOp31
 70
     1
102
RTVSPost2010Prop32
280
     0
102
RTVSPost2010PropOp32
 70
     1
102
RTVSPost2010Prop33
280
     0
102
RTVSPost2010PropOp33
 70
     1
102
RTVSPost2010Prop34
280
     0
102
RTVSPost2010PropOp34
 70
     1
102
RTVSPost2010Prop35
280
     0
102
RTVSPost2010PropOp35
 70
     1
102
RTVSPost2010Prop36
280
     0
102
RTVSPost2010PropOp36
 70
     1
102
RTVSPost2010Prop37
 90
       50
102
RTVSPost2010PropOp37
 70
     1
102
RTVSPost2010Prop38
140
0.0
102
RTVSPost2010PropOp38
 70
     1
102
RTVSPost2010Prop39
140
1.0
102
RTVSPost2010PropOp39
 70
     1
102
RTVSPost2010Prop40
 90
        0
102
RTVSPost2010PropOp40
 70
     1
102
RTVSPost2010Prop41ColorIndex
 90
       18
102
RTVSPost2010Prop41ColorRGB
 90
        0
102
RTVSPost2010PropOp41
 70
     1
102
RTVSPost2010Prop42
 90
       50
102
RTVSPost2010PropOp42
 70
     1
102
RTVSPost2010Prop43
 90
        3
102
RTVSPost2010PropOp43
 70
     1
102
RTVSPost2010Prop44ColorIndex
 90
        5
102
RTVSPost2010Prop44ColorRGB
 90
      255
102
RTVSPost2010PropOp44
 70
     1
102
RTVSPost2010Prop45
280
     0
102
RTVSPost2010PropOp45
 70
     1
102
RTVSPost2010Prop46
 90
       50
102
RTVSPost2010PropOp46
 70
     1
102
RTVSPost2010Prop47
 90
       50
102
RTVSPost2010PropOp47
 70
     1
102
RTVSPost2010Prop48
 90
       50
102
RTVSPost2010PropOp48
 70
     1
102
RTVSPost2010Prop49
280
     0
102
RTVSPost2010PropOp49
 70
     1
102
RTVSPost2010Prop50
 90
       50
102
RTVSPost2010PropOp50
 70
     1
102
RTVSPost2010Prop51ColorIndex
 90
      256
102
RTVSPost2010Prop51ColorRGB
 90
-16777216
102
RTVSPost2010PropOp51
 70
     0
102
RTVSPost2010Prop52
140
1.0
102
RTVSPost2010PropOp52
 70
     0
102
RTVSPost2010Prop53
 90
        2
102
RTVSPost2010PropOp53
 70
     1
102
RTVSPost2010Prop54
  1
strokes_ogs.tif
102
RTVSPost2010PropOp54
 70
     1
102
RTVSPost2010Prop55
280
     0
102
RTVSPost2010PropOp55
 70
     1
102
RTVSPost2010Prop56
140
1.0
102
RTVSPost2010PropOp56
 70
     1
102
RTVSPost2010Prop57
140
1.0
102
RTVSPost2010PropOp57
 70
     1
102
RTVSPropertyOp0
 70
     1
102
RTVSPropertyOp1
 70
     1
102
RTVSPropertyOp2
 70
     1
102
RTVSPropertyOp3
 70
     1
102
RTVSPropertyOp4
 70
     1
102
RTVSPropertyOp5
 70
     1
102
RTVSPropertyOp6
 70
     1
102
RTVSPropertyOp7
 70
     1
102
RTVSPropertyOp8
 70
     1
102
RTVSPropertyOp9
 70
     1
102
RTVSPropertyOp10
 70
     1
102
RTVSPropertyOp11
 70
     1
102
RTVSPropertyOp12
 70
     1
102
RTVSPropertyOp13
 70
     1
102
RTVSPropertyOp14
 70
     1
102
RTVSPropertyOp15
 70
     1
102
RTVSPropertyOp16
 70
     1
102
RTVSPropertyOp17
 70
     1
102
RTVSPropertyOp18
 70
     1
102
RTVSPropertyOp19
 70
     1
102
RTVSPropertyOp20
 70
     1
102
RTVSPropertyOp21
 70
     1
102
RTVSPropertyOp22
 70
     1
102
RTVSPropertyOp23
 70
     1
102
RTVSPropertyOp24
 70
     1
102
RTVSPropertyOp25
 70
     1
102
RTVSPropertyOp26
 70
     1
102
RTVSPropertyOp27
 70
     1
102
RTVSPropertyOp28
 70
     1
102
RTVSPropertyOp29
 70
     1
102
RTVSPropertyOp30
 70
     1
102
RTVSPropertyOp31
 70
     1
102
RTVSPropertyOp32
 70
     1
102
RTVSPropertyOp33
 70
     1
102
RTVSPropertyOp34
 70
     1
102
RTVSPropertyOp35
 70
     1
102
RTVSPropertyOp36
 70
     1
102
RTVSPropertyOp37
 70
     1
102
RTVSPropertyOp38
 70
     1
102
RTVSPropertyOp39
 70
     1
102
RTVSPropertyOp40
 70
     1
102
RTVSPropertyOp41
 70
     1
102
RTVSPropertyOp42
 70
     1
102
RTVSPropertyOp43
 70
     1
102
RTVSPropertyOp44
 70
     1
102
RTVSPropertyOp45
 70
     1
102
RTVSPropertyOp46
 70
     1
102
RTVSPropertyOp47
 70
     1
102
RTVSPropertyOp48
 70
     1
102
RTVSPropertyOp49
 70
     1
102
RTVSPropertyOp50
 70
     1
102
RTVSPropertyOp51
 70
     0
102
RTVSPropertyOp52
 70
     0
102
RTVSPropertyOp53
 70
     1
102
RTVSPropertyOp54
 70
     1
102
RTVSPropertyOp55
 70
     1
102
RTVSPropertyOp56
 70
     1
102
RTVSPropertyOp57
 70
     1
102
RTVSPropertyOp58
 70
     1
102
RTVSPropertyOp59
 70
     1
102
RTVSPropertyOp60
 70
     1
102
RTVSPropertyOp61
 70
     1
102
RTVSPropertyOp62
 70
     1
  0
XRECORD
  5
472
102
{ACAD_REACTORS
330
471
102
}
330
471
100
AcDbXrecord
280
     1
102
RTVSPost2010Prop28
280
     0
102
RTVSPost2010PropOp28
 70
     1
102
RTVSPost2010Prop29
280
     1
102
RTVSPost2010PropOp29
 70
     1
102
RTVSPost2010Prop30
280
     1
102
RTVSPost2010PropOp30
 70
     1
102
RTVSPost2010Prop31
280
     0
102
RTVSPost2010PropOp31
 70
     1
102
RTVSPost2010Prop32
280
     0
102
RTVSPost2010PropOp32
 70
     1
102
RTVSPost2010Prop33
280
     0
102
RTVSPost2010PropOp33
 70
     1
102
RTVSPost2010Prop34
280
     0
102
RTVSPost2010PropOp34
 70
     1
102
RTVSPost2010Prop35
280
     0
102
RTVSPost2010PropOp35
 70
     1
102
RTVSPost2010Prop36
280
     0
102
RTVSPost2010PropOp36
 70
     1
102
RTVSPost2010Prop37
 90
       50
102
RTVSPost2010PropOp37
 70
     1
102
RTVSPost2010Prop38
140
0.0
102
RTVSPost2010PropOp38
 70
     1
102
RTVSPost2010Prop39
140
1.0
102
RTVSPost2010PropOp39
 70
     1
102
RTVSPost2010Prop40
 90
        0
102
RTVSPost2010PropOp40
 70
     1
102
RTVSPost2010Prop41ColorIndex
 90
       18
102
RTVSPost2010Prop41ColorRGB
 90
        0
102
RTVSPost2010PropOp41
 70
     1
102
RTVSPost2010Prop42
 90
       50
102
RTVSPost2010PropOp42
 70
     1
102
RTVSPost2010Prop43
 90
        3
102
RTVSPost2010PropOp43
 70
     1
102
RTVSPost2010Prop44ColorIndex
 90
        5
102
RTVSPost2010Prop44ColorRGB
 90
      255
102
RTVSPost2010PropOp44
 70
     1
102
RTVSPost2010Prop45
280
     0
102
RTVSPost2010PropOp45
 70
     1
102
RTVSPost2010Prop46
 90
       50
102
RTVSPost2010PropOp46
 70
     1
102
RTVSPost2010Prop47
 90
       50
102
RTVSPost2010PropOp47
 70
     1
102
RTVSPost2010Prop48
 90
       50
102
RTVSPost2010PropOp48
 70
     1
102
RTVSPost2010Prop49
280
     0
102
RTVSPost2010PropOp49
 70
     1
102
RTVSPost2010Prop50
 90
       50
102
RTVSPost2010PropOp50
 70
     1
102
RTVSPost2010Prop51ColorIndex
 90
      256
102
RTVSPost2010Prop51ColorRGB
 90
-16777216
102
RTVSPost2010PropOp51
 70
     0
102
RTVSPost2010Prop52
140
1.0
102
RTVSPost2010PropOp52
 70
     0
102
RTVSPost2010Prop53
 90
        2
102
RTVSPost2010PropOp53
 70
     1
102
RTVSPost2010Prop54
  1
strokes_ogs.tif
102
RTVSPost2010PropOp54
 70
     1
102
RTVSPost2010Prop55
280
     0
102
RTVSPost2010PropOp55
 70
     1
102
RTVSPost2010Prop56
140
1.0
102
RTVSPost2010PropOp56
 70
     1
102
RTVSPost2010Prop57
140
1.0
102
RTVSPost2010PropOp57
 70
     1
102
RTVSPropertyOp0
 70
     1
102
RTVSPropertyOp1
 70
     1
102
RTVSPropertyOp2
 70
     1
102
RTVSPropertyOp3
 70
     1
102
RTVSPropertyOp4
 70
     1
102
RTVSPropertyOp5
 70
     1
102
RTVSPropertyOp6
 70
     1
102
RTVSPropertyOp7
 70
     1
102
RTVSPropertyOp8
 70
     1
102
RTVSPropertyOp9
 70
     1
102
RTVSPropertyOp10
 70
     1
102
RTVSPropertyOp11
 70
     1
102
RTVSPropertyOp12
 70
     1
102
RTVSPropertyOp13
 70
     1
102
RTVSPropertyOp14
 70
     1
102
RTVSPropertyOp15
 70
     1
102
RTVSPropertyOp16
 70
     1
102
RTVSPropertyOp17
 70
     1
102
RTVSPropertyOp18
 70
     1
102
RTVSPropertyOp19
 70
     1
102
RTVSPropertyOp20
 70
     1
102
RTVSPropertyOp21
 70
     1
102
RTVSPropertyOp22
 70
     1
102
RTVSPropertyOp23
 70
     1
102
RTVSPropertyOp24
 70
     1
102
RTVSPropertyOp25
 70
     1
102
RTVSPropertyOp26
 70
     1
102
RTVSPropertyOp27
 70
     1
102
RTVSPropertyOp28
 70
     1
102
RTVSPropertyOp29
 70
     1
102
RTVSPropertyOp30
 70
     1
102
RTVSPropertyOp31
 70
     1
102
RTVSPropertyOp32
 70
     1
102
RTVSPropertyOp33
 70
     1
102
RTVSPropertyOp34
 70
     1
102
RTVSPropertyOp35
 70
     1
102
RTVSPropertyOp36
 70
     1
102
RTVSPropertyOp37
 70
     1
102
RTVSPropertyOp38
 70
     1
102
RTVSPropertyOp39
 70
     1
102
RTVSPropertyOp40
 70
     1
102
RTVSPropertyOp41
 70
     1
102
RTVSPropertyOp42
 70
     1
102
RTVSPropertyOp43
 70
     1
102
RTVSPropertyOp44
 70
     1
102
RTVSPropertyOp45
 70
     1
102
RTVSPropertyOp46
 70
     1
102
RTVSPropertyOp47
 70
     1
102
RTVSPropertyOp48
 70
     1
102
RTVSPropertyOp49
 70
     1
102
RTVSPropertyOp50
 70
     1
102
RTVSPropertyOp51
 70
     0
102
RTVSPropertyOp52
 70
     0
102
RTVSPropertyOp53
 70
     1
102
RTVSPropertyOp54
 70
     1
102
RTVSPropertyOp55
 70
     1
102
RTVSPropertyOp56
 70
     1
102
RTVSPropertyOp57
 70
     1
102
RTVSPropertyOp58
 70
     1
102
RTVSPropertyOp59
 70
     1
102
RTVSPropertyOp60
 70
     1
102
RTVSPropertyOp61
 70
     1
102
RTVSPropertyOp62
 70
     1
  0
XRECORD
  5
47A
102
{ACAD_REACTORS
330
479
102
}
330
479
100
AcDbXrecord
280
     1
102
RTVSPost2010Prop28
280
     0
102
RTVSPost2010PropOp28
 70
     1
102
RTVSPost2010Prop29
280
     1
102
RTVSPost2010PropOp29
 70
     1
102
RTVSPost2010Prop30
280
     1
102
RTVSPost2010PropOp30
 70
     1
102
RTVSPost2010Prop31
280
     0
102
RTVSPost2010PropOp31
 70
     1
102
RTVSPost2010Prop32
280
     0
102
RTVSPost2010PropOp32
 70
     1
102
RTVSPost2010Prop33
280
     0
102
RTVSPost2010PropOp33
 70
     1
102
RTVSPost2010Prop34
280
     0
102
RTVSPost2010PropOp34
 70
     1
102
RTVSPost2010Prop35
280
     0
102
RTVSPost2010PropOp35
 70
     1
102
RTVSPost2010Prop36
280
     0
102
RTVSPost2010PropOp36
 70
     1
102
RTVSPost2010Prop37
 90
       50
102
RTVSPost2010PropOp37
 70
     1
102
RTVSPost2010Prop38
140
0.0
102
RTVSPost2010PropOp38
 70
     1
102
RTVSPost2010Prop39
140
1.0
102
RTVSPost2010PropOp39
 70
     1
102
RTVSPost2010Prop40
 90
        0
102
RTVSPost2010PropOp40
 70
     1
102
RTVSPost2010Prop41ColorIndex
 90
       18
102
RTVSPost2010Prop41ColorRGB
 90
        0
102
RTVSPost2010PropOp41
 70
     1
102
RTVSPost2010Prop42
 90
       50
102
RTVSPost2010PropOp42
 70
     1
102
RTVSPost2010Prop43
 90
        3
102
RTVSPost2010PropOp43
 70
     1
102
RTVSPost2010Prop44ColorIndex
 90
        5
102
RTVSPost2010Prop44ColorRGB
 90
      255
102
RTVSPost2010PropOp44
 70
     1
102
RTVSPost2010Prop45
280
     0
102
RTVSPost2010PropOp45
 70
     1
102
RTVSPost2010Prop46
 90
       50
102
RTVSPost2010PropOp46
 70
     1
102
RTVSPost2010Prop47
 90
       50
102
RTVSPost2010PropOp47
 70
     1
102
RTVSPost2010Prop48
 90
       50
102
RTVSPost2010PropOp48
 70
     1
102
RTVSPost2010Prop49
280
     0
102
RTVSPost2010PropOp49
 70
     1
102
RTVSPost2010Prop50
 90
       50
102
RTVSPost2010PropOp50
 70
     1
102
RTVSPost2010Prop51ColorIndex
 90
      256
102
RTVSPost2010Prop51ColorRGB
 90
-16777216
102
RTVSPost2010PropOp51
 70
     0
102
RTVSPost2010Prop52
140
1.0
102
RTVSPost2010PropOp52
 70
     0
102
RTVSPost2010Prop53
 90
        2
102
RTVSPost2010PropOp53
 70
     1
102
RTVSPost2010Prop54
  1
strokes_ogs.tif
102
RTVSPost2010PropOp54
 70
     1
102
RTVSPost2010Prop55
280
     0
102
RTVSPost2010PropOp55
 70
     1
102
RTVSPost2010Prop56
140
1.0
102
RTVSPost2010PropOp56
 70
     1
102
RTVSPost2010Prop57
140
1.0
102
RTVSPost2010PropOp57
 70
     1
102
RTVSPropertyOp0
 70
     1
102
RTVSPropertyOp1
 70
     1
102
RTVSPropertyOp2
 70
     1
102
RTVSPropertyOp3
 70
     1
102
RTVSPropertyOp4
 70
     1
102
RTVSPropertyOp5
 70
     1
102
RTVSPropertyOp6
 70
     1
102
RTVSPropertyOp7
 70
     1
102
RTVSPropertyOp8
 70
     1
102
RTVSPropertyOp9
 70
     1
102
RTVSPropertyOp10
 70
     1
102
RTVSPropertyOp11
 70
     1
102
RTVSPropertyOp12
 70
     1
102
RTVSPropertyOp13
 70
     1
102
RTVSPropertyOp14
 70
     1
102
RTVSPropertyOp15
 70
     1
102
RTVSPropertyOp16
 70
     1
102
RTVSPropertyOp17
 70
     1
102
RTVSPropertyOp18
 70
     1
102
RTVSPropertyOp19
 70
     1
102
RTVSPropertyOp20
 70
     1
102
RTVSPropertyOp21
 70
     1
102
RTVSPropertyOp22
 70
     1
102
RTVSPropertyOp23
 70
     1
102
RTVSPropertyOp24
 70
     1
102
RTVSPropertyOp25
 70
     1
102
RTVSPropertyOp26
 70
     1
102
RTVSPropertyOp27
 70
     1
102
RTVSPropertyOp28
 70
     1
102
RTVSPropertyOp29
 70
     1
102
RTVSPropertyOp30
 70
     1
102
RTVSPropertyOp31
 70
     1
102
RTVSPropertyOp32
 70
     1
102
RTVSPropertyOp33
 70
     1
102
RTVSPropertyOp34
 70
     1
102
RTVSPropertyOp35
 70
     1
102
RTVSPropertyOp36
 70
     1
102
RTVSPropertyOp37
 70
     1
102
RTVSPropertyOp38
 70
     1
102
RTVSPropertyOp39
 70
     1
102
RTVSPropertyOp40
 70
     1
102
RTVSPropertyOp41
 70
     1
102
RTVSPropertyOp42
 70
     1
102
RTVSPropertyOp43
 70
     1
102
RTVSPropertyOp44
 70
     1
102
RTVSPropertyOp45
 70
     1
102
RTVSPropertyOp46
 70
     1
102
RTVSPropertyOp47
 70
     1
102
RTVSPropertyOp48
 70
     1
102
RTVSPropertyOp49
 70
     1
102
RTVSPropertyOp50
 70
     1
102
RTVSPropertyOp51
 70
     0
102
RTVSPropertyOp52
 70
     0
102
RTVSPropertyOp53
 70
     1
102
RTVSPropertyOp54
 70
     1
102
RTVSPropertyOp55
 70
     1
102
RTVSPropertyOp56
 70
     1
102
RTVSPropertyOp57
 70
     1
102
RTVSPropertyOp58
 70
     1
102
RTVSPropertyOp59
 70
     1
102
RTVSPropertyOp60
 70
     1
102
RTVSPropertyOp61
 70
     1
102
RTVSPropertyOp62
 70
     1
  0
XRECORD
  5
46C
102
{ACAD_REACTORS
330
46B
102
}
330
46B
100
AcDbXrecord
280
     1
102
RTVSPost2010Prop28
280
     0
102
RTVSPost2010PropOp28
 70
     1
102
RTVSPost2010Prop29
280
     1
102
RTVSPost2010PropOp29
 70
     1
102
RTVSPost2010Prop30
280
     1
102
RTVSPost2010PropOp30
 70
     1
102
RTVSPost2010Prop31
280
     0
102
RTVSPost2010PropOp31
 70
     1
102
RTVSPost2010Prop32
280
     0
102
RTVSPost2010PropOp32
 70
     1
102
RTVSPost2010Prop33
280
     0
102
RTVSPost2010PropOp33
 70
     1
102
RTVSPost2010Prop34
280
     0
102
RTVSPost2010PropOp34
 70
     1
102
RTVSPost2010Prop35
280
     0
102
RTVSPost2010PropOp35
 70
     1
102
RTVSPost2010Prop36
280
     0
102
RTVSPost2010PropOp36
 70
     1
102
RTVSPost2010Prop37
 90
       50
102
RTVSPost2010PropOp37
 70
     1
102
RTVSPost2010Prop38
140
0.0
102
RTVSPost2010PropOp38
 70
     1
102
RTVSPost2010Prop39
140
1.0
102
RTVSPost2010PropOp39
 70
     1
102
RTVSPost2010Prop40
 90
        0
102
RTVSPost2010PropOp40
 70
     1
102
RTVSPost2010Prop41ColorIndex
 90
       18
102
RTVSPost2010Prop41ColorRGB
 90
        0
102
RTVSPost2010PropOp41
 70
     1
102
RTVSPost2010Prop42
 90
       50
102
RTVSPost2010PropOp42
 70
     1
102
RTVSPost2010Prop43
 90
        3
102
RTVSPost2010PropOp43
 70
     1
102
RTVSPost2010Prop44ColorIndex
 90
        5
102
RTVSPost2010Prop44ColorRGB
 90
      255
102
RTVSPost2010PropOp44
 70
     1
102
RTVSPost2010Prop45
280
     0
102
RTVSPost2010PropOp45
 70
     1
102
RTVSPost2010Prop46
 90
       50
102
RTVSPost2010PropOp46
 70
     1
102
RTVSPost2010Prop47
 90
       50
102
RTVSPost2010PropOp47
 70
     1
102
RTVSPost2010Prop48
 90
       50
102
RTVSPost2010PropOp48
 70
     1
102
RTVSPost2010Prop49
280
     0
102
RTVSPost2010PropOp49
 70
     1
102
RTVSPost2010Prop50
 90
       50
102
RTVSPost2010PropOp50
 70
     1
102
RTVSPost2010Prop51ColorIndex
 90
      256
102
RTVSPost2010Prop51ColorRGB
 90
-16777216
102
RTVSPost2010PropOp51
 70
     0
102
RTVSPost2010Prop52
140
1.0
102
RTVSPost2010PropOp52
 70
     0
102
RTVSPost2010Prop53
 90
        2
102
RTVSPost2010PropOp53
 70
     1
102
RTVSPost2010Prop54
  1
strokes_ogs.tif
102
RTVSPost2010PropOp54
 70
     1
102
RTVSPost2010Prop55
280
     0
102
RTVSPost2010PropOp55
 70
     1
102
RTVSPost2010Prop56
140
1.0
102
RTVSPost2010PropOp56
 70
     1
102
RTVSPost2010Prop57
140
1.0
102
RTVSPost2010PropOp57
 70
     1
102
RTVSPropertyOp0
 70
     1
102
RTVSPropertyOp1
 70
     1
102
RTVSPropertyOp2
 70
     1
102
RTVSPropertyOp3
 70
     1
102
RTVSPropertyOp4
 70
     1
102
RTVSPropertyOp5
 70
     1
102
RTVSPropertyOp6
 70
     1
102
RTVSPropertyOp7
 70
     1
102
RTVSPropertyOp8
 70
     1
102
RTVSPropertyOp9
 70
     1
102
RTVSPropertyOp10
 70
     1
102
RTVSPropertyOp11
 70
     1
102
RTVSPropertyOp12
 70
     1
102
RTVSPropertyOp13
 70
     1
102
RTVSPropertyOp14
 70
     1
102
RTVSPropertyOp15
 70
     1
102
RTVSPropertyOp16
 70
     1
102
RTVSPropertyOp17
 70
     1
102
RTVSPropertyOp18
 70
     1
102
RTVSPropertyOp19
 70
     1
102
RTVSPropertyOp20
 70
     1
102
RTVSPropertyOp21
 70
     1
102
RTVSPropertyOp22
 70
     1
102
RTVSPropertyOp23
 70
     1
102
RTVSPropertyOp24
 70
     1
102
RTVSPropertyOp25
 70
     1
102
RTVSPropertyOp26
 70
     1
102
RTVSPropertyOp27
 70
     1
102
RTVSPropertyOp28
 70
     1
102
RTVSPropertyOp29
 70
     1
102
RTVSPropertyOp30
 70
     1
102
RTVSPropertyOp31
 70
     1
102
RTVSPropertyOp32
 70
     1
102
RTVSPropertyOp33
 70
     1
102
RTVSPropertyOp34
 70
     1
102
RTVSPropertyOp35
 70
     1
102
RTVSPropertyOp36
 70
     1
102
RTVSPropertyOp37
 70
     1
102
RTVSPropertyOp38
 70
     1
102
RTVSPropertyOp39
 70
     1
102
RTVSPropertyOp40
 70
     1
102
RTVSPropertyOp41
 70
     1
102
RTVSPropertyOp42
 70
     1
102
RTVSPropertyOp43
 70
     1
102
RTVSPropertyOp44
 70
     1
102
RTVSPropertyOp45
 70
     1
102
RTVSPropertyOp46
 70
     1
102
RTVSPropertyOp47
 70
     1
102
RTVSPropertyOp48
 70
     1
102
RTVSPropertyOp49
 70
     1
102
RTVSPropertyOp50
 70
     1
102
RTVSPropertyOp51
 70
     0
102
RTVSPropertyOp52
 70
     0
102
RTVSPropertyOp53
 70
     1
102
RTVSPropertyOp54
 70
     1
102
RTVSPropertyOp55
 70
     1
102
RTVSPropertyOp56
 70
     1
102
RTVSPropertyOp57
 70
     1
102
RTVSPropertyOp58
 70
     1
102
RTVSPropertyOp59
 70
     1
102
RTVSPropertyOp60
 70
     1
102
RTVSPropertyOp61
 70
     1
102
RTVSPropertyOp62
 70
     1
  0
XRECORD
  5
470
102
{ACAD_REACTORS
330
46F
102
}
330
46F
100
AcDbXrecord
280
     1
102
RTVSPost2010Prop28
280
     0
102
RTVSPost2010PropOp28
 70
     1
102
RTVSPost2010Prop29
280
     1
102
RTVSPost2010PropOp29
 70
     1
102
RTVSPost2010Prop30
280
     1
102
RTVSPost2010PropOp30
 70
     1
102
RTVSPost2010Prop31
280
     0
102
RTVSPost2010PropOp31
 70
     1
102
RTVSPost2010Prop32
280
     0
102
RTVSPost2010PropOp32
 70
     1
102
RTVSPost2010Prop33
280
     0
102
RTVSPost2010PropOp33
 70
     1
102
RTVSPost2010Prop34
280
     0
102
RTVSPost2010PropOp34
 70
     1
102
RTVSPost2010Prop35
280
     0
102
RTVSPost2010PropOp35
 70
     1
102
RTVSPost2010Prop36
280
     0
102
RTVSPost2010PropOp36
 70
     1
102
RTVSPost2010Prop37
 90
       50
102
RTVSPost2010PropOp37
 70
     1
102
RTVSPost2010Prop38
140
0.0
102
RTVSPost2010PropOp38
 70
     1
102
RTVSPost2010Prop39
140
1.0
102
RTVSPost2010PropOp39
 70
     1
102
RTVSPost2010Prop40
 90
        0
102
RTVSPost2010PropOp40
 70
     1
102
RTVSPost2010Prop41ColorIndex
 90
       18
102
RTVSPost2010Prop41ColorRGB
 90
        0
102
RTVSPost2010PropOp41
 70
     1
102
RTVSPost2010Prop42
 90
       50
102
RTVSPost2010PropOp42
 70
     1
102
RTVSPost2010Prop43
 90
        3
102
RTVSPost2010PropOp43
 70
     1
102
RTVSPost2010Prop44ColorIndex
 90
        5
102
RTVSPost2010Prop44ColorRGB
 90
      255
102
RTVSPost2010PropOp44
 70
     1
102
RTVSPost2010Prop45
280
     0
102
RTVSPost2010PropOp45
 70
     1
102
RTVSPost2010Prop46
 90
       50
102
RTVSPost2010PropOp46
 70
     1
102
RTVSPost2010Prop47
 90
       50
102
RTVSPost2010PropOp47
 70
     1
102
RTVSPost2010Prop48
 90
       50
102
RTVSPost2010PropOp48
 70
     1
102
RTVSPost2010Prop49
280
     0
102
RTVSPost2010PropOp49
 70
     1
102
RTVSPost2010Prop50
 90
       50
102
RTVSPost2010PropOp50
 70
     1
102
RTVSPost2010Prop51ColorIndex
 90
      256
102
RTVSPost2010Prop51ColorRGB
 90
-16777216
102
RTVSPost2010PropOp51
 70
     0
102
RTVSPost2010Prop52
140
1.0
102
RTVSPost2010PropOp52
 70
     0
102
RTVSPost2010Prop53
 90
        2
102
RTVSPost2010PropOp53
 70
     1
102
RTVSPost2010Prop54
  1
strokes_ogs.tif
102
RTVSPost2010PropOp54
 70
     1
102
RTVSPost2010Prop55
280
     0
102
RTVSPost2010PropOp55
 70
     1
102
RTVSPost2010Prop56
140
1.0
102
RTVSPost2010PropOp56
 70
     1
102
RTVSPost2010Prop57
140
1.0
102
RTVSPost2010PropOp57
 70
     1
102
RTVSPropertyOp0
 70
     1
102
RTVSPropertyOp1
 70
     1
102
RTVSPropertyOp2
 70
     1
102
RTVSPropertyOp3
 70
     1
102
RTVSPropertyOp4
 70
     1
102
RTVSPropertyOp5
 70
     1
102
RTVSPropertyOp6
 70
     1
102
RTVSPropertyOp7
 70
     1
102
RTVSPropertyOp8
 70
     1
102
RTVSPropertyOp9
 70
     1
102
RTVSPropertyOp10
 70
     1
102
RTVSPropertyOp11
 70
     1
102
RTVSPropertyOp12
 70
     1
102
RTVSPropertyOp13
 70
     1
102
RTVSPropertyOp14
 70
     1
102
RTVSPropertyOp15
 70
     1
102
RTVSPropertyOp16
 70
     1
102
RTVSPropertyOp17
 70
     1
102
RTVSPropertyOp18
 70
     1
102
RTVSPropertyOp19
 70
     1
102
RTVSPropertyOp20
 70
     1
102
RTVSPropertyOp21
 70
     1
102
RTVSPropertyOp22
 70
     1
102
RTVSPropertyOp23
 70
     1
102
RTVSPropertyOp24
 70
     1
102
RTVSPropertyOp25
 70
     1
102
RTVSPropertyOp26
 70
     1
102
RTVSPropertyOp27
 70
     1
102
RTVSPropertyOp28
 70
     1
102
RTVSPropertyOp29
 70
     1
102
RTVSPropertyOp30
 70
     1
102
RTVSPropertyOp31
 70
     1
102
RTVSPropertyOp32
 70
     1
102
RTVSPropertyOp33
 70
     1
102
RTVSPropertyOp34
 70
     1
102
RTVSPropertyOp35
 70
     1
102
RTVSPropertyOp36
 70
     1
102
RTVSPropertyOp37
 70
     1
102
RTVSPropertyOp38
 70
     1
102
RTVSPropertyOp39
 70
     1
102
RTVSPropertyOp40
 70
     1
102
RTVSPropertyOp41
 70
     1
102
RTVSPropertyOp42
 70
     1
102
RTVSPropertyOp43
 70
     1
102
RTVSPropertyOp44
 70
     1
102
RTVSPropertyOp45
 70
     1
102
RTVSPropertyOp46
 70
     1
102
RTVSPropertyOp47
 70
     1
102
RTVSPropertyOp48
 70
     1
102
RTVSPropertyOp49
 70
     1
102
RTVSPropertyOp50
 70
     1
102
RTVSPropertyOp51
 70
     0
102
RTVSPropertyOp52
 70
     0
102
RTVSPropertyOp53
 70
     1
102
RTVSPropertyOp54
 70
     1
102
RTVSPropertyOp55
 70
     1
102
RTVSPropertyOp56
 70
     1
102
RTVSPropertyOp57
 70
     1
102
RTVSPropertyOp58
 70
     1
102
RTVSPropertyOp59
 70
     1
102
RTVSPropertyOp60
 70
     1
102
RTVSPropertyOp61
 70
     1
102
RTVSPropertyOp62
 70
     1
  0
XRECORD
  5
48A
102
{ACAD_REACTORS
330
489
102
}
330
489
100
AcDbXrecord
280
     1
102
RTVSPost2010Prop28
280
     0
102
RTVSPost2010PropOp28
 70
     0
102
RTVSPost2010Prop29
280
     1
102
RTVSPost2010PropOp29
 70
     0
102
RTVSPost2010Prop30
280
     1
102
RTVSPost2010PropOp30
 70
     0
102
RTVSPost2010Prop31
280
     0
102
RTVSPost2010PropOp31
 70
     0
102
RTVSPost2010Prop32
280
     0
102
RTVSPost2010PropOp32
 70
     0
102
RTVSPost2010Prop33
280
     0
102
RTVSPost2010PropOp33
 70
     0
102
RTVSPost2010Prop34
280
     0
102
RTVSPost2010PropOp34
 70
     0
102
RTVSPost2010Prop35
280
     0
102
RTVSPost2010PropOp35
 70
     0
102
RTVSPost2010Prop36
280
     0
102
RTVSPost2010PropOp36
 70
     0
102
RTVSPost2010Prop37
 90
       50
102
RTVSPost2010PropOp37
 70
     0
102
RTVSPost2010Prop38
140
0.0
102
RTVSPost2010PropOp38
 70
     0
102
RTVSPost2010Prop39
140
1.0
102
RTVSPost2010PropOp39
 70
     0
102
RTVSPost2010Prop40
 90
        0
102
RTVSPost2010PropOp40
 70
     0
102
RTVSPost2010Prop41ColorIndex
 90
       18
102
RTVSPost2010Prop41ColorRGB
 90
        0
102
RTVSPost2010PropOp41
 70
     0
102
RTVSPost2010Prop42
 90
       50
102
RTVSPost2010PropOp42
 70
     0
102
RTVSPost2010Prop43
 90
        3
102
RTVSPost2010PropOp43
 70
     0
102
RTVSPost2010Prop44ColorIndex
 90
        5
102
RTVSPost2010Prop44ColorRGB
 90
      255
102
RTVSPost2010PropOp44
 70
     0
102
RTVSPost2010Prop45
280
     0
102
RTVSPost2010PropOp45
 70
     0
102
RTVSPost2010Prop46
 90
       50
102
RTVSPost2010PropOp46
 70
     0
102
RTVSPost2010Prop47
 90
       50
102
RTVSPost2010PropOp47
 70
     0
102
RTVSPost2010Prop48
 90
       50
102
RTVSPost2010PropOp48
 70
     0
102
RTVSPost2010Prop49
280
     0
102
RTVSPost2010PropOp49
 70
     0
102
RTVSPost2010Prop50
 90
       50
102
RTVSPost2010PropOp50
 70
     0
102
RTVSPost2010Prop51ColorIndex
 90
      256
102
RTVSPost2010Prop51ColorRGB
 90
-16777216
102
RTVSPost2010PropOp51
 70
     0
102
RTVSPost2010Prop52
140
1.0
102
RTVSPost2010PropOp52
 70
     0
102
RTVSPost2010Prop53
 90
        2
102
RTVSPost2010PropOp53
 70
     0
102
RTVSPost2010Prop54
  1
strokes_ogs.tif
102
RTVSPost2010PropOp54
 70
     0
102
RTVSPost2010Prop55
280
     0
102
RTVSPost2010PropOp55
 70
     0
102
RTVSPost2010Prop56
140
1.0
102
RTVSPost2010PropOp56
 70
     0
102
RTVSPost2010Prop57
140
1.0
102
RTVSPost2010PropOp57
 70
     0
102
RTVSPropertyOp0
 70
     0
102
RTVSPropertyOp1
 70
     0
102
RTVSPropertyOp2
 70
     0
102
RTVSPropertyOp3
 70
     0
102
RTVSPropertyOp4
 70
     0
102
RTVSPropertyOp5
 70
     0
102
RTVSPropertyOp6
 70
     0
102
RTVSPropertyOp7
 70
     0
102
RTVSPropertyOp8
 70
     0
102
RTVSPropertyOp9
 70
     0
102
RTVSPropertyOp10
 70
     0
102
RTVSPropertyOp11
 70
     0
102
RTVSPropertyOp12
 70
     0
102
RTVSPropertyOp13
 70
     0
102
RTVSPropertyOp14
 70
     2
102
RTVSPropertyOp15
 70
     0
102
RTVSPropertyOp16
 70
     0
102
RTVSPropertyOp17
 70
     0
102
RTVSPropertyOp18
 70
     0
102
RTVSPropertyOp19
 70
     0
102
RTVSPropertyOp20
 70
     0
102
RTVSPropertyOp21
 70
     0
102
RTVSPropertyOp22
 70
     0
102
RTVSPropertyOp23
 70
     0
102
RTVSPropertyOp24
 70
     0
102
RTVSPropertyOp25
 70
     0
102
RTVSPropertyOp26
 70
     0
102
RTVSPropertyOp27
 70
     0
102
RTVSPropertyOp28
 70
     0
102
RTVSPropertyOp29
 70
     0
102
RTVSPropertyOp30
 70
     0
102
RTVSPropertyOp31
 70
     0
102
RTVSPropertyOp32
 70
     0
102
RTVSPropertyOp33
 70
     0
102
RTVSPropertyOp34
 70
     0
102
RTVSPropertyOp35
 70
     0
102
RTVSPropertyOp36
 70
     0
102
RTVSPropertyOp37
 70
     0
102
RTVSPropertyOp38
 70
     0
102
RTVSPropertyOp39
 70
     0
102
RTVSPropertyOp40
 70
     0
102
RTVSPropertyOp41
 70
     0
102
RTVSPropertyOp42
 70
     0
102
RTVSPropertyOp43
 70
     0
102
RTVSPropertyOp44
 70
     0
102
RTVSPropertyOp45
 70
     0
102
RTVSPropertyOp46
 70
     0
102
RTVSPropertyOp47
 70
     0
102
RTVSPropertyOp48
 70
     0
102
RTVSPropertyOp49
 70
     0
102
RTVSPropertyOp50
 70
     0
102
RTVSPropertyOp51
 70
     0
102
RTVSPropertyOp52
 70
     0
102
RTVSPropertyOp53
 70
     0
102
RTVSPropertyOp54
 70
     0
102
RTVSPropertyOp55
 70
     0
102
RTVSPropertyOp56
 70
     0
102
RTVSPropertyOp57
 70
     0
102
RTVSPropertyOp58
 70
     1
102
RTVSPropertyOp59
 70
     1
102
RTVSPropertyOp60
 70
     1
102
RTVSPropertyOp61
 70
     1
102
RTVSPropertyOp62
 70
     1
  0
XRECORD
  5
478
102
{ACAD_REACTORS
330
477
102
}
330
477
100
AcDbXrecord
280
     1
102
RTVSPost2010Prop28
280
     0
102
RTVSPost2010PropOp28
 70
     1
102
RTVSPost2010Prop29
280
     1
102
RTVSPost2010PropOp29
 70
     1
102
RTVSPost2010Prop30
280
     1
102
RTVSPost2010PropOp30
 70
     1
102
RTVSPost2010Prop31
280
     0
102
RTVSPost2010PropOp31
 70
     1
102
RTVSPost2010Prop32
280
     0
102
RTVSPost2010PropOp32
 70
     1
102
RTVSPost2010Prop33
280
     0
102
RTVSPost2010PropOp33
 70
     1
102
RTVSPost2010Prop34
280
     0
102
RTVSPost2010PropOp34
 70
     1
102
RTVSPost2010Prop35
280
     0
102
RTVSPost2010PropOp35
 70
     1
102
RTVSPost2010Prop36
280
     0
102
RTVSPost2010PropOp36
 70
     1
102
RTVSPost2010Prop37
 90
       50
102
RTVSPost2010PropOp37
 70
     1
102
RTVSPost2010Prop38
140
0.0
102
RTVSPost2010PropOp38
 70
     1
102
RTVSPost2010Prop39
140
1.0
102
RTVSPost2010PropOp39
 70
     1
102
RTVSPost2010Prop40
 90
        0
102
RTVSPost2010PropOp40
 70
     1
102
RTVSPost2010Prop41ColorIndex
 90
       18
102
RTVSPost2010Prop41ColorRGB
 90
        0
102
RTVSPost2010PropOp41
 70
     1
102
RTVSPost2010Prop42
 90
       50
102
RTVSPost2010PropOp42
 70
     1
102
RTVSPost2010Prop43
 90
        3
102
RTVSPost2010PropOp43
 70
     1
102
RTVSPost2010Prop44ColorIndex
 90
        5
102
RTVSPost2010Prop44ColorRGB
 90
      255
102
RTVSPost2010PropOp44
 70
     1
102
RTVSPost2010Prop45
280
     0
102
RTVSPost2010PropOp45
 70
     1
102
RTVSPost2010Prop46
 90
       50
102
RTVSPost2010PropOp46
 70
     1
102
RTVSPost2010Prop47
 90
       50
102
RTVSPost2010PropOp47
 70
     1
102
RTVSPost2010Prop48
 90
       50
102
RTVSPost2010PropOp48
 70
     1
102
RTVSPost2010Prop49
280
     0
102
RTVSPost2010PropOp49
 70
     1
102
RTVSPost2010Prop50
 90
       50
102
RTVSPost2010PropOp50
 70
     1
102
RTVSPost2010Prop51ColorIndex
 90
      256
102
RTVSPost2010Prop51ColorRGB
 90
-16777216
102
RTVSPost2010PropOp51
 70
     0
102
RTVSPost2010Prop52
140
1.0
102
RTVSPost2010PropOp52
 70
     0
102
RTVSPost2010Prop53
 90
        2
102
RTVSPost2010PropOp53
 70
     1
102
RTVSPost2010Prop54
  1
strokes_ogs.tif
102
RTVSPost2010PropOp54
 70
     1
102
RTVSPost2010Prop55
280
     0
102
RTVSPost2010PropOp55
 70
     1
102
RTVSPost2010Prop56
140
1.0
102
RTVSPost2010PropOp56
 70
     1
102
RTVSPost2010Prop57
140
1.0
102
RTVSPost2010PropOp57
 70
     1
102
RTVSPropertyOp0
 70
     1
102
RTVSPropertyOp1
 70
     1
102
RTVSPropertyOp2
 70
     1
102
RTVSPropertyOp3
 70
     1
102
RTVSPropertyOp4
 70
     1
102
RTVSPropertyOp5
 70
     1
102
RTVSPropertyOp6
 70
     1
102
RTVSPropertyOp7
 70
     1
102
RTVSPropertyOp8
 70
     1
102
RTVSPropertyOp9
 70
     1
102
RTVSPropertyOp10
 70
     1
102
RTVSPropertyOp11
 70
     1
102
RTVSPropertyOp12
 70
     1
102
RTVSPropertyOp13
 70
     1
102
RTVSPropertyOp14
 70
     1
102
RTVSPropertyOp15
 70
     1
102
RTVSPropertyOp16
 70
     1
102
RTVSPropertyOp17
 70
     1
102
RTVSPropertyOp18
 70
     1
102
RTVSPropertyOp19
 70
     1
102
RTVSPropertyOp20
 70
     1
102
RTVSPropertyOp21
 70
     1
102
RTVSPropertyOp22
 70
     1
102
RTVSPropertyOp23
 70
     1
102
RTVSPropertyOp24
 70
     1
102
RTVSPropertyOp25
 70
     1
102
RTVSPropertyOp26
 70
     1
102
RTVSPropertyOp27
 70
     1
102
RTVSPropertyOp28
 70
     1
102
RTVSPropertyOp29
 70
     1
102
RTVSPropertyOp30
 70
     1
102
RTVSPropertyOp31
 70
     1
102
RTVSPropertyOp32
 70
     1
102
RTVSPropertyOp33
 70
     1
102
RTVSPropertyOp34
 70
     1
102
RTVSPropertyOp35
 70
     1
102
RTVSPropertyOp36
 70
     1
102
RTVSPropertyOp37
 70
     1
102
RTVSPropertyOp38
 70
     1
102
RTVSPropertyOp39
 70
     1
102
RTVSPropertyOp40
 70
     1
102
RTVSPropertyOp41
 70
     1
102
RTVSPropertyOp42
 70
     1
102
RTVSPropertyOp43
 70
     1
102
RTVSPropertyOp44
 70
     1
102
RTVSPropertyOp45
 70
     1
102
RTVSPropertyOp46
 70
     1
102
RTVSPropertyOp47
 70
     1
102
RTVSPropertyOp48
 70
     1
102
RTVSPropertyOp49
 70
     1
102
RTVSPropertyOp50
 70
     1
102
RTVSPropertyOp51
 70
     0
102
RTVSPropertyOp52
 70
     0
102
RTVSPropertyOp53
 70
     1
102
RTVSPropertyOp54
 70
     1
102
RTVSPropertyOp55
 70
     1
102
RTVSPropertyOp56
 70
     1
102
RTVSPropertyOp57
 70
     1
102
RTVSPropertyOp58
 70
     1
102
RTVSPropertyOp59
 70
     1
102
RTVSPropertyOp60
 70
     1
102
RTVSPropertyOp61
 70
     1
102
RTVSPropertyOp62
 70
     1
  0
XRECORD
  5
45C
102
{ACAD_REACTORS
330
45B
102
}
330
45B
100
AcDbXrecord
280
     1
102
RTVSPost2010Prop28
280
     0
102
RTVSPost2010PropOp28
 70
     1
102
RTVSPost2010Prop29
280
     1
102
RTVSPost2010PropOp29
 70
     1
102
RTVSPost2010Prop30
280
     1
102
RTVSPost2010PropOp30
 70
     1
102
RTVSPost2010Prop31
280
     0
102
RTVSPost2010PropOp31
 70
     1
102
RTVSPost2010Prop32
280
     0
102
RTVSPost2010PropOp32
 70
     1
102
RTVSPost2010Prop33
280
     0
102
RTVSPost2010PropOp33
 70
     1
102
RTVSPost2010Prop34
280
     0
102
RTVSPost2010PropOp34
 70
     1
102
RTVSPost2010Prop35
280
     0
102
RTVSPost2010PropOp35
 70
     1
102
RTVSPost2010Prop36
280
     0
102
RTVSPost2010PropOp36
 70
     1
102
RTVSPost2010Prop37
 90
       50
102
RTVSPost2010PropOp37
 70
     1
102
RTVSPost2010Prop38
140
0.0
102
RTVSPost2010PropOp38
 70
     1
102
RTVSPost2010Prop39
140
1.0
102
RTVSPost2010PropOp39
 70
     1
102
RTVSPost2010Prop40
 90
        0
102
RTVSPost2010PropOp40
 70
     1
102
RTVSPost2010Prop41ColorIndex
 90
       18
102
RTVSPost2010Prop41ColorRGB
 90
        0
102
RTVSPost2010PropOp41
 70
     1
102
RTVSPost2010Prop42
 90
       50
102
RTVSPost2010PropOp42
 70
     1
102
RTVSPost2010Prop43
 90
        3
102
RTVSPost2010PropOp43
 70
     1
102
RTVSPost2010Prop44ColorIndex
 90
        5
102
RTVSPost2010Prop44ColorRGB
 90
      255
102
RTVSPost2010PropOp44
 70
     1
102
RTVSPost2010Prop45
280
     0
102
RTVSPost2010PropOp45
 70
     1
102
RTVSPost2010Prop46
 90
       50
102
RTVSPost2010PropOp46
 70
     1
102
RTVSPost2010Prop47
 90
       50
102
RTVSPost2010PropOp47
 70
     1
102
RTVSPost2010Prop48
 90
       50
102
RTVSPost2010PropOp48
 70
     1
102
RTVSPost2010Prop49
280
     0
102
RTVSPost2010PropOp49
 70
     1
102
RTVSPost2010Prop50
 90
       50
102
RTVSPost2010PropOp50
 70
     1
102
RTVSPost2010Prop51ColorIndex
 90
      256
102
RTVSPost2010Prop51ColorRGB
 90
-16777216
102
RTVSPost2010PropOp51
 70
     0
102
RTVSPost2010Prop52
140
1.0
102
RTVSPost2010PropOp52
 70
     0
102
RTVSPost2010Prop53
 90
        2
102
RTVSPost2010PropOp53
 70
     1
102
RTVSPost2010Prop54
  1
strokes_ogs.tif
102
RTVSPost2010PropOp54
 70
     1
102
RTVSPost2010Prop55
280
     0
102
RTVSPost2010PropOp55
 70
     1
102
RTVSPost2010Prop56
140
1.0
102
RTVSPost2010PropOp56
 70
     1
102
RTVSPost2010Prop57
140
1.0
102
RTVSPost2010PropOp57
 70
     1
102
RTVSPropertyOp0
 70
     1
102
RTVSPropertyOp1
 70
     1
102
RTVSPropertyOp2
 70
     1
102
RTVSPropertyOp3
 70
     1
102
RTVSPropertyOp4
 70
     1
102
RTVSPropertyOp5
 70
     1
102
RTVSPropertyOp6
 70
     1
102
RTVSPropertyOp7
 70
     1
102
RTVSPropertyOp8
 70
     1
102
RTVSPropertyOp9
 70
     1
102
RTVSPropertyOp10
 70
     1
102
RTVSPropertyOp11
 70
     1
102
RTVSPropertyOp12
 70
     1
102
RTVSPropertyOp13
 70
     1
102
RTVSPropertyOp14
 70
     1
102
RTVSPropertyOp15
 70
     1
102
RTVSPropertyOp16
 70
     1
102
RTVSPropertyOp17
 70
     1
102
RTVSPropertyOp18
 70
     1
102
RTVSPropertyOp19
 70
     1
102
RTVSPropertyOp20
 70
     1
102
RTVSPropertyOp21
 70
     1
102
RTVSPropertyOp22
 70
     1
102
RTVSPropertyOp23
 70
     1
102
RTVSPropertyOp24
 70
     1
102
RTVSPropertyOp25
 70
     1
102
RTVSPropertyOp26
 70
     1
102
RTVSPropertyOp27
 70
     1
102
RTVSPropertyOp28
 70
     1
102
RTVSPropertyOp29
 70
     1
102
RTVSPropertyOp30
 70
     1
102
RTVSPropertyOp31
 70
     1
102
RTVSPropertyOp32
 70
     1
102
RTVSPropertyOp33
 70
     1
102
RTVSPropertyOp34
 70
     1
102
RTVSPropertyOp35
 70
     1
102
RTVSPropertyOp36
 70
     1
102
RTVSPropertyOp37
 70
     1
102
RTVSPropertyOp38
 70
     1
102
RTVSPropertyOp39
 70
     1
102
RTVSPropertyOp40
 70
     1
102
RTVSPropertyOp41
 70
     1
102
RTVSPropertyOp42
 70
     1
102
RTVSPropertyOp43
 70
     1
102
RTVSPropertyOp44
 70
     1
102
RTVSPropertyOp45
 70
     1
102
RTVSPropertyOp46
 70
     1
102
RTVSPropertyOp47
 70
     1
102
RTVSPropertyOp48
 70
     1
102
RTVSPropertyOp49
 70
     1
102
RTVSPropertyOp50
 70
     1
102
RTVSPropertyOp51
 70
     0
102
RTVSPropertyOp52
 70
     0
102
RTVSPropertyOp53
 70
     1
102
RTVSPropertyOp54
 70
     1
102
RTVSPropertyOp55
 70
     1
102
RTVSPropertyOp56
 70
     1
102
RTVSPropertyOp57
 70
     1
102
RTVSPropertyOp58
 70
     1
102
RTVSPropertyOp59
 70
     1
102
RTVSPropertyOp60
 70
     1
102
RTVSPropertyOp61
 70
     1
102
RTVSPropertyOp62
 70
     1
  0
XRECORD
  5
45E
102
{ACAD_REACTORS
330
45D
102
}
330
45D
100
AcDbXrecord
280
     1
102
RTVSPost2010Prop28
280
     0
102
RTVSPost2010PropOp28
 70
     1
102
RTVSPost2010Prop29
280
     1
102
RTVSPost2010PropOp29
 70
     1
102
RTVSPost2010Prop30
280
     1
102
RTVSPost2010PropOp30
 70
     1
102
RTVSPost2010Prop31
280
     0
102
RTVSPost2010PropOp31
 70
     1
102
RTVSPost2010Prop32
280
     0
102
RTVSPost2010PropOp32
 70
     1
102
RTVSPost2010Prop33
280
     0
102
RTVSPost2010PropOp33
 70
     1
102
RTVSPost2010Prop34
280
     0
102
RTVSPost2010PropOp34
 70
     1
102
RTVSPost2010Prop35
280
     0
102
RTVSPost2010PropOp35
 70
     1
102
RTVSPost2010Prop36
280
     0
102
RTVSPost2010PropOp36
 70
     1
102
RTVSPost2010Prop37
 90
       50
102
RTVSPost2010PropOp37
 70
     1
102
RTVSPost2010Prop38
140
0.0
102
RTVSPost2010PropOp38
 70
     1
102
RTVSPost2010Prop39
140
1.0
102
RTVSPost2010PropOp39
 70
     1
102
RTVSPost2010Prop40
 90
        0
102
RTVSPost2010PropOp40
 70
     1
102
RTVSPost2010Prop41ColorIndex
 90
       18
102
RTVSPost2010Prop41ColorRGB
 90
        0
102
RTVSPost2010PropOp41
 70
     1
102
RTVSPost2010Prop42
 90
       50
102
RTVSPost2010PropOp42
 70
     1
102
RTVSPost2010Prop43
 90
        3
102
RTVSPost2010PropOp43
 70
     1
102
RTVSPost2010Prop44ColorIndex
 90
        5
102
RTVSPost2010Prop44ColorRGB
 90
      255
102
RTVSPost2010PropOp44
 70
     1
102
RTVSPost2010Prop45
280
     0
102
RTVSPost2010PropOp45
 70
     1
102
RTVSPost2010Prop46
 90
       50
102
RTVSPost2010PropOp46
 70
     1
102
RTVSPost2010Prop47
 90
       50
102
RTVSPost2010PropOp47
 70
     1
102
RTVSPost2010Prop48
 90
       50
102
RTVSPost2010PropOp48
 70
     1
102
RTVSPost2010Prop49
280
     0
102
RTVSPost2010PropOp49
 70
     1
102
RTVSPost2010Prop50
 90
       50
102
RTVSPost2010PropOp50
 70
     1
102
RTVSPost2010Prop51ColorIndex
 90
      256
102
RTVSPost2010Prop51ColorRGB
 90
-16777216
102
RTVSPost2010PropOp51
 70
     0
102
RTVSPost2010Prop52
140
1.0
102
RTVSPost2010PropOp52
 70
     0
102
RTVSPost2010Prop53
 90
        2
102
RTVSPost2010PropOp53
 70
     1
102
RTVSPost2010Prop54
  1
strokes_ogs.tif
102
RTVSPost2010PropOp54
 70
     1
102
RTVSPost2010Prop55
280
     0
102
RTVSPost2010PropOp55
 70
     1
102
RTVSPost2010Prop56
140
1.0
102
RTVSPost2010PropOp56
 70
     1
102
RTVSPost2010Prop57
140
1.0
102
RTVSPost2010PropOp57
 70
     1
102
RTVSPropertyOp0
 70
     1
102
RTVSPropertyOp1
 70
     1
102
RTVSPropertyOp2
 70
     1
102
RTVSPropertyOp3
 70
     1
102
RTVSPropertyOp4
 70
     1
102
RTVSPropertyOp5
 70
     1
102
RTVSPropertyOp6
 70
     1
102
RTVSPropertyOp7
 70
     1
102
RTVSPropertyOp8
 70
     1
102
RTVSPropertyOp9
 70
     1
102
RTVSPropertyOp10
 70
     1
102
RTVSPropertyOp11
 70
     1
102
RTVSPropertyOp12
 70
     1
102
RTVSPropertyOp13
 70
     1
102
RTVSPropertyOp14
 70
     1
102
RTVSPropertyOp15
 70
     1
102
RTVSPropertyOp16
 70
     1
102
RTVSPropertyOp17
 70
     1
102
RTVSPropertyOp18
 70
     1
102
RTVSPropertyOp19
 70
     1
102
RTVSPropertyOp20
 70
     1
102
RTVSPropertyOp21
 70
     1
102
RTVSPropertyOp22
 70
     1
102
RTVSPropertyOp23
 70
     1
102
RTVSPropertyOp24
 70
     1
102
RTVSPropertyOp25
 70
     1
102
RTVSPropertyOp26
 70
     1
102
RTVSPropertyOp27
 70
     1
102
RTVSPropertyOp28
 70
     1
102
RTVSPropertyOp29
 70
     1
102
RTVSPropertyOp30
 70
     1
102
RTVSPropertyOp31
 70
     1
102
RTVSPropertyOp32
 70
     1
102
RTVSPropertyOp33
 70
     1
102
RTVSPropertyOp34
 70
     1
102
RTVSPropertyOp35
 70
     1
102
RTVSPropertyOp36
 70
     1
102
RTVSPropertyOp37
 70
     1
102
RTVSPropertyOp38
 70
     1
102
RTVSPropertyOp39
 70
     1
102
RTVSPropertyOp40
 70
     1
102
RTVSPropertyOp41
 70
     1
102
RTVSPropertyOp42
 70
     1
102
RTVSPropertyOp43
 70
     1
102
RTVSPropertyOp44
 70
     1
102
RTVSPropertyOp45
 70
     1
102
RTVSPropertyOp46
 70
     1
102
RTVSPropertyOp47
 70
     1
102
RTVSPropertyOp48
 70
     1
102
RTVSPropertyOp49
 70
     1
102
RTVSPropertyOp50
 70
     1
102
RTVSPropertyOp51
 70
     0
102
RTVSPropertyOp52
 70
     0
102
RTVSPropertyOp53
 70
     1
102
RTVSPropertyOp54
 70
     1
102
RTVSPropertyOp55
 70
     1
102
RTVSPropertyOp56
 70
     1
102
RTVSPropertyOp57
 70
     1
102
RTVSPropertyOp58
 70
     1
102
RTVSPropertyOp59
 70
     1
102
RTVSPropertyOp60
 70
     1
102
RTVSPropertyOp61
 70
     1
102
RTVSPropertyOp62
 70
     1
  0
XRECORD
  5
460
102
{ACAD_REACTORS
330
45F
102
}
330
45F
100
AcDbXrecord
280
     1
102
RTVSPost2010Prop28
280
     0
102
RTVSPost2010PropOp28
 70
     1
102
RTVSPost2010Prop29
280
     1
102
RTVSPost2010PropOp29
 70
     1
102
RTVSPost2010Prop30
280
     1
102
RTVSPost2010PropOp30
 70
     1
102
RTVSPost2010Prop31
280
     0
102
RTVSPost2010PropOp31
 70
     1
102
RTVSPost2010Prop32
280
     0
102
RTVSPost2010PropOp32
 70
     1
102
RTVSPost2010Prop33
280
     0
102
RTVSPost2010PropOp33
 70
     1
102
RTVSPost2010Prop34
280
     0
102
RTVSPost2010PropOp34
 70
     1
102
RTVSPost2010Prop35
280
     0
102
RTVSPost2010PropOp35
 70
     1
102
RTVSPost2010Prop36
280
     0
102
RTVSPost2010PropOp36
 70
     1
102
RTVSPost2010Prop37
 90
       50
102
RTVSPost2010PropOp37
 70
     1
102
RTVSPost2010Prop38
140
0.0
102
RTVSPost2010PropOp38
 70
     1
102
RTVSPost2010Prop39
140
1.0
102
RTVSPost2010PropOp39
 70
     1
102
RTVSPost2010Prop40
 90
        0
102
RTVSPost2010PropOp40
 70
     1
102
RTVSPost2010Prop41ColorIndex
 90
       18
102
RTVSPost2010Prop41ColorRGB
 90
        0
102
RTVSPost2010PropOp41
 70
     1
102
RTVSPost2010Prop42
 90
       50
102
RTVSPost2010PropOp42
 70
     1
102
RTVSPost2010Prop43
 90
        3
102
RTVSPost2010PropOp43
 70
     1
102
RTVSPost2010Prop44ColorIndex
 90
        5
102
RTVSPost2010Prop44ColorRGB
 90
      255
102
RTVSPost2010PropOp44
 70
     1
102
RTVSPost2010Prop45
280
     0
102
RTVSPost2010PropOp45
 70
     1
102
RTVSPost2010Prop46
 90
       50
102
RTVSPost2010PropOp46
 70
     1
102
RTVSPost2010Prop47
 90
       50
102
RTVSPost2010PropOp47
 70
     1
102
RTVSPost2010Prop48
 90
       50
102
RTVSPost2010PropOp48
 70
     1
102
RTVSPost2010Prop49
280
     0
102
RTVSPost2010PropOp49
 70
     1
102
RTVSPost2010Prop50
 90
       50
102
RTVSPost2010PropOp50
 70
     1
102
RTVSPost2010Prop51ColorIndex
 90
      256
102
RTVSPost2010Prop51ColorRGB
 90
-16777216
102
RTVSPost2010PropOp51
 70
     0
102
RTVSPost2010Prop52
140
1.0
102
RTVSPost2010PropOp52
 70
     0
102
RTVSPost2010Prop53
 90
        2
102
RTVSPost2010PropOp53
 70
     1
102
RTVSPost2010Prop54
  1
strokes_ogs.tif
102
RTVSPost2010PropOp54
 70
     1
102
RTVSPost2010Prop55
280
     0
102
RTVSPost2010PropOp55
 70
     1
102
RTVSPost2010Prop56
140
1.0
102
RTVSPost2010PropOp56
 70
     1
102
RTVSPost2010Prop57
140
1.0
102
RTVSPost2010PropOp57
 70
     1
102
RTVSPropertyOp0
 70
     1
102
RTVSPropertyOp1
 70
     1
102
RTVSPropertyOp2
 70
     1
102
RTVSPropertyOp3
 70
     1
102
RTVSPropertyOp4
 70
     1
102
RTVSPropertyOp5
 70
     1
102
RTVSPropertyOp6
 70
     1
102
RTVSPropertyOp7
 70
     1
102
RTVSPropertyOp8
 70
     1
102
RTVSPropertyOp9
 70
     1
102
RTVSPropertyOp10
 70
     1
102
RTVSPropertyOp11
 70
     1
102
RTVSPropertyOp12
 70
     1
102
RTVSPropertyOp13
 70
     1
102
RTVSPropertyOp14
 70
     1
102
RTVSPropertyOp15
 70
     1
102
RTVSPropertyOp16
 70
     1
102
RTVSPropertyOp17
 70
     1
102
RTVSPropertyOp18
 70
     1
102
RTVSPropertyOp19
 70
     1
102
RTVSPropertyOp20
 70
     1
102
RTVSPropertyOp21
 70
     1
102
RTVSPropertyOp22
 70
     1
102
RTVSPropertyOp23
 70
     1
102
RTVSPropertyOp24
 70
     1
102
RTVSPropertyOp25
 70
     1
102
RTVSPropertyOp26
 70
     1
102
RTVSPropertyOp27
 70
     1
102
RTVSPropertyOp28
 70
     1
102
RTVSPropertyOp29
 70
     1
102
RTVSPropertyOp30
 70
     1
102
RTVSPropertyOp31
 70
     1
102
RTVSPropertyOp32
 70
     1
102
RTVSPropertyOp33
 70
     1
102
RTVSPropertyOp34
 70
     1
102
RTVSPropertyOp35
 70
     1
102
RTVSPropertyOp36
 70
     1
102
RTVSPropertyOp37
 70
     1
102
RTVSPropertyOp38
 70
     1
102
RTVSPropertyOp39
 70
     1
102
RTVSPropertyOp40
 70
     1
102
RTVSPropertyOp41
 70
     1
102
RTVSPropertyOp42
 70
     1
102
RTVSPropertyOp43
 70
     1
102
RTVSPropertyOp44
 70
     1
102
RTVSPropertyOp45
 70
     1
102
RTVSPropertyOp46
 70
     1
102
RTVSPropertyOp47
 70
     1
102
RTVSPropertyOp48
 70
     1
102
RTVSPropertyOp49
 70
     1
102
RTVSPropertyOp50
 70
     1
102
RTVSPropertyOp51
 70
     0
102
RTVSPropertyOp52
 70
     0
102
RTVSPropertyOp53
 70
     1
102
RTVSPropertyOp54
 70
     1
102
RTVSPropertyOp55
 70
     1
102
RTVSPropertyOp56
 70
     1
102
RTVSPropertyOp57
 70
     1
102
RTVSPropertyOp58
 70
     1
102
RTVSPropertyOp59
 70
     1
102
RTVSPropertyOp60
 70
     1
102
RTVSPropertyOp61
 70
     1
102
RTVSPropertyOp62
 70
     1
  0
XRECORD
  5
462
102
{ACAD_REACTORS
330
461
102
}
330
461
100
AcDbXrecord
280
     1
102
RTVSPost2010Prop28
280
     0
102
RTVSPost2010PropOp28
 70
     1
102
RTVSPost2010Prop29
280
     1
102
RTVSPost2010PropOp29
 70
     1
102
RTVSPost2010Prop30
280
     1
102
RTVSPost2010PropOp30
 70
     1
102
RTVSPost2010Prop31
280
     0
102
RTVSPost2010PropOp31
 70
     1
102
RTVSPost2010Prop32
280
     0
102
RTVSPost2010PropOp32
 70
     1
102
RTVSPost2010Prop33
280
     0
102
RTVSPost2010PropOp33
 70
     1
102
RTVSPost2010Prop34
280
     0
102
RTVSPost2010PropOp34
 70
     1
102
RTVSPost2010Prop35
280
     0
102
RTVSPost2010PropOp35
 70
     1
102
RTVSPost2010Prop36
280
     0
102
RTVSPost2010PropOp36
 70
     1
102
RTVSPost2010Prop37
 90
       50
102
RTVSPost2010PropOp37
 70
     1
102
RTVSPost2010Prop38
140
0.0
102
RTVSPost2010PropOp38
 70
     1
102
RTVSPost2010Prop39
140
1.0
102
RTVSPost2010PropOp39
 70
     1
102
RTVSPost2010Prop40
 90
        0
102
RTVSPost2010PropOp40
 70
     1
102
RTVSPost2010Prop41ColorIndex
 90
       18
102
RTVSPost2010Prop41ColorRGB
 90
        0
102
RTVSPost2010PropOp41
 70
     1
102
RTVSPost2010Prop42
 90
       50
102
RTVSPost2010PropOp42
 70
     1
102
RTVSPost2010Prop43
 90
        3
102
RTVSPost2010PropOp43
 70
     1
102
RTVSPost2010Prop44ColorIndex
 90
        5
102
RTVSPost2010Prop44ColorRGB
 90
      255
102
RTVSPost2010PropOp44
 70
     1
102
RTVSPost2010Prop45
280
     0
102
RTVSPost2010PropOp45
 70
     1
102
RTVSPost2010Prop46
 90
       50
102
RTVSPost2010PropOp46
 70
     1
102
RTVSPost2010Prop47
 90
       50
102
RTVSPost2010PropOp47
 70
     1
102
RTVSPost2010Prop48
 90
       50
102
RTVSPost2010PropOp48
 70
     1
102
RTVSPost2010Prop49
280
     0
102
RTVSPost2010PropOp49
 70
     1
102
RTVSPost2010Prop50
 90
       50
102
RTVSPost2010PropOp50
 70
     1
102
RTVSPost2010Prop51ColorIndex
 90
      256
102
RTVSPost2010Prop51ColorRGB
 90
-16777216
102
RTVSPost2010PropOp51
 70
     0
102
RTVSPost2010Prop52
140
1.0
102
RTVSPost2010PropOp52
 70
     0
102
RTVSPost2010Prop53
 90
        2
102
RTVSPost2010PropOp53
 70
     1
102
RTVSPost2010Prop54
  1
strokes_ogs.tif
102
RTVSPost2010PropOp54
 70
     1
102
RTVSPost2010Prop55
280
     0
102
RTVSPost2010PropOp55
 70
     1
102
RTVSPost2010Prop56
140
1.0
102
RTVSPost2010PropOp56
 70
     1
102
RTVSPost2010Prop57
140
1.0
102
RTVSPost2010PropOp57
 70
     1
102
RTVSPropertyOp0
 70
     1
102
RTVSPropertyOp1
 70
     1
102
RTVSPropertyOp2
 70
     1
102
RTVSPropertyOp3
 70
     1
102
RTVSPropertyOp4
 70
     1
102
RTVSPropertyOp5
 70
     1
102
RTVSPropertyOp6
 70
     1
102
RTVSPropertyOp7
 70
     1
102
RTVSPropertyOp8
 70
     1
102
RTVSPropertyOp9
 70
     1
102
RTVSPropertyOp10
 70
     1
102
RTVSPropertyOp11
 70
     1
102
RTVSPropertyOp12
 70
     1
102
RTVSPropertyOp13
 70
     1
102
RTVSPropertyOp14
 70
     1
102
RTVSPropertyOp15
 70
     1
102
RTVSPropertyOp16
 70
     1
102
RTVSPropertyOp17
 70
     1
102
RTVSPropertyOp18
 70
     1
102
RTVSPropertyOp19
 70
     1
102
RTVSPropertyOp20
 70
     1
102
RTVSPropertyOp21
 70
     1
102
RTVSPropertyOp22
 70
     1
102
RTVSPropertyOp23
 70
     1
102
RTVSPropertyOp24
 70
     1
102
RTVSPropertyOp25
 70
     1
102
RTVSPropertyOp26
 70
     1
102
RTVSPropertyOp27
 70
     1
102
RTVSPropertyOp28
 70
     1
102
RTVSPropertyOp29
 70
     1
102
RTVSPropertyOp30
 70
     1
102
RTVSPropertyOp31
 70
     1
102
RTVSPropertyOp32
 70
     1
102
RTVSPropertyOp33
 70
     1
102
RTVSPropertyOp34
 70
     1
102
RTVSPropertyOp35
 70
     1
102
RTVSPropertyOp36
 70
     1
102
RTVSPropertyOp37
 70
     1
102
RTVSPropertyOp38
 70
     1
102
RTVSPropertyOp39
 70
     1
102
RTVSPropertyOp40
 70
     1
102
RTVSPropertyOp41
 70
     1
102
RTVSPropertyOp42
 70
     1
102
RTVSPropertyOp43
 70
     1
102
RTVSPropertyOp44
 70
     1
102
RTVSPropertyOp45
 70
     1
102
RTVSPropertyOp46
 70
     1
102
RTVSPropertyOp47
 70
     1
102
RTVSPropertyOp48
 70
     1
102
RTVSPropertyOp49
 70
     1
102
RTVSPropertyOp50
 70
     1
102
RTVSPropertyOp51
 70
     0
102
RTVSPropertyOp52
 70
     0
102
RTVSPropertyOp53
 70
     1
102
RTVSPropertyOp54
 70
     1
102
RTVSPropertyOp55
 70
     1
102
RTVSPropertyOp56
 70
     1
102
RTVSPropertyOp57
 70
     1
102
RTVSPropertyOp58
 70
     1
102
RTVSPropertyOp59
 70
     1
102
RTVSPropertyOp60
 70
     1
102
RTVSPropertyOp61
 70
     1
102
RTVSPropertyOp62
 70
     1
  0
XRECORD
  5
46A
102
{ACAD_REACTORS
330
469
102
}
330
469
100
AcDbXrecord
280
     1
102
RTVSPost2010Prop28
280
     0
102
RTVSPost2010PropOp28
 70
     1
102
RTVSPost2010Prop29
280
     1
102
RTVSPost2010PropOp29
 70
     1
102
RTVSPost2010Prop30
280
     1
102
RTVSPost2010PropOp30
 70
     1
102
RTVSPost2010Prop31
280
     0
102
RTVSPost2010PropOp31
 70
     1
102
RTVSPost2010Prop32
280
     0
102
RTVSPost2010PropOp32
 70
     1
102
RTVSPost2010Prop33
280
     0
102
RTVSPost2010PropOp33
 70
     1
102
RTVSPost2010Prop34
280
     0
102
RTVSPost2010PropOp34
 70
     1
102
RTVSPost2010Prop35
280
     0
102
RTVSPost2010PropOp35
 70
     1
102
RTVSPost2010Prop36
280
     0
102
RTVSPost2010PropOp36
 70
     1
102
RTVSPost2010Prop37
 90
       50
102
RTVSPost2010PropOp37
 70
     1
102
RTVSPost2010Prop38
140
0.0
102
RTVSPost2010PropOp38
 70
     1
102
RTVSPost2010Prop39
140
1.0
102
RTVSPost2010PropOp39
 70
     1
102
RTVSPost2010Prop40
 90
        0
102
RTVSPost2010PropOp40
 70
     1
102
RTVSPost2010Prop41ColorIndex
 90
       18
102
RTVSPost2010Prop41ColorRGB
 90
        0
102
RTVSPost2010PropOp41
 70
     1
102
RTVSPost2010Prop42
 90
       50
102
RTVSPost2010PropOp42
 70
     1
102
RTVSPost2010Prop43
 90
        3
102
RTVSPost2010PropOp43
 70
     1
102
RTVSPost2010Prop44ColorIndex
 90
        5
102
RTVSPost2010Prop44ColorRGB
 90
      255
102
RTVSPost2010PropOp44
 70
     1
102
RTVSPost2010Prop45
280
     0
102
RTVSPost2010PropOp45
 70
     1
102
RTVSPost2010Prop46
 90
       50
102
RTVSPost2010PropOp46
 70
     1
102
RTVSPost2010Prop47
 90
       50
102
RTVSPost2010PropOp47
 70
     1
102
RTVSPost2010Prop48
 90
       50
102
RTVSPost2010PropOp48
 70
     1
102
RTVSPost2010Prop49
280
     0
102
RTVSPost2010PropOp49
 70
     1
102
RTVSPost2010Prop50
 90
       50
102
RTVSPost2010PropOp50
 70
     1
102
RTVSPost2010Prop51ColorIndex
 90
      256
102
RTVSPost2010Prop51ColorRGB
 90
-16777216
102
RTVSPost2010PropOp51
 70
     0
102
RTVSPost2010Prop52
140
1.0
102
RTVSPost2010PropOp52
 70
     0
102
RTVSPost2010Prop53
 90
        2
102
RTVSPost2010PropOp53
 70
     1
102
RTVSPost2010Prop54
  1
strokes_ogs.tif
102
RTVSPost2010PropOp54
 70
     1
102
RTVSPost2010Prop55
280
     0
102
RTVSPost2010PropOp55
 70
     1
102
RTVSPost2010Prop56
140
1.0
102
RTVSPost2010PropOp56
 70
     1
102
RTVSPost2010Prop57
140
1.0
102
RTVSPost2010PropOp57
 70
     1
102
RTVSPropertyOp0
 70
     1
102
RTVSPropertyOp1
 70
     1
102
RTVSPropertyOp2
 70
     1
102
RTVSPropertyOp3
 70
     1
102
RTVSPropertyOp4
 70
     1
102
RTVSPropertyOp5
 70
     1
102
RTVSPropertyOp6
 70
     1
102
RTVSPropertyOp7
 70
     1
102
RTVSPropertyOp8
 70
     1
102
RTVSPropertyOp9
 70
     1
102
RTVSPropertyOp10
 70
     1
102
RTVSPropertyOp11
 70
     1
102
RTVSPropertyOp12
 70
     1
102
RTVSPropertyOp13
 70
     1
102
RTVSPropertyOp14
 70
     1
102
RTVSPropertyOp15
 70
     1
102
RTVSPropertyOp16
 70
     1
102
RTVSPropertyOp17
 70
     1
102
RTVSPropertyOp18
 70
     1
102
RTVSPropertyOp19
 70
     1
102
RTVSPropertyOp20
 70
     1
102
RTVSPropertyOp21
 70
     1
102
RTVSPropertyOp22
 70
     1
102
RTVSPropertyOp23
 70
     1
102
RTVSPropertyOp24
 70
     1
102
RTVSPropertyOp25
 70
     1
102
RTVSPropertyOp26
 70
     1
102
RTVSPropertyOp27
 70
     1
102
RTVSPropertyOp28
 70
     1
102
RTVSPropertyOp29
 70
     1
102
RTVSPropertyOp30
 70
     1
102
RTVSPropertyOp31
 70
     1
102
RTVSPropertyOp32
 70
     1
102
RTVSPropertyOp33
 70
     1
102
RTVSPropertyOp34
 70
     1
102
RTVSPropertyOp35
 70
     1
102
RTVSPropertyOp36
 70
     1
102
RTVSPropertyOp37
 70
     1
102
RTVSPropertyOp38
 70
     1
102
RTVSPropertyOp39
 70
     1
102
RTVSPropertyOp40
 70
     1
102
RTVSPropertyOp41
 70
     1
102
RTVSPropertyOp42
 70
     1
102
RTVSPropertyOp43
 70
     1
102
RTVSPropertyOp44
 70
     1
102
RTVSPropertyOp45
 70
     1
102
RTVSPropertyOp46
 70
     1
102
RTVSPropertyOp47
 70
     1
102
RTVSPropertyOp48
 70
     1
102
RTVSPropertyOp49
 70
     1
102
RTVSPropertyOp50
 70
     1
102
RTVSPropertyOp51
 70
     0
102
RTVSPropertyOp52
 70
     0
102
RTVSPropertyOp53
 70
     1
102
RTVSPropertyOp54
 70
     1
102
RTVSPropertyOp55
 70
     1
102
RTVSPropertyOp56
 70
     1
102
RTVSPropertyOp57
 70
     1
102
RTVSPropertyOp58
 70
     1
102
RTVSPropertyOp59
 70
     1
102
RTVSPropertyOp60
 70
     1
102
RTVSPropertyOp61
 70
     1
102
RTVSPropertyOp62
 70
     1
  0
XRECORD
  5
486
102
{ACAD_REACTORS
330
485
102
}
330
485
100
AcDbXrecord
280
     1
102
RTVSPost2010Prop28
280
     0
102
RTVSPost2010PropOp28
 70
     0
102
RTVSPost2010Prop29
280
     1
102
RTVSPost2010PropOp29
 70
     0
102
RTVSPost2010Prop30
280
     1
102
RTVSPost2010PropOp30
 70
     0
102
RTVSPost2010Prop31
280
     0
102
RTVSPost2010PropOp31
 70
     0
102
RTVSPost2010Prop32
280
     0
102
RTVSPost2010PropOp32
 70
     0
102
RTVSPost2010Prop33
280
     0
102
RTVSPost2010PropOp33
 70
     0
102
RTVSPost2010Prop34
280
     0
102
RTVSPost2010PropOp34
 70
     0
102
RTVSPost2010Prop35
280
     0
102
RTVSPost2010PropOp35
 70
     0
102
RTVSPost2010Prop36
280
     0
102
RTVSPost2010PropOp36
 70
     0
102
RTVSPost2010Prop37
 90
       50
102
RTVSPost2010PropOp37
 70
     0
102
RTVSPost2010Prop38
140
0.0
102
RTVSPost2010PropOp38
 70
     0
102
RTVSPost2010Prop39
140
1.0
102
RTVSPost2010PropOp39
 70
     0
102
RTVSPost2010Prop40
 90
        0
102
RTVSPost2010PropOp40
 70
     0
102
RTVSPost2010Prop41ColorIndex
 90
       18
102
RTVSPost2010Prop41ColorRGB
 90
        0
102
RTVSPost2010PropOp41
 70
     0
102
RTVSPost2010Prop42
 90
       50
102
RTVSPost2010PropOp42
 70
     0
102
RTVSPost2010Prop43
 90
        3
102
RTVSPost2010PropOp43
 70
     0
102
RTVSPost2010Prop44ColorIndex
 90
        5
102
RTVSPost2010Prop44ColorRGB
 90
      255
102
RTVSPost2010PropOp44
 70
     0
102
RTVSPost2010Prop45
280
     0
102
RTVSPost2010PropOp45
 70
     0
102
RTVSPost2010Prop46
 90
       50
102
RTVSPost2010PropOp46
 70
     0
102
RTVSPost2010Prop47
 90
       50
102
RTVSPost2010PropOp47
 70
     0
102
RTVSPost2010Prop48
 90
       50
102
RTVSPost2010PropOp48
 70
     0
102
RTVSPost2010Prop49
280
     0
102
RTVSPost2010PropOp49
 70
     0
102
RTVSPost2010Prop50
 90
       50
102
RTVSPost2010PropOp50
 70
     0
102
RTVSPost2010Prop51ColorIndex
 90
      256
102
RTVSPost2010Prop51ColorRGB
 90
-16777216
102
RTVSPost2010PropOp51
 70
     0
102
RTVSPost2010Prop52
140
1.0
102
RTVSPost2010PropOp52
 70
     0
102
RTVSPost2010Prop53
 90
        2
102
RTVSPost2010PropOp53
 70
     0
102
RTVSPost2010Prop54
  1
strokes_ogs.tif
102
RTVSPost2010PropOp54
 70
     0
102
RTVSPost2010Prop55
280
     0
102
RTVSPost2010PropOp55
 70
     0
102
RTVSPost2010Prop56
140
1.0
102
RTVSPost2010PropOp56
 70
     0
102
RTVSPost2010Prop57
140
1.0
102
RTVSPost2010PropOp57
 70
     0
102
RTVSPropertyOp0
 70
     0
102
RTVSPropertyOp1
 70
     0
102
RTVSPropertyOp2
 70
     0
102
RTVSPropertyOp3
 70
     0
102
RTVSPropertyOp4
 70
     0
102
RTVSPropertyOp5
 70
     0
102
RTVSPropertyOp6
 70
     0
102
RTVSPropertyOp7
 70
     0
102
RTVSPropertyOp8
 70
     0
102
RTVSPropertyOp9
 70
     0
102
RTVSPropertyOp10
 70
     0
102
RTVSPropertyOp11
 70
     0
102
RTVSPropertyOp12
 70
     0
102
RTVSPropertyOp13
 70
     0
102
RTVSPropertyOp14
 70
     2
102
RTVSPropertyOp15
 70
     0
102
RTVSPropertyOp16
 70
     0
102
RTVSPropertyOp17
 70
     0
102
RTVSPropertyOp18
 70
     0
102
RTVSPropertyOp19
 70
     0
102
RTVSPropertyOp20
 70
     0
102
RTVSPropertyOp21
 70
     0
102
RTVSPropertyOp22
 70
     0
102
RTVSPropertyOp23
 70
     0
102
RTVSPropertyOp24
 70
     0
102
RTVSPropertyOp25
 70
     0
102
RTVSPropertyOp26
 70
     0
102
RTVSPropertyOp27
 70
     0
102
RTVSPropertyOp28
 70
     0
102
RTVSPropertyOp29
 70
     0
102
RTVSPropertyOp30
 70
     0
102
RTVSPropertyOp31
 70
     0
102
RTVSPropertyOp32
 70
     0
102
RTVSPropertyOp33
 70
     0
102
RTVSPropertyOp34
 70
     0
102
RTVSPropertyOp35
 70
     0
102
RTVSPropertyOp36
 70
     0
102
RTVSPropertyOp37
 70
     0
102
RTVSPropertyOp38
 70
     0
102
RTVSPropertyOp39
 70
     0
102
RTVSPropertyOp40
 70
     0
102
RTVSPropertyOp41
 70
     0
102
RTVSPropertyOp42
 70
     0
102
RTVSPropertyOp43
 70
     0
102
RTVSPropertyOp44
 70
     0
102
RTVSPropertyOp45
 70
     0
102
RTVSPropertyOp46
 70
     0
102
RTVSPropertyOp47
 70
     0
102
RTVSPropertyOp48
 70
     0
102
RTVSPropertyOp49
 70
     0
102
RTVSPropertyOp50
 70
     0
102
RTVSPropertyOp51
 70
     0
102
RTVSPropertyOp52
 70
     0
102
RTVSPropertyOp53
 70
     0
102
RTVSPropertyOp54
 70
     0
102
RTVSPropertyOp55
 70
     0
102
RTVSPropertyOp56
 70
     0
102
RTVSPropertyOp57
 70
     0
102
RTVSPropertyOp58
 70
     1
102
RTVSPropertyOp59
 70
     1
102
RTVSPropertyOp60
 70
     1
102
RTVSPropertyOp61
 70
     1
102
RTVSPropertyOp62
 70
     1
  0
XRECORD
  5
476
102
{ACAD_REACTORS
330
475
102
}
330
475
100
AcDbXrecord
280
     1
102
RTVSPost2010Prop28
280
     0
102
RTVSPost2010PropOp28
 70
     1
102
RTVSPost2010Prop29
280
     1
102
RTVSPost2010PropOp29
 70
     1
102
RTVSPost2010Prop30
280
     1
102
RTVSPost2010PropOp30
 70
     1
102
RTVSPost2010Prop31
280
     0
102
RTVSPost2010PropOp31
 70
     1
102
RTVSPost2010Prop32
280
     0
102
RTVSPost2010PropOp32
 70
     1
102
RTVSPost2010Prop33
280
     0
102
RTVSPost2010PropOp33
 70
     1
102
RTVSPost2010Prop34
280
     0
102
RTVSPost2010PropOp34
 70
     1
102
RTVSPost2010Prop35
280
     0
102
RTVSPost2010PropOp35
 70
     1
102
RTVSPost2010Prop36
280
     0
102
RTVSPost2010PropOp36
 70
     1
102
RTVSPost2010Prop37
 90
       50
102
RTVSPost2010PropOp37
 70
     1
102
RTVSPost2010Prop38
140
0.0
102
RTVSPost2010PropOp38
 70
     1
102
RTVSPost2010Prop39
140
1.0
102
RTVSPost2010PropOp39
 70
     1
102
RTVSPost2010Prop40
 90
        0
102
RTVSPost2010PropOp40
 70
     1
102
RTVSPost2010Prop41ColorIndex
 90
       18
102
RTVSPost2010Prop41ColorRGB
 90
        0
102
RTVSPost2010PropOp41
 70
     1
102
RTVSPost2010Prop42
 90
       50
102
RTVSPost2010PropOp42
 70
     1
102
RTVSPost2010Prop43
 90
        3
102
RTVSPost2010PropOp43
 70
     1
102
RTVSPost2010Prop44ColorIndex
 90
        5
102
RTVSPost2010Prop44ColorRGB
 90
      255
102
RTVSPost2010PropOp44
 70
     1
102
RTVSPost2010Prop45
280
     0
102
RTVSPost2010PropOp45
 70
     1
102
RTVSPost2010Prop46
 90
       50
102
RTVSPost2010PropOp46
 70
     1
102
RTVSPost2010Prop47
 90
       50
102
RTVSPost2010PropOp47
 70
     1
102
RTVSPost2010Prop48
 90
       50
102
RTVSPost2010PropOp48
 70
     1
102
RTVSPost2010Prop49
280
     0
102
RTVSPost2010PropOp49
 70
     1
102
RTVSPost2010Prop50
 90
       50
102
RTVSPost2010PropOp50
 70
     1
102
RTVSPost2010Prop51ColorIndex
 90
      256
102
RTVSPost2010Prop51ColorRGB
 90
-16777216
102
RTVSPost2010PropOp51
 70
     0
102
RTVSPost2010Prop52
140
1.0
102
RTVSPost2010PropOp52
 70
     0
102
RTVSPost2010Prop53
 90
        2
102
RTVSPost2010PropOp53
 70
     1
102
RTVSPost2010Prop54
  1
strokes_ogs.tif
102
RTVSPost2010PropOp54
 70
     1
102
RTVSPost2010Prop55
280
     0
102
RTVSPost2010PropOp55
 70
     1
102
RTVSPost2010Prop56
140
1.0
102
RTVSPost2010PropOp56
 70
     1
102
RTVSPost2010Prop57
140
1.0
102
RTVSPost2010PropOp57
 70
     1
102
RTVSPropertyOp0
 70
     1
102
RTVSPropertyOp1
 70
     1
102
RTVSPropertyOp2
 70
     1
102
RTVSPropertyOp3
 70
     1
102
RTVSPropertyOp4
 70
     1
102
RTVSPropertyOp5
 70
     1
102
RTVSPropertyOp6
 70
     1
102
RTVSPropertyOp7
 70
     1
102
RTVSPropertyOp8
 70
     1
102
RTVSPropertyOp9
 70
     1
102
RTVSPropertyOp10
 70
     1
102
RTVSPropertyOp11
 70
     1
102
RTVSPropertyOp12
 70
     1
102
RTVSPropertyOp13
 70
     1
102
RTVSPropertyOp14
 70
     1
102
RTVSPropertyOp15
 70
     1
102
RTVSPropertyOp16
 70
     1
102
RTVSPropertyOp17
 70
     1
102
RTVSPropertyOp18
 70
     1
102
RTVSPropertyOp19
 70
     1
102
RTVSPropertyOp20
 70
     1
102
RTVSPropertyOp21
 70
     1
102
RTVSPropertyOp22
 70
     1
102
RTVSPropertyOp23
 70
     1
102
RTVSPropertyOp24
 70
     1
102
RTVSPropertyOp25
 70
     1
102
RTVSPropertyOp26
 70
     1
102
RTVSPropertyOp27
 70
     1
102
RTVSPropertyOp28
 70
     1
102
RTVSPropertyOp29
 70
     1
102
RTVSPropertyOp30
 70
     1
102
RTVSPropertyOp31
 70
     1
102
RTVSPropertyOp32
 70
     1
102
RTVSPropertyOp33
 70
     1
102
RTVSPropertyOp34
 70
     1
102
RTVSPropertyOp35
 70
     1
102
RTVSPropertyOp36
 70
     1
102
RTVSPropertyOp37
 70
     1
102
RTVSPropertyOp38
 70
     1
102
RTVSPropertyOp39
 70
     1
102
RTVSPropertyOp40
 70
     1
102
RTVSPropertyOp41
 70
     1
102
RTVSPropertyOp42
 70
     1
102
RTVSPropertyOp43
 70
     1
102
RTVSPropertyOp44
 70
     1
102
RTVSPropertyOp45
 70
     1
102
RTVSPropertyOp46
 70
     1
102
RTVSPropertyOp47
 70
     1
102
RTVSPropertyOp48
 70
     1
102
RTVSPropertyOp49
 70
     1
102
RTVSPropertyOp50
 70
     1
102
RTVSPropertyOp51
 70
     0
102
RTVSPropertyOp52
 70
     0
102
RTVSPropertyOp53
 70
     1
102
RTVSPropertyOp54
 70
     1
102
RTVSPropertyOp55
 70
     1
102
RTVSPropertyOp56
 70
     1
102
RTVSPropertyOp57
 70
     1
102
RTVSPropertyOp58
 70
     1
102
RTVSPropertyOp59
 70
     1
102
RTVSPropertyOp60
 70
     1
102
RTVSPropertyOp61
 70
     1
102
RTVSPropertyOp62
 70
     1
  0
XRECORD
  5
488
102
{ACAD_REACTORS
330
487
102
}
330
487
100
AcDbXrecord
280
     1
102
RTVSPost2010Prop28
280
     0
102
RTVSPost2010PropOp28
 70
     0
102
RTVSPost2010Prop29
280
     1
102
RTVSPost2010PropOp29
 70
     0
102
RTVSPost2010Prop30
280
     1
102
RTVSPost2010PropOp30
 70
     0
102
RTVSPost2010Prop31
280
     0
102
RTVSPost2010PropOp31
 70
     0
102
RTVSPost2010Prop32
280
     0
102
RTVSPost2010PropOp32
 70
     0
102
RTVSPost2010Prop33
280
     0
102
RTVSPost2010PropOp33
 70
     0
102
RTVSPost2010Prop34
280
     0
102
RTVSPost2010PropOp34
 70
     0
102
RTVSPost2010Prop35
280
     0
102
RTVSPost2010PropOp35
 70
     0
102
RTVSPost2010Prop36
280
     0
102
RTVSPost2010PropOp36
 70
     0
102
RTVSPost2010Prop37
 90
       50
102
RTVSPost2010PropOp37
 70
     0
102
RTVSPost2010Prop38
140
0.0
102
RTVSPost2010PropOp38
 70
     0
102
RTVSPost2010Prop39
140
1.0
102
RTVSPost2010PropOp39
 70
     0
102
RTVSPost2010Prop40
 90
        0
102
RTVSPost2010PropOp40
 70
     0
102
RTVSPost2010Prop41ColorIndex
 90
       18
102
RTVSPost2010Prop41ColorRGB
 90
        0
102
RTVSPost2010PropOp41
 70
     0
102
RTVSPost2010Prop42
 90
       50
102
RTVSPost2010PropOp42
 70
     0
102
RTVSPost2010Prop43
 90
        3
102
RTVSPost2010PropOp43
 70
     0
102
RTVSPost2010Prop44ColorIndex
 90
        5
102
RTVSPost2010Prop44ColorRGB
 90
      255
102
RTVSPost2010PropOp44
 70
     0
102
RTVSPost2010Prop45
280
     0
102
RTVSPost2010PropOp45
 70
     0
102
RTVSPost2010Prop46
 90
       50
102
RTVSPost2010PropOp46
 70
     0
102
RTVSPost2010Prop47
 90
       50
102
RTVSPost2010PropOp47
 70
     0
102
RTVSPost2010Prop48
 90
       50
102
RTVSPost2010PropOp48
 70
     0
102
RTVSPost2010Prop49
280
     0
102
RTVSPost2010PropOp49
 70
     0
102
RTVSPost2010Prop50
 90
       50
102
RTVSPost2010PropOp50
 70
     0
102
RTVSPost2010Prop51ColorIndex
 90
      256
102
RTVSPost2010Prop51ColorRGB
 90
-16777216
102
RTVSPost2010PropOp51
 70
     0
102
RTVSPost2010Prop52
140
1.0
102
RTVSPost2010PropOp52
 70
     0
102
RTVSPost2010Prop53
 90
        2
102
RTVSPost2010PropOp53
 70
     0
102
RTVSPost2010Prop54
  1
strokes_ogs.tif
102
RTVSPost2010PropOp54
 70
     0
102
RTVSPost2010Prop55
280
     0
102
RTVSPost2010PropOp55
 70
     0
102
RTVSPost2010Prop56
140
1.0
102
RTVSPost2010PropOp56
 70
     0
102
RTVSPost2010Prop57
140
1.0
102
RTVSPost2010PropOp57
 70
     0
102
RTVSPropertyOp0
 70
     0
102
RTVSPropertyOp1
 70
     0
102
RTVSPropertyOp2
 70
     0
102
RTVSPropertyOp3
 70
     0
102
RTVSPropertyOp4
 70
     0
102
RTVSPropertyOp5
 70
     0
102
RTVSPropertyOp6
 70
     0
102
RTVSPropertyOp7
 70
     0
102
RTVSPropertyOp8
 70
     0
102
RTVSPropertyOp9
 70
     0
102
RTVSPropertyOp10
 70
     0
102
RTVSPropertyOp11
 70
     0
102
RTVSPropertyOp12
 70
     0
102
RTVSPropertyOp13
 70
     0
102
RTVSPropertyOp14
 70
     2
102
RTVSPropertyOp15
 70
     0
102
RTVSPropertyOp16
 70
     0
102
RTVSPropertyOp17
 70
     0
102
RTVSPropertyOp18
 70
     0
102
RTVSPropertyOp19
 70
     0
102
RTVSPropertyOp20
 70
     0
102
RTVSPropertyOp21
 70
     0
102
RTVSPropertyOp22
 70
     0
102
RTVSPropertyOp23
 70
     0
102
RTVSPropertyOp24
 70
     0
102
RTVSPropertyOp25
 70
     0
102
RTVSPropertyOp26
 70
     0
102
RTVSPropertyOp27
 70
     0
102
RTVSPropertyOp28
 70
     0
102
RTVSPropertyOp29
 70
     0
102
RTVSPropertyOp30
 70
     0
102
RTVSPropertyOp31
 70
     0
102
RTVSPropertyOp32
 70
     0
102
RTVSPropertyOp33
 70
     0
102
RTVSPropertyOp34
 70
     0
102
RTVSPropertyOp35
 70
     0
102
RTVSPropertyOp36
 70
     0
102
RTVSPropertyOp37
 70
     0
102
RTVSPropertyOp38
 70
     0
102
RTVSPropertyOp39
 70
     0
102
RTVSPropertyOp40
 70
     0
102
RTVSPropertyOp41
 70
     0
102
RTVSPropertyOp42
 70
     0
102
RTVSPropertyOp43
 70
     0
102
RTVSPropertyOp44
 70
     0
102
RTVSPropertyOp45
 70
     0
102
RTVSPropertyOp46
 70
     0
102
RTVSPropertyOp47
 70
     0
102
RTVSPropertyOp48
 70
     0
102
RTVSPropertyOp49
 70
     0
102
RTVSPropertyOp50
 70
     0
102
RTVSPropertyOp51
 70
     0
102
RTVSPropertyOp52
 70
     0
102
RTVSPropertyOp53
 70
     0
102
RTVSPropertyOp54
 70
     0
102
RTVSPropertyOp55
 70
     0
102
RTVSPropertyOp56
 70
     0
102
RTVSPropertyOp57
 70
     0
102
RTVSPropertyOp58
 70
     1
102
RTVSPropertyOp59
 70
     1
102
RTVSPropertyOp60
 70
     1
102
RTVSPropertyOp61
 70
     1
102
RTVSPropertyOp62
 70
     1
  0
XRECORD
  5
46E
102
{ACAD_REACTORS
330
46D
102
}
330
46D
100
AcDbXrecord
280
     1
102
RTVSPost2010Prop28
280
     0
102
RTVSPost2010PropOp28
 70
     1
102
RTVSPost2010Prop29
280
     1
102
RTVSPost2010PropOp29
 70
     1
102
RTVSPost2010Prop30
280
     1
102
RTVSPost2010PropOp30
 70
     1
102
RTVSPost2010Prop31
280
     0
102
RTVSPost2010PropOp31
 70
     1
102
RTVSPost2010Prop32
280
     0
102
RTVSPost2010PropOp32
 70
     1
102
RTVSPost2010Prop33
280
     0
102
RTVSPost2010PropOp33
 70
     1
102
RTVSPost2010Prop34
280
     0
102
RTVSPost2010PropOp34
 70
     1
102
RTVSPost2010Prop35
280
     0
102
RTVSPost2010PropOp35
 70
     1
102
RTVSPost2010Prop36
280
     0
102
RTVSPost2010PropOp36
 70
     1
102
RTVSPost2010Prop37
 90
       50
102
RTVSPost2010PropOp37
 70
     1
102
RTVSPost2010Prop38
140
0.0
102
RTVSPost2010PropOp38
 70
     1
102
RTVSPost2010Prop39
140
1.0
102
RTVSPost2010PropOp39
 70
     1
102
RTVSPost2010Prop40
 90
        0
102
RTVSPost2010PropOp40
 70
     1
102
RTVSPost2010Prop41ColorIndex
 90
       18
102
RTVSPost2010Prop41ColorRGB
 90
        0
102
RTVSPost2010PropOp41
 70
     1
102
RTVSPost2010Prop42
 90
       50
102
RTVSPost2010PropOp42
 70
     1
102
RTVSPost2010Prop43
 90
        3
102
RTVSPost2010PropOp43
 70
     1
102
RTVSPost2010Prop44ColorIndex
 90
        5
102
RTVSPost2010Prop44ColorRGB
 90
      255
102
RTVSPost2010PropOp44
 70
     1
102
RTVSPost2010Prop45
280
     0
102
RTVSPost2010PropOp45
 70
     1
102
RTVSPost2010Prop46
 90
       50
102
RTVSPost2010PropOp46
 70
     1
102
RTVSPost2010Prop47
 90
       50
102
RTVSPost2010PropOp47
 70
     1
102
RTVSPost2010Prop48
 90
       50
102
RTVSPost2010PropOp48
 70
     1
102
RTVSPost2010Prop49
280
     0
102
RTVSPost2010PropOp49
 70
     1
102
RTVSPost2010Prop50
 90
       50
102
RTVSPost2010PropOp50
 70
     1
102
RTVSPost2010Prop51ColorIndex
 90
      256
102
RTVSPost2010Prop51ColorRGB
 90
-16777216
102
RTVSPost2010PropOp51
 70
     0
102
RTVSPost2010Prop52
140
1.0
102
RTVSPost2010PropOp52
 70
     0
102
RTVSPost2010Prop53
 90
        2
102
RTVSPost2010PropOp53
 70
     1
102
RTVSPost2010Prop54
  1
strokes_ogs.tif
102
RTVSPost2010PropOp54
 70
     1
102
RTVSPost2010Prop55
280
     0
102
RTVSPost2010PropOp55
 70
     1
102
RTVSPost2010Prop56
140
1.0
102
RTVSPost2010PropOp56
 70
     1
102
RTVSPost2010Prop57
140
1.0
102
RTVSPost2010PropOp57
 70
     1
102
RTVSPropertyOp0
 70
     1
102
RTVSPropertyOp1
 70
     1
102
RTVSPropertyOp2
 70
     1
102
RTVSPropertyOp3
 70
     1
102
RTVSPropertyOp4
 70
     1
102
RTVSPropertyOp5
 70
     1
102
RTVSPropertyOp6
 70
     1
102
RTVSPropertyOp7
 70
     1
102
RTVSPropertyOp8
 70
     1
102
RTVSPropertyOp9
 70
     1
102
RTVSPropertyOp10
 70
     1
102
RTVSPropertyOp11
 70
     1
102
RTVSPropertyOp12
 70
     1
102
RTVSPropertyOp13
 70
     1
102
RTVSPropertyOp14
 70
     1
102
RTVSPropertyOp15
 70
     1
102
RTVSPropertyOp16
 70
     1
102
RTVSPropertyOp17
 70
     1
102
RTVSPropertyOp18
 70
     1
102
RTVSPropertyOp19
 70
     1
102
RTVSPropertyOp20
 70
     1
102
RTVSPropertyOp21
 70
     1
102
RTVSPropertyOp22
 70
     1
102
RTVSPropertyOp23
 70
     1
102
RTVSPropertyOp24
 70
     1
102
RTVSPropertyOp25
 70
     1
102
RTVSPropertyOp26
 70
     1
102
RTVSPropertyOp27
 70
     1
102
RTVSPropertyOp28
 70
     1
102
RTVSPropertyOp29
 70
     1
102
RTVSPropertyOp30
 70
     1
102
RTVSPropertyOp31
 70
     1
102
RTVSPropertyOp32
 70
     1
102
RTVSPropertyOp33
 70
     1
102
RTVSPropertyOp34
 70
     1
102
RTVSPropertyOp35
 70
     1
102
RTVSPropertyOp36
 70
     1
102
RTVSPropertyOp37
 70
     1
102
RTVSPropertyOp38
 70
     1
102
RTVSPropertyOp39
 70
     1
102
RTVSPropertyOp40
 70
     1
102
RTVSPropertyOp41
 70
     1
102
RTVSPropertyOp42
 70
     1
102
RTVSPropertyOp43
 70
     1
102
RTVSPropertyOp44
 70
     1
102
RTVSPropertyOp45
 70
     1
102
RTVSPropertyOp46
 70
     1
102
RTVSPropertyOp47
 70
     1
102
RTVSPropertyOp48
 70
     1
102
RTVSPropertyOp49
 70
     1
102
RTVSPropertyOp50
 70
     1
102
RTVSPropertyOp51
 70
     0
102
RTVSPropertyOp52
 70
     0
102
RTVSPropertyOp53
 70
     1
102
RTVSPropertyOp54
 70
     1
102
RTVSPropertyOp55
 70
     1
102
RTVSPropertyOp56
 70
     1
102
RTVSPropertyOp57
 70
     1
102
RTVSPropertyOp58
 70
     1
102
RTVSPropertyOp59
 70
     1
102
RTVSPropertyOp60
 70
     1
102
RTVSPropertyOp61
 70
     1
102
RTVSPropertyOp62
 70
     1
  0
XRECORD
  5
484
102
{ACAD_REACTORS
330
483
102
}
330
483
100
AcDbXrecord
280
     1
102
RTVSPost2010Prop28
280
     0
102
RTVSPost2010PropOp28
 70
     1
102
RTVSPost2010Prop29
280
     1
102
RTVSPost2010PropOp29
 70
     1
102
RTVSPost2010Prop30
280
     1
102
RTVSPost2010PropOp30
 70
     1
102
RTVSPost2010Prop31
280
     0
102
RTVSPost2010PropOp31
 70
     1
102
RTVSPost2010Prop32
280
     0
102
RTVSPost2010PropOp32
 70
     1
102
RTVSPost2010Prop33
280
     0
102
RTVSPost2010PropOp33
 70
     1
102
RTVSPost2010Prop34
280
     0
102
RTVSPost2010PropOp34
 70
     1
102
RTVSPost2010Prop35
280
     0
102
RTVSPost2010PropOp35
 70
     1
102
RTVSPost2010Prop36
280
     0
102
RTVSPost2010PropOp36
 70
     1
102
RTVSPost2010Prop37
 90
       50
102
RTVSPost2010PropOp37
 70
     1
102
RTVSPost2010Prop38
140
0.0
102
RTVSPost2010PropOp38
 70
     1
102
RTVSPost2010Prop39
140
1.0
102
RTVSPost2010PropOp39
 70
     1
102
RTVSPost2010Prop40
 90
        0
102
RTVSPost2010PropOp40
 70
     1
102
RTVSPost2010Prop41ColorIndex
 90
       18
102
RTVSPost2010Prop41ColorRGB
 90
        0
102
RTVSPost2010PropOp41
 70
     1
102
RTVSPost2010Prop42
 90
       50
102
RTVSPost2010PropOp42
 70
     1
102
RTVSPost2010Prop43
 90
        3
102
RTVSPost2010PropOp43
 70
     1
102
RTVSPost2010Prop44ColorIndex
 90
        5
102
RTVSPost2010Prop44ColorRGB
 90
      255
102
RTVSPost2010PropOp44
 70
     1
102
RTVSPost2010Prop45
280
     0
102
RTVSPost2010PropOp45
 70
     1
102
RTVSPost2010Prop46
 90
       50
102
RTVSPost2010PropOp46
 70
     1
102
RTVSPost2010Prop47
 90
       50
102
RTVSPost2010PropOp47
 70
     1
102
RTVSPost2010Prop48
 90
       50
102
RTVSPost2010PropOp48
 70
     1
102
RTVSPost2010Prop49
280
     0
102
RTVSPost2010PropOp49
 70
     1
102
RTVSPost2010Prop50
 90
       50
102
RTVSPost2010PropOp50
 70
     1
102
RTVSPost2010Prop51ColorIndex
 90
      256
102
RTVSPost2010Prop51ColorRGB
 90
-16777216
102
RTVSPost2010PropOp51
 70
     0
102
RTVSPost2010Prop52
140
1.0
102
RTVSPost2010PropOp52
 70
     0
102
RTVSPost2010Prop53
 90
        2
102
RTVSPost2010PropOp53
 70
     1
102
RTVSPost2010Prop54
  1
strokes_ogs.tif
102
RTVSPost2010PropOp54
 70
     1
102
RTVSPost2010Prop55
280
     0
102
RTVSPost2010PropOp55
 70
     1
102
RTVSPost2010Prop56
140
1.0
102
RTVSPost2010PropOp56
 70
     1
102
RTVSPost2010Prop57
140
1.0
102
RTVSPost2010PropOp57
 70
     1
102
RTVSPropertyOp0
 70
     1
102
RTVSPropertyOp1
 70
     1
102
RTVSPropertyOp2
 70
     1
102
RTVSPropertyOp3
 70
     1
102
RTVSPropertyOp4
 70
     1
102
RTVSPropertyOp5
 70
     1
102
RTVSPropertyOp6
 70
     1
102
RTVSPropertyOp7
 70
     1
102
RTVSPropertyOp8
 70
     1
102
RTVSPropertyOp9
 70
     1
102
RTVSPropertyOp10
 70
     1
102
RTVSPropertyOp11
 70
     1
102
RTVSPropertyOp12
 70
     1
102
RTVSPropertyOp13
 70
     1
102
RTVSPropertyOp14
 70
     1
102
RTVSPropertyOp15
 70
     1
102
RTVSPropertyOp16
 70
     1
102
RTVSPropertyOp17
 70
     1
102
RTVSPropertyOp18
 70
     1
102
RTVSPropertyOp19
 70
     1
102
RTVSPropertyOp20
 70
     1
102
RTVSPropertyOp21
 70
     1
102
RTVSPropertyOp22
 70
     1
102
RTVSPropertyOp23
 70
     1
102
RTVSPropertyOp24
 70
     1
102
RTVSPropertyOp25
 70
     1
102
RTVSPropertyOp26
 70
     1
102
RTVSPropertyOp27
 70
     1
102
RTVSPropertyOp28
 70
     1
102
RTVSPropertyOp29
 70
     1
102
RTVSPropertyOp30
 70
     1
102
RTVSPropertyOp31
 70
     1
102
RTVSPropertyOp32
 70
     1
102
RTVSPropertyOp33
 70
     1
102
RTVSPropertyOp34
 70
     1
102
RTVSPropertyOp35
 70
     1
102
RTVSPropertyOp36
 70
     1
102
RTVSPropertyOp37
 70
     1
102
RTVSPropertyOp38
 70
     1
102
RTVSPropertyOp39
 70
     1
102
RTVSPropertyOp40
 70
     1
102
RTVSPropertyOp41
 70
     1
102
RTVSPropertyOp42
 70
     1
102
RTVSPropertyOp43
 70
     1
102
RTVSPropertyOp44
 70
     1
102
RTVSPropertyOp45
 70
     1
102
RTVSPropertyOp46
 70
     1
102
RTVSPropertyOp47
 70
     1
102
RTVSPropertyOp48
 70
     1
102
RTVSPropertyOp49
 70
     1
102
RTVSPropertyOp50
 70
     1
102
RTVSPropertyOp51
 70
     0
102
RTVSPropertyOp52
 70
     0
102
RTVSPropertyOp53
 70
     1
102
RTVSPropertyOp54
 70
     1
102
RTVSPropertyOp55
 70
     1
102
RTVSPropertyOp56
 70
     1
102
RTVSPropertyOp57
 70
     1
102
RTVSPropertyOp58
 70
     1
102
RTVSPropertyOp59
 70
     1
102
RTVSPropertyOp60
 70
     1
102
RTVSPropertyOp61
 70
     1
102
RTVSPropertyOp62
 70
     1
  0
XRECORD
  5
482
102
{ACAD_REACTORS
330
481
102
}
330
481
100
AcDbXrecord
280
     1
102
RTVSPost2010Prop28
280
     0
102
RTVSPost2010PropOp28
 70
     1
102
RTVSPost2010Prop29
280
     1
102
RTVSPost2010PropOp29
 70
     1
102
RTVSPost2010Prop30
280
     1
102
RTVSPost2010PropOp30
 70
     1
102
RTVSPost2010Prop31
280
     0
102
RTVSPost2010PropOp31
 70
     1
102
RTVSPost2010Prop32
280
     0
102
RTVSPost2010PropOp32
 70
     1
102
RTVSPost2010Prop33
280
     0
102
RTVSPost2010PropOp33
 70
     1
102
RTVSPost2010Prop34
280
     0
102
RTVSPost2010PropOp34
 70
     1
102
RTVSPost2010Prop35
280
     0
102
RTVSPost2010PropOp35
 70
     1
102
RTVSPost2010Prop36
280
     0
102
RTVSPost2010PropOp36
 70
     1
102
RTVSPost2010Prop37
 90
       50
102
RTVSPost2010PropOp37
 70
     1
102
RTVSPost2010Prop38
140
0.0
102
RTVSPost2010PropOp38
 70
     1
102
RTVSPost2010Prop39
140
1.0
102
RTVSPost2010PropOp39
 70
     1
102
RTVSPost2010Prop40
 90
        0
102
RTVSPost2010PropOp40
 70
     1
102
RTVSPost2010Prop41ColorIndex
 90
       18
102
RTVSPost2010Prop41ColorRGB
 90
        0
102
RTVSPost2010PropOp41
 70
     1
102
RTVSPost2010Prop42
 90
       50
102
RTVSPost2010PropOp42
 70
     1
102
RTVSPost2010Prop43
 90
        3
102
RTVSPost2010PropOp43
 70
     1
102
RTVSPost2010Prop44ColorIndex
 90
        5
102
RTVSPost2010Prop44ColorRGB
 90
      255
102
RTVSPost2010PropOp44
 70
     1
102
RTVSPost2010Prop45
280
     0
102
RTVSPost2010PropOp45
 70
     1
102
RTVSPost2010Prop46
 90
       50
102
RTVSPost2010PropOp46
 70
     1
102
RTVSPost2010Prop47
 90
       50
102
RTVSPost2010PropOp47
 70
     1
102
RTVSPost2010Prop48
 90
       50
102
RTVSPost2010PropOp48
 70
     1
102
RTVSPost2010Prop49
280
     0
102
RTVSPost2010PropOp49
 70
     1
102
RTVSPost2010Prop50
 90
       50
102
RTVSPost2010PropOp50
 70
     1
102
RTVSPost2010Prop51ColorIndex
 90
      256
102
RTVSPost2010Prop51ColorRGB
 90
-16777216
102
RTVSPost2010PropOp51
 70
     0
102
RTVSPost2010Prop52
140
1.0
102
RTVSPost2010PropOp52
 70
     0
102
RTVSPost2010Prop53
 90
        2
102
RTVSPost2010PropOp53
 70
     1
102
RTVSPost2010Prop54
  1
strokes_ogs.tif
102
RTVSPost2010PropOp54
 70
     1
102
RTVSPost2010Prop55
280
     0
102
RTVSPost2010PropOp55
 70
     1
102
RTVSPost2010Prop56
140
1.0
102
RTVSPost2010PropOp56
 70
     1
102
RTVSPost2010Prop57
140
1.0
102
RTVSPost2010PropOp57
 70
     1
102
RTVSPropertyOp0
 70
     1
102
RTVSPropertyOp1
 70
     1
102
RTVSPropertyOp2
 70
     1
102
RTVSPropertyOp3
 70
     1
102
RTVSPropertyOp4
 70
     1
102
RTVSPropertyOp5
 70
     1
102
RTVSPropertyOp6
 70
     1
102
RTVSPropertyOp7
 70
     1
102
RTVSPropertyOp8
 70
     1
102
RTVSPropertyOp9
 70
     1
102
RTVSPropertyOp10
 70
     1
102
RTVSPropertyOp11
 70
     1
102
RTVSPropertyOp12
 70
     1
102
RTVSPropertyOp13
 70
     1
102
RTVSPropertyOp14
 70
     1
102
RTVSPropertyOp15
 70
     1
102
RTVSPropertyOp16
 70
     1
102
RTVSPropertyOp17
 70
     1
102
RTVSPropertyOp18
 70
     1
102
RTVSPropertyOp19
 70
     1
102
RTVSPropertyOp20
 70
     1
102
RTVSPropertyOp21
 70
     1
102
RTVSPropertyOp22
 70
     1
102
RTVSPropertyOp23
 70
     1
102
RTVSPropertyOp24
 70
     1
102
RTVSPropertyOp25
 70
     1
102
RTVSPropertyOp26
 70
     1
102
RTVSPropertyOp27
 70
     1
102
RTVSPropertyOp28
 70
     1
102
RTVSPropertyOp29
 70
     1
102
RTVSPropertyOp30
 70
     1
102
RTVSPropertyOp31
 70
     1
102
RTVSPropertyOp32
 70
     1
102
RTVSPropertyOp33
 70
     1
102
RTVSPropertyOp34
 70
     1
102
RTVSPropertyOp35
 70
     1
102
RTVSPropertyOp36
 70
     1
102
RTVSPropertyOp37
 70
     1
102
RTVSPropertyOp38
 70
     1
102
RTVSPropertyOp39
 70
     1
102
RTVSPropertyOp40
 70
     1
102
RTVSPropertyOp41
 70
     1
102
RTVSPropertyOp42
 70
     1
102
RTVSPropertyOp43
 70
     1
102
RTVSPropertyOp44
 70
     1
102
RTVSPropertyOp45
 70
     1
102
RTVSPropertyOp46
 70
     1
102
RTVSPropertyOp47
 70
     1
102
RTVSPropertyOp48
 70
     1
102
RTVSPropertyOp49
 70
     1
102
RTVSPropertyOp50
 70
     1
102
RTVSPropertyOp51
 70
     0
102
RTVSPropertyOp52
 70
     0
102
RTVSPropertyOp53
 70
     1
102
RTVSPropertyOp54
 70
     1
102
RTVSPropertyOp55
 70
     1
102
RTVSPropertyOp56
 70
     1
102
RTVSPropertyOp57
 70
     1
102
RTVSPropertyOp58
 70
     1
102
RTVSPropertyOp59
 70
     1
102
RTVSPropertyOp60
 70
     1
102
RTVSPropertyOp61
 70
     1
102
RTVSPropertyOp62
 70
     1
  0
XRECORD
  5
47C
102
{ACAD_REACTORS
330
47B
102
}
330
47B
100
AcDbXrecord
280
     1
102
RTVSPost2010Prop28
280
     0
102
RTVSPost2010PropOp28
 70
     1
102
RTVSPost2010Prop29
280
     1
102
RTVSPost2010PropOp29
 70
     1
102
RTVSPost2010Prop30
280
     1
102
RTVSPost2010PropOp30
 70
     1
102
RTVSPost2010Prop31
280
     0
102
RTVSPost2010PropOp31
 70
     1
102
RTVSPost2010Prop32
280
     0
102
RTVSPost2010PropOp32
 70
     1
102
RTVSPost2010Prop33
280
     0
102
RTVSPost2010PropOp33
 70
     1
102
RTVSPost2010Prop34
280
     0
102
RTVSPost2010PropOp34
 70
     1
102
RTVSPost2010Prop35
280
     0
102
RTVSPost2010PropOp35
 70
     1
102
RTVSPost2010Prop36
280
     0
102
RTVSPost2010PropOp36
 70
     1
102
RTVSPost2010Prop37
 90
       50
102
RTVSPost2010PropOp37
 70
     1
102
RTVSPost2010Prop38
140
0.0
102
RTVSPost2010PropOp38
 70
     1
102
RTVSPost2010Prop39
140
1.0
102
RTVSPost2010PropOp39
 70
     1
102
RTVSPost2010Prop40
 90
        0
102
RTVSPost2010PropOp40
 70
     1
102
RTVSPost2010Prop41ColorIndex
 90
       18
102
RTVSPost2010Prop41ColorRGB
 90
        0
102
RTVSPost2010PropOp41
 70
     1
102
RTVSPost2010Prop42
 90
       50
102
RTVSPost2010PropOp42
 70
     1
102
RTVSPost2010Prop43
 90
        3
102
RTVSPost2010PropOp43
 70
     1
102
RTVSPost2010Prop44ColorIndex
 90
        5
102
RTVSPost2010Prop44ColorRGB
 90
      255
102
RTVSPost2010PropOp44
 70
     1
102
RTVSPost2010Prop45
280
     0
102
RTVSPost2010PropOp45
 70
     1
102
RTVSPost2010Prop46
 90
       50
102
RTVSPost2010PropOp46
 70
     1
102
RTVSPost2010Prop47
 90
       50
102
RTVSPost2010PropOp47
 70
     1
102
RTVSPost2010Prop48
 90
       50
102
RTVSPost2010PropOp48
 70
     1
102
RTVSPost2010Prop49
280
     0
102
RTVSPost2010PropOp49
 70
     1
102
RTVSPost2010Prop50
 90
       50
102
RTVSPost2010PropOp50
 70
     1
102
RTVSPost2010Prop51ColorIndex
 90
      256
102
RTVSPost2010Prop51ColorRGB
 90
-16777216
102
RTVSPost2010PropOp51
 70
     0
102
RTVSPost2010Prop52
140
1.0
102
RTVSPost2010PropOp52
 70
     0
102
RTVSPost2010Prop53
 90
        2
102
RTVSPost2010PropOp53
 70
     1
102
RTVSPost2010Prop54
  1
strokes_ogs.tif
102
RTVSPost2010PropOp54
 70
     1
102
RTVSPost2010Prop55
280
     0
102
RTVSPost2010PropOp55
 70
     1
102
RTVSPost2010Prop56
140
1.0
102
RTVSPost2010PropOp56
 70
     1
102
RTVSPost2010Prop57
140
1.0
102
RTVSPost2010PropOp57
 70
     1
102
RTVSPropertyOp0
 70
     1
102
RTVSPropertyOp1
 70
     1
102
RTVSPropertyOp2
 70
     1
102
RTVSPropertyOp3
 70
     1
102
RTVSPropertyOp4
 70
     1
102
RTVSPropertyOp5
 70
     1
102
RTVSPropertyOp6
 70
     1
102
RTVSPropertyOp7
 70
     1
102
RTVSPropertyOp8
 70
     1
102
RTVSPropertyOp9
 70
     1
102
RTVSPropertyOp10
 70
     1
102
RTVSPropertyOp11
 70
     1
102
RTVSPropertyOp12
 70
     1
102
RTVSPropertyOp13
 70
     1
102
RTVSPropertyOp14
 70
     1
102
RTVSPropertyOp15
 70
     1
102
RTVSPropertyOp16
 70
     1
102
RTVSPropertyOp17
 70
     1
102
RTVSPropertyOp18
 70
     1
102
RTVSPropertyOp19
 70
     1
102
RTVSPropertyOp20
 70
     1
102
RTVSPropertyOp21
 70
     1
102
RTVSPropertyOp22
 70
     1
102
RTVSPropertyOp23
 70
     1
102
RTVSPropertyOp24
 70
     1
102
RTVSPropertyOp25
 70
     1
102
RTVSPropertyOp26
 70
     1
102
RTVSPropertyOp27
 70
     1
102
RTVSPropertyOp28
 70
     1
102
RTVSPropertyOp29
 70
     1
102
RTVSPropertyOp30
 70
     1
102
RTVSPropertyOp31
 70
     1
102
RTVSPropertyOp32
 70
     1
102
RTVSPropertyOp33
 70
     1
102
RTVSPropertyOp34
 70
     1
102
RTVSPropertyOp35
 70
     1
102
RTVSPropertyOp36
 70
     1
102
RTVSPropertyOp37
 70
     1
102
RTVSPropertyOp38
 70
     1
102
RTVSPropertyOp39
 70
     1
102
RTVSPropertyOp40
 70
     1
102
RTVSPropertyOp41
 70
     1
102
RTVSPropertyOp42
 70
     1
102
RTVSPropertyOp43
 70
     1
102
RTVSPropertyOp44
 70
     1
102
RTVSPropertyOp45
 70
     1
102
RTVSPropertyOp46
 70
     1
102
RTVSPropertyOp47
 70
     1
102
RTVSPropertyOp48
 70
     1
102
RTVSPropertyOp49
 70
     1
102
RTVSPropertyOp50
 70
     1
102
RTVSPropertyOp51
 70
     0
102
RTVSPropertyOp52
 70
     0
102
RTVSPropertyOp53
 70
     1
102
RTVSPropertyOp54
 70
     1
102
RTVSPropertyOp55
 70
     1
102
RTVSPropertyOp56
 70
     1
102
RTVSPropertyOp57
 70
     1
102
RTVSPropertyOp58
 70
     1
102
RTVSPropertyOp59
 70
     1
102
RTVSPropertyOp60
 70
     1
102
RTVSPropertyOp61
 70
     1
102
RTVSPropertyOp62
 70
     1
  0
XRECORD
  5
47E
102
{ACAD_REACTORS
330
47D
102
}
330
47D
100
AcDbXrecord
280
     1
102
RTVSPost2010Prop28
280
     0
102
RTVSPost2010PropOp28
 70
     1
102
RTVSPost2010Prop29
280
     1
102
RTVSPost2010PropOp29
 70
     1
102
RTVSPost2010Prop30
280
     1
102
RTVSPost2010PropOp30
 70
     1
102
RTVSPost2010Prop31
280
     0
102
RTVSPost2010PropOp31
 70
     1
102
RTVSPost2010Prop32
280
     0
102
RTVSPost2010PropOp32
 70
     1
102
RTVSPost2010Prop33
280
     0
102
RTVSPost2010PropOp33
 70
     1
102
RTVSPost2010Prop34
280
     0
102
RTVSPost2010PropOp34
 70
     1
102
RTVSPost2010Prop35
280
     0
102
RTVSPost2010PropOp35
 70
     1
102
RTVSPost2010Prop36
280
     0
102
RTVSPost2010PropOp36
 70
     1
102
RTVSPost2010Prop37
 90
       50
102
RTVSPost2010PropOp37
 70
     1
102
RTVSPost2010Prop38
140
0.0
102
RTVSPost2010PropOp38
 70
     1
102
RTVSPost2010Prop39
140
1.0
102
RTVSPost2010PropOp39
 70
     1
102
RTVSPost2010Prop40
 90
        0
102
RTVSPost2010PropOp40
 70
     1
102
RTVSPost2010Prop41ColorIndex
 90
       18
102
RTVSPost2010Prop41ColorRGB
 90
        0
102
RTVSPost2010PropOp41
 70
     1
102
RTVSPost2010Prop42
 90
       50
102
RTVSPost2010PropOp42
 70
     1
102
RTVSPost2010Prop43
 90
        3
102
RTVSPost2010PropOp43
 70
     1
102
RTVSPost2010Prop44ColorIndex
 90
        5
102
RTVSPost2010Prop44ColorRGB
 90
      255
102
RTVSPost2010PropOp44
 70
     1
102
RTVSPost2010Prop45
280
     0
102
RTVSPost2010PropOp45
 70
     1
102
RTVSPost2010Prop46
 90
       50
102
RTVSPost2010PropOp46
 70
     1
102
RTVSPost2010Prop47
 90
       50
102
RTVSPost2010PropOp47
 70
     1
102
RTVSPost2010Prop48
 90
       50
102
RTVSPost2010PropOp48
 70
     1
102
RTVSPost2010Prop49
280
     0
102
RTVSPost2010PropOp49
 70
     1
102
RTVSPost2010Prop50
 90
       50
102
RTVSPost2010PropOp50
 70
     1
102
RTVSPost2010Prop51ColorIndex
 90
      256
102
RTVSPost2010Prop51ColorRGB
 90
-16777216
102
RTVSPost2010PropOp51
 70
     0
102
RTVSPost2010Prop52
140
1.0
102
RTVSPost2010PropOp52
 70
     0
102
RTVSPost2010Prop53
 90
        2
102
RTVSPost2010PropOp53
 70
     1
102
RTVSPost2010Prop54
  1
strokes_ogs.tif
102
RTVSPost2010PropOp54
 70
     1
102
RTVSPost2010Prop55
280
     0
102
RTVSPost2010PropOp55
 70
     1
102
RTVSPost2010Prop56
140
1.0
102
RTVSPost2010PropOp56
 70
     1
102
RTVSPost2010Prop57
140
1.0
102
RTVSPost2010PropOp57
 70
     1
102
RTVSPropertyOp0
 70
     1
102
RTVSPropertyOp1
 70
     1
102
RTVSPropertyOp2
 70
     1
102
RTVSPropertyOp3
 70
     1
102
RTVSPropertyOp4
 70
     1
102
RTVSPropertyOp5
 70
     1
102
RTVSPropertyOp6
 70
     1
102
RTVSPropertyOp7
 70
     1
102
RTVSPropertyOp8
 70
     1
102
RTVSPropertyOp9
 70
     1
102
RTVSPropertyOp10
 70
     1
102
RTVSPropertyOp11
 70
     1
102
RTVSPropertyOp12
 70
     1
102
RTVSPropertyOp13
 70
     1
102
RTVSPropertyOp14
 70
     1
102
RTVSPropertyOp15
 70
     1
102
RTVSPropertyOp16
 70
     1
102
RTVSPropertyOp17
 70
     1
102
RTVSPropertyOp18
 70
     1
102
RTVSPropertyOp19
 70
     1
102
RTVSPropertyOp20
 70
     1
102
RTVSPropertyOp21
 70
     1
102
RTVSPropertyOp22
 70
     1
102
RTVSPropertyOp23
 70
     1
102
RTVSPropertyOp24
 70
     1
102
RTVSPropertyOp25
 70
     1
102
RTVSPropertyOp26
 70
     1
102
RTVSPropertyOp27
 70
     1
102
RTVSPropertyOp28
 70
     1
102
RTVSPropertyOp29
 70
     1
102
RTVSPropertyOp30
 70
     1
102
RTVSPropertyOp31
 70
     1
102
RTVSPropertyOp32
 70
     1
102
RTVSPropertyOp33
 70
     1
102
RTVSPropertyOp34
 70
     1
102
RTVSPropertyOp35
 70
     1
102
RTVSPropertyOp36
 70
     1
102
RTVSPropertyOp37
 70
     1
102
RTVSPropertyOp38
 70
     1
102
RTVSPropertyOp39
 70
     1
102
RTVSPropertyOp40
 70
     1
102
RTVSPropertyOp41
 70
     1
102
RTVSPropertyOp42
 70
     1
102
RTVSPropertyOp43
 70
     1
102
RTVSPropertyOp44
 70
     1
102
RTVSPropertyOp45
 70
     1
102
RTVSPropertyOp46
 70
     1
102
RTVSPropertyOp47
 70
     1
102
RTVSPropertyOp48
 70
     1
102
RTVSPropertyOp49
 70
     1
102
RTVSPropertyOp50
 70
     1
102
RTVSPropertyOp51
 70
     0
102
RTVSPropertyOp52
 70
     0
102
RTVSPropertyOp53
 70
     1
102
RTVSPropertyOp54
 70
     1
102
RTVSPropertyOp55
 70
     1
102
RTVSPropertyOp56
 70
     1
102
RTVSPropertyOp57
 70
     1
102
RTVSPropertyOp58
 70
     1
102
RTVSPropertyOp59
 70
     1
102
RTVSPropertyOp60
 70
     1
102
RTVSPropertyOp61
 70
     1
102
RTVSPropertyOp62
 70
     1
  0
XRECORD
  5
474
102
{ACAD_REACTORS
330
473
102
}
330
473
100
AcDbXrecord
280
     1
102
RTVSPost2010Prop28
280
     0
102
RTVSPost2010PropOp28
 70
     1
102
RTVSPost2010Prop29
280
     1
102
RTVSPost2010PropOp29
 70
     1
102
RTVSPost2010Prop30
280
     1
102
RTVSPost2010PropOp30
 70
     1
102
RTVSPost2010Prop31
280
     0
102
RTVSPost2010PropOp31
 70
     1
102
RTVSPost2010Prop32
280
     0
102
RTVSPost2010PropOp32
 70
     1
102
RTVSPost2010Prop33
280
     0
102
RTVSPost2010PropOp33
 70
     1
102
RTVSPost2010Prop34
280
     0
102
RTVSPost2010PropOp34
 70
     1
102
RTVSPost2010Prop35
280
     0
102
RTVSPost2010PropOp35
 70
     1
102
RTVSPost2010Prop36
280
     0
102
RTVSPost2010PropOp36
 70
     1
102
RTVSPost2010Prop37
 90
       50
102
RTVSPost2010PropOp37
 70
     1
102
RTVSPost2010Prop38
140
0.0
102
RTVSPost2010PropOp38
 70
     1
102
RTVSPost2010Prop39
140
1.0
102
RTVSPost2010PropOp39
 70
     1
102
RTVSPost2010Prop40
 90
        0
102
RTVSPost2010PropOp40
 70
     1
102
RTVSPost2010Prop41ColorIndex
 90
       18
102
RTVSPost2010Prop41ColorRGB
 90
        0
102
RTVSPost2010PropOp41
 70
     1
102
RTVSPost2010Prop42
 90
       50
102
RTVSPost2010PropOp42
 70
     1
102
RTVSPost2010Prop43
 90
        3
102
RTVSPost2010PropOp43
 70
     1
102
RTVSPost2010Prop44ColorIndex
 90
        5
102
RTVSPost2010Prop44ColorRGB
 90
      255
102
RTVSPost2010PropOp44
 70
     1
102
RTVSPost2010Prop45
280
     0
102
RTVSPost2010PropOp45
 70
     1
102
RTVSPost2010Prop46
 90
       50
102
RTVSPost2010PropOp46
 70
     1
102
RTVSPost2010Prop47
 90
       50
102
RTVSPost2010PropOp47
 70
     1
102
RTVSPost2010Prop48
 90
       50
102
RTVSPost2010PropOp48
 70
     1
102
RTVSPost2010Prop49
280
     0
102
RTVSPost2010PropOp49
 70
     1
102
RTVSPost2010Prop50
 90
       50
102
RTVSPost2010PropOp50
 70
     1
102
RTVSPost2010Prop51ColorIndex
 90
      256
102
RTVSPost2010Prop51ColorRGB
 90
-16777216
102
RTVSPost2010PropOp51
 70
     0
102
RTVSPost2010Prop52
140
1.0
102
RTVSPost2010PropOp52
 70
     0
102
RTVSPost2010Prop53
 90
        2
102
RTVSPost2010PropOp53
 70
     1
102
RTVSPost2010Prop54
  1
strokes_ogs.tif
102
RTVSPost2010PropOp54
 70
     1
102
RTVSPost2010Prop55
280
     0
102
RTVSPost2010PropOp55
 70
     1
102
RTVSPost2010Prop56
140
1.0
102
RTVSPost2010PropOp56
 70
     1
102
RTVSPost2010Prop57
140
1.0
102
RTVSPost2010PropOp57
 70
     1
102
RTVSPropertyOp0
 70
     1
102
RTVSPropertyOp1
 70
     1
102
RTVSPropertyOp2
 70
     1
102
RTVSPropertyOp3
 70
     1
102
RTVSPropertyOp4
 70
     1
102
RTVSPropertyOp5
 70
     1
102
RTVSPropertyOp6
 70
     1
102
RTVSPropertyOp7
 70
     1
102
RTVSPropertyOp8
 70
     1
102
RTVSPropertyOp9
 70
     1
102
RTVSPropertyOp10
 70
     1
102
RTVSPropertyOp11
 70
     1
102
RTVSPropertyOp12
 70
     1
102
RTVSPropertyOp13
 70
     1
102
RTVSPropertyOp14
 70
     1
102
RTVSPropertyOp15
 70
     1
102
RTVSPropertyOp16
 70
     1
102
RTVSPropertyOp17
 70
     1
102
RTVSPropertyOp18
 70
     1
102
RTVSPropertyOp19
 70
     1
102
RTVSPropertyOp20
 70
     1
102
RTVSPropertyOp21
 70
     1
102
RTVSPropertyOp22
 70
     1
102
RTVSPropertyOp23
 70
     1
102
RTVSPropertyOp24
 70
     1
102
RTVSPropertyOp25
 70
     1
102
RTVSPropertyOp26
 70
     1
102
RTVSPropertyOp27
 70
     1
102
RTVSPropertyOp28
 70
     1
102
RTVSPropertyOp29
 70
     1
102
RTVSPropertyOp30
 70
     1
102
RTVSPropertyOp31
 70
     1
102
RTVSPropertyOp32
 70
     1
102
RTVSPropertyOp33
 70
     1
102
RTVSPropertyOp34
 70
     1
102
RTVSPropertyOp35
 70
     1
102
RTVSPropertyOp36
 70
     1
102
RTVSPropertyOp37
 70
     1
102
RTVSPropertyOp38
 70
     1
102
RTVSPropertyOp39
 70
     1
102
RTVSPropertyOp40
 70
     1
102
RTVSPropertyOp41
 70
     1
102
RTVSPropertyOp42
 70
     1
102
RTVSPropertyOp43
 70
     1
102
RTVSPropertyOp44
 70
     1
102
RTVSPropertyOp45
 70
     1
102
RTVSPropertyOp46
 70
     1
102
RTVSPropertyOp47
 70
     1
102
RTVSPropertyOp48
 70
     1
102
RTVSPropertyOp49
 70
     1
102
RTVSPropertyOp50
 70
     1
102
RTVSPropertyOp51
 70
     0
102
RTVSPropertyOp52
 70
     0
102
RTVSPropertyOp53
 70
     1
102
RTVSPropertyOp54
 70
     1
102
RTVSPropertyOp55
 70
     1
102
RTVSPropertyOp56
 70
     1
102
RTVSPropertyOp57
 70
     1
102
RTVSPropertyOp58
 70
     1
102
RTVSPropertyOp59
 70
     1
102
RTVSPropertyOp60
 70
     1
102
RTVSPropertyOp61
 70
     1
102
RTVSPropertyOp62
 70
     1
  0
XRECORD
  5
468
102
{ACAD_REACTORS
330
467
102
}
330
467
100
AcDbXrecord
280
     1
102
RTVSPost2010Prop28
280
     0
102
RTVSPost2010PropOp28
 70
     1
102
RTVSPost2010Prop29
280
     1
102
RTVSPost2010PropOp29
 70
     1
102
RTVSPost2010Prop30
280
     1
102
RTVSPost2010PropOp30
 70
     1
102
RTVSPost2010Prop31
280
     0
102
RTVSPost2010PropOp31
 70
     1
102
RTVSPost2010Prop32
280
     0
102
RTVSPost2010PropOp32
 70
     1
102
RTVSPost2010Prop33
280
     0
102
RTVSPost2010PropOp33
 70
     1
102
RTVSPost2010Prop34
280
     0
102
RTVSPost2010PropOp34
 70
     1
102
RTVSPost2010Prop35
280
     0
102
RTVSPost2010PropOp35
 70
     1
102
RTVSPost2010Prop36
280
     0
102
RTVSPost2010PropOp36
 70
     1
102
RTVSPost2010Prop37
 90
       50
102
RTVSPost2010PropOp37
 70
     1
102
RTVSPost2010Prop38
140
0.0
102
RTVSPost2010PropOp38
 70
     1
102
RTVSPost2010Prop39
140
1.0
102
RTVSPost2010PropOp39
 70
     1
102
RTVSPost2010Prop40
 90
        0
102
RTVSPost2010PropOp40
 70
     1
102
RTVSPost2010Prop41ColorIndex
 90
       18
102
RTVSPost2010Prop41ColorRGB
 90
        0
102
RTVSPost2010PropOp41
 70
     1
102
RTVSPost2010Prop42
 90
       50
102
RTVSPost2010PropOp42
 70
     1
102
RTVSPost2010Prop43
 90
        3
102
RTVSPost2010PropOp43
 70
     1
102
RTVSPost2010Prop44ColorIndex
 90
        5
102
RTVSPost2010Prop44ColorRGB
 90
      255
102
RTVSPost2010PropOp44
 70
     1
102
RTVSPost2010Prop45
280
     0
102
RTVSPost2010PropOp45
 70
     1
102
RTVSPost2010Prop46
 90
       50
102
RTVSPost2010PropOp46
 70
     1
102
RTVSPost2010Prop47
 90
       50
102
RTVSPost2010PropOp47
 70
     1
102
RTVSPost2010Prop48
 90
       50
102
RTVSPost2010PropOp48
 70
     1
102
RTVSPost2010Prop49
280
     0
102
RTVSPost2010PropOp49
 70
     1
102
RTVSPost2010Prop50
 90
       50
102
RTVSPost2010PropOp50
 70
     1
102
RTVSPost2010Prop51ColorIndex
 90
      256
102
RTVSPost2010Prop51ColorRGB
 90
-16777216
102
RTVSPost2010PropOp51
 70
     0
102
RTVSPost2010Prop52
140
1.0
102
RTVSPost2010PropOp52
 70
     0
102
RTVSPost2010Prop53
 90
        2
102
RTVSPost2010PropOp53
 70
     1
102
RTVSPost2010Prop54
  1
strokes_ogs.tif
102
RTVSPost2010PropOp54
 70
     1
102
RTVSPost2010Prop55
280
     0
102
RTVSPost2010PropOp55
 70
     1
102
RTVSPost2010Prop56
140
1.0
102
RTVSPost2010PropOp56
 70
     1
102
RTVSPost2010Prop57
140
1.0
102
RTVSPost2010PropOp57
 70
     1
102
RTVSPropertyOp0
 70
     1
102
RTVSPropertyOp1
 70
     1
102
RTVSPropertyOp2
 70
     1
102
RTVSPropertyOp3
 70
     1
102
RTVSPropertyOp4
 70
     1
102
RTVSPropertyOp5
 70
     1
102
RTVSPropertyOp6
 70
     1
102
RTVSPropertyOp7
 70
     1
102
RTVSPropertyOp8
 70
     1
102
RTVSPropertyOp9
 70
     1
102
RTVSPropertyOp10
 70
     1
102
RTVSPropertyOp11
 70
     1
102
RTVSPropertyOp12
 70
     1
102
RTVSPropertyOp13
 70
     1
102
RTVSPropertyOp14
 70
     1
102
RTVSPropertyOp15
 70
     1
102
RTVSPropertyOp16
 70
     1
102
RTVSPropertyOp17
 70
     1
102
RTVSPropertyOp18
 70
     1
102
RTVSPropertyOp19
 70
     1
102
RTVSPropertyOp20
 70
     1
102
RTVSPropertyOp21
 70
     1
102
RTVSPropertyOp22
 70
     1
102
RTVSPropertyOp23
 70
     1
102
RTVSPropertyOp24
 70
     1
102
RTVSPropertyOp25
 70
     1
102
RTVSPropertyOp26
 70
     1
102
RTVSPropertyOp27
 70
     1
102
RTVSPropertyOp28
 70
     1
102
RTVSPropertyOp29
 70
     1
102
RTVSPropertyOp30
 70
     1
102
RTVSPropertyOp31
 70
     1
102
RTVSPropertyOp32
 70
     1
102
RTVSPropertyOp33
 70
     1
102
RTVSPropertyOp34
 70
     1
102
RTVSPropertyOp35
 70
     1
102
RTVSPropertyOp36
 70
     1
102
RTVSPropertyOp37
 70
     1
102
RTVSPropertyOp38
 70
     1
102
RTVSPropertyOp39
 70
     1
102
RTVSPropertyOp40
 70
     1
102
RTVSPropertyOp41
 70
     1
102
RTVSPropertyOp42
 70
     1
102
RTVSPropertyOp43
 70
     1
102
RTVSPropertyOp44
 70
     1
102
RTVSPropertyOp45
 70
     1
102
RTVSPropertyOp46
 70
     1
102
RTVSPropertyOp47
 70
     1
102
RTVSPropertyOp48
 70
     1
102
RTVSPropertyOp49
 70
     1
102
RTVSPropertyOp50
 70
     1
102
RTVSPropertyOp51
 70
     0
102
RTVSPropertyOp52
 70
     0
102
RTVSPropertyOp53
 70
     1
102
RTVSPropertyOp54
 70
     1
102
RTVSPropertyOp55
 70
     1
102
RTVSPropertyOp56
 70
     1
102
RTVSPropertyOp57
 70
     1
102
RTVSPropertyOp58
 70
     1
102
RTVSPropertyOp59
 70
     1
102
RTVSPropertyOp60
 70
     1
102
RTVSPropertyOp61
 70
     1
102
RTVSPropertyOp62
 70
     1
  0
XRECORD
  5
480
102
{ACAD_REACTORS
330
47F
102
}
330
47F
100
AcDbXrecord
280
     1
102
RTVSPost2010Prop28
280
     0
102
RTVSPost2010PropOp28
 70
     1
102
RTVSPost2010Prop29
280
     1
102
RTVSPost2010PropOp29
 70
     1
102
RTVSPost2010Prop30
280
     1
102
RTVSPost2010PropOp30
 70
     1
102
RTVSPost2010Prop31
280
     0
102
RTVSPost2010PropOp31
 70
     1
102
RTVSPost2010Prop32
280
     0
102
RTVSPost2010PropOp32
 70
     1
102
RTVSPost2010Prop33
280
     0
102
RTVSPost2010PropOp33
 70
     1
102
RTVSPost2010Prop34
280
     0
102
RTVSPost2010PropOp34
 70
     1
102
RTVSPost2010Prop35
280
     0
102
RTVSPost2010PropOp35
 70
     1
102
RTVSPost2010Prop36
280
     0
102
RTVSPost2010PropOp36
 70
     1
102
RTVSPost2010Prop37
 90
       50
102
RTVSPost2010PropOp37
 70
     1
102
RTVSPost2010Prop38
140
0.0
102
RTVSPost2010PropOp38
 70
     1
102
RTVSPost2010Prop39
140
1.0
102
RTVSPost2010PropOp39
 70
     1
102
RTVSPost2010Prop40
 90
        0
102
RTVSPost2010PropOp40
 70
     1
102
RTVSPost2010Prop41ColorIndex
 90
       18
102
RTVSPost2010Prop41ColorRGB
 90
        0
102
RTVSPost2010PropOp41
 70
     1
102
RTVSPost2010Prop42
 90
       50
102
RTVSPost2010PropOp42
 70
     1
102
RTVSPost2010Prop43
 90
        3
102
RTVSPost2010PropOp43
 70
     1
102
RTVSPost2010Prop44ColorIndex
 90
        5
102
RTVSPost2010Prop44ColorRGB
 90
      255
102
RTVSPost2010PropOp44
 70
     1
102
RTVSPost2010Prop45
280
     0
102
RTVSPost2010PropOp45
 70
     1
102
RTVSPost2010Prop46
 90
       50
102
RTVSPost2010PropOp46
 70
     1
102
RTVSPost2010Prop47
 90
       50
102
RTVSPost2010PropOp47
 70
     1
102
RTVSPost2010Prop48
 90
       50
102
RTVSPost2010PropOp48
 70
     1
102
RTVSPost2010Prop49
280
     0
102
RTVSPost2010PropOp49
 70
     1
102
RTVSPost2010Prop50
 90
       50
102
RTVSPost2010PropOp50
 70
     1
102
RTVSPost2010Prop51ColorIndex
 90
      256
102
RTVSPost2010Prop51ColorRGB
 90
-16777216
102
RTVSPost2010PropOp51
 70
     0
102
RTVSPost2010Prop52
140
1.0
102
RTVSPost2010PropOp52
 70
     0
102
RTVSPost2010Prop53
 90
        2
102
RTVSPost2010PropOp53
 70
     1
102
RTVSPost2010Prop54
  1
strokes_ogs.tif
102
RTVSPost2010PropOp54
 70
     1
102
RTVSPost2010Prop55
280
     0
102
RTVSPost2010PropOp55
 70
     1
102
RTVSPost2010Prop56
140
1.0
102
RTVSPost2010PropOp56
 70
     1
102
RTVSPost2010Prop57
140
1.0
102
RTVSPost2010PropOp57
 70
     1
102
RTVSPropertyOp0
 70
     1
102
RTVSPropertyOp1
 70
     1
102
RTVSPropertyOp2
 70
     1
102
RTVSPropertyOp3
 70
     1
102
RTVSPropertyOp4
 70
     1
102
RTVSPropertyOp5
 70
     1
102
RTVSPropertyOp6
 70
     1
102
RTVSPropertyOp7
 70
     1
102
RTVSPropertyOp8
 70
     1
102
RTVSPropertyOp9
 70
     1
102
RTVSPropertyOp10
 70
     1
102
RTVSPropertyOp11
 70
     1
102
RTVSPropertyOp12
 70
     1
102
RTVSPropertyOp13
 70
     1
102
RTVSPropertyOp14
 70
     1
102
RTVSPropertyOp15
 70
     1
102
RTVSPropertyOp16
 70
     1
102
RTVSPropertyOp17
 70
     1
102
RTVSPropertyOp18
 70
     1
102
RTVSPropertyOp19
 70
     1
102
RTVSPropertyOp20
 70
     1
102
RTVSPropertyOp21
 70
     1
102
RTVSPropertyOp22
 70
     1
102
RTVSPropertyOp23
 70
     1
102
RTVSPropertyOp24
 70
     1
102
RTVSPropertyOp25
 70
     1
102
RTVSPropertyOp26
 70
     1
102
RTVSPropertyOp27
 70
     1
102
RTVSPropertyOp28
 70
     1
102
RTVSPropertyOp29
 70
     1
102
RTVSPropertyOp30
 70
     1
102
RTVSPropertyOp31
 70
     1
102
RTVSPropertyOp32
 70
     1
102
RTVSPropertyOp33
 70
     1
102
RTVSPropertyOp34
 70
     1
102
RTVSPropertyOp35
 70
     1
102
RTVSPropertyOp36
 70
     1
102
RTVSPropertyOp37
 70
     1
102
RTVSPropertyOp38
 70
     1
102
RTVSPropertyOp39
 70
     1
102
RTVSPropertyOp40
 70
     1
102
RTVSPropertyOp41
 70
     1
102
RTVSPropertyOp42
 70
     1
102
RTVSPropertyOp43
 70
     1
102
RTVSPropertyOp44
 70
     1
102
RTVSPropertyOp45
 70
     1
102
RTVSPropertyOp46
 70
     1
102
RTVSPropertyOp47
 70
     1
102
RTVSPropertyOp48
 70
     1
102
RTVSPropertyOp49
 70
     1
102
RTVSPropertyOp50
 70
     1
102
RTVSPropertyOp51
 70
     0
102
RTVSPropertyOp52
 70
     0
102
RTVSPropertyOp53
 70
     1
102
RTVSPropertyOp54
 70
     1
102
RTVSPropertyOp55
 70
     1
102
RTVSPropertyOp56
 70
     1
102
RTVSPropertyOp57
 70
     1
102
RTVSPropertyOp58
 70
     1
102
RTVSPropertyOp59
 70
     1
102
RTVSPropertyOp60
 70
     1
102
RTVSPropertyOp61
 70
     1
102
RTVSPropertyOp62
 70
     1
  0
ENDSEC
  0
EOF
