  0
SECTION
  2
HEADER
  9
$ACADVER
  1
AC1014
  9
$HANDSEED
  5
FFFF
  9
$MEASUREMENT
 70
     1
  0
ENDSEC
  0
SECTION
  2
TABLES
  0
TABLE
  2
VPORT
  5
8
330
0
100
AcDbSymbolTable
 70
     4
  0
VPORT
  5
2E
330
8
100
AcDbSymbolTableRecord
100
AcDbViewportTableRecord
  2
*ACTIVE
 70
     0
 10
0.0
 20
0.0
 11
1.0
 21
1.0
 12
210.0
 22
148.5
 13
0.0
 23
0.0
 14
10.0
 24
10.0
 15
10.0
 25
10.0
 16
0.0
 26
0.0
 36
1.0
 17
0.0
 27
0.0
 37
0.0
 40
341.0
 41
1.24
 42
50.0
 43
0.0
 44
0.0
 50
0.0
 51
0.0
 71
     0
 72
   100
 73
     1
 74
     3
 75
     0
 76
     0
 77
     0
 78
     0
  0
ENDTAB
  0
TABLE
  2
LTYPE
  5
5
330
0
100
AcDbSymbolTable
 70
     1
  0
LTYPE
  5
14
330
5
100
AcDbSymbolTableRecord
100
AcDbLinetypeTableRecord
  2
BYBLOCK
 70
     0
  3

 72
    65
 73
     0
 40
0.0
  0
LTYPE
  5
15
330
5
100
AcDbSymbolTableRecord
100
AcDbLinetypeTableRecord
  2
BYLAYER
 70
     0
  3

 72
    65
 73
     0
 40
0.0
  0
LTYPE
  5
16
330
5
100
AcDbSymbolTableRecord
100
AcDbLinetypeTableRecord
  2
CONTINUOUS
 70
     0
  3
Solid line
 72
    65
 73
     0
 40
0.0
  0
ENDTAB
  0
TABLE
  2
LAYER
  5
2
100
AcDbSymbolTable
 70
2
  0
LAYER
  5
50
100
AcDbSymbolTableRecord
100
AcDbLayerTableRecord
  2
0
 70
0
  6
CONTINUOUS
  0
LAYER
  5
51
100
AcDbSymbolTableRecord
100
AcDbLayerTableRecord
  2
Layer_1
 70
0
  6
CONTINUOUS
  0
ENDTAB
  0
TABLE
  2
STYLE
  5
3
330
0
100
AcDbSymbolTable
 70
     1
  0
STYLE
  5
11
330
3
100
AcDbSymbolTableRecord
100
AcDbTextStyleTableRecord
  2
STANDARD
 70
     0
 40
0.0
 41
1.0
 50
0.0
 71
     0
 42
2.5
  3
txt
  4

  0
ENDTAB
  0
TABLE
  2
VIEW
  5
6
330
0
100
AcDbSymbolTable
 70
     0
  0
ENDTAB
  0
TABLE
  2
UCS
  5
7
330
0
100
AcDbSymbolTable
 70
     0
  0
ENDTAB
  0
TABLE
  2
APPID
  5
9
330
0
100
AcDbSymbolTable
 70
     2
  0
APPID
  5
12
330
9
100
AcDbSymbolTableRecord
100
AcDbRegAppTableRecord
  2
ACAD
 70
     0
  0
ENDTAB
  0
TABLE
  2
DIMSTYLE
  5
A
330
0
100
AcDbSymbolTable
 70
     1
  0
DIMSTYLE
105
27
330
A
100
AcDbSymbolTableRecord
100
AcDbDimStyleTableRecord
  2
ISO-25
 70
     0
  3

  4

  5

  6

  7

 40
1.0
 41
2.5
 42
0.625
 43
3.75
 44
1.25
 45
0.0
 46
0.0
 47
0.0
 48
0.0
140
2.5
141
2.5
142
0.0
143
0.03937007874016
144
1.0
145
0.0
146
1.0
147
0.625
 71
     0
 72
     0
 73
     0
 74
     0
 75
     0
 76
     0
 77
     1
 78
     8
170
     0
171
     3
172
     1
173
     0
174
     0
175
     0
176
     0
177
     0
178
     0
270
     2
271
     2
272
     2
273
     2
274
     3
340
11
275
     0
280
     0
281
     0
282
     0
283
     0
284
     8
285
     0
286
     0
287
     3
288
     0
  0
ENDTAB
  0
TABLE
  2
BLOCK_RECORD
  5
1
330
0
100
AcDbSymbolTable
 70
     1
  0
BLOCK_RECORD
  5
1F
330
1
100
AcDbSymbolTableRecord
100
AcDbBlockTableRecord
  2
*MODEL_SPACE
  0
BLOCK_RECORD
  5
1B
330
1
100
AcDbSymbolTableRecord
100
AcDbBlockTableRecord
  2
*PAPER_SPACE
  0
ENDTAB
  0
ENDSEC
  0
SECTION
  2
BLOCKS
  0
BLOCK
  5
20
330
1F
100
AcDbEntity
  8
0
100
AcDbBlockBegin
  2
*MODEL_SPACE
 70
     0
 10
0.0
 20
0.0
 30
0.0
  3
*MODEL_SPACE
  1

  0
ENDBLK
  5
21
330
1F
100
AcDbEntity
  8
0
100
AcDbBlockEnd
  0
BLOCK
  5
1C
330
1B
100
AcDbEntity
 67
     1
  8
0
100
AcDbBlockBegin
  2
*PAPER_SPACE
  1

  0
ENDBLK
  5
1D
330
1B
100
AcDbEntity
 67
     1
  8
0
100
AcDbBlockEnd
  0
ENDSEC
  0
SECTION
  2
ENTITIES
  0
SPLINE
  5
100
100
AcDbEntity
  8
Layer_1
 62
1
100
AcDbSpline
 70
8
 71
3
 72
8
 73
4
 74
0
 40
0
 40
0
 40
0
 40
0
 40
1
 40
1
 40
1
 40
1
 10
529.546876
 20
1060.183451
 30
0.0
 10
531.200976
 20
1076.396644
 30
0.0
 10
532.855446
 20
1092.609360
 30
0.0
 10
534.509688
 20
1108.822677
 30
0.0
  0
SPLINE
  5
101
100
AcDbEntity
  8
Layer_1
 62
1
100
AcDbSpline
 70
8
 71
3
 72
8
 73
4
 74
0
 40
0
 40
0
 40
0
 40
0
 40
1
 40
1
 40
1
 40
1
 10
534.509688
 20
1108.822677
 30
0.0
 10
529.082674
 20
1110.503849
 30
0.0
 10
523.654498
 20
1112.186591
 30
0.0
 10
518.227455
 20
1113.867850
 30
0.0
  0
SPLINE
  5
102
100
AcDbEntity
  8
Layer_1
 62
1
100
AcDbSpline
 70
8
 71
3
 72
8
 73
4
 74
0
 40
0
 40
0
 40
0
 40
0
 40
1
 40
1
 40
1
 40
1
 10
518.227455
 20
1113.867850
 30
0.0
 10
512.414476
 20
1115.042905
 30
0.0
 10
507.318520
 20
1117.337238
 30
0.0
 10
504.057005
 20
1122.499653
 30
0.0
  0
SPLINE
  5
103
100
AcDbEntity
  8
Layer_1
 62
1
100
AcDbSpline
 70
8
 71
3
 72
8
 73
4
 74
0
 40
0
 40
0
 40
0
 40
0
 40
1
 40
1
 40
1
 40
1
 10
504.057005
 20
1122.499653
 30
0.0
 10
479.947181
 20
1165.945238
 30
0.0
 10
456.622526
 20
1209.944069
 30
0.0
 10
432.814450
 20
1253.602261
 30
0.0
  0
SPLINE
  5
104
100
AcDbEntity
  8
Layer_1
 62
1
100
AcDbSpline
 70
8
 71
3
 72
8
 73
4
 74
0
 40
0
 40
0
 40
0
 40
0
 40
1
 40
1
 40
1
 40
1
 10
432.814450
 20
1253.602261
 30
0.0
 10
428.833616
 20
1259.472331
 30
0.0
 10
430.183162
 20
1269.057487
 30
0.0
 10
422.051329
 20
1271.231660
 30
0.0
  0
SPLINE
  5
105
100
AcDbEntity
  8
Layer_1
 62
1
100
AcDbSpline
 70
8
 71
3
 72
8
 73
4
 74
0
 40
0
 40
0
 40
0
 40
0
 40
1
 40
1
 40
1
 40
1
 10
422.051329
 20
1271.231660
 30
0.0
 10
418.728557
 20
1265.712406
 30
0.0
 10
415.052816
 20
1260.459836
 30
0.0
 10
410.494734
 20
1255.875392
 30
0.0
  0
SPLINE
  5
106
100
AcDbEntity
  8
Layer_1
 62
1
100
AcDbSpline
 70
8
 71
3
 72
8
 73
4
 74
0
 40
0
 40
0
 40
0
 40
0
 40
1
 40
1
 40
1
 40
1
 10
410.494734
 20
1255.875392
 30
0.0
 10
408.083046
 20
1251.375874
 30
0.0
 10
409.114176
 20
1244.890006
 30
0.0
 10
403.304655
 20
1242.617641
 30
0.0
  0
SPLINE
  5
107
100
AcDbEntity
  8
Layer_1
 62
1
100
AcDbSpline
 70
8
 71
3
 72
8
 73
4
 74
0
 40
0
 40
0
 40
0
 40
0
 40
1
 40
1
 40
1
 40
1
 10
403.304655
 20
1242.617641
 30
0.0
 10
394.142882
 20
1238.036854
 30
0.0
 10
394.969068
 20
1226.204872
 30
0.0
 10
388.011061
 20
1219.672290
 30
0.0
  0
SPLINE
  5
108
100
AcDbEntity
  8
Layer_1
 62
1
100
AcDbSpline
 70
8
 71
3
 72
8
 73
4
 74
0
 40
0
 40
0
 40
0
 40
0
 40
1
 40
1
 40
1
 40
1
 10
388.011061
 20
1219.672290
 30
0.0
 10
383.004879
 20
1215.653301
 30
0.0
 10
382.185043
 20
1209.640507
 30
0.0
 10
381.229654
 20
1203.691606
 30
0.0
  0
SPLINE
  5
109
100
AcDbEntity
  8
Layer_1
 62
1
100
AcDbSpline
 70
8
 71
3
 72
8
 73
4
 74
0
 40
0
 40
0
 40
0
 40
0
 40
1
 40
1
 40
1
 40
1
 10
381.229654
 20
1203.691606
 30
0.0
 10
381.966151
 20
1196.534721
 30
0.0
 10
372.351713
 20
1196.587417
 30
0.0
 10
370.532069
 20
1190.783849
 30
0.0
  0
SPLINE
  5
10a
100
AcDbEntity
  8
Layer_1
 62
1
100
AcDbSpline
 70
8
 71
3
 72
8
 73
4
 74
0
 40
0
 40
0
 40
0
 40
0
 40
1
 40
1
 40
1
 40
1
 10
370.532069
 20
1190.783849
 30
0.0
 10
366.068211
 20
1184.380838
 30
0.0
 10
366.811597
 20
1176.715247
 30
0.0
 10
366.456161
 20
1169.316312
 30
0.0
  0
SPLINE
  5
10b
100
AcDbEntity
  8
Layer_1
 62
1
100
AcDbSpline
 70
8
 71
3
 72
8
 73
4
 74
0
 40
0
 40
0
 40
0
 40
0
 40
1
 40
1
 40
1
 40
1
 10
366.456161
 20
1169.316312
 30
0.0
 10
358.608217
 20
1163.270693
 30
0.0
 10
353.788356
 20
1154.651811
 30
0.0
 10
348.233811
 20
1146.656976
 30
0.0
  0
SPLINE
  5
10c
100
AcDbEntity
  8
Layer_1
 62
1
100
AcDbSpline
 70
8
 71
3
 72
8
 73
4
 74
0
 40
0
 40
0
 40
0
 40
0
 40
1
 40
1
 40
1
 40
1
 10
348.233811
 20
1146.656976
 30
0.0
 10
346.062472
 20
1137.155953
 30
0.0
 10
347.698035
 20
1127.069235
 30
0.0
 10
349.882554
 20
1117.559534
 30
0.0
  0
SPLINE
  5
10d
100
AcDbEntity
  8
Layer_1
 62
1
100
AcDbSpline
 70
8
 71
3
 72
8
 73
4
 74
0
 40
0
 40
0
 40
0
 40
0
 40
1
 40
1
 40
1
 40
1
 10
349.882554
 20
1117.559534
 30
0.0
 10
344.305786
 20
1112.873426
 30
0.0
 10
336.258283
 20
1107.036247
 30
0.0
 10
336.460904
 20
1100.954588
 30
0.0
  0
SPLINE
  5
10e
100
AcDbEntity
  8
Layer_1
 62
1
100
AcDbSpline
 70
8
 71
3
 72
8
 73
4
 74
0
 40
0
 40
0
 40
0
 40
0
 40
1
 40
1
 40
1
 40
1
 10
336.460904
 20
1100.954588
 30
0.0
 10
331.978167
 20
1094.925781
 30
0.0
 10
328.731846
 20
1087.956850
 30
0.0
 10
327.846189
 20
1080.775939
 30
0.0
  0
SPLINE
  5
10f
100
AcDbEntity
  8
Layer_1
 62
1
100
AcDbSpline
 70
8
 71
3
 72
8
 73
4
 74
0
 40
0
 40
0
 40
0
 40
0
 40
1
 40
1
 40
1
 40
1
 10
327.846189
 20
1080.775939
 30
0.0
 10
326.960532
 20
1073.594971
 30
0.0
 10
328.416350
 20
1066.046108
 30
0.0
 10
331.299921
 20
1059.108789
 30
0.0
  0
SPLINE
  5
110
100
AcDbEntity
  8
Layer_1
 62
1
100
AcDbSpline
 70
8
 71
3
 72
8
 73
4
 74
0
 40
0
 40
0
 40
0
 40
0
 40
1
 40
1
 40
1
 40
1
 10
331.299921
 20
1059.108789
 30
0.0
 10
328.364362
 20
1053.414088
 30
0.0
 10
336.013795
 20
1045.641039
 30
0.0
 10
340.284869
 20
1039.740364
 30
0.0
  0
SPLINE
  5
111
100
AcDbEntity
  8
Layer_1
 62
1
100
AcDbSpline
 70
8
 71
3
 72
8
 73
4
 74
0
 40
0
 40
0
 40
0
 40
0
 40
1
 40
1
 40
1
 40
1
 10
340.284869
 20
1039.740364
 30
0.0
 10
335.855225
 20
1031.046412
 30
0.0
 10
331.817896
 20
1021.659335
 30
0.0
 10
331.615701
 20
1011.915445
 30
0.0
  0
SPLINE
  5
112
100
AcDbEntity
  8
Layer_1
 62
1
100
AcDbSpline
 70
8
 71
3
 72
8
 73
4
 74
0
 40
0
 40
0
 40
0
 40
0
 40
1
 40
1
 40
1
 40
1
 10
331.615701
 20
1011.915445
 30
0.0
 10
335.061298
 20
1002.810589
 30
0.0
 10
337.642583
 20
993.278976
 30
0.0
 10
343.786450
 20
985.507651
 30
0.0
  0
SPLINE
  5
113
100
AcDbEntity
  8
Layer_1
 62
1
100
AcDbSpline
 70
8
 71
3
 72
8
 73
4
 74
0
 40
0
 40
0
 40
0
 40
0
 40
1
 40
1
 40
1
 40
1
 10
343.786450
 20
985.507651
 30
0.0
 10
342.333496
 20
978.244132
 30
0.0
 10
339.749858
 20
970.988797
 30
0.0
 10
342.524211
 20
963.693139
 30
0.0
  0
SPLINE
  5
114
100
AcDbEntity
  8
Layer_1
 62
1
100
AcDbSpline
 70
8
 71
3
 72
8
 73
4
 74
0
 40
0
 40
0
 40
0
 40
0
 40
1
 40
1
 40
1
 40
1
 10
342.524211
 20
963.693139
 30
0.0
 10
342.879222
 20
957.621362
 30
0.0
 10
352.218359
 20
955.336510
 30
0.0
 10
349.765030
 20
948.572983
 30
0.0
  0
SPLINE
  5
115
100
AcDbEntity
  8
Layer_1
 62
1
100
AcDbSpline
 70
8
 71
3
 72
8
 73
4
 74
0
 40
0
 40
0
 40
0
 40
0
 40
1
 40
1
 40
1
 40
1
 10
349.765030
 20
948.572983
 30
0.0
 10
349.246318
 20
942.570264
 30
0.0
 10
348.580658
 20
936.538401
 30
0.0
 10
352.460381
 20
931.423499
 30
0.0
  0
SPLINE
  5
116
100
AcDbEntity
  8
Layer_1
 62
1
100
AcDbSpline
 70
8
 71
3
 72
8
 73
4
 74
0
 40
0
 40
0
 40
0
 40
0
 40
1
 40
1
 40
1
 40
1
 10
352.460381
 20
931.423499
 30
0.0
 10
357.622639
 20
923.396003
 30
0.0
 10
353.946387
 20
912.119394
 30
0.0
 10
361.720630
 20
905.449867
 30
0.0
  0
SPLINE
  5
117
100
AcDbEntity
  8
Layer_1
 62
1
100
AcDbSpline
 70
8
 71
3
 72
8
 73
4
 74
0
 40
0
 40
0
 40
0
 40
0
 40
1
 40
1
 40
1
 40
1
 10
361.720630
 20
905.449867
 30
0.0
 10
366.802809
 20
901.834192
 30
0.0
 10
364.227846
 20
895.793125
 30
0.0
 10
365.474013
 20
890.842513
 30
0.0
  0
SPLINE
  5
118
100
AcDbEntity
  8
Layer_1
 62
1
100
AcDbSpline
 70
8
 71
3
 72
8
 73
4
 74
0
 40
0
 40
0
 40
0
 40
0
 40
1
 40
1
 40
1
 40
1
 10
365.474013
 20
890.842513
 30
0.0
 10
368.781619
 20
885.287957
 30
0.0
 10
371.070992
 20
879.299807
 30
0.0
 10
372.953197
 20
873.138501
 30
0.0
  0
SPLINE
  5
119
100
AcDbEntity
  8
Layer_1
 62
1
100
AcDbSpline
 70
8
 71
3
 72
8
 73
4
 74
0
 40
0
 40
0
 40
0
 40
0
 40
1
 40
1
 40
1
 40
1
 10
372.953197
 20
873.138501
 30
0.0
 10
381.369600
 20
873.271786
 30
0.0
 10
382.389420
 20
882.897545
 30
0.0
 10
387.677225
 20
887.624578
 30
0.0
  0
SPLINE
  5
11a
100
AcDbEntity
  8
Layer_1
 62
1
100
AcDbSpline
 70
8
 71
3
 72
8
 73
4
 74
0
 40
0
 40
0
 40
0
 40
0
 40
1
 40
1
 40
1
 40
1
 10
387.677225
 20
887.624578
 30
0.0
 10
421.379490
 20
924.189571
 30
0.0
 10
454.695591
 20
961.202707
 30
0.0
 10
488.638942
 20
997.488400
 30
0.0
  0
SPLINE
  5
11b
100
AcDbEntity
  8
Layer_1
 62
1
100
AcDbSpline
 70
8
 71
3
 72
8
 73
4
 74
0
 40
0
 40
0
 40
0
 40
0
 40
1
 40
1
 40
1
 40
1
 10
488.638942
 20
997.488400
 30
0.0
 10
493.057049
 20
1001.703657
 30
0.0
 10
498.557764
 20
1002.691074
 30
0.0
 10
504.482060
 20
1002.418617
 30
0.0
  0
SPLINE
  5
11c
100
AcDbEntity
  8
Layer_1
 62
1
100
AcDbSpline
 70
8
 71
3
 72
8
 73
4
 74
0
 40
0
 40
0
 40
0
 40
0
 40
1
 40
1
 40
1
 40
1
 10
504.482060
 20
1002.418617
 30
0.0
 10
510.154951
 20
1002.730856
 30
0.0
 10
515.829317
 20
1003.044226
 30
0.0
 10
521.502180
 20
1003.356411
 30
0.0
  0
SPLINE
  5
11d
100
AcDbEntity
  8
Layer_1
 62
1
100
AcDbSpline
 70
8
 71
3
 72
8
 73
4
 74
0
 40
0
 40
0
 40
0
 40
0
 40
1
 40
1
 40
1
 40
1
 10
521.502180
 20
1003.356411
 30
0.0
 10
523.836935
 20
1019.486256
 30
0.0
 10
526.171323
 20
1035.615631
 30
0.0
 10
528.506192
 20
1051.745375
 30
0.0
  0
SPLINE
  5
11e
100
AcDbEntity
  8
Layer_1
 62
1
100
AcDbSpline
 70
8
 71
3
 72
8
 73
4
 74
0
 40
0
 40
0
 40
0
 40
0
 40
1
 40
1
 40
1
 40
1
 10
445.609134
 20
1061.969343
 30
0.0
 10
444.186369
 20
1062.144808
 30
0.0
 10
443.161672
 20
1063.259476
 30
0.0
 10
443.310888
 20
1064.469319
 30
0.0
  0
LWPOLYLINE
  5
11f
100
AcDbEntity
  8
Layer_1
 62
1
100
AcDbPolyline
 90
2
 70
0
 10
528.506192
 20
1051.745375
 30
0.0
 10
445.609134
 20
1061.969343
 30
0.0
  0
SPLINE
  5
120
100
AcDbEntity
  8
Layer_1
 62
1
100
AcDbSpline
 70
8
 71
3
 72
8
 73
4
 74
0
 40
0
 40
0
 40
0
 40
0
 40
1
 40
1
 40
1
 40
1
 10
443.813017
 20
1068.540798
 30
0.0
 10
443.962120
 20
1069.750556
 30
0.0
 10
445.227080
 20
1070.582893
 30
0.0
 10
446.649817
 20
1070.407420
 30
0.0
  0
LWPOLYLINE
  5
121
100
AcDbEntity
  8
Layer_1
 62
1
100
AcDbPolyline
 90
2
 70
0
 10
443.310888
 20
1064.469319
 30
0.0
 10
443.813017
 20
1068.540798
 30
0.0
  0
SPLINE
  5
122
100
AcDbEntity
  8
Layer_1
 62
1
100
AcDbSpline
 70
8
 71
3
 72
8
 73
4
 74
0
 40
0
 40
0
 40
0
 40
0
 40
1
 40
1
 40
1
 40
1
 10
315.774680
 20
938.667152
 30
0.0
 10
315.129487
 20
938.704003
 30
0.0
 10
314.256076
 20
938.115006
 30
0.0
 10
313.085225
 20
936.620768
 30
0.0
  0
SPLINE
  5
123
100
AcDbEntity
  8
Layer_1
 62
1
100
AcDbSpline
 70
8
 71
3
 72
8
 73
4
 74
0
 40
0
 40
0
 40
0
 40
0
 40
1
 40
1
 40
1
 40
1
 10
313.085225
 20
936.620768
 30
0.0
 10
303.953159
 20
921.567617
 30
0.0
 10
295.779827
 20
905.345172
 30
0.0
 10
286.564224
 20
890.251140
 30
0.0
  0
SPLINE
  5
124
100
AcDbEntity
  8
Layer_1
 62
1
100
AcDbSpline
 70
8
 71
3
 72
8
 73
4
 74
0
 40
0
 40
0
 40
0
 40
0
 40
1
 40
1
 40
1
 40
1
 10
286.564224
 20
890.251140
 30
0.0
 10
268.828569
 20
858.440105
 30
0.0
 10
249.055441
 20
828.547658
 30
0.0
 10
227.614493
 20
800.614426
 30
0.0
  0
SPLINE
  5
125
100
AcDbEntity
  8
Layer_1
 62
1
100
AcDbSpline
 70
8
 71
3
 72
8
 73
4
 74
0
 40
0
 40
0
 40
0
 40
0
 40
1
 40
1
 40
1
 40
1
 10
227.614493
 20
800.614426
 30
0.0
 10
196.992694
 20
759.536935
 30
0.0
 10
164.896285
 20
720.224898
 30
0.0
 10
131.958751
 20
682.121747
 30
0.0
  0
SPLINE
  5
126
100
AcDbEntity
  8
Layer_1
 62
1
100
AcDbSpline
 70
8
 71
3
 72
8
 73
4
 74
0
 40
0
 40
0
 40
0
 40
0
 40
1
 40
1
 40
1
 40
1
 10
131.958751
 20
682.121747
 30
0.0
 10
110.595387
 20
660.196627
 30
0.0
 10
88.333724
 20
639.669095
 30
0.0
 10
67.079353
 20
617.545613
 30
0.0
  0
SPLINE
  5
127
100
AcDbEntity
  8
Layer_1
 62
1
100
AcDbSpline
 70
8
 71
3
 72
8
 73
4
 74
0
 40
0
 40
0
 40
0
 40
0
 40
1
 40
1
 40
1
 40
1
 10
67.079353
 20
617.545613
 30
0.0
 10
79.391920
 20
610.973799
 30
0.0
 10
91.704402
 20
604.402126
 30
0.0
 10
104.016855
 20
597.830284
 30
0.0
  0
LWPOLYLINE
  5
128
100
AcDbEntity
  8
Layer_1
 62
1
100
AcDbPolyline
 90
2
 70
0
 10
446.649817
 20
1070.407420
 30
0.0
 10
529.546876
 20
1060.183451
 30
0.0
  0
SPLINE
  5
129
100
AcDbEntity
  8
Layer_1
 62
1
100
AcDbSpline
 70
8
 71
3
 72
8
 73
4
 74
0
 40
0
 40
0
 40
0
 40
0
 40
1
 40
1
 40
1
 40
1
 10
111.279529
 20
593.952829
 30
0.0
 10
130.525469
 20
583.680158
 30
0.0
 10
149.771750
 20
573.407997
 30
0.0
 10
169.017803
 20
563.135440
 30
0.0
  0
LWPOLYLINE
  5
12a
100
AcDbEntity
  8
Layer_1
 62
1
100
AcDbPolyline
 90
4
 70
0
 10
104.016855
 20
597.830284
 30
0.0
 10
114.087643
 20
610.139364
 30
0.0
 10
120.338121
 20
605.025578
 30
0.0
 10
111.279529
 20
593.952829
 30
0.0
  0
SPLINE
  5
12b
100
AcDbEntity
  8
Layer_1
 62
1
100
AcDbSpline
 70
8
 71
3
 72
8
 73
4
 74
0
 40
0
 40
0
 40
0
 40
0
 40
1
 40
1
 40
1
 40
1
 10
176.280506
 20
559.259459
 30
0.0
 10
186.608679
 20
553.746841
 30
0.0
 10
196.936739
 20
548.234022
 30
0.0
 10
207.264883
 20
542.721402
 30
0.0
  0
SPLINE
  5
12c
100
AcDbEntity
  8
Layer_1
 62
1
100
AcDbSpline
 70
8
 71
3
 72
8
 73
4
 74
0
 40
0
 40
0
 40
0
 40
0
 40
1
 40
1
 40
1
 40
1
 10
207.264883
 20
542.721402
 30
0.0
 10
211.720776
 20
541.864120
 30
0.0
 10
214.770657
 20
550.770576
 30
0.0
 10
218.678953
 20
553.717956
 30
0.0
  0
SPLINE
  5
12d
100
AcDbEntity
  8
Layer_1
 62
1
100
AcDbSpline
 70
8
 71
3
 72
8
 73
4
 74
0
 40
0
 40
0
 40
0
 40
0
 40
1
 40
1
 40
1
 40
1
 10
218.678953
 20
553.717956
 30
0.0
 10
220.441961
 20
560.478810
 30
0.0
 10
215.974389
 20
567.625774
 30
0.0
 10
214.386959
 20
574.236026
 30
0.0
  0
SPLINE
  5
12e
100
AcDbEntity
  8
Layer_1
 62
1
100
AcDbSpline
 70
8
 71
3
 72
8
 73
4
 74
0
 40
0
 40
0
 40
0
 40
0
 40
1
 40
1
 40
1
 40
1
 10
214.386959
 20
574.236026
 30
0.0
 10
220.678257
 20
577.763799
 30
0.0
 10
227.257838
 20
579.227950
 30
0.0
 10
234.083239
 20
579.733594
 30
0.0
  0
SPLINE
  5
12f
100
AcDbEntity
  8
Layer_1
 62
1
100
AcDbSpline
 70
8
 71
3
 72
8
 73
4
 74
0
 40
0
 40
0
 40
0
 40
0
 40
1
 40
1
 40
1
 40
1
 10
234.083239
 20
579.733594
 30
0.0
 10
242.469198
 20
580.885112
 30
0.0
 10
250.268669
 20
584.498293
 30
0.0
 10
258.244370
 20
587.552936
 30
0.0
  0
SPLINE
  5
130
100
AcDbEntity
  8
Layer_1
 62
1
100
AcDbSpline
 70
8
 71
3
 72
8
 73
4
 74
0
 40
0
 40
0
 40
0
 40
0
 40
1
 40
1
 40
1
 40
1
 10
258.244370
 20
587.552936
 30
0.0
 10
267.093000
 20
592.874303
 30
0.0
 10
274.259835
 20
602.416287
 30
0.0
 10
279.770272
 20
612.565140
 30
0.0
  0
SPLINE
  5
131
100
AcDbEntity
  8
Layer_1
 62
1
100
AcDbSpline
 70
8
 71
3
 72
8
 73
4
 74
0
 40
0
 40
0
 40
0
 40
0
 40
1
 40
1
 40
1
 40
1
 10
279.770272
 20
612.565140
 30
0.0
 10
282.552250
 20
619.279452
 30
0.0
 10
289.511376
 20
627.826825
 30
0.0
 10
284.958737
 20
635.459193
 30
0.0
  0
SPLINE
  5
132
100
AcDbEntity
  8
Layer_1
 62
1
100
AcDbSpline
 70
8
 71
3
 72
8
 73
4
 74
0
 40
0
 40
0
 40
0
 40
0
 40
1
 40
1
 40
1
 40
1
 10
284.958737
 20
635.459193
 30
0.0
 10
288.476872
 20
640.653681
 30
0.0
 10
292.027606
 20
645.812141
 30
0.0
 10
295.564224
 20
650.986532
 30
0.0
  0
SPLINE
  5
133
100
AcDbEntity
  8
Layer_1
 62
1
100
AcDbSpline
 70
8
 71
3
 72
8
 73
4
 74
0
 40
0
 40
0
 40
0
 40
0
 40
1
 40
1
 40
1
 40
1
 10
295.564224
 20
650.986532
 30
0.0
 10
298.977874
 20
657.062850
 30
0.0
 10
302.912306
 20
663.160912
 30
0.0
 10
305.497332
 20
669.726241
 30
0.0
  0
SPLINE
  5
134
100
AcDbEntity
  8
Layer_1
 62
1
100
AcDbSpline
 70
8
 71
3
 72
8
 73
4
 74
0
 40
0
 40
0
 40
0
 40
0
 40
1
 40
1
 40
1
 40
1
 10
305.497332
 20
669.726241
 30
0.0
 10
308.123717
 20
675.631426
 30
0.0
 10
306.246756
 20
682.092558
 30
0.0
 10
301.761978
 20
685.470385
 30
0.0
  0
SPLINE
  5
135
100
AcDbEntity
  8
Layer_1
 62
1
100
AcDbSpline
 70
8
 71
3
 72
8
 73
4
 74
0
 40
0
 40
0
 40
0
 40
0
 40
1
 40
1
 40
1
 40
1
 10
301.761978
 20
685.470385
 30
0.0
 10
293.889203
 20
691.335737
 30
0.0
 10
299.822343
 20
690.129879
 30
0.0
 10
305.264409
 20
693.159347
 30
0.0
  0
SPLINE
  5
136
100
AcDbEntity
  8
Layer_1
 62
1
100
AcDbSpline
 70
8
 71
3
 72
8
 73
4
 74
0
 40
0
 40
0
 40
0
 40
0
 40
1
 40
1
 40
1
 40
1
 10
305.264409
 20
693.159347
 30
0.0
 10
310.321389
 20
700.123218
 30
0.0
 10
314.132995
 20
708.990775
 30
0.0
 10
318.787852
 20
716.618820
 30
0.0
  0
SPLINE
  5
137
100
AcDbEntity
  8
Layer_1
 62
1
100
AcDbSpline
 70
8
 71
3
 72
8
 73
4
 74
0
 40
0
 40
0
 40
0
 40
0
 40
1
 40
1
 40
1
 40
1
 10
318.787852
 20
716.618820
 30
0.0
 10
320.552787
 20
722.097550
 30
0.0
 10
327.461244
 20
726.121868
 30
0.0
 10
324.654548
 20
732.548993
 30
0.0
  0
SPLINE
  5
138
100
AcDbEntity
  8
Layer_1
 62
1
100
AcDbSpline
 70
8
 71
3
 72
8
 73
4
 74
0
 40
0
 40
0
 40
0
 40
0
 40
1
 40
1
 40
1
 40
1
 10
324.654548
 20
732.548993
 30
0.0
 10
321.177827
 20
734.695869
 30
0.0
 10
311.961373
 20
730.247394
 30
0.0
 10
312.333732
 20
733.986009
 30
0.0
  0
SPLINE
  5
139
100
AcDbEntity
  8
Layer_1
 62
1
100
AcDbSpline
 70
8
 71
3
 72
8
 73
4
 74
0
 40
0
 40
0
 40
0
 40
0
 40
1
 40
1
 40
1
 40
1
 10
312.333732
 20
733.986009
 30
0.0
 10
319.678271
 20
742.889761
 30
0.0
 10
327.205928
 20
751.681284
 30
0.0
 10
332.495858
 20
762.850749
 30
0.0
  0
SPLINE
  5
13a
100
AcDbEntity
  8
Layer_1
 62
1
100
AcDbSpline
 70
8
 71
3
 72
8
 73
4
 74
0
 40
0
 40
0
 40
0
 40
0
 40
1
 40
1
 40
1
 40
1
 10
332.495858
 20
762.850749
 30
0.0
 10
334.724939
 20
770.415608
 30
0.0
 10
342.229776
 20
777.985172
 30
0.0
 10
337.886476
 20
786.349777
 30
0.0
  0
SPLINE
  5
13b
100
AcDbEntity
  8
Layer_1
 62
1
100
AcDbSpline
 70
8
 71
3
 72
8
 73
4
 74
0
 40
0
 40
0
 40
0
 40
0
 40
1
 40
1
 40
1
 40
1
 10
337.886476
 20
786.349777
 30
0.0
 10
331.388476
 20
787.277032
 30
0.0
 10
325.633578
 20
782.463180
 30
0.0
 10
319.303474
 20
781.413248
 30
0.0
  0
SPLINE
  5
13c
100
AcDbEntity
  8
Layer_1
 62
1
100
AcDbSpline
 70
8
 71
3
 72
8
 73
4
 74
0
 40
0
 40
0
 40
0
 40
0
 40
1
 40
1
 40
1
 40
1
 10
319.303474
 20
781.413248
 30
0.0
 10
313.266189
 20
778.756643
 30
0.0
 10
307.762526
 20
780.703532
 30
0.0
 10
315.136006
 20
786.707198
 30
0.0
  0
SPLINE
  5
13d
100
AcDbEntity
  8
Layer_1
 62
1
100
AcDbSpline
 70
8
 71
3
 72
8
 73
4
 74
0
 40
0
 40
0
 40
0
 40
0
 40
1
 40
1
 40
1
 40
1
 10
315.136006
 20
786.707198
 30
0.0
 10
323.420060
 20
795.387172
 30
0.0
 10
332.176507
 20
804.734663
 30
0.0
 10
335.457780
 20
818.204266
 30
0.0
  0
SPLINE
  5
13e
100
AcDbEntity
  8
Layer_1
 62
1
100
AcDbSpline
 70
8
 71
3
 72
8
 73
4
 74
0
 40
0
 40
0
 40
0
 40
0
 40
1
 40
1
 40
1
 40
1
 10
335.457780
 20
818.204266
 30
0.0
 10
338.301553
 20
829.230278
 30
0.0
 10
344.089191
 20
840.630622
 30
0.0
 10
341.317162
 20
852.519695
 30
0.0
  0
SPLINE
  5
13f
100
AcDbEntity
  8
Layer_1
 62
1
100
AcDbSpline
 70
8
 71
3
 72
8
 73
4
 74
0
 40
0
 40
0
 40
0
 40
0
 40
1
 40
1
 40
1
 40
1
 10
341.317162
 20
852.519695
 30
0.0
 10
333.701461
 20
852.100258
 30
0.0
 10
328.797128
 20
843.688558
 30
0.0
 10
322.693115
 20
838.914224
 30
0.0
  0
SPLINE
  5
140
100
AcDbEntity
  8
Layer_1
 62
1
100
AcDbSpline
 70
8
 71
3
 72
8
 73
4
 74
0
 40
0
 40
0
 40
0
 40
0
 40
1
 40
1
 40
1
 40
1
 10
322.693115
 20
838.914224
 30
0.0
 10
325.147493
 20
855.541725
 30
0.0
 10
333.055729
 20
869.889690
 30
0.0
 10
336.628176
 20
886.151044
 30
0.0
  0
SPLINE
  5
141
100
AcDbEntity
  8
Layer_1
 62
1
100
AcDbSpline
 70
8
 71
3
 72
8
 73
4
 74
0
 40
0
 40
0
 40
0
 40
0
 40
1
 40
1
 40
1
 40
1
 10
336.628176
 20
886.151044
 30
0.0
 10
338.005644
 20
891.758415
 30
0.0
 10
336.726822
 20
901.564965
 30
0.0
 10
330.534425
 20
897.045086
 30
0.0
  0
SPLINE
  5
142
100
AcDbEntity
  8
Layer_1
 62
1
100
AcDbSpline
 70
8
 71
3
 72
8
 73
4
 74
0
 40
0
 40
0
 40
0
 40
0
 40
1
 40
1
 40
1
 40
1
 10
330.534425
 20
897.045086
 30
0.0
 10
324.406970
 20
890.383686
 30
0.0
 10
319.748117
 20
881.823626
 30
0.0
 10
313.382580
 20
875.400554
 30
0.0
  0
SPLINE
  5
143
100
AcDbEntity
  8
Layer_1
 62
1
100
AcDbSpline
 70
8
 71
3
 72
8
 73
4
 74
0
 40
0
 40
0
 40
0
 40
0
 40
1
 40
1
 40
1
 40
1
 10
313.382580
 20
875.400554
 30
0.0
 10
315.282416
 20
881.860538
 30
0.0
 10
316.439121
 20
888.670406
 30
0.0
 10
318.622337
 20
894.984052
 30
0.0
  0
SPLINE
  5
144
100
AcDbEntity
  8
Layer_1
 62
1
100
AcDbSpline
 70
8
 71
3
 72
8
 73
4
 74
0
 40
0
 40
0
 40
0
 40
0
 40
1
 40
1
 40
1
 40
1
 10
318.622337
 20
894.984052
 30
0.0
 10
322.346409
 20
906.459834
 30
0.0
 10
325.709575
 20
918.972051
 30
0.0
 10
325.460211
 20
931.423499
 30
0.0
  0
SPLINE
  5
145
100
AcDbEntity
  8
Layer_1
 62
1
100
AcDbSpline
 70
8
 71
3
 72
8
 73
4
 74
0
 40
0
 40
0
 40
0
 40
0
 40
1
 40
1
 40
1
 40
1
 10
325.460211
 20
931.423499
 30
0.0
 10
323.665710
 20
939.772329
 30
0.0
 10
316.456951
 20
919.011572
 30
0.0
 10
317.094491
 20
927.099278
 30
0.0
  0
SPLINE
  5
146
100
AcDbEntity
  8
Layer_1
 62
1
100
AcDbSpline
 70
8
 71
3
 72
8
 73
4
 74
0
 40
0
 40
0
 40
0
 40
0
 40
1
 40
1
 40
1
 40
1
 10
317.094491
 20
927.099278
 30
0.0
 10
317.471046
 20
930.425006
 30
0.0
 10
318.078935
 20
938.535506
 30
0.0
 10
315.774680
 20
938.667152
 30
0.0
  0
LWPOLYLINE
  5
147
100
AcDbEntity
  8
Layer_1
 62
1
100
AcDbPolyline
 90
4
 70
0
 10
169.017803
 20
563.135440
 30
0.0
 10
176.889898
 20
572.756539
 30
0.0
 10
183.140376
 20
567.642781
 30
0.0
 10
176.280506
 20
559.259459
 30
0.0
  0
SPLINE
  5
148
100
AcDbEntity
  8
Layer_1
 62
1
100
AcDbSpline
 70
8
 71
3
 72
8
 73
4
 74
0
 40
0
 40
0
 40
0
 40
0
 40
1
 40
1
 40
1
 40
1
 10
295.551054
 20
962.668026
 30
0.0
 10
287.905090
 20
940.570363
 30
0.0
 10
273.481323
 20
915.754585
 30
0.0
 10
257.166364
 20
889.375226
 30
0.0
  0
SPLINE
  5
149
100
AcDbEntity
  8
Layer_1
 62
1
100
AcDbSpline
 70
8
 71
3
 72
8
 73
4
 74
0
 40
0
 40
0
 40
0
 40
0
 40
1
 40
1
 40
1
 40
1
 10
257.166364
 20
889.375226
 30
0.0
 10
211.004902
 20
817.537658
 30
0.0
 10
162.916792
 20
748.226043
 30
0.0
 10
109.689548
 20
684.646889
 30
0.0
  0
SPLINE
  5
14a
100
AcDbEntity
  8
Layer_1
 62
1
100
AcDbSpline
 70
8
 71
3
 72
8
 73
4
 74
0
 40
0
 40
0
 40
0
 40
0
 40
1
 40
1
 40
1
 40
1
 10
109.689548
 20
684.646889
 30
0.0
 10
111.777867
 20
693.903025
 30
0.0
 10
113.800331
 20
703.209040
 30
0.0
 10
116.507505
 20
711.875267
 30
0.0
  0
SPLINE
  5
14b
100
AcDbEntity
  8
Layer_1
 62
1
100
AcDbSpline
 70
8
 71
3
 72
8
 73
4
 74
0
 40
0
 40
0
 40
0
 40
0
 40
1
 40
1
 40
1
 40
1
 10
116.507505
 20
711.875267
 30
0.0
 10
118.436674
 20
718.047896
 30
0.0
 10
119.331323
 20
724.497170
 30
0.0
 10
119.155213
 20
730.961845
 30
0.0
  0
SPLINE
  5
14c
100
AcDbEntity
  8
Layer_1
 62
1
100
AcDbSpline
 70
8
 71
3
 72
8
 73
4
 74
0
 40
0
 40
0
 40
0
 40
0
 40
1
 40
1
 40
1
 40
1
 10
119.155213
 20
730.961845
 30
0.0
 10
118.367478
 20
759.764863
 30
0.0
 10
115.103446
 20
779.302362
 30
0.0
 10
115.978438
 20
790.467307
 30
0.0
  0
SPLINE
  5
14d
100
AcDbEntity
  8
Layer_1
 62
1
100
AcDbSpline
 70
8
 71
3
 72
8
 73
4
 74
0
 40
0
 40
0
 40
0
 40
0
 40
1
 40
1
 40
1
 40
1
 10
115.978438
 20
790.467307
 30
0.0
 10
121.897360
 20
816.685589
 30
0.0
 10
123.231674
 20
840.462344
 30
0.0
 10
124.675033
 20
860.540675
 30
0.0
  0
SPLINE
  5
14e
100
AcDbEntity
  8
Layer_1
 62
1
100
AcDbSpline
 70
8
 71
3
 72
8
 73
4
 74
0
 40
0
 40
0
 40
0
 40
0
 40
1
 40
1
 40
1
 40
1
 10
124.675033
 20
860.540675
 30
0.0
 10
124.792218
 20
862.184692
 30
0.0
 10
124.840027
 20
863.832920
 30
0.0
 10
124.818334
 20
865.480966
 30
0.0
  0
SPLINE
  5
14f
100
AcDbEntity
  8
Layer_1
 62
1
100
AcDbSpline
 70
8
 71
3
 72
8
 73
4
 74
0
 40
0
 40
0
 40
0
 40
0
 40
1
 40
1
 40
1
 40
1
 10
124.818334
 20
865.480966
 30
0.0
 10
124.671440
 20
877.170492
 30
0.0
 10
133.869901
 20
899.042060
 30
0.0
 10
141.641085
 20
934.584588
 30
0.0
  0
SPLINE
  5
150
100
AcDbEntity
  8
Layer_1
 62
1
100
AcDbSpline
 70
8
 71
3
 72
8
 73
4
 74
0
 40
0
 40
0
 40
0
 40
0
 40
1
 40
1
 40
1
 40
1
 10
141.641085
 20
934.584588
 30
0.0
 10
154.625525
 20
966.351069
 30
0.0
 10
170.026288
 20
996.261879
 30
0.0
 10
188.696719
 20
1022.122092
 30
0.0
  0
SPLINE
  5
151
100
AcDbEntity
  8
Layer_1
 62
1
100
AcDbSpline
 70
8
 71
3
 72
8
 73
4
 74
0
 40
0
 40
0
 40
0
 40
0
 40
1
 40
1
 40
1
 40
1
 10
188.696719
 20
1022.122092
 30
0.0
 10
191.597623
 20
1026.141824
 30
0.0
 10
193.977029
 20
1030.513225
 30
0.0
 10
195.777989
 20
1035.131670
 30
0.0
  0
SPLINE
  5
152
100
AcDbEntity
  8
Layer_1
 62
1
100
AcDbSpline
 70
8
 71
3
 72
8
 73
4
 74
0
 40
0
 40
0
 40
0
 40
0
 40
1
 40
1
 40
1
 40
1
 10
195.777989
 20
1035.131670
 30
0.0
 10
209.979876
 20
1071.536050
 30
0.0
 10
218.145467
 20
1097.964511
 30
0.0
 10
229.247282
 20
1111.211364
 30
0.0
  0
LWPOLYLINE
  5
153
100
AcDbEntity
  8
Layer_1
 62
1
100
AcDbPolyline
 90
1
 70
1
 10
315.774680
 20
938.667152
 30
0.0
  0
SPLINE
  5
154
100
AcDbEntity
  8
Layer_1
 62
1
100
AcDbSpline
 70
8
 71
3
 72
8
 73
4
 74
0
 40
0
 40
0
 40
0
 40
0
 40
1
 40
1
 40
1
 40
1
 10
228.830939
 20
1110.720561
 30
0.0
 10
256.600229
 20
1143.125027
 30
0.0
 10
278.612287
 20
1177.922764
 30
0.0
 10
297.987566
 20
1212.453175
 30
0.0
  0
SPLINE
  5
155
100
AcDbEntity
  8
Layer_1
 62
1
100
AcDbSpline
 70
8
 71
3
 72
8
 73
4
 74
0
 40
0
 40
0
 40
0
 40
0
 40
1
 40
1
 40
1
 40
1
 10
297.987566
 20
1212.453175
 30
0.0
 10
298.770872
 20
1209.718743
 30
0.0
 10
299.449677
 20
1208.573797
 30
0.0
 10
300.178478
 20
1205.144584
 30
0.0
  0
SPLINE
  5
156
100
AcDbEntity
  8
Layer_1
 62
1
100
AcDbSpline
 70
8
 71
3
 72
8
 73
4
 74
0
 40
0
 40
0
 40
0
 40
0
 40
1
 40
1
 40
1
 40
1
 10
300.178478
 20
1205.144584
 30
0.0
 10
300.177875
 20
1205.142793
 30
0.0
 10
300.177272
 20
1205.141002
 30
0.0
 10
300.176670
 20
1205.139211
 30
0.0
  0
SPLINE
  5
157
100
AcDbEntity
  8
Layer_1
 62
1
100
AcDbSpline
 70
8
 71
3
 72
8
 73
4
 74
0
 40
0
 40
0
 40
0
 40
0
 40
1
 40
1
 40
1
 40
1
 10
300.176670
 20
1205.139211
 30
0.0
 10
305.655236
 20
1179.374021
 30
0.0
 10
289.136064
 20
1134.438931
 30
0.0
 10
295.906019
 20
1068.317453
 30
0.0
  0
SPLINE
  5
158
100
AcDbEntity
  8
Layer_1
 62
1
100
AcDbSpline
 70
8
 71
3
 72
8
 73
4
 74
0
 40
0
 40
0
 40
0
 40
0
 40
1
 40
1
 40
1
 40
1
 10
295.906019
 20
1068.317453
 30
0.0
 10
296.350268
 20
1044.912696
 30
0.0
 10
298.471862
 20
1021.365365
 30
0.0
 10
302.243950
 20
997.841627
 30
0.0
  0
SPLINE
  5
159
100
AcDbEntity
  8
Layer_1
 62
1
100
AcDbSpline
 70
8
 71
3
 72
8
 73
4
 74
0
 40
0
 40
0
 40
0
 40
0
 40
1
 40
1
 40
1
 40
1
 10
302.243950
 20
997.841627
 30
0.0
 10
302.016914
 20
986.678125
 30
0.0
 10
299.897598
 20
975.229900
 30
0.0
 10
295.550982
 20
962.667900
 30
0.0
  0
LWPOLYLINE
  5
15a
100
AcDbEntity
  8
Layer_1
 62
1
100
AcDbPolyline
 90
2
 70
0
 10
229.247282
 20
1111.211364
 30
0.0
 10
228.830939
 20
1110.720561
 30
0.0
  0
SPLINE
  5
15b
100
AcDbEntity
  8
Layer_1
 62
1
100
AcDbSpline
 70
8
 71
3
 72
8
 73
4
 74
0
 40
0
 40
0
 40
0
 40
0
 40
1
 40
1
 40
1
 40
1
 10
300.557304
 20
1216.705665
 30
0.0
 10
300.434083
 20
1216.524307
 30
0.0
 10
300.416213
 20
1216.641875
 30
0.0
 10
299.901136
 20
1215.623790
 30
0.0
  0
SPLINE
  5
15c
100
AcDbEntity
  8
Layer_1
 62
1
100
AcDbSpline
 70
8
 71
3
 72
8
 73
4
 74
0
 40
0
 40
0
 40
0
 40
0
 40
1
 40
1
 40
1
 40
1
 10
299.901136
 20
1215.623790
 30
0.0
 10
300.102343
 20
1215.985393
 30
0.0
 10
300.356716
 20
1216.344123
 30
0.0
 10
300.557304
 20
1216.705665
 30
0.0
  0
LWPOLYLINE
  5
15d
100
AcDbEntity
  8
Layer_1
 62
1
100
AcDbPolyline
 90
2
 70
0
 10
295.550982
 20
962.667900
 30
0.0
 10
295.551054
 20
962.668026
 30
0.0
  0
SPLINE
  5
15e
100
AcDbEntity
  8
Layer_1
 62
1
100
AcDbSpline
 70
8
 71
3
 72
8
 73
4
 74
0
 40
0
 40
0
 40
0
 40
0
 40
1
 40
1
 40
1
 40
1
 10
244.135839
 20
1327.810930
 30
0.0
 10
243.389242
 20
1328.044160
 30
0.0
 10
243.217335
 20
1328.042478
 30
0.0
 10
242.718691
 20
1328.182420
 30
0.0
  0
SPLINE
  5
15f
100
AcDbEntity
  8
Layer_1
 62
1
100
AcDbSpline
 70
8
 71
3
 72
8
 73
4
 74
0
 40
0
 40
0
 40
0
 40
0
 40
1
 40
1
 40
1
 40
1
 10
242.718691
 20
1328.182420
 30
0.0
 10
242.655336
 20
1328.221679
 30
0.0
 10
242.365452
 20
1328.399954
 30
0.0
 10
242.328906
 20
1328.412847
 30
0.0
  0
SPLINE
  5
160
100
AcDbEntity
  8
Layer_1
 62
1
100
AcDbSpline
 70
8
 71
3
 72
8
 73
4
 74
0
 40
0
 40
0
 40
0
 40
0
 40
1
 40
1
 40
1
 40
1
 10
242.328906
 20
1328.412847
 30
0.0
 10
242.927919
 20
1328.202438
 30
0.0
 10
243.530309
 20
1328.001773
 30
0.0
 10
244.135839
 20
1327.810930
 30
0.0
  0
LWPOLYLINE
  5
161
100
AcDbEntity
  8
Layer_1
 62
1
100
AcDbPolyline
 90
1
 70
1
 10
300.557304
 20
1216.705665
 30
0.0
  0
LWPOLYLINE
  5
162
100
AcDbEntity
  8
Layer_1
 62
1
100
AcDbPolyline
 90
1
 70
1
 10
244.135839
 20
1327.810930
 30
0.0
  0
LWPOLYLINE
  5
163
100
AcDbEntity
  8
Layer_1
 62
1
100
AcDbPolyline
 90
4
 70
1
 10
180.683699
 20
862.262451
 30
0.0
 10
172.773680
 20
865.384718
 30
0.0
 10
154.040078
 20
817.924607
 30
0.0
 10
161.950096
 20
814.802340
 30
0.0
  0
LWPOLYLINE
  5
164
100
AcDbEntity
  8
Layer_1
 62
1
100
AcDbPolyline
 90
4
 70
1
 10
255.403650
 20
1051.559581
 30
0.0
 10
247.493632
 20
1054.681848
 30
0.0
 10
228.760029
 20
1007.221737
 30
0.0
 10
236.670048
 20
1004.099470
 30
0.0
  0
LWPOLYLINE
  5
165
100
AcDbEntity
  8
Layer_1
 62
1
100
AcDbPolyline
 90
4
 70
1
 10
643.934891
 20
437.878998
 30
0.0
 10
643.934891
 20
314.019675
 30
0.0
 10
603.949068
 20
314.019675
 30
0.0
 10
603.949068
 20
437.878998
 30
0.0
  0
LWPOLYLINE
  5
166
100
AcDbEntity
  8
Layer_1
 62
1
100
AcDbPolyline
 90
4
 70
1
 10
593.449053
 20
437.878998
 30
0.0
 10
593.449053
 20
314.019675
 30
0.0
 10
553.463229
 20
314.019675
 30
0.0
 10
553.463229
 20
437.878998
 30
0.0
  0
LWPOLYLINE
  5
167
100
AcDbEntity
  8
Layer_1
 62
1
100
AcDbPolyline
 90
34
 70
1
 10
583.966602
 20
242.553005
 30
0.0
 10
586.551090
 20
232.308539
 30
0.0
 10
577.388863
 20
229.997282
 30
0.0
 10
574.394315
 20
241.866794
 30
0.0
 10
573.824296
 20
241.827959
 30
0.0
 10
572.318532
 20
238.706929
 30
0.0
 10
571.108564
 20
235.436060
 30
0.0
 10
570.268517
 20
232.302529
 30
0.0
 10
569.696258
 20
228.775294
 30
0.0
 10
569.474022
 20
225.623367
 30
0.0
 10
569.563030
 20
222.237071
 30
0.0
 10
569.973061
 20
218.888022
 30
0.0
 10
570.701991
 20
215.593880
 30
0.0
 10
571.743156
 20
212.384608
 30
0.0
 10
573.086466
 20
209.289657
 30
0.0
 10
574.720016
 20
206.337628
 30
0.0
 10
576.587480
 20
203.603244
 30
0.0
 10
578.251020
 20
203.734772
 30
0.0
 10
578.351083
 20
213.138935
 30
0.0
 10
587.799354
 20
213.023849
 30
0.0
 10
587.710346
 20
204.412649
 30
0.0
 10
589.774139
 20
204.557499
 30
0.0
 10
591.229219
 20
207.684057
 30
0.0
 10
592.370731
 20
210.848400
 30
0.0
 10
593.210806
 20
214.091263
 30
0.0
 10
593.760841
 20
217.631480
 30
0.0
 10
593.968620
 20
220.782813
 30
0.0
 10
593.857502
 20
224.277109
 30
0.0
 10
593.468589
 20
227.485502
 30
0.0
 10
592.715197
 20
230.898472
 30
0.0
 10
591.730696
 20
233.993254
 30
0.0
 10
590.289931
 20
237.326400
 30
0.0
 10
588.810841
 20
240.063874
 30
0.0
 10
587.009849
 20
242.783291
 30
0.0
  0
LWPOLYLINE
  5
168
100
AcDbEntity
  8
Layer_1
 62
1
100
AcDbPolyline
 90
53
 70
1
 10
602.911077
 20
303.673011
 30
0.0
 10
602.955581
 20
288.583398
 30
0.0
 10
593.560091
 20
288.591902
 30
0.0
 10
593.448973
 20
303.519600
 30
0.0
 10
576.927808
 20
303.630718
 30
0.0
 10
572.213735
 20
303.438529
 30
0.0
 10
569.039981
 20
303.217427
 30
0.0
 10
565.737789
 20
302.907402
 30
0.0
 10
562.176340
 20
302.482942
 30
0.0
 10
557.817506
 20
301.836246
 30
0.0
 10
554.996324
 20
301.337320
 30
0.0
 10
555.007663
 20
299.705102
 30
0.0
 10
546.704476
 20
279.268923
 30
0.0
 10
546.760035
 20
269.082652
 30
0.0
 10
547.032161
 20
267.556876
 30
0.0
 10
547.664428
 20
266.000258
 30
0.0
 10
548.420032
 20
264.738132
 30
0.0
 10
549.462302
 20
263.421808
 30
0.0
 10
551.103647
 20
261.852860
 30
0.0
 10
552.118139
 20
261.052157
 30
0.0
 10
553.857591
 20
259.905175
 30
0.0
 10
555.141345
 20
259.172022
 30
0.0
 10
557.263587
 20
258.143159
 30
0.0
 10
558.104740
 20
257.770261
 30
0.0
 10
562.199556
 20
257.778765
 30
0.0
 10
562.166107
 20
267.110532
 30
0.0
 10
571.932510
 20
267.037115
 30
0.0
 10
571.932964
 20
257.556983
 30
0.0
 10
628.083808
 20
257.704951
 30
0.0
 10
628.277131
 20
267.184290
 30
0.0
 10
637.035704
 20
267.109739
 30
0.0
 10
637.002255
 20
257.777433
 30
0.0
 10
638.758460
 20
257.777773
 30
0.0
 10
640.709461
 20
258.670148
 30
0.0
 10
642.687817
 20
259.737449
 30
0.0
 10
643.745679
 20
260.386498
 30
0.0
 10
645.443008
 20
261.626117
 30
0.0
 10
646.209723
 20
262.265159
 30
0.0
 10
647.435225
 20
263.502935
 30
0.0
 10
648.104173
 20
264.299443
 30
0.0
 10
648.999780
 20
265.690942
 30
0.0
 10
649.400910
 20
266.477981
 30
0.0
 10
649.864261
 20
267.867439
 30
0.0
 10
650.040860
 20
268.724721
 30
0.0
 10
650.118529
 20
270.427096
 30
0.0
 10
650.112860
 20
279.301153
 30
0.0
 10
641.818006
 20
299.728998
 30
0.0
 10
641.820331
 20
301.338454
 30
0.0
 10
636.393572
 20
302.241827
 30
0.0
 10
631.481584
 20
302.865194
 30
0.0
 10
626.104800
 20
303.347452
 30
0.0
 10
620.460765
 20
303.622980
 30
0.0
 10
619.909625
 20
303.634318
 30
0.0
  0
SPLINE
  5
169
100
AcDbEntity
  8
Layer_1
 62
1
100
AcDbSpline
 70
8
 71
3
 72
8
 73
4
 74
0
 40
0
 40
0
 40
0
 40
0
 40
1
 40
1
 40
1
 40
1
 10
189.047013
 20
232.910504
 30
0.0
 10
189.047013
 20
232.910504
 30
0.0
 10
186.534241
 20
233.174126
 30
0.0
 10
186.645586
 20
237.744397
 30
0.0
  0
SPLINE
  5
16a
100
AcDbEntity
  8
Layer_1
 62
1
100
AcDbSpline
 70
8
 71
3
 72
8
 73
4
 74
0
 40
0
 40
0
 40
0
 40
0
 40
1
 40
1
 40
1
 40
1
 10
186.645586
 20
237.744397
 30
0.0
 10
186.756987
 20
242.314753
 30
0.0
 10
186.049970
 20
243.234028
 30
0.0
 10
186.049970
 20
243.234028
 30
0.0
  0
LWPOLYLINE
  5
16b
100
AcDbEntity
  8
Layer_1
 62
1
100
AcDbPolyline
 90
40
 70
0
 10
279.386093
 20
543.638948
 30
0.0
 10
288.426614
 20
524.017729
 30
0.0
 10
297.286016
 20
498.873742
 30
0.0
 10
304.350633
 20
480.909345
 30
0.0
 10
309.265172
 20
465.130602
 30
0.0
 10
312.401140
 20
449.539739
 30
0.0
 10
316.063106
 20
432.359235
 30
0.0
 10
318.079332
 20
422.768665
 30
0.0
 10
328.035260
 20
392.564353
 30
0.0
 10
341.536734
 20
355.932879
 30
0.0
 10
358.532674
 20
308.704791
 30
0.0
 10
387.664328
 20
234.197036
 30
0.0
 10
399.253209
 20
209.449332
 30
0.0
 10
357.026372
 20
195.952734
 30
0.0
 10
352.451055
 20
209.139902
 30
0.0
 10
344.823250
 20
206.493817
 30
0.0
 10
349.331329
 20
193.493537
 30
0.0
 10
255.508909
 20
163.507068
 30
0.0
 10
250.864512
 20
176.892831
 30
0.0
 10
243.234808
 20
174.245839
 30
0.0
 10
247.813441
 20
161.046539
 30
0.0
 10
219.368339
 20
151.955348
 30
0.0
 10
207.968811
 20
152.186939
 30
0.0
 10
205.174247
 20
154.529660
 30
0.0
 10
203.658109
 20
160.355622
 30
0.0
 10
198.104102
 20
163.712636
 30
0.0
 10
197.755498
 20
168.451512
 30
0.0
 10
200.132178
 20
173.507102
 30
0.0
 10
202.297819
 20
177.983235
 30
0.0
 10
199.009233
 20
181.824208
 30
0.0
 10
198.907186
 20
185.814198
 30
0.0
 10
200.118175
 20
191.957726
 30
0.0
 10
203.416285
 20
196.675143
 30
0.0
 10
200.767677
 20
202.259764
 30
0.0
 10
198.723416
 20
210.915099
 30
0.0
 10
199.507847
 20
215.896620
 30
0.0
 10
195.546940
 20
219.325805
 30
0.0
 10
193.109995
 20
225.491329
 30
0.0
 10
193.222247
 20
230.061090
 30
0.0
 10
189.047013
 20
232.910504
 30
0.0
  0
LWPOLYLINE
  5
16c
100
AcDbEntity
  8
Layer_1
 62
1
100
AcDbPolyline
 90
60
 70
0
 10
186.049970
 20
243.234028
 30
0.0
 10
182.727198
 20
248.406066
 30
0.0
 10
181.671746
 20
254.062913
 30
0.0
 10
181.817164
 20
257.303480
 30
0.0
 10
176.902172
 20
262.401506
 30
0.0
 10
176.339409
 20
266.560611
 30
0.0
 10
176.238496
 20
270.550006
 30
0.0
 10
175.889891
 20
275.288910
 30
0.0
 10
171.118474
 20
283.626567
 30
0.0
 10
170.702546
 20
291.025786
 30
0.0
 10
167.099258
 20
298.277745
 30
0.0
 10
166.222162
 20
305.844605
 30
0.0
 10
161.946581
 20
312.684860
 30
0.0
 10
161.350512
 20
318.173131
 30
0.0
 10
157.320751
 20
324.263169
 30
0.0
 10
154.391173
 20
331.926406
 30
0.0
 10
154.255677
 20
337.245591
 30
0.0
 10
149.799983
 20
342.175011
 30
0.0
 10
148.070849
 20
347.420608
 30
0.0
 10
147.969935
 20
351.410060
 30
0.0
 10
142.628924
 20
355.347439
 30
0.0
 10
141.785079
 20
361.585106
 30
0.0
 10
142.076083
 20
368.066268
 30
0.0
 10
137.620332
 20
372.995660
 30
0.0
 10
136.530213
 20
379.982211
 30
0.0
 10
137.214383
 20
388.954573
 30
0.0
 10
133.073816
 20
390.474283
 30
0.0
 10
130.849328
 20
397.218699
 30
0.0
 10
131.498830
 20
407.520765
 30
0.0
 10
127.784225
 20
410.201121
 30
0.0
 10
126.268625
 20
416.028416
 30
0.0
 10
125.391529
 20
423.595304
 30
0.0
 10
127.309479
 20
428.820832
 30
0.0
 10
122.855117
 20
433.749713
 30
0.0
 10
120.206027
 20
439.333002
 30
0.0
 10
120.427696
 20
448.473600
 30
0.0
 10
121.212156
 20
453.455121
 30
0.0
 10
121.077227
 20
458.775666
 30
0.0
 10
116.621135
 20
462.241559
 30
0.0
 10
114.897331
 20
466.600450
 30
0.0
 10
115.030559
 20
474.003978
 30
0.0
 10
117.116575
 20
480.690765
 30
0.0
 10
119.527639
 20
487.259830
 30
0.0
 10
119.781057
 20
489.961474
 30
0.0
 10
115.400197
 20
491.102816
 30
0.0
 10
112.527850
 20
496.349830
 30
0.0
 10
110.780830
 20
501.648832
 30
0.0
 10
110.811444
 20
506.761880
 30
0.0
 10
111.945699
 20
512.866488
 30
0.0
 10
113.150962
 20
516.150312
 30
0.0
 10
120.266915
 20
521.457534
 30
0.0
 10
156.788631
 20
526.548217
 30
0.0
 10
162.304795
 20
510.648548
 30
0.0
 10
169.933139
 20
513.296022
 30
0.0
 10
164.942093
 20
527.684372
 30
0.0
 10
229.765025
 20
536.721364
 30
0.0
 10
234.141888
 20
524.103194
 30
0.0
 10
241.771620
 20
526.750186
 30
0.0
 10
237.918487
 20
537.857575
 30
0.0
 10
279.386093
 20
543.638948
 30
0.0
  0
LWPOLYLINE
  5
16d
100
AcDbEntity
  8
Layer_1
 62
1
100
AcDbPolyline
 90
4
 70
1
 10
650.528876
 20
445.770283
 30
0.0
 10
642.434916
 20
448.378875
 30
0.0
 10
658.086469
 20
496.942636
 30
0.0
 10
666.180429
 20
494.334044
 30
0.0
  0
LWPOLYLINE
  5
16e
100
AcDbEntity
  8
Layer_1
 62
1
100
AcDbPolyline
 90
4
 70
1
 10
631.603134
 20
748.230208
 30
0.0
 10
640.107071
 20
748.230208
 30
0.0
 10
640.107071
 20
697.206586
 30
0.0
 10
631.603134
 20
697.206586
 30
0.0
  0
SPLINE
  5
16f
100
AcDbEntity
  8
Layer_1
 62
1
100
AcDbSpline
 70
8
 71
3
 72
8
 73
4
 74
0
 40
0
 40
0
 40
0
 40
0
 40
1
 40
1
 40
1
 40
1
 10
529.987124
 20
881.303613
 30
0.0
 10
529.978620
 20
880.276876
 30
0.0
 10
529.978620
 20
879.246425
 30
0.0
 10
529.987124
 20
878.212800
 30
0.0
  0
SPLINE
  5
170
100
AcDbEntity
  8
Layer_1
 62
1
100
AcDbSpline
 70
8
 71
3
 72
8
 73
4
 74
0
 40
0
 40
0
 40
0
 40
0
 40
1
 40
1
 40
1
 40
1
 10
529.987124
 20
878.212800
 30
0.0
 10
530.227786
 20
850.169622
 30
0.0
 10
536.748378
 20
819.812693
 30
0.0
 10
543.878249
 20
789.292346
 30
0.0
  0
SPLINE
  5
171
100
AcDbEntity
  8
Layer_1
 62
1
100
AcDbSpline
 70
8
 71
3
 72
8
 73
4
 74
0
 40
0
 40
0
 40
0
 40
0
 40
1
 40
1
 40
1
 40
1
 10
543.878249
 20
789.292346
 30
0.0
 10
566.430151
 20
699.672302
 30
0.0
 10
591.871890
 20
611.131493
 30
0.0
 10
626.265439
 20
526.678129
 30
0.0
  0
SPLINE
  5
172
100
AcDbEntity
  8
Layer_1
 62
1
100
AcDbSpline
 70
8
 71
3
 72
8
 73
4
 74
0
 40
0
 40
0
 40
0
 40
0
 40
1
 40
1
 40
1
 40
1
 10
626.265439
 20
526.678129
 30
0.0
 10
638.143115
 20
499.565254
 30
0.0
 10
651.255080
 20
472.606866
 30
0.0
 10
664.660517
 20
445.492035
 30
0.0
  0
SPLINE
  5
173
100
AcDbEntity
  8
Layer_1
 62
1
100
AcDbSpline
 70
8
 71
3
 72
8
 73
4
 74
0
 40
0
 40
0
 40
0
 40
0
 40
1
 40
1
 40
1
 40
1
 10
664.660517
 20
445.492035
 30
0.0
 10
673.191014
 20
491.793137
 30
0.0
 10
682.638236
 20
536.627764
 30
0.0
 10
683.964142
 20
579.964706
 30
0.0
  0
SPLINE
  5
174
100
AcDbEntity
  8
Layer_1
 62
1
100
AcDbSpline
 70
8
 71
3
 72
8
 73
4
 74
0
 40
0
 40
0
 40
0
 40
0
 40
1
 40
1
 40
1
 40
1
 10
683.964142
 20
579.964706
 30
0.0
 10
684.696217
 20
579.337710
 30
0.0
 10
685.505934
 20
578.786315
 30
0.0
 10
686.439751
 20
578.353408
 30
0.0
  0
SPLINE
  5
175
100
AcDbEntity
  8
Layer_1
 62
1
100
AcDbSpline
 70
8
 71
3
 72
8
 73
4
 74
0
 40
0
 40
0
 40
0
 40
0
 40
1
 40
1
 40
1
 40
1
 10
686.439751
 20
578.353408
 30
0.0
 10
693.520724
 20
575.793581
 30
0.0
 10
694.685707
 20
566.975849
 30
0.0
 10
694.348498
 20
560.388529
 30
0.0
  0
SPLINE
  5
176
100
AcDbEntity
  8
Layer_1
 62
1
100
AcDbSpline
 70
8
 71
3
 72
8
 73
4
 74
0
 40
0
 40
0
 40
0
 40
0
 40
1
 40
1
 40
1
 40
1
 10
694.348498
 20
560.388529
 30
0.0
 10
696.224551
 20
547.209439
 30
0.0
 10
695.821124
 20
533.840315
 30
0.0
 10
697.858214
 20
520.670778
 30
0.0
  0
SPLINE
  5
177
100
AcDbEntity
  8
Layer_1
 62
1
100
AcDbSpline
 70
8
 71
3
 72
8
 73
4
 74
0
 40
0
 40
0
 40
0
 40
0
 40
1
 40
1
 40
1
 40
1
 10
697.858214
 20
520.670778
 30
0.0
 10
700.192942
 20
510.503924
 30
0.0
 10
696.071934
 20
500.419786
 30
0.0
 10
696.513515
 20
490.200605
 30
0.0
  0
SPLINE
  5
178
100
AcDbEntity
  8
Layer_1
 62
1
100
AcDbSpline
 70
8
 71
3
 72
8
 73
4
 74
0
 40
0
 40
0
 40
0
 40
0
 40
1
 40
1
 40
1
 40
1
 10
696.513515
 20
490.200605
 30
0.0
 10
696.614712
 20
486.390728
 30
0.0
 10
696.418554
 20
477.072879
 30
0.0
 10
700.704454
 20
477.907569
 30
0.0
  0
SPLINE
  5
179
100
AcDbEntity
  8
Layer_1
 62
1
100
AcDbSpline
 70
8
 71
3
 72
8
 73
4
 74
0
 40
0
 40
0
 40
0
 40
0
 40
1
 40
1
 40
1
 40
1
 10
700.704454
 20
477.907569
 30
0.0
 10
704.151241
 20
481.355915
 30
0.0
 10
705.086249
 20
479.775061
 30
0.0
 10
704.507187
 20
475.862683
 30
0.0
  0
SPLINE
  5
17a
100
AcDbEntity
  8
Layer_1
 62
1
100
AcDbSpline
 70
8
 71
3
 72
8
 73
4
 74
0
 40
0
 40
0
 40
0
 40
0
 40
1
 40
1
 40
1
 40
1
 10
704.507187
 20
475.862683
 30
0.0
 10
704.771943
 20
467.977039
 30
0.0
 10
703.437080
 20
459.818249
 30
0.0
 10
706.751320
 20
452.362195
 30
0.0
  0
SPLINE
  5
17b
100
AcDbEntity
  8
Layer_1
 62
1
100
AcDbSpline
 70
8
 71
3
 72
8
 73
4
 74
0
 40
0
 40
0
 40
0
 40
0
 40
1
 40
1
 40
1
 40
1
 10
706.751320
 20
452.362195
 30
0.0
 10
707.468258
 20
444.360359
 30
0.0
 10
711.948898
 20
454.152954
 30
0.0
 10
714.888539
 20
456.377329
 30
0.0
  0
SPLINE
  5
17c
100
AcDbEntity
  8
Layer_1
 62
1
100
AcDbSpline
 70
8
 71
3
 72
8
 73
4
 74
0
 40
0
 40
0
 40
0
 40
0
 40
1
 40
1
 40
1
 40
1
 10
714.888539
 20
456.377329
 30
0.0
 10
716.759263
 20
457.915635
 30
0.0
 10
712.255578
 20
449.514879
 30
0.0
 10
711.683405
 20
446.891017
 30
0.0
  0
SPLINE
  5
17d
100
AcDbEntity
  8
Layer_1
 62
1
100
AcDbSpline
 70
8
 71
3
 72
8
 73
4
 74
0
 40
0
 40
0
 40
0
 40
0
 40
1
 40
1
 40
1
 40
1
 10
711.683405
 20
446.891017
 30
0.0
 10
715.115565
 20
444.805569
 30
0.0
 10
719.924542
 20
449.700605
 30
0.0
 10
722.657991
 20
452.206942
 30
0.0
  0
SPLINE
  5
17e
100
AcDbEntity
  8
Layer_1
 62
1
100
AcDbSpline
 70
8
 71
3
 72
8
 73
4
 74
0
 40
0
 40
0
 40
0
 40
0
 40
1
 40
1
 40
1
 40
1
 10
722.657991
 20
452.206942
 30
0.0
 10
727.189965
 20
458.080356
 30
0.0
 10
726.189222
 20
450.695537
 30
0.0
 10
726.112120
 20
447.229332
 30
0.0
  0
SPLINE
  5
17f
100
AcDbEntity
  8
Layer_1
 62
1
100
AcDbSpline
 70
8
 71
3
 72
8
 73
4
 74
0
 40
0
 40
0
 40
0
 40
0
 40
1
 40
1
 40
1
 40
1
 10
726.112120
 20
447.229332
 30
0.0
 10
730.625556
 20
448.295386
 30
0.0
 10
733.918195
 20
456.393600
 30
0.0
 10
737.288929
 20
460.609257
 30
0.0
  0
SPLINE
  5
180
100
AcDbEntity
  8
Layer_1
 62
1
100
AcDbSpline
 70
8
 71
3
 72
8
 73
4
 74
0
 40
0
 40
0
 40
0
 40
0
 40
1
 40
1
 40
1
 40
1
 10
737.288929
 20
460.609257
 30
0.0
 10
740.223836
 20
475.146737
 30
0.0
 10
740.145458
 20
490.008898
 30
0.0
 10
740.543783
 20
504.768444
 30
0.0
  0
SPLINE
  5
181
100
AcDbEntity
  8
Layer_1
 62
1
100
AcDbSpline
 70
8
 71
3
 72
8
 73
4
 74
0
 40
0
 40
0
 40
0
 40
0
 40
1
 40
1
 40
1
 40
1
 10
740.543783
 20
504.768444
 30
0.0
 10
741.772885
 20
517.080954
 30
0.0
 10
739.163849
 20
529.234271
 30
0.0
 10
737.461729
 20
541.364627
 30
0.0
  0
SPLINE
  5
182
100
AcDbEntity
  8
Layer_1
 62
1
100
AcDbSpline
 70
8
 71
3
 72
8
 73
4
 74
0
 40
0
 40
0
 40
0
 40
0
 40
1
 40
1
 40
1
 40
1
 10
737.461729
 20
541.364627
 30
0.0
 10
735.849893
 20
548.290261
 30
0.0
 10
736.059515
 20
555.947603
 30
0.0
 10
732.523720
 20
562.225493
 30
0.0
  0
SPLINE
  5
183
100
AcDbEntity
  8
Layer_1
 62
1
100
AcDbSpline
 70
8
 71
3
 72
8
 73
4
 74
0
 40
0
 40
0
 40
0
 40
0
 40
1
 40
1
 40
1
 40
1
 10
732.523720
 20
562.225493
 30
0.0
 10
727.055632
 20
570.751030
 30
0.0
 10
717.899471
 20
575.755795
 30
0.0
 10
710.493987
 20
582.425688
 30
0.0
  0
SPLINE
  5
184
100
AcDbEntity
  8
Layer_1
 62
1
100
AcDbSpline
 70
8
 71
3
 72
8
 73
4
 74
0
 40
0
 40
0
 40
0
 40
0
 40
1
 40
1
 40
1
 40
1
 10
710.493987
 20
582.425688
 30
0.0
 10
704.238463
 20
590.762976
 30
0.0
 10
698.182498
 20
599.247524
 30
0.0
 10
692.082369
 20
607.698595
 30
0.0
  0
SPLINE
  5
185
100
AcDbEntity
  8
Layer_1
 62
1
100
AcDbSpline
 70
8
 71
3
 72
8
 73
4
 74
0
 40
0
 40
0
 40
0
 40
0
 40
1
 40
1
 40
1
 40
1
 10
692.082369
 20
607.698595
 30
0.0
 10
699.079663
 20
624.268800
 30
0.0
 10
705.996964
 20
638.414022
 30
0.0
 10
709.045285
 20
651.374391
 30
0.0
  0
SPLINE
  5
186
100
AcDbEntity
  8
Layer_1
 62
1
100
AcDbSpline
 70
8
 71
3
 72
8
 73
4
 74
0
 40
0
 40
0
 40
0
 40
0
 40
1
 40
1
 40
1
 40
1
 10
709.045285
 20
651.374391
 30
0.0
 10
711.213534
 20
676.042498
 30
0.0
 10
717.346063
 20
698.436879
 30
0.0
 10
722.699036
 20
719.161483
 30
0.0
  0
SPLINE
  5
187
100
AcDbEntity
  8
Layer_1
 62
1
100
AcDbSpline
 70
8
 71
3
 72
8
 73
4
 74
0
 40
0
 40
0
 40
0
 40
0
 40
1
 40
1
 40
1
 40
1
 10
722.699036
 20
719.161483
 30
0.0
 10
722.886733
 20
719.881300
 30
0.0
 10
723.104703
 20
720.592880
 30
0.0
 10
723.352365
 20
721.294328
 30
0.0
  0
SPLINE
  5
188
100
AcDbEntity
  8
Layer_1
 62
1
100
AcDbSpline
 70
8
 71
3
 72
8
 73
4
 74
0
 40
0
 40
0
 40
0
 40
0
 40
1
 40
1
 40
1
 40
1
 10
723.352365
 20
721.294328
 30
0.0
 10
730.543493
 20
741.812683
 30
0.0
 10
727.617600
 20
769.270025
 30
0.0
 10
731.379742
 20
802.374888
 30
0.0
  0
SPLINE
  5
189
100
AcDbEntity
  8
Layer_1
 62
1
100
AcDbSpline
 70
8
 71
3
 72
8
 73
4
 74
0
 40
0
 40
0
 40
0
 40
0
 40
1
 40
1
 40
1
 40
1
 10
731.379742
 20
802.374888
 30
0.0
 10
729.179915
 20
839.318995
 30
0.0
 10
723.780454
 20
875.931222
 30
0.0
 10
713.120400
 20
910.295773
 30
0.0
  0
SPLINE
  5
18a
100
AcDbEntity
  8
Layer_1
 62
1
100
AcDbSpline
 70
8
 71
3
 72
8
 73
4
 74
0
 40
0
 40
0
 40
0
 40
0
 40
1
 40
1
 40
1
 40
1
 10
713.120400
 20
910.295773
 30
0.0
 10
712.457943
 20
912.432379
 30
0.0
 10
712.069121
 20
914.644372
 30
0.0
 10
711.963241
 20
916.878813
 30
0.0
  0
SPLINE
  5
18b
100
AcDbEntity
  8
Layer_1
 62
1
100
AcDbSpline
 70
8
 71
3
 72
8
 73
4
 74
0
 40
0
 40
0
 40
0
 40
0
 40
1
 40
1
 40
1
 40
1
 10
711.963241
 20
916.878813
 30
0.0
 10
710.245276
 20
953.075764
 30
0.0
 10
712.104123
 20
984.871247
 30
0.0
 10
702.324539
 20
1009.862674
 30
0.0
  0
LWPOLYLINE
  5
18c
100
AcDbEntity
  8
Layer_1
 62
1
100
AcDbPolyline
 90
4
 70
1
 10
631.603134
 20
951.740589
 30
0.0
 10
640.107071
 20
951.740589
 30
0.0
 10
640.107071
 20
900.716967
 30
0.0
 10
631.603134
 20
900.716967
 30
0.0
  0
SPLINE
  5
18d
100
AcDbEntity
  8
Layer_1
 62
1
100
AcDbSpline
 70
8
 71
3
 72
8
 73
4
 74
0
 40
0
 40
0
 40
0
 40
0
 40
1
 40
1
 40
1
 40
1
 10
702.435940
 20
1009.591682
 30
0.0
 10
686.999735
 20
1047.795647
 30
0.0
 10
677.362450
 20
1087.207682
 30
0.0
 10
670.163953
 20
1126.199140
 30
0.0
  0
SPLINE
  5
18e
100
AcDbEntity
  8
Layer_1
 62
1
100
AcDbSpline
 70
8
 71
3
 72
8
 73
4
 74
0
 40
0
 40
0
 40
0
 40
0
 40
1
 40
1
 40
1
 40
1
 10
670.163953
 20
1126.199140
 30
0.0
 10
666.649531
 20
1142.772576
 30
0.0
 10
666.569792
 20
1159.928277
 30
0.0
 10
669.520828
 20
1176.736252
 30
0.0
  0
SPLINE
  5
18f
100
AcDbEntity
  8
Layer_1
 62
1
100
AcDbSpline
 70
8
 71
3
 72
8
 73
4
 74
0
 40
0
 40
0
 40
0
 40
0
 40
1
 40
1
 40
1
 40
1
 10
669.520828
 20
1176.736252
 30
0.0
 10
661.548926
 20
1169.690882
 30
0.0
 10
651.007672
 20
1163.725767
 30
0.0
 10
638.467597
 20
1161.522425
 30
0.0
  0
SPLINE
  5
190
100
AcDbEntity
  8
Layer_1
 62
1
100
AcDbSpline
 70
8
 71
3
 72
8
 73
4
 74
0
 40
0
 40
0
 40
0
 40
0
 40
1
 40
1
 40
1
 40
1
 10
638.467597
 20
1161.522425
 30
0.0
 10
637.387597
 20
1161.094677
 30
0.0
 10
636.292687
 20
1160.537811
 30
0.0
 10
635.186353
 20
1159.872945
 30
0.0
  0
SPLINE
  5
191
100
AcDbEntity
  8
Layer_1
 62
1
100
AcDbSpline
 70
8
 71
3
 72
8
 73
4
 74
0
 40
0
 40
0
 40
0
 40
0
 40
1
 40
1
 40
1
 40
1
 10
635.186353
 20
1159.872945
 30
0.0
 10
635.616949
 20
1159.833555
 30
0.0
 10
636.037274
 20
1159.751369
 30
0.0
 10
636.444709
 20
1159.626898
 30
0.0
  0
SPLINE
  5
192
100
AcDbEntity
  8
Layer_1
 62
1
100
AcDbSpline
 70
8
 71
3
 72
8
 73
4
 74
0
 40
0
 40
0
 40
0
 40
0
 40
1
 40
1
 40
1
 40
1
 10
636.444709
 20
1159.626898
 30
0.0
 10
638.944995
 20
1158.820823
 30
0.0
 10
640.827761
 20
1156.449947
 30
0.0
 10
641.678819
 20
1153.035836
 30
0.0
  0
SPLINE
  5
193
100
AcDbEntity
  8
Layer_1
 62
1
100
AcDbSpline
 70
8
 71
3
 72
8
 73
4
 74
0
 40
0
 40
0
 40
0
 40
0
 40
1
 40
1
 40
1
 40
1
 10
641.678819
 20
1153.035836
 30
0.0
 10
642.529878
 20
1149.621725
 30
0.0
 10
642.279514
 20
1145.444046
 30
0.0
 10
640.982806
 20
1141.421839
 30
0.0
  0
SPLINE
  5
194
100
AcDbEntity
  8
Layer_1
 62
1
100
AcDbSpline
 70
8
 71
3
 72
8
 73
4
 74
0
 40
0
 40
0
 40
0
 40
0
 40
1
 40
1
 40
1
 40
1
 10
640.982806
 20
1141.421839
 30
0.0
 10
638.282518
 20
1133.046618
 30
0.0
 10
631.873265
 20
1127.617801
 30
0.0
 10
626.666882
 20
1129.295849
 30
0.0
  0
SPLINE
  5
195
100
AcDbEntity
  8
Layer_1
 62
1
100
AcDbSpline
 70
8
 71
3
 72
8
 73
4
 74
0
 40
0
 40
0
 40
0
 40
0
 40
1
 40
1
 40
1
 40
1
 10
626.666882
 20
1129.295849
 30
0.0
 10
624.166596
 20
1130.101924
 30
0.0
 10
622.283830
 20
1132.472800
 30
0.0
 10
621.432771
 20
1135.886911
 30
0.0
  0
SPLINE
  5
196
100
AcDbEntity
  8
Layer_1
 62
1
100
AcDbSpline
 70
8
 71
3
 72
8
 73
4
 74
0
 40
0
 40
0
 40
0
 40
0
 40
1
 40
1
 40
1
 40
1
 10
621.432771
 20
1135.886911
 30
0.0
 10
620.581713
 20
1139.301021
 30
0.0
 10
620.832076
 20
1143.478701
 30
0.0
 10
622.128784
 20
1147.500907
 30
0.0
  0
SPLINE
  5
197
100
AcDbEntity
  8
Layer_1
 62
1
100
AcDbSpline
 70
8
 71
3
 72
8
 73
4
 74
0
 40
0
 40
0
 40
0
 40
0
 40
1
 40
1
 40
1
 40
1
 10
622.128784
 20
1147.500907
 30
0.0
 10
622.175050
 20
1147.633668
 30
0.0
 10
622.222392
 20
1147.766000
 30
0.0
 10
622.270800
 20
1147.897871
 30
0.0
  0
SPLINE
  5
198
100
AcDbEntity
  8
Layer_1
 62
1
100
AcDbSpline
 70
8
 71
3
 72
8
 73
4
 74
0
 40
0
 40
0
 40
0
 40
0
 40
1
 40
1
 40
1
 40
1
 10
622.270800
 20
1147.897871
 30
0.0
 10
617.336617
 20
1141.933039
 30
0.0
 10
612.327090
 20
1134.494306
 30
0.0
 10
607.396791
 20
1126.155232
 30
0.0
  0
SPLINE
  5
199
100
AcDbEntity
  8
Layer_1
 62
1
100
AcDbSpline
 70
8
 71
3
 72
8
 73
4
 74
0
 40
0
 40
0
 40
0
 40
0
 40
1
 40
1
 40
1
 40
1
 10
607.396791
 20
1126.155232
 30
0.0
 10
587.707569
 20
1092.860617
 30
0.0
 10
589.419666
 20
1043.036249
 30
0.0
 10
565.978365
 20
991.481924
 30
0.0
  0
SPLINE
  5
19a
100
AcDbEntity
  8
Layer_1
 62
1
100
AcDbSpline
 70
8
 71
3
 72
8
 73
4
 74
0
 40
0
 40
0
 40
0
 40
0
 40
1
 40
1
 40
1
 40
1
 10
565.978365
 20
991.481924
 30
0.0
 10
557.967912
 20
968.807934
 30
0.0
 10
548.270702
 20
946.688910
 30
0.0
 10
536.813320
 20
925.350066
 30
0.0
  0
SPLINE
  5
19b
100
AcDbEntity
  8
Layer_1
 62
1
100
AcDbSpline
 70
8
 71
3
 72
8
 73
4
 74
0
 40
0
 40
0
 40
0
 40
0
 40
1
 40
1
 40
1
 40
1
 10
536.813320
 20
925.350066
 30
0.0
 10
532.190041
 20
911.330844
 30
0.0
 10
530.110517
 20
896.704809
 30
0.0
 10
529.985707
 20
881.303698
 30
0.0
  0
LWPOLYLINE
  5
19c
100
AcDbEntity
  8
Layer_1
 62
1
100
AcDbPolyline
 90
2
 70
0
 10
702.324539
 20
1009.862674
 30
0.0
 10
702.435940
 20
1009.591682
 30
0.0
  0
SPLINE
  5
19d
100
AcDbEntity
  8
Layer_1
 62
1
100
AcDbSpline
 70
8
 71
3
 72
8
 73
4
 74
0
 40
0
 40
0
 40
0
 40
0
 40
1
 40
1
 40
1
 40
1
 10
727.156488
 20
1240.150791
 30
0.0
 10
729.301266
 20
1239.584995
 30
0.0
 10
730.003890
 20
1240.351767
 30
0.0
 10
728.851351
 20
1240.338161
 30
0.0
  0
SPLINE
  5
19e
100
AcDbEntity
  8
Layer_1
 62
1
100
AcDbSpline
 70
8
 71
3
 72
8
 73
4
 74
0
 40
0
 40
0
 40
0
 40
0
 40
1
 40
1
 40
1
 40
1
 10
728.851351
 20
1240.338161
 30
0.0
 10
728.565195
 20
1240.336353
 30
0.0
 10
728.279028
 20
1240.339188
 30
0.0
 10
727.992964
 20
1240.346665
 30
0.0
  0
SPLINE
  5
19f
100
AcDbEntity
  8
Layer_1
 62
1
100
AcDbSpline
 70
8
 71
3
 72
8
 73
4
 74
0
 40
0
 40
0
 40
0
 40
0
 40
1
 40
1
 40
1
 40
1
 10
727.992964
 20
1240.346665
 30
0.0
 10
727.724523
 20
1240.355169
 30
0.0
 10
727.427622
 20
1240.162129
 30
0.0
 10
727.156488
 20
1240.153342
 30
0.0
  0
LWPOLYLINE
  5
1a0
100
AcDbEntity
  8
Layer_1
 62
1
100
AcDbPolyline
 90
2
 70
0
 10
529.985707
 20
881.303698
 30
0.0
 10
529.987124
 20
881.303613
 30
0.0
  0
LWPOLYLINE
  5
1a1
100
AcDbEntity
  8
Layer_1
 62
1
100
AcDbPolyline
 90
2
 70
0
 10
727.156488
 20
1240.153342
 30
0.0
 10
727.156488
 20
1240.150791
 30
0.0
  0
LWPOLYLINE
  5
1a2
100
AcDbEntity
  8
Layer_1
 62
1
100
AcDbPolyline
 90
4
 70
1
 10
518.459740
 20
817.955178
 30
0.0
 10
518.459740
 20
826.579372
 30
0.0
 10
553.931011
 20
826.579372
 30
0.0
 10
553.931011
 20
817.955178
 30
0.0
  0
LWPOLYLINE
  5
1a3
100
AcDbEntity
  8
Layer_1
 62
1
100
AcDbPolyline
 90
4
 70
1
 10
526.313270
 20
925.350085
 30
0.0
 10
526.247113
 20
933.425071
 30
0.0
 10
553.908843
 20
933.651700
 30
0.0
 10
553.975000
 20
925.576713
 30
0.0
  0
SPLINE
  5
1a4
100
AcDbEntity
  8
Layer_1
 62
1
100
AcDbSpline
 70
8
 71
3
 72
8
 73
4
 74
0
 40
0
 40
0
 40
0
 40
0
 40
1
 40
1
 40
1
 40
1
 10
481.582154
 20
86.640573
 30
0.0
 10
457.025760
 20
138.458123
 30
0.0
 10
430.009404
 20
189.211348
 30
0.0
 10
407.029810
 20
241.711140
 30
0.0
  0
SPLINE
  5
1a5
100
AcDbEntity
  8
Layer_1
 62
1
100
AcDbSpline
 70
8
 71
3
 72
8
 73
4
 74
0
 40
0
 40
0
 40
0
 40
0
 40
1
 40
1
 40
1
 40
1
 10
407.029810
 20
241.711140
 30
0.0
 10
371.820677
 20
328.101616
 30
0.0
 10
346.043458
 20
418.044696
 30
0.0
 10
323.306680
 20
508.423490
 30
0.0
  0
SPLINE
  5
1a6
100
AcDbEntity
  8
Layer_1
 62
1
100
AcDbSpline
 70
8
 71
3
 72
8
 73
4
 74
0
 40
0
 40
0
 40
0
 40
0
 40
1
 40
1
 40
1
 40
1
 10
323.306680
 20
508.423490
 30
0.0
 10
311.798330
 20
557.670753
 30
0.0
 10
300.386415
 20
610.584318
 30
0.0
 10
317.101697
 20
660.029496
 30
0.0
  0
SPLINE
  5
1a7
100
AcDbEntity
  8
Layer_1
 62
1
100
AcDbSpline
 70
8
 71
3
 72
8
 73
4
 74
0
 40
0
 40
0
 40
0
 40
0
 40
1
 40
1
 40
1
 40
1
 10
317.101697
 20
660.029496
 30
0.0
 10
328.692166
 20
681.169887
 30
0.0
 10
338.366840
 20
703.329162
 30
0.0
 10
346.404733
 20
726.165720
 30
0.0
  0
SPLINE
  5
1a8
100
AcDbEntity
  8
Layer_1
 62
1
100
AcDbSpline
 70
8
 71
3
 72
8
 73
4
 74
0
 40
0
 40
0
 40
0
 40
0
 40
1
 40
1
 40
1
 40
1
 10
346.404733
 20
726.165720
 30
0.0
 10
367.057905
 20
770.477609
 30
0.0
 10
364.658831
 20
822.484400
 30
0.0
 10
389.773565
 20
864.953572
 30
0.0
  0
SPLINE
  5
1a9
100
AcDbEntity
  8
Layer_1
 62
1
100
AcDbSpline
 70
8
 71
3
 72
8
 73
4
 74
0
 40
0
 40
0
 40
0
 40
0
 40
1
 40
1
 40
1
 40
1
 10
389.773565
 20
864.953572
 30
0.0
 10
400.817713
 20
883.633660
 30
0.0
 10
414.158916
 20
904.524970
 30
0.0
 10
435.247234
 20
912.087833
 30
0.0
  0
SPLINE
  5
1aa
100
AcDbEntity
  8
Layer_1
 62
1
100
AcDbSpline
 70
8
 71
3
 72
8
 73
4
 74
0
 40
0
 40
0
 40
0
 40
0
 40
1
 40
1
 40
1
 40
1
 10
435.247234
 20
912.087833
 30
0.0
 10
456.486384
 20
912.774158
 30
0.0
 10
468.244862
 20
934.067421
 30
0.0
 10
478.127769
 20
950.116050
 30
0.0
  0
SPLINE
  5
1ab
100
AcDbEntity
  8
Layer_1
 62
1
100
AcDbSpline
 70
8
 71
3
 72
8
 73
4
 74
0
 40
0
 40
0
 40
0
 40
0
 40
1
 40
1
 40
1
 40
1
 10
478.127769
 20
950.116050
 30
0.0
 10
488.225401
 20
971.739011
 30
0.0
 10
508.203303
 20
992.654699
 30
0.0
 10
533.687590
 20
992.124082
 30
0.0
  0
SPLINE
  5
1ac
100
AcDbEntity
  8
Layer_1
 62
1
100
AcDbSpline
 70
8
 71
3
 72
8
 73
4
 74
0
 40
0
 40
0
 40
0
 40
0
 40
1
 40
1
 40
1
 40
1
 10
533.687590
 20
992.124082
 30
0.0
 10
553.062138
 20
992.350854
 30
0.0
 10
536.662210
 20
980.547984
 30
0.0
 10
534.409716
 20
969.926567
 30
0.0
  0
SPLINE
  5
1ad
100
AcDbEntity
  8
Layer_1
 62
1
100
AcDbSpline
 70
8
 71
3
 72
8
 73
4
 74
0
 40
0
 40
0
 40
0
 40
0
 40
1
 40
1
 40
1
 40
1
 10
534.409716
 20
969.926567
 30
0.0
 10
526.213480
 20
952.983295
 30
0.0
 10
517.782620
 20
936.187424
 30
0.0
 10
507.357048
 20
920.584428
 30
0.0
  0
SPLINE
  5
1ae
100
AcDbEntity
  8
Layer_1
 62
1
100
AcDbSpline
 70
8
 71
3
 72
8
 73
4
 74
0
 40
0
 40
0
 40
0
 40
0
 40
1
 40
1
 40
1
 40
1
 10
507.357048
 20
920.584428
 30
0.0
 10
498.381511
 20
900.534158
 30
0.0
 10
496.623946
 20
878.281735
 30
0.0
 10
501.220551
 20
856.805638
 30
0.0
  0
SPLINE
  5
1af
100
AcDbEntity
  8
Layer_1
 62
1
100
AcDbSpline
 70
8
 71
3
 72
8
 73
4
 74
0
 40
0
 40
0
 40
0
 40
0
 40
1
 40
1
 40
1
 40
1
 10
501.220551
 20
856.805638
 30
0.0
 10
508.238396
 20
818.688866
 30
0.0
 10
517.552815
 20
780.866586
 30
0.0
 10
532.111669
 20
744.833902
 30
0.0
  0
SPLINE
  5
1b0
100
AcDbEntity
  8
Layer_1
 62
1
100
AcDbSpline
 70
8
 71
3
 72
8
 73
4
 74
0
 40
0
 40
0
 40
0
 40
0
 40
1
 40
1
 40
1
 40
1
 10
532.111669
 20
744.833902
 30
0.0
 10
544.753962
 20
712.526652
 30
0.0
 10
541.931703
 20
677.331833
 30
0.0
 10
543.538947
 20
643.466775
 30
0.0
  0
SPLINE
  5
1b1
100
AcDbEntity
  8
Layer_1
 62
1
100
AcDbSpline
 70
8
 71
3
 72
8
 73
4
 74
0
 40
0
 40
0
 40
0
 40
0
 40
1
 40
1
 40
1
 40
1
 10
543.538947
 20
643.466775
 30
0.0
 10
555.167344
 20
605.980457
 30
0.0
 10
560.829266
 20
566.736913
 30
0.0
 10
563.060132
 20
527.759203
 30
0.0
  0
SPLINE
  5
1b2
100
AcDbEntity
  8
Layer_1
 62
1
100
AcDbSpline
 70
8
 71
3
 72
8
 73
4
 74
0
 40
0
 40
0
 40
0
 40
0
 40
1
 40
1
 40
1
 40
1
 10
563.060132
 20
527.759203
 30
0.0
 10
559.253486
 20
497.854202
 30
0.0
 10
563.635196
 20
466.902762
 30
0.0
 10
553.463155
 20
437.878995
 30
0.0
  0
SPLINE
  5
1b3
100
AcDbEntity
  8
Layer_1
 62
1
100
AcDbSpline
 70
8
 71
3
 72
8
 73
4
 74
0
 40
0
 40
0
 40
0
 40
0
 40
1
 40
1
 40
1
 40
1
 10
553.463155
 20
437.878995
 30
0.0
 10
547.808661
 20
415.987197
 30
0.0
 10
541.832462
 20
394.127997
 30
0.0
 10
540.203845
 20
371.549789
 30
0.0
  0
SPLINE
  5
1b4
100
AcDbEntity
  8
Layer_1
 62
1
100
AcDbSpline
 70
8
 71
3
 72
8
 73
4
 74
0
 40
0
 40
0
 40
0
 40
0
 40
1
 40
1
 40
1
 40
1
 10
540.203845
 20
371.549789
 30
0.0
 10
535.150976
 20
349.166236
 30
0.0
 10
523.422431
 20
328.947361
 30
0.0
 10
515.642434
 20
307.757279
 30
0.0
  0
SPLINE
  5
1b5
100
AcDbEntity
  8
Layer_1
 62
1
100
AcDbSpline
 70
8
 71
3
 72
8
 73
4
 74
0
 40
0
 40
0
 40
0
 40
0
 40
1
 40
1
 40
1
 40
1
 10
515.642434
 20
307.757279
 30
0.0
 10
514.341303
 20
247.956602
 30
0.0
 10
498.546403
 20
189.750271
 30
0.0
 10
489.480242
 20
130.869720
 30
0.0
  0
SPLINE
  5
1b6
100
AcDbEntity
  8
Layer_1
 62
1
100
AcDbSpline
 70
8
 71
3
 72
8
 73
4
 74
0
 40
0
 40
0
 40
0
 40
0
 40
1
 40
1
 40
1
 40
1
 10
489.480242
 20
130.869720
 30
0.0
 10
486.847536
 20
116.126671
 30
0.0
 10
484.214859
 20
101.383622
 30
0.0
 10
481.582154
 20
86.640573
 30
0.0
  0
LWPOLYLINE
  5
1b7
100
AcDbEntity
  8
Layer_1
 62
1
100
AcDbPolyline
 90
4
 70
1
 10
303.386244
 20
543.638973
 30
0.0
 10
303.386244
 20
552.263167
 30
0.0
 10
338.857515
 20
552.263167
 30
0.0
 10
338.857515
 20
543.638973
 30
0.0
  0
LWPOLYLINE
  5
1b8
100
AcDbEntity
  8
Layer_1
 62
1
100
AcDbPolyline
 90
1
 70
1
 10
481.582154
 20
86.640573
 30
0.0
  0
LWPOLYLINE
  5
1b9
100
AcDbEntity
  8
Layer_1
 62
1
100
AcDbPolyline
 90
4
 70
1
 10
436.750702
 20
473.561402
 30
0.0
 10
445.254639
 20
473.561402
 30
0.0
 10
445.254639
 20
422.537780
 30
0.0
 10
436.750702
 20
422.537780
 30
0.0
  0
LWPOLYLINE
  5
1ba
100
AcDbEntity
  8
Layer_1
 62
1
100
AcDbPolyline
 90
4
 70
1
 10
436.750702
 20
677.071783
 30
0.0
 10
445.254639
 20
677.071783
 30
0.0
 10
445.254639
 20
626.048161
 30
0.0
 10
436.750702
 20
626.048161
 30
0.0
  0
LWPOLYLINE
  5
1bb
100
AcDbEntity
  8
Layer_1
 62
1
100
AcDbPolyline
 90
4
 70
1
 10
311.239682
 20
651.033800
 30
0.0
 10
311.173525
 20
659.108786
 30
0.0
 10
338.835254
 20
659.335414
 30
0.0
 10
338.901411
 20
651.260428
 30
0.0
  0
LWPOLYLINE
  5
1bc
100
AcDbEntity
  8
Layer_1
 62
1
100
AcDbPolyline
 90
4
 70
1
 10
444.963086
 20
138.488090
 30
0.0
 10
436.869126
 20
141.096682
 30
0.0
 10
452.520679
 20
189.660443
 30
0.0
 10
460.614639
 20
187.051851
 30
0.0
  0
LWPOLYLINE
  5
1bd
100
AcDbEntity
  8
Layer_1
 62
1
100
AcDbPolyline
 90
53
 70
1
 10
523.371742
 20
148.164775
 30
0.0
 10
517.267559
 20
148.164775
 30
0.0
 10
516.933099
 20
144.546293
 30
0.0
 10
516.821981
 20
140.841524
 30
0.0
 10
516.937635
 20
137.243083
 30
0.0
 10
517.279890
 20
133.526863
 30
0.0
 10
517.823235
 20
129.967682
 30
0.0
 10
518.599956
 20
126.366265
 30
0.0
 10
519.158891
 20
124.270583
 30
0.0
 10
520.803666
 20
124.267748
 30
0.0
 10
523.109027
 20
123.650617
 30
0.0
 10
525.937550
 20
134.206214
 30
0.0
 10
535.064882
 20
131.760539
 30
0.0
 10
532.236699
 20
121.204970
 30
0.0
 10
541.222384
 20
118.796967
 30
0.0
 10
543.308287
 20
121.901159
 30
0.0
 10
544.890614
 20
124.563572
 30
0.0
 10
546.302041
 20
127.250872
 30
0.0
 10
547.571339
 20
130.008387
 30
0.0
 10
548.694850
 20
132.828378
 30
0.0
 10
549.669373
 20
135.703106
 30
0.0
 10
550.491647
 20
138.624973
 30
0.0
 10
551.160567
 20
141.586044
 30
0.0
 10
551.673921
 20
144.577701
 30
0.0
 10
552.029499
 20
147.592403
 30
0.0
 10
552.227357
 20
150.621307
 30
0.0
 10
552.271861
 20
153.656504
 30
0.0
 10
552.153090
 20
156.689631
 30
0.0
 10
551.875294
 20
159.712243
 30
0.0
 10
551.439694
 20
162.716315
 30
0.0
 10
550.847452
 20
165.693713
 30
0.0
 10
550.100721
 20
168.636132
 30
0.0
 10
549.201770
 20
171.535096
 30
0.0
 10
548.151704
 20
174.383263
 30
0.0
 10
546.954094
 20
177.172441
 30
0.0
 10
545.612570
 20
179.895175
 30
0.0
 10
544.130674
 20
182.544661
 30
0.0
 10
542.512375
 20
185.112510
 30
0.0
 10
541.227628
 20
186.984397
 30
0.0
 10
532.100494
 20
184.538580
 30
0.0
 10
535.070126
 20
173.453556
 30
0.0
 10
525.942765
 20
171.007824
 30
0.0
 10
522.972680
 20
182.092876
 30
0.0
 10
520.765767
 20
181.509506
 30
0.0
 10
519.164674
 20
181.509506
 30
0.0
 10
518.245710
 20
177.866277
 30
0.0
 10
517.603465
 20
174.481172
 30
0.0
 10
517.121206
 20
170.774702
 30
0.0
 10
516.870057
 20
167.183150
 30
0.0
 10
516.847380
 20
163.488472
 30
0.0
 10
517.038435
 20
159.928809
 30
0.0
 10
517.272860
 20
157.615994
 30
0.0
 10
523.376929
 20
157.615994
 30
0.0
  0
LWPOLYLINE
  5
1be
100
AcDbEntity
  8
Layer_1
 62
1
100
AcDbPolyline
 90
53
 70
1
 10
570.213893
 20
146.002649
 30
0.0
 10
564.109710
 20
146.002649
 30
0.0
 10
563.775250
 20
142.384167
 30
0.0
 10
563.664132
 20
138.679398
 30
0.0
 10
563.779786
 20
135.080957
 30
0.0
 10
564.122041
 20
131.364737
 30
0.0
 10
564.665386
 20
127.805556
 30
0.0
 10
565.442107
 20
124.204139
 30
0.0
 10
566.001043
 20
122.108457
 30
0.0
 10
567.645817
 20
122.105622
 30
0.0
 10
569.951178
 20
121.488491
 30
0.0
 10
572.779701
 20
132.044088
 30
0.0
 10
581.907033
 20
129.598413
 30
0.0
 10
579.078850
 20
119.042844
 30
0.0
 10
588.064535
 20
116.634841
 30
0.0
 10
590.150438
 20
119.739033
 30
0.0
 10
591.732765
 20
122.401446
 30
0.0
 10
593.144192
 20
125.088746
 30
0.0
 10
594.413490
 20
127.846261
 30
0.0
 10
595.537002
 20
130.666252
 30
0.0
 10
596.511524
 20
133.540980
 30
0.0
 10
597.333798
 20
136.462847
 30
0.0
 10
598.002718
 20
139.423918
 30
0.0
 10
598.516072
 20
142.415575
 30
0.0
 10
598.871650
 20
145.430277
 30
0.0
 10
599.069509
 20
148.459181
 30
0.0
 10
599.114013
 20
151.494378
 30
0.0
 10
598.995241
 20
154.527506
 30
0.0
 10
598.717446
 20
157.550117
 30
0.0
 10
598.281846
 20
160.554189
 30
0.0
 10
597.689603
 20
163.531587
 30
0.0
 10
596.942872
 20
166.474006
 30
0.0
 10
596.043921
 20
169.372970
 30
0.0
 10
594.993855
 20
172.221137
 30
0.0
 10
593.796246
 20
175.010315
 30
0.0
 10
592.454721
 20
177.733049
 30
0.0
 10
590.972825
 20
180.382535
 30
0.0
 10
589.354526
 20
182.950384
 30
0.0
 10
588.069780
 20
184.822271
 30
0.0
 10
578.942646
 20
182.376454
 30
0.0
 10
581.912277
 20
171.291430
 30
0.0
 10
572.784917
 20
168.845698
 30
0.0
 10
569.814832
 20
179.930750
 30
0.0
 10
567.607918
 20
179.347380
 30
0.0
 10
566.006825
 20
179.347380
 30
0.0
 10
565.087861
 20
175.704151
 30
0.0
 10
564.445616
 20
172.319046
 30
0.0
 10
563.963357
 20
168.612576
 30
0.0
 10
563.712208
 20
165.021024
 30
0.0
 10
563.689531
 20
161.326346
 30
0.0
 10
563.880586
 20
157.766683
 30
0.0
 10
564.115011
 20
155.453868
 30
0.0
 10
570.219080
 20
155.453868
 30
0.0
  0
LWPOLYLINE
  5
1bf
100
AcDbEntity
  8
Layer_1
 62
1
100
AcDbPolyline
 90
34
 70
1
 10
544.609502
 20
238.783436
 30
0.0
 10
547.193991
 20
228.538970
 30
0.0
 10
538.031764
 20
226.227713
 30
0.0
 10
535.037216
 20
238.097225
 30
0.0
 10
534.467197
 20
238.058391
 30
0.0
 10
532.961433
 20
234.937361
 30
0.0
 10
531.751465
 20
231.666491
 30
0.0
 10
530.911417
 20
228.532961
 30
0.0
 10
530.339159
 20
225.005726
 30
0.0
 10
530.116923
 20
221.853798
 30
0.0
 10
530.205931
 20
218.467502
 30
0.0
 10
530.615962
 20
215.118454
 30
0.0
 10
531.344891
 20
211.824312
 30
0.0
 10
532.386057
 20
208.615039
 30
0.0
 10
533.729367
 20
205.520088
 30
0.0
 10
535.362917
 20
202.568060
 30
0.0
 10
537.230381
 20
199.833676
 30
0.0
 10
538.893921
 20
199.965203
 30
0.0
 10
538.993984
 20
209.369367
 30
0.0
 10
548.442255
 20
209.254280
 30
0.0
 10
548.353247
 20
200.643080
 30
0.0
 10
550.417039
 20
200.787931
 30
0.0
 10
551.872120
 20
203.914488
 30
0.0
 10
553.013632
 20
207.078832
 30
0.0
 10
553.853707
 20
210.321694
 30
0.0
 10
554.403742
 20
213.861912
 30
0.0
 10
554.611521
 20
217.013244
 30
0.0
 10
554.500403
 20
220.507540
 30
0.0
 10
554.111490
 20
223.715934
 30
0.0
 10
553.358098
 20
227.128904
 30
0.0
 10
552.373597
 20
230.223685
 30
0.0
 10
550.932832
 20
233.556832
 30
0.0
 10
549.453742
 20
236.294306
 30
0.0
 10
547.652750
 20
239.013723
 30
0.0
  0
LWPOLYLINE
  5
1c0
100
AcDbEntity
  8
Layer_1
 62
1
100
AcDbPolyline
 90
34
 70
1
 10
617.649817
 20
241.257487
 30
0.0
 10
620.234306
 20
231.013020
 30
0.0
 10
611.072079
 20
228.701764
 30
0.0
 10
608.077531
 20
240.571276
 30
0.0
 10
607.507512
 20
240.532441
 30
0.0
 10
606.001748
 20
237.411411
 30
0.0
 10
604.791780
 20
234.140542
 30
0.0
 10
603.951732
 20
231.007011
 30
0.0
 10
603.379474
 20
227.479776
 30
0.0
 10
603.157238
 20
224.327849
 30
0.0
 10
603.246246
 20
220.941553
 30
0.0
 10
603.656277
 20
217.592504
 30
0.0
 10
604.385206
 20
214.298362
 30
0.0
 10
605.426372
 20
211.089090
 30
0.0
 10
606.769682
 20
207.994139
 30
0.0
 10
608.403232
 20
205.042110
 30
0.0
 10
610.270696
 20
202.307726
 30
0.0
 10
611.934236
 20
202.439254
 30
0.0
 10
612.034299
 20
211.843417
 30
0.0
 10
621.482570
 20
211.728331
 30
0.0
 10
621.393562
 20
203.117131
 30
0.0
 10
623.457354
 20
203.261981
 30
0.0
 10
624.912435
 20
206.388539
 30
0.0
 10
626.053946
 20
209.552882
 30
0.0
 10
626.894022
 20
212.795745
 30
0.0
 10
627.444057
 20
216.335962
 30
0.0
 10
627.651836
 20
219.487294
 30
0.0
 10
627.540718
 20
222.981591
 30
0.0
 10
627.151805
 20
226.189984
 30
0.0
 10
626.398413
 20
229.602954
 30
0.0
 10
625.413912
 20
232.697735
 30
0.0
 10
623.973146
 20
236.030882
 30
0.0
 10
622.494057
 20
238.768356
 30
0.0
 10
620.693065
 20
241.487773
 30
0.0
  0
LWPOLYLINE
  5
1c1
100
AcDbEntity
  8
Layer_1
 62
1
100
AcDbPolyline
 90
34
 70
1
 10
650.284129
 20
242.394236
 30
0.0
 10
652.868617
 20
232.149770
 30
0.0
 10
643.706391
 20
229.838513
 30
0.0
 10
640.711843
 20
241.708025
 30
0.0
 10
640.141824
 20
241.669191
 30
0.0
 10
638.636060
 20
238.548161
 30
0.0
 10
637.426091
 20
235.277291
 30
0.0
 10
636.586044
 20
232.143761
 30
0.0
 10
636.013786
 20
228.616526
 30
0.0
 10
635.791550
 20
225.464598
 30
0.0
 10
635.880557
 20
222.078302
 30
0.0
 10
636.290589
 20
218.729254
 30
0.0
 10
637.019518
 20
215.435112
 30
0.0
 10
638.060683
 20
212.225839
 30
0.0
 10
639.403994
 20
209.130888
 30
0.0
 10
641.037543
 20
206.178860
 30
0.0
 10
642.905008
 20
203.444476
 30
0.0
 10
644.568548
 20
203.576003
 30
0.0
 10
644.668611
 20
212.980167
 30
0.0
 10
654.116882
 20
212.865080
 30
0.0
 10
654.027874
 20
204.253880
 30
0.0
 10
656.091666
 20
204.398731
 30
0.0
 10
657.546746
 20
207.525288
 30
0.0
 10
658.688258
 20
210.689632
 30
0.0
 10
659.528334
 20
213.932494
 30
0.0
 10
660.078369
 20
217.472712
 30
0.0
 10
660.286148
 20
220.624044
 30
0.0
 10
660.175030
 20
224.118340
 30
0.0
 10
659.786117
 20
227.326734
 30
0.0
 10
659.032724
 20
230.739704
 30
0.0
 10
658.048224
 20
233.834485
 30
0.0
 10
656.607458
 20
237.167632
 30
0.0
 10
655.128369
 20
239.905106
 30
0.0
 10
653.327376
 20
242.624523
 30
0.0
  0
ENDSEC
  0
SECTION
  2
OBJECTS
  0
DICTIONARY
  5
C
330
0
100
AcDbDictionary
  3
ACAD_GROUP
350
D
  3
ACAD_MLINESTYLE
350
17
  0
DICTIONARY
  5
D
330
C
100
AcDbDictionary
  0
DICTIONARY
  5
1A
330
C
100
AcDbDictionary
  0
DICTIONARY
  5
17
330
C
100
AcDbDictionary
  3
STANDARD
350
18
  0
DICTIONARY
  5
19
330
C
100
AcDbDictionary
  0
ENDSEC
  0
EOF
