  0
SECTION
  2
HEADER
  9
$ACADVER
  1
AC1014
  9
$HANDSEED
  5
FFFF
  9
$MEASUREMENT
 70
     1
  0
ENDSEC
  0
SECTION
  2
TABLES
  0
TABLE
  2
VPORT
  5
8
330
0
100
AcDbSymbolTable
 70
     4
  0
VPORT
  5
2E
330
8
100
AcDbSymbolTableRecord
100
AcDbViewportTableRecord
  2
*ACTIVE
 70
     0
 10
0.0
 20
0.0
 11
1.0
 21
1.0
 12
210.0
 22
148.5
 13
0.0
 23
0.0
 14
10.0
 24
10.0
 15
10.0
 25
10.0
 16
0.0
 26
0.0
 36
1.0
 17
0.0
 27
0.0
 37
0.0
 40
341.0
 41
1.24
 42
50.0
 43
0.0
 44
0.0
 50
0.0
 51
0.0
 71
     0
 72
   100
 73
     1
 74
     3
 75
     0
 76
     0
 77
     0
 78
     0
  0
ENDTAB
  0
TABLE
  2
LTYPE
  5
5
330
0
100
AcDbSymbolTable
 70
     1
  0
LTYPE
  5
14
330
5
100
AcDbSymbolTableRecord
100
AcDbLinetypeTableRecord
  2
BYBLOCK
 70
     0
  3

 72
    65
 73
     0
 40
0.0
  0
LTYPE
  5
15
330
5
100
AcDbSymbolTableRecord
100
AcDbLinetypeTableRecord
  2
BYLAYER
 70
     0
  3

 72
    65
 73
     0
 40
0.0
  0
LTYPE
  5
16
330
5
100
AcDbSymbolTableRecord
100
AcDbLinetypeTableRecord
  2
CONTINUOUS
 70
     0
  3
Solid line
 72
    65
 73
     0
 40
0.0
  0
ENDTAB
  0
TABLE
  2
LAYER
  5
2
100
AcDbSymbolTable
 70
1
  0
LAYER
  5
50
100
AcDbSymbolTableRecord
100
AcDbLayerTableRecord
  2
0
 70
0
  6
CONTINUOUS
  0
ENDTAB
  0
TABLE
  2
STYLE
  5
3
330
0
100
AcDbSymbolTable
 70
     1
  0
STYLE
  5
11
330
3
100
AcDbSymbolTableRecord
100
AcDbTextStyleTableRecord
  2
STANDARD
 70
     0
 40
0.0
 41
1.0
 50
0.0
 71
     0
 42
2.5
  3
txt
  4

  0
ENDTAB
  0
TABLE
  2
VIEW
  5
6
330
0
100
AcDbSymbolTable
 70
     0
  0
ENDTAB
  0
TABLE
  2
UCS
  5
7
330
0
100
AcDbSymbolTable
 70
     0
  0
ENDTAB
  0
TABLE
  2
APPID
  5
9
330
0
100
AcDbSymbolTable
 70
     2
  0
APPID
  5
12
330
9
100
AcDbSymbolTableRecord
100
AcDbRegAppTableRecord
  2
ACAD
 70
     0
  0
ENDTAB
  0
TABLE
  2
DIMSTYLE
  5
A
330
0
100
AcDbSymbolTable
 70
     1
  0
DIMSTYLE
105
27
330
A
100
AcDbSymbolTableRecord
100
AcDbDimStyleTableRecord
  2
ISO-25
 70
     0
  3

  4

  5

  6

  7

 40
1.0
 41
2.5
 42
0.625
 43
3.75
 44
1.25
 45
0.0
 46
0.0
 47
0.0
 48
0.0
140
2.5
141
2.5
142
0.0
143
0.03937007874016
144
1.0
145
0.0
146
1.0
147
0.625
 71
     0
 72
     0
 73
     0
 74
     0
 75
     0
 76
     0
 77
     1
 78
     8
170
     0
171
     3
172
     1
173
     0
174
     0
175
     0
176
     0
177
     0
178
     0
270
     2
271
     2
272
     2
273
     2
274
     3
340
11
275
     0
280
     0
281
     0
282
     0
283
     0
284
     8
285
     0
286
     0
287
     3
288
     0
  0
ENDTAB
  0
TABLE
  2
BLOCK_RECORD
  5
1
330
0
100
AcDbSymbolTable
 70
     1
  0
BLOCK_RECORD
  5
1F
330
1
100
AcDbSymbolTableRecord
100
AcDbBlockTableRecord
  2
*MODEL_SPACE
  0
BLOCK_RECORD
  5
1B
330
1
100
AcDbSymbolTableRecord
100
AcDbBlockTableRecord
  2
*PAPER_SPACE
  0
ENDTAB
  0
ENDSEC
  0
SECTION
  2
BLOCKS
  0
BLOCK
  5
20
330
1F
100
AcDbEntity
  8
0
100
AcDbBlockBegin
  2
*MODEL_SPACE
 70
     0
 10
0.0
 20
0.0
 30
0.0
  3
*MODEL_SPACE
  1

  0
ENDBLK
  5
21
330
1F
100
AcDbEntity
  8
0
100
AcDbBlockEnd
  0
BLOCK
  5
1C
330
1B
100
AcDbEntity
 67
     1
  8
0
100
AcDbBlockBegin
  2
*PAPER_SPACE
  1

  0
ENDBLK
  5
1D
330
1B
100
AcDbEntity
 67
     1
  8
0
100
AcDbBlockEnd
  0
ENDSEC
  0
SECTION
  2
ENTITIES
  0
SPLINE
  5
100
100
AcDbEntity
  8
0
 62
7
100
AcDbSpline
 70
8
 71
3
 72
8
 73
4
 74
0
 40
0
 40
0
 40
0
 40
0
 40
1
 40
1
 40
1
 40
1
 10
246.125205
 20
771.879893
 30
0.0
 10
246.125205
 20
771.879893
 30
0.0
 10
195.504563
 20
787.286175
 30
0.0
 10
195.504562
 20
787.286175
 30
0.0
  0
SPLINE
  5
101
100
AcDbEntity
  8
0
 62
7
100
AcDbSpline
 70
8
 71
3
 72
8
 73
4
 74
0
 40
0
 40
0
 40
0
 40
0
 40
1
 40
1
 40
1
 40
1
 10
195.504562
 20
787.286175
 30
0.0
 10
131.474878
 20
789.972258
 30
0.0
 10
68.307722
 20
771.767256
 30
0.0
 10
15.528608
 20
735.416456
 30
0.0
  0
SPLINE
  5
102
100
AcDbEntity
  8
0
 62
7
100
AcDbSpline
 70
8
 71
3
 72
8
 73
4
 74
0
 40
0
 40
0
 40
0
 40
0
 40
1
 40
1
 40
1
 40
1
 10
15.528608
 20
735.416456
 30
0.0
 10
15.631537
 20
735.204562
 30
0.0
 10
15.734185
 20
734.992532
 30
0.0
 10
15.836553
 20
734.780366
 30
0.0
  0
SPLINE
  5
103
100
AcDbEntity
  8
0
 62
7
100
AcDbSpline
 70
8
 71
3
 72
8
 73
4
 74
0
 40
0
 40
0
 40
0
 40
0
 40
1
 40
1
 40
1
 40
1
 10
15.836553
 20
734.780366
 30
0.0
 10
15.836553
 20
734.780366
 30
0.0
 10
217.200315
 20
734.780366
 30
0.0
 10
217.200315
 20
734.780366
 30
0.0
  0
SPLINE
  5
104
100
AcDbEntity
  8
0
 62
7
100
AcDbSpline
 70
8
 71
3
 72
8
 73
4
 74
0
 40
0
 40
0
 40
0
 40
0
 40
1
 40
1
 40
1
 40
1
 10
217.200315
 20
734.780366
 30
0.0
 10
224.501221
 20
748.805786
 30
0.0
 10
234.303887
 20
761.378841
 30
0.0
 10
246.125205
 20
771.879893
 30
0.0
  0
LWPOLYLINE
  5
105
100
AcDbEntity
  8
0
 62
7
100
AcDbPolyline
 90
1
 70
1
 10
246.125205
 20
771.879893
 30
0.0
  0
SPLINE
  5
106
100
AcDbEntity
  8
0
 62
7
100
AcDbSpline
 70
8
 71
3
 72
8
 73
4
 74
0
 40
0
 40
0
 40
0
 40
0
 40
1
 40
1
 40
1
 40
1
 10
336.931643
 20
771.879893
 30
0.0
 10
348.752960
 20
761.378841
 30
0.0
 10
358.555626
 20
748.805786
 30
0.0
 10
365.856533
 20
734.780366
 30
0.0
  0
SPLINE
  5
107
100
AcDbEntity
  8
0
 62
7
100
AcDbSpline
 70
8
 71
3
 72
8
 73
4
 74
0
 40
0
 40
0
 40
0
 40
0
 40
1
 40
1
 40
1
 40
1
 10
365.856533
 20
734.780366
 30
0.0
 10
365.856533
 20
734.780366
 30
0.0
 10
567.220298
 20
734.780366
 30
0.0
 10
567.220297
 20
734.780366
 30
0.0
  0
SPLINE
  5
108
100
AcDbEntity
  8
0
 62
7
100
AcDbSpline
 70
8
 71
3
 72
8
 73
4
 74
0
 40
0
 40
0
 40
0
 40
0
 40
1
 40
1
 40
1
 40
1
 10
567.220297
 20
734.780366
 30
0.0
 10
567.322664
 20
734.992532
 30
0.0
 10
567.425312
 20
735.204562
 30
0.0
 10
567.528240
 20
735.416456
 30
0.0
  0
SPLINE
  5
109
100
AcDbEntity
  8
0
 62
7
100
AcDbSpline
 70
8
 71
3
 72
8
 73
4
 74
0
 40
0
 40
0
 40
0
 40
0
 40
1
 40
1
 40
1
 40
1
 10
567.528240
 20
735.416456
 30
0.0
 10
514.749127
 20
771.767255
 30
0.0
 10
451.581975
 20
789.972256
 30
0.0
 10
387.552292
 20
787.286175
 30
0.0
  0
LWPOLYLINE
  5
10a
100
AcDbEntity
  8
0
 62
7
100
AcDbPolyline
 90
2
 70
0
 10
0.000000
 20
637.795276
 30
0.0
 10
0.000000
 20
354.330709
 30
0.0
  0
SPLINE
  5
10b
100
AcDbEntity
  8
0
 62
7
100
AcDbSpline
 70
8
 71
3
 72
8
 73
4
 74
0
 40
0
 40
0
 40
0
 40
0
 40
1
 40
1
 40
1
 40
1
 10
235.508951
 20
140.186179
 30
0.0
 10
235.508951
 20
176.920073
 30
0.0
 10
215.911652
 20
210.863591
 30
0.0
 10
184.099166
 20
229.230538
 30
0.0
  0
SPLINE
  5
10c
100
AcDbEntity
  8
0
 62
7
100
AcDbSpline
 70
8
 71
3
 72
8
 73
4
 74
0
 40
0
 40
0
 40
0
 40
0
 40
1
 40
1
 40
1
 40
1
 10
184.099166
 20
229.230538
 30
0.0
 10
152.286680
 20
247.597486
 30
0.0
 10
113.092082
 20
247.597486
 30
0.0
 10
81.279596
 20
229.230538
 30
0.0
  0
SPLINE
  5
10d
100
AcDbEntity
  8
0
 62
7
100
AcDbSpline
 70
8
 71
3
 72
8
 73
4
 74
0
 40
0
 40
0
 40
0
 40
0
 40
1
 40
1
 40
1
 40
1
 10
81.279596
 20
229.230538
 30
0.0
 10
49.467110
 20
210.863591
 30
0.0
 10
29.869811
 20
176.920073
 30
0.0
 10
29.869813
 20
140.186179
 30
0.0
  0
SPLINE
  5
10e
100
AcDbEntity
  8
0
 62
7
100
AcDbSpline
 70
8
 71
3
 72
8
 73
4
 74
0
 40
0
 40
0
 40
0
 40
0
 40
1
 40
1
 40
1
 40
1
 10
29.869813
 20
140.186179
 30
0.0
 10
29.869813
 20
103.452284
 30
0.0
 10
49.467112
 20
69.508766
 30
0.0
 10
81.279598
 20
51.141819
 30
0.0
  0
SPLINE
  5
10f
100
AcDbEntity
  8
0
 62
7
100
AcDbSpline
 70
8
 71
3
 72
8
 73
4
 74
0
 40
0
 40
0
 40
0
 40
0
 40
1
 40
1
 40
1
 40
1
 10
81.279598
 20
51.141819
 30
0.0
 10
113.092084
 20
32.774872
 30
0.0
 10
152.286682
 20
32.774872
 30
0.0
 10
184.099168
 20
51.141819
 30
0.0
  0
SPLINE
  5
110
100
AcDbEntity
  8
0
 62
7
100
AcDbSpline
 70
8
 71
3
 72
8
 73
4
 74
0
 40
0
 40
0
 40
0
 40
0
 40
1
 40
1
 40
1
 40
1
 10
184.099168
 20
51.141819
 30
0.0
 10
215.911654
 20
69.508766
 30
0.0
 10
235.508953
 20
103.452284
 30
0.0
 10
235.508953
 20
140.186179
 30
0.0
  0
LWPOLYLINE
  5
111
100
AcDbEntity
  8
0
 62
7
100
AcDbPolyline
 90
2
 70
0
 10
387.552292
 20
787.286175
 30
0.0
 10
336.931643
 20
771.879893
 30
0.0
  0
SPLINE
  5
112
100
AcDbEntity
  8
0
 62
7
100
AcDbSpline
 70
8
 71
3
 72
8
 73
4
 74
0
 40
0
 40
0
 40
0
 40
0
 40
1
 40
1
 40
1
 40
1
 10
215.399906
 20
140.186179
 30
0.0
 10
215.399906
 20
169.735803
 30
0.0
 10
199.635369
 20
197.040782
 30
0.0
 10
174.044643
 20
211.815595
 30
0.0
  0
SPLINE
  5
113
100
AcDbEntity
  8
0
 62
7
100
AcDbSpline
 70
8
 71
3
 72
8
 73
4
 74
0
 40
0
 40
0
 40
0
 40
0
 40
1
 40
1
 40
1
 40
1
 10
174.044643
 20
211.815595
 30
0.0
 10
148.453918
 20
226.590407
 30
0.0
 10
116.924844
 20
226.590407
 30
0.0
 10
91.334118
 20
211.815595
 30
0.0
  0
SPLINE
  5
114
100
AcDbEntity
  8
0
 62
7
100
AcDbSpline
 70
8
 71
3
 72
8
 73
4
 74
0
 40
0
 40
0
 40
0
 40
0
 40
1
 40
1
 40
1
 40
1
 10
91.334118
 20
211.815595
 30
0.0
 10
65.743393
 20
197.040782
 30
0.0
 10
49.978856
 20
169.735803
 30
0.0
 10
49.978858
 20
140.186179
 30
0.0
  0
SPLINE
  5
115
100
AcDbEntity
  8
0
 62
7
100
AcDbSpline
 70
8
 71
3
 72
8
 73
4
 74
0
 40
0
 40
0
 40
0
 40
0
 40
1
 40
1
 40
1
 40
1
 10
49.978858
 20
140.186179
 30
0.0
 10
49.978858
 20
110.636554
 30
0.0
 10
65.743395
 20
83.331575
 30
0.0
 10
91.334120
 20
68.556763
 30
0.0
  0
SPLINE
  5
116
100
AcDbEntity
  8
0
 62
7
100
AcDbSpline
 70
8
 71
3
 72
8
 73
4
 74
0
 40
0
 40
0
 40
0
 40
0
 40
1
 40
1
 40
1
 40
1
 10
91.334120
 20
68.556763
 30
0.0
 10
116.924846
 20
53.781951
 30
0.0
 10
148.453920
 20
53.781951
 30
0.0
 10
174.044645
 20
68.556763
 30
0.0
  0
SPLINE
  5
117
100
AcDbEntity
  8
0
 62
7
100
AcDbSpline
 70
8
 71
3
 72
8
 73
4
 74
0
 40
0
 40
0
 40
0
 40
0
 40
1
 40
1
 40
1
 40
1
 10
174.044645
 20
68.556763
 30
0.0
 10
199.635371
 20
83.331575
 30
0.0
 10
215.399908
 20
110.636554
 30
0.0
 10
215.399908
 20
140.186179
 30
0.0
  0
LWPOLYLINE
  5
118
100
AcDbEntity
  8
0
 62
7
100
AcDbPolyline
 90
1
 70
1
 10
235.508953
 20
140.186179
 30
0.0
  0
SPLINE
  5
119
100
AcDbEntity
  8
0
 62
7
100
AcDbSpline
 70
8
 71
3
 72
8
 73
4
 74
0
 40
0
 40
0
 40
0
 40
0
 40
1
 40
1
 40
1
 40
1
 10
151.114575
 20
140.186179
 30
0.0
 10
151.114575
 20
146.768868
 30
0.0
 10
147.602752
 20
152.851523
 30
0.0
 10
141.901976
 20
156.142868
 30
0.0
  0
SPLINE
  5
11a
100
AcDbEntity
  8
0
 62
7
100
AcDbSpline
 70
8
 71
3
 72
8
 73
4
 74
0
 40
0
 40
0
 40
0
 40
0
 40
1
 40
1
 40
1
 40
1
 10
141.901976
 20
156.142868
 30
0.0
 10
136.201200
 20
159.434212
 30
0.0
 10
129.177555
 20
159.434212
 30
0.0
 10
123.476779
 20
156.142868
 30
0.0
  0
SPLINE
  5
11b
100
AcDbEntity
  8
0
 62
7
100
AcDbSpline
 70
8
 71
3
 72
8
 73
4
 74
0
 40
0
 40
0
 40
0
 40
0
 40
1
 40
1
 40
1
 40
1
 10
123.476779
 20
156.142868
 30
0.0
 10
117.776003
 20
152.851523
 30
0.0
 10
114.264180
 20
146.768868
 30
0.0
 10
114.264180
 20
140.186179
 30
0.0
  0
SPLINE
  5
11c
100
AcDbEntity
  8
0
 62
7
100
AcDbSpline
 70
8
 71
3
 72
8
 73
4
 74
0
 40
0
 40
0
 40
0
 40
0
 40
1
 40
1
 40
1
 40
1
 10
114.264180
 20
140.186179
 30
0.0
 10
114.264180
 20
133.603490
 30
0.0
 10
117.776003
 20
127.520834
 30
0.0
 10
123.476779
 20
124.229490
 30
0.0
  0
SPLINE
  5
11d
100
AcDbEntity
  8
0
 62
7
100
AcDbSpline
 70
8
 71
3
 72
8
 73
4
 74
0
 40
0
 40
0
 40
0
 40
0
 40
1
 40
1
 40
1
 40
1
 10
123.476779
 20
124.229490
 30
0.0
 10
129.177555
 20
120.938145
 30
0.0
 10
136.201200
 20
120.938145
 30
0.0
 10
141.901976
 20
124.229490
 30
0.0
  0
SPLINE
  5
11e
100
AcDbEntity
  8
0
 62
7
100
AcDbSpline
 70
8
 71
3
 72
8
 73
4
 74
0
 40
0
 40
0
 40
0
 40
0
 40
1
 40
1
 40
1
 40
1
 10
141.901976
 20
124.229490
 30
0.0
 10
147.602752
 20
127.520834
 30
0.0
 10
151.114575
 20
133.603490
 30
0.0
 10
151.114575
 20
140.186179
 30
0.0
  0
LWPOLYLINE
  5
11f
100
AcDbEntity
  8
0
 62
7
100
AcDbPolyline
 90
1
 70
1
 10
215.399908
 20
140.186179
 30
0.0
  0
LWPOLYLINE
  5
120
100
AcDbEntity
  8
0
 62
7
100
AcDbPolyline
 90
1
 70
1
 10
151.114575
 20
140.186179
 30
0.0
  0
LWPOLYLINE
  5
121
100
AcDbEntity
  8
0
 62
7
100
AcDbPolyline
 90
2
 70
0
 10
132.689378
 20
140.186179
 30
0.0
 10
132.689378
 20
222.896711
 30
0.0
  0
LWPOLYLINE
  5
122
100
AcDbEntity
  8
0
 62
7
100
AcDbPolyline
 90
2
 70
0
 10
132.689378
 20
140.186179
 30
0.0
 10
132.689378
 20
57.475639
 30
0.0
  0
LWPOLYLINE
  5
123
100
AcDbEntity
  8
0
 62
7
100
AcDbPolyline
 90
2
 70
0
 10
132.689378
 20
140.186179
 30
0.0
 10
215.399910
 20
140.186179
 30
0.0
  0
LWPOLYLINE
  5
124
100
AcDbEntity
  8
0
 62
7
100
AcDbPolyline
 90
2
 70
0
 10
132.689378
 20
140.186179
 30
0.0
 10
49.978852
 20
140.186179
 30
0.0
  0
LWPOLYLINE
  5
125
100
AcDbEntity
  8
0
 62
7
100
AcDbPolyline
 90
2
 70
0
 10
132.689378
 20
140.186179
 30
0.0
 10
215.399910
 20
140.186179
 30
0.0
  0
LWPOLYLINE
  5
126
100
AcDbEntity
  8
0
 62
7
100
AcDbPolyline
 90
2
 70
0
 10
132.689378
 20
140.186179
 30
0.0
 10
215.399910
 20
140.186179
 30
0.0
  0
LWPOLYLINE
  5
127
100
AcDbEntity
  8
0
 62
7
100
AcDbPolyline
 90
2
 70
0
 10
159.891188
 20
153.214766
 30
0.0
 10
214.367333
 20
153.214766
 30
0.0
  0
LWPOLYLINE
  5
128
100
AcDbEntity
  8
0
 62
7
100
AcDbPolyline
 90
2
 70
0
 10
159.891188
 20
127.157599
 30
0.0
 10
214.367333
 20
127.157599
 30
0.0
  0
LWPOLYLINE
  5
129
100
AcDbEntity
  8
0
 62
7
100
AcDbPolyline
 90
2
 70
0
 10
145.717957
 20
167.387989
 30
0.0
 10
145.717957
 20
221.864134
 30
0.0
  0
LWPOLYLINE
  5
12a
100
AcDbEntity
  8
0
 62
7
100
AcDbPolyline
 90
2
 70
0
 10
119.660798
 20
221.864134
 30
0.0
 10
119.660798
 20
167.387989
 30
0.0
  0
LWPOLYLINE
  5
12b
100
AcDbEntity
  8
0
 62
7
100
AcDbPolyline
 90
2
 70
0
 10
105.487568
 20
153.214766
 30
0.0
 10
51.011430
 20
153.214766
 30
0.0
  0
LWPOLYLINE
  5
12c
100
AcDbEntity
  8
0
 62
7
100
AcDbPolyline
 90
2
 70
0
 10
105.487568
 20
127.157599
 30
0.0
 10
51.011430
 20
127.157599
 30
0.0
  0
LWPOLYLINE
  5
12d
100
AcDbEntity
  8
0
 62
7
100
AcDbPolyline
 90
2
 70
0
 10
119.660798
 20
112.984369
 30
0.0
 10
119.660798
 20
58.508239
 30
0.0
  0
SPLINE
  5
12e
100
AcDbEntity
  8
0
 62
7
100
AcDbSpline
 70
8
 71
3
 72
8
 73
4
 74
0
 40
0
 40
0
 40
0
 40
0
 40
1
 40
1
 40
1
 40
1
 10
141.193313
 20
140.186179
 30
0.0
 10
141.195524
 20
143.225816
 30
0.0
 10
139.575167
 20
146.035502
 30
0.0
 10
136.943132
 20
147.555959
 30
0.0
  0
SPLINE
  5
12f
100
AcDbEntity
  8
0
 62
7
100
AcDbSpline
 70
8
 71
3
 72
8
 73
4
 74
0
 40
0
 40
0
 40
0
 40
0
 40
1
 40
1
 40
1
 40
1
 10
136.943132
 20
147.555959
 30
0.0
 10
134.311097
 20
149.076416
 30
0.0
 10
131.067658
 20
149.076416
 30
0.0
 10
128.435623
 20
147.555959
 30
0.0
  0
SPLINE
  5
130
100
AcDbEntity
  8
0
 62
7
100
AcDbSpline
 70
8
 71
3
 72
8
 73
4
 74
0
 40
0
 40
0
 40
0
 40
0
 40
1
 40
1
 40
1
 40
1
 10
128.435623
 20
147.555959
 30
0.0
 10
125.803588
 20
146.035502
 30
0.0
 10
124.183231
 20
143.225816
 30
0.0
 10
124.185442
 20
140.186179
 30
0.0
  0
SPLINE
  5
131
100
AcDbEntity
  8
0
 62
7
100
AcDbSpline
 70
8
 71
3
 72
8
 73
4
 74
0
 40
0
 40
0
 40
0
 40
0
 40
1
 40
1
 40
1
 40
1
 10
124.185442
 20
140.186179
 30
0.0
 10
124.183231
 20
137.146542
 30
0.0
 10
125.803588
 20
134.336855
 30
0.0
 10
128.435623
 20
132.816398
 30
0.0
  0
SPLINE
  5
132
100
AcDbEntity
  8
0
 62
7
100
AcDbSpline
 70
8
 71
3
 72
8
 73
4
 74
0
 40
0
 40
0
 40
0
 40
0
 40
1
 40
1
 40
1
 40
1
 10
128.435623
 20
132.816398
 30
0.0
 10
131.067658
 20
131.295941
 30
0.0
 10
134.311097
 20
131.295941
 30
0.0
 10
136.943132
 20
132.816398
 30
0.0
  0
SPLINE
  5
133
100
AcDbEntity
  8
0
 62
7
100
AcDbSpline
 70
8
 71
3
 72
8
 73
4
 74
0
 40
0
 40
0
 40
0
 40
0
 40
1
 40
1
 40
1
 40
1
 10
136.943132
 20
132.816398
 30
0.0
 10
139.575167
 20
134.336855
 30
0.0
 10
141.195524
 20
137.146542
 30
0.0
 10
141.193313
 20
140.186179
 30
0.0
  0
LWPOLYLINE
  5
134
100
AcDbEntity
  8
0
 62
7
100
AcDbPolyline
 90
2
 70
0
 10
145.717957
 20
112.984369
 30
0.0
 10
145.717957
 20
58.508239
 30
0.0
  0
SPLINE
  5
135
100
AcDbEntity
  8
0
 62
7
100
AcDbSpline
 70
8
 71
3
 72
8
 73
4
 74
0
 40
0
 40
0
 40
0
 40
0
 40
1
 40
1
 40
1
 40
1
 10
145.717958
 20
167.387989
 30
0.0
 10
145.717961
 20
159.560333
 30
0.0
 10
152.063531
 20
153.214765
 30
0.0
 10
159.891188
 20
153.214766
 30
0.0
  0
SPLINE
  5
136
100
AcDbEntity
  8
0
 62
7
100
AcDbSpline
 70
8
 71
3
 72
8
 73
4
 74
0
 40
0
 40
0
 40
0
 40
0
 40
1
 40
1
 40
1
 40
1
 10
105.487568
 20
153.214766
 30
0.0
 10
113.315224
 20
153.214765
 30
0.0
 10
119.660794
 20
159.560333
 30
0.0
 10
119.660798
 20
167.387989
 30
0.0
  0
SPLINE
  5
137
100
AcDbEntity
  8
0
 62
7
100
AcDbSpline
 70
8
 71
3
 72
8
 73
4
 74
0
 40
0
 40
0
 40
0
 40
0
 40
1
 40
1
 40
1
 40
1
 10
119.660798
 20
112.984369
 30
0.0
 10
119.660798
 20
116.743343
 30
0.0
 10
118.167551
 20
120.348360
 30
0.0
 10
115.509555
 20
123.006356
 30
0.0
  0
SPLINE
  5
138
100
AcDbEntity
  8
0
 62
7
100
AcDbSpline
 70
8
 71
3
 72
8
 73
4
 74
0
 40
0
 40
0
 40
0
 40
0
 40
1
 40
1
 40
1
 40
1
 10
115.509555
 20
123.006356
 30
0.0
 10
112.851559
 20
125.664353
 30
0.0
 10
109.246542
 20
127.157599
 30
0.0
 10
105.487568
 20
127.157599
 30
0.0
  0
SPLINE
  5
139
100
AcDbEntity
  8
0
 62
7
100
AcDbSpline
 70
8
 71
3
 72
8
 73
4
 74
0
 40
0
 40
0
 40
0
 40
0
 40
1
 40
1
 40
1
 40
1
 10
159.891188
 20
127.157599
 30
0.0
 10
156.132213
 20
127.157599
 30
0.0
 10
152.527196
 20
125.664353
 30
0.0
 10
149.869200
 20
123.006356
 30
0.0
  0
SPLINE
  5
13a
100
AcDbEntity
  8
0
 62
7
100
AcDbSpline
 70
8
 71
3
 72
8
 73
4
 74
0
 40
0
 40
0
 40
0
 40
0
 40
1
 40
1
 40
1
 40
1
 10
149.869200
 20
123.006356
 30
0.0
 10
147.211204
 20
120.348360
 30
0.0
 10
145.717957
 20
116.743343
 30
0.0
 10
145.717957
 20
112.984369
 30
0.0
  0
SPLINE
  5
13b
100
AcDbEntity
  8
0
 62
7
100
AcDbSpline
 70
8
 71
3
 72
8
 73
4
 74
0
 40
0
 40
0
 40
0
 40
0
 40
1
 40
1
 40
1
 40
1
 10
122.710643
 20
369.364316
 30
0.0
 10
130.538299
 20
369.364315
 30
0.0
 10
136.883869
 20
375.709883
 30
0.0
 10
136.883873
 20
383.537539
 30
0.0
  0
LWPOLYLINE
  5
13c
100
AcDbEntity
  8
0
 62
7
100
AcDbPolyline
 90
1
 70
1
 10
141.193313
 20
140.186179
 30
0.0
  0
LWPOLYLINE
  5
13d
100
AcDbEntity
  8
0
 62
7
100
AcDbPolyline
 90
2
 70
0
 10
149.912453
 20
356.335729
 30
0.0
 10
232.622977
 20
356.335729
 30
0.0
  0
LWPOLYLINE
  5
13e
100
AcDbEntity
  8
0
 62
7
100
AcDbPolyline
 90
2
 70
0
 10
122.710643
 20
369.364316
 30
0.0
 10
68.234501
 20
369.364316
 30
0.0
  0
LWPOLYLINE
  5
13f
100
AcDbEntity
  8
0
 62
7
100
AcDbPolyline
 90
2
 70
0
 10
162.941033
 20
329.133919
 30
0.0
 10
162.941033
 20
274.657781
 30
0.0
  0
SPLINE
  5
140
100
AcDbEntity
  8
0
 62
7
100
AcDbSpline
 70
8
 71
3
 72
8
 73
4
 74
0
 40
0
 40
0
 40
0
 40
0
 40
1
 40
1
 40
1
 40
1
 10
168.337649
 20
356.335729
 30
0.0
 10
168.337649
 20
362.918418
 30
0.0
 10
164.825827
 20
369.001073
 30
0.0
 10
159.125051
 20
372.292417
 30
0.0
  0
SPLINE
  5
141
100
AcDbEntity
  8
0
 62
7
100
AcDbSpline
 70
8
 71
3
 72
8
 73
4
 74
0
 40
0
 40
0
 40
0
 40
0
 40
1
 40
1
 40
1
 40
1
 10
159.125051
 20
372.292417
 30
0.0
 10
153.424275
 20
375.583762
 30
0.0
 10
146.400630
 20
375.583762
 30
0.0
 10
140.699854
 20
372.292417
 30
0.0
  0
SPLINE
  5
142
100
AcDbEntity
  8
0
 62
7
100
AcDbSpline
 70
8
 71
3
 72
8
 73
4
 74
0
 40
0
 40
0
 40
0
 40
0
 40
1
 40
1
 40
1
 40
1
 10
140.699854
 20
372.292417
 30
0.0
 10
134.999078
 20
369.001073
 30
0.0
 10
131.487256
 20
362.918418
 30
0.0
 10
131.487256
 20
356.335729
 30
0.0
  0
SPLINE
  5
143
100
AcDbEntity
  8
0
 62
7
100
AcDbSpline
 70
8
 71
3
 72
8
 73
4
 74
0
 40
0
 40
0
 40
0
 40
0
 40
1
 40
1
 40
1
 40
1
 10
131.487256
 20
356.335729
 30
0.0
 10
131.487256
 20
349.753040
 30
0.0
 10
134.999079
 20
343.670385
 30
0.0
 10
140.699855
 20
340.379040
 30
0.0
  0
SPLINE
  5
144
100
AcDbEntity
  8
0
 62
7
100
AcDbSpline
 70
8
 71
3
 72
8
 73
4
 74
0
 40
0
 40
0
 40
0
 40
0
 40
1
 40
1
 40
1
 40
1
 10
140.699855
 20
340.379040
 30
0.0
 10
146.400630
 20
337.087696
 30
0.0
 10
153.424276
 20
337.087696
 30
0.0
 10
159.125051
 20
340.379040
 30
0.0
  0
SPLINE
  5
145
100
AcDbEntity
  8
0
 62
7
100
AcDbSpline
 70
8
 71
3
 72
8
 73
4
 74
0
 40
0
 40
0
 40
0
 40
0
 40
1
 40
1
 40
1
 40
1
 10
159.125051
 20
340.379040
 30
0.0
 10
164.825827
 20
343.670385
 30
0.0
 10
168.337650
 20
349.753040
 30
0.0
 10
168.337650
 20
356.335729
 30
0.0
  0
LWPOLYLINE
  5
146
100
AcDbEntity
  8
0
 62
7
100
AcDbPolyline
 90
2
 70
0
 10
149.912453
 20
356.335729
 30
0.0
 10
149.912453
 20
439.046261
 30
0.0
  0
LWPOLYLINE
  5
147
100
AcDbEntity
  8
0
 62
7
100
AcDbPolyline
 90
1
 70
1
 10
168.337650
 20
356.335729
 30
0.0
  0
LWPOLYLINE
  5
148
100
AcDbEntity
  8
0
 62
7
100
AcDbPolyline
 90
2
 70
0
 10
149.912453
 20
356.335729
 30
0.0
 10
67.201923
 20
356.335729
 30
0.0
  0
SPLINE
  5
149
100
AcDbEntity
  8
0
 62
7
100
AcDbSpline
 70
8
 71
3
 72
8
 73
4
 74
0
 40
0
 40
0
 40
0
 40
0
 40
1
 40
1
 40
1
 40
1
 10
158.416387
 20
356.335729
 30
0.0
 10
158.418599
 20
359.375366
 30
0.0
 10
156.798242
 20
362.185052
 30
0.0
 10
154.166207
 20
363.705509
 30
0.0
  0
SPLINE
  5
14a
100
AcDbEntity
  8
0
 62
7
100
AcDbSpline
 70
8
 71
3
 72
8
 73
4
 74
0
 40
0
 40
0
 40
0
 40
0
 40
1
 40
1
 40
1
 40
1
 10
154.166207
 20
363.705509
 30
0.0
 10
151.534172
 20
365.225966
 30
0.0
 10
148.290733
 20
365.225966
 30
0.0
 10
145.658698
 20
363.705509
 30
0.0
  0
SPLINE
  5
14b
100
AcDbEntity
  8
0
 62
7
100
AcDbSpline
 70
8
 71
3
 72
8
 73
4
 74
0
 40
0
 40
0
 40
0
 40
0
 40
1
 40
1
 40
1
 40
1
 10
145.658698
 20
363.705509
 30
0.0
 10
143.026663
 20
362.185052
 30
0.0
 10
141.406306
 20
359.375366
 30
0.0
 10
141.408518
 20
356.335729
 30
0.0
  0
SPLINE
  5
14c
100
AcDbEntity
  8
0
 62
7
100
AcDbSpline
 70
8
 71
3
 72
8
 73
4
 74
0
 40
0
 40
0
 40
0
 40
0
 40
1
 40
1
 40
1
 40
1
 10
141.408518
 20
356.335729
 30
0.0
 10
141.406306
 20
353.296092
 30
0.0
 10
143.026663
 20
350.486405
 30
0.0
 10
145.658698
 20
348.965948
 30
0.0
  0
SPLINE
  5
14d
100
AcDbEntity
  8
0
 62
7
100
AcDbSpline
 70
8
 71
3
 72
8
 73
4
 74
0
 40
0
 40
0
 40
0
 40
0
 40
1
 40
1
 40
1
 40
1
 10
145.658698
 20
348.965948
 30
0.0
 10
148.290733
 20
347.445491
 30
0.0
 10
151.534172
 20
347.445491
 30
0.0
 10
154.166207
 20
348.965948
 30
0.0
  0
SPLINE
  5
14e
100
AcDbEntity
  8
0
 62
7
100
AcDbSpline
 70
8
 71
3
 72
8
 73
4
 74
0
 40
0
 40
0
 40
0
 40
0
 40
1
 40
1
 40
1
 40
1
 10
154.166207
 20
348.965948
 30
0.0
 10
156.798242
 20
350.486405
 30
0.0
 10
158.418599
 20
353.296092
 30
0.0
 10
158.416387
 20
356.335729
 30
0.0
  0
LWPOLYLINE
  5
14f
100
AcDbEntity
  8
0
 62
7
100
AcDbPolyline
 90
2
 70
0
 10
149.912453
 20
356.335729
 30
0.0
 10
232.622977
 20
356.335729
 30
0.0
  0
LWPOLYLINE
  5
150
100
AcDbEntity
  8
0
 62
7
100
AcDbPolyline
 90
1
 70
1
 10
158.416387
 20
356.335729
 30
0.0
  0
LWPOLYLINE
  5
151
100
AcDbEntity
  8
0
 62
7
100
AcDbPolyline
 90
2
 70
0
 10
122.710643
 20
343.307149
 30
0.0
 10
68.234501
 20
343.307149
 30
0.0
  0
LWPOLYLINE
  5
152
100
AcDbEntity
  8
0
 62
7
100
AcDbPolyline
 90
2
 70
0
 10
149.912453
 20
356.335729
 30
0.0
 10
149.912453
 20
273.625204
 30
0.0
  0
LWPOLYLINE
  5
153
100
AcDbEntity
  8
0
 62
7
100
AcDbPolyline
 90
2
 70
0
 10
149.912453
 20
356.335729
 30
0.0
 10
232.622977
 20
356.335729
 30
0.0
  0
SPLINE
  5
154
100
AcDbEntity
  8
0
 62
7
100
AcDbSpline
 70
8
 71
3
 72
8
 73
4
 74
0
 40
0
 40
0
 40
0
 40
0
 40
1
 40
1
 40
1
 40
1
 10
232.622975
 20
356.335729
 30
0.0
 10
232.622975
 20
385.885353
 30
0.0
 10
216.858438
 20
413.190332
 30
0.0
 10
191.267713
 20
427.965145
 30
0.0
  0
SPLINE
  5
155
100
AcDbEntity
  8
0
 62
7
100
AcDbSpline
 70
8
 71
3
 72
8
 73
4
 74
0
 40
0
 40
0
 40
0
 40
0
 40
1
 40
1
 40
1
 40
1
 10
191.267713
 20
427.965145
 30
0.0
 10
165.676987
 20
442.739957
 30
0.0
 10
134.147913
 20
442.739957
 30
0.0
 10
108.557188
 20
427.965145
 30
0.0
  0
SPLINE
  5
156
100
AcDbEntity
  8
0
 62
7
100
AcDbSpline
 70
8
 71
3
 72
8
 73
4
 74
0
 40
0
 40
0
 40
0
 40
0
 40
1
 40
1
 40
1
 40
1
 10
108.557188
 20
427.965145
 30
0.0
 10
82.966462
 20
413.190332
 30
0.0
 10
67.201925
 20
385.885353
 30
0.0
 10
67.201926
 20
356.335729
 30
0.0
  0
SPLINE
  5
157
100
AcDbEntity
  8
0
 62
7
100
AcDbSpline
 70
8
 71
3
 72
8
 73
4
 74
0
 40
0
 40
0
 40
0
 40
0
 40
1
 40
1
 40
1
 40
1
 10
67.201926
 20
356.335729
 30
0.0
 10
67.201926
 20
326.786104
 30
0.0
 10
82.966463
 20
299.481125
 30
0.0
 10
108.557189
 20
284.706313
 30
0.0
  0
SPLINE
  5
158
100
AcDbEntity
  8
0
 62
7
100
AcDbSpline
 70
8
 71
3
 72
8
 73
4
 74
0
 40
0
 40
0
 40
0
 40
0
 40
1
 40
1
 40
1
 40
1
 10
108.557189
 20
284.706313
 30
0.0
 10
134.147914
 20
269.931501
 30
0.0
 10
165.676988
 20
269.931501
 30
0.0
 10
191.267714
 20
284.706313
 30
0.0
  0
SPLINE
  5
159
100
AcDbEntity
  8
0
 62
7
100
AcDbSpline
 70
8
 71
3
 72
8
 73
4
 74
0
 40
0
 40
0
 40
0
 40
0
 40
1
 40
1
 40
1
 40
1
 10
191.267714
 20
284.706313
 30
0.0
 10
216.858439
 20
299.481125
 30
0.0
 10
232.622976
 20
326.786104
 30
0.0
 10
232.622976
 20
356.335729
 30
0.0
  0
LWPOLYLINE
  5
15a
100
AcDbEntity
  8
0
 62
7
100
AcDbPolyline
 90
2
 70
0
 10
136.883872
 20
438.013684
 30
0.0
 10
136.883872
 20
383.537539
 30
0.0
  0
SPLINE
  5
15b
100
AcDbEntity
  8
0
 62
7
100
AcDbSpline
 70
8
 71
3
 72
8
 73
4
 74
0
 40
0
 40
0
 40
0
 40
0
 40
1
 40
1
 40
1
 40
1
 10
162.941033
 20
383.537539
 30
0.0
 10
162.941036
 20
375.709883
 30
0.0
 10
169.286606
 20
369.364315
 30
0.0
 10
177.114262
 20
369.364316
 30
0.0
  0
SPLINE
  5
15c
100
AcDbEntity
  8
0
 62
7
100
AcDbSpline
 70
8
 71
3
 72
8
 73
4
 74
0
 40
0
 40
0
 40
0
 40
0
 40
1
 40
1
 40
1
 40
1
 10
252.732020
 20
356.335729
 30
0.0
 10
252.732020
 20
393.069623
 30
0.0
 10
233.134721
 20
427.013141
 30
0.0
 10
201.322235
 20
445.380088
 30
0.0
  0
SPLINE
  5
15d
100
AcDbEntity
  8
0
 62
7
100
AcDbSpline
 70
8
 71
3
 72
8
 73
4
 74
0
 40
0
 40
0
 40
0
 40
0
 40
1
 40
1
 40
1
 40
1
 10
201.322235
 20
445.380088
 30
0.0
 10
169.509750
 20
463.747036
 30
0.0
 10
130.315151
 20
463.747036
 30
0.0
 10
98.502665
 20
445.380088
 30
0.0
  0
SPLINE
  5
15e
100
AcDbEntity
  8
0
 62
7
100
AcDbSpline
 70
8
 71
3
 72
8
 73
4
 74
0
 40
0
 40
0
 40
0
 40
0
 40
1
 40
1
 40
1
 40
1
 10
98.502665
 20
445.380088
 30
0.0
 10
66.690180
 20
427.013141
 30
0.0
 10
47.092880
 20
393.069623
 30
0.0
 10
47.092881
 20
356.335729
 30
0.0
  0
SPLINE
  5
15f
100
AcDbEntity
  8
0
 62
7
100
AcDbSpline
 70
8
 71
3
 72
8
 73
4
 74
0
 40
0
 40
0
 40
0
 40
0
 40
1
 40
1
 40
1
 40
1
 10
47.092881
 20
356.335729
 30
0.0
 10
47.092881
 20
319.601834
 30
0.0
 10
66.690181
 20
285.658316
 30
0.0
 10
98.502666
 20
267.291369
 30
0.0
  0
SPLINE
  5
160
100
AcDbEntity
  8
0
 62
7
100
AcDbSpline
 70
8
 71
3
 72
8
 73
4
 74
0
 40
0
 40
0
 40
0
 40
0
 40
1
 40
1
 40
1
 40
1
 10
98.502666
 20
267.291369
 30
0.0
 10
130.315152
 20
248.924422
 30
0.0
 10
169.509751
 20
248.924422
 30
0.0
 10
201.322236
 20
267.291369
 30
0.0
  0
SPLINE
  5
161
100
AcDbEntity
  8
0
 62
7
100
AcDbSpline
 70
8
 71
3
 72
8
 73
4
 74
0
 40
0
 40
0
 40
0
 40
0
 40
1
 40
1
 40
1
 40
1
 10
201.322236
 20
267.291369
 30
0.0
 10
233.134722
 20
285.658316
 30
0.0
 10
252.732021
 20
319.601834
 30
0.0
 10
252.732021
 20
356.335729
 30
0.0
  0
LWPOLYLINE
  5
162
100
AcDbEntity
  8
0
 62
7
100
AcDbPolyline
 90
1
 70
1
 10
232.622976
 20
356.335729
 30
0.0
  0
LWPOLYLINE
  5
163
100
AcDbEntity
  8
0
 62
7
100
AcDbPolyline
 90
1
 70
1
 10
252.732021
 20
356.335729
 30
0.0
  0
LWPOLYLINE
  5
164
100
AcDbEntity
  8
0
 62
7
100
AcDbPolyline
 90
2
 70
0
 10
177.114262
 20
343.307149
 30
0.0
 10
231.590400
 20
343.307149
 30
0.0
  0
LWPOLYLINE
  5
165
100
AcDbEntity
  8
0
 62
7
100
AcDbPolyline
 90
2
 70
0
 10
136.883872
 20
329.133919
 30
0.0
 10
136.883872
 20
274.657781
 30
0.0
  0
LWPOLYLINE
  5
166
100
AcDbEntity
  8
0
 62
7
100
AcDbPolyline
 90
2
 70
0
 10
177.114262
 20
369.364316
 30
0.0
 10
231.590400
 20
369.364316
 30
0.0
  0
SPLINE
  5
167
100
AcDbEntity
  8
0
 62
7
100
AcDbSpline
 70
8
 71
3
 72
8
 73
4
 74
0
 40
0
 40
0
 40
0
 40
0
 40
1
 40
1
 40
1
 40
1
 10
136.883873
 20
329.133919
 30
0.0
 10
136.883873
 20
332.892893
 30
0.0
 10
135.390626
 20
336.497910
 30
0.0
 10
132.732630
 20
339.155906
 30
0.0
  0
SPLINE
  5
168
100
AcDbEntity
  8
0
 62
7
100
AcDbSpline
 70
8
 71
3
 72
8
 73
4
 74
0
 40
0
 40
0
 40
0
 40
0
 40
1
 40
1
 40
1
 40
1
 10
132.732630
 20
339.155906
 30
0.0
 10
130.074634
 20
341.813903
 30
0.0
 10
126.469617
 20
343.307149
 30
0.0
 10
122.710643
 20
343.307149
 30
0.0
  0
SPLINE
  5
169
100
AcDbEntity
  8
0
 62
7
100
AcDbSpline
 70
8
 71
3
 72
8
 73
4
 74
0
 40
0
 40
0
 40
0
 40
0
 40
1
 40
1
 40
1
 40
1
 10
177.114262
 20
343.307149
 30
0.0
 10
173.355288
 20
343.307149
 30
0.0
 10
169.750271
 20
341.813903
 30
0.0
 10
167.092275
 20
339.155906
 30
0.0
  0
SPLINE
  5
16a
100
AcDbEntity
  8
0
 62
7
100
AcDbSpline
 70
8
 71
3
 72
8
 73
4
 74
0
 40
0
 40
0
 40
0
 40
0
 40
1
 40
1
 40
1
 40
1
 10
167.092275
 20
339.155906
 30
0.0
 10
164.434279
 20
336.497910
 30
0.0
 10
162.941032
 20
332.892893
 30
0.0
 10
162.941032
 20
329.133919
 30
0.0
  0
SPLINE
  5
16b
100
AcDbEntity
  8
0
 62
7
100
AcDbSpline
 70
8
 71
3
 72
8
 73
4
 74
0
 40
0
 40
0
 40
0
 40
0
 40
1
 40
1
 40
1
 40
1
 10
424.157197
 20
370.550119
 30
0.0
 10
431.984854
 20
370.550118
 30
0.0
 10
438.330424
 20
376.895685
 30
0.0
 10
438.330427
 20
384.723341
 30
0.0
  0
LWPOLYLINE
  5
16c
100
AcDbEntity
  8
0
 62
7
100
AcDbPolyline
 90
2
 70
0
 10
162.941033
 20
383.537539
 30
0.0
 10
162.941033
 20
438.013684
 30
0.0
  0
LWPOLYLINE
  5
16d
100
AcDbEntity
  8
0
 62
7
100
AcDbPolyline
 90
2
 70
0
 10
451.359007
 20
357.521531
 30
0.0
 10
534.069533
 20
357.521531
 30
0.0
  0
LWPOLYLINE
  5
16e
100
AcDbEntity
  8
0
 62
7
100
AcDbPolyline
 90
2
 70
0
 10
424.157197
 20
370.550119
 30
0.0
 10
369.681053
 20
370.550119
 30
0.0
  0
LWPOLYLINE
  5
16f
100
AcDbEntity
  8
0
 62
7
100
AcDbPolyline
 90
2
 70
0
 10
464.387587
 20
330.319721
 30
0.0
 10
464.387587
 20
275.843584
 30
0.0
  0
SPLINE
  5
170
100
AcDbEntity
  8
0
 62
7
100
AcDbSpline
 70
8
 71
3
 72
8
 73
4
 74
0
 40
0
 40
0
 40
0
 40
0
 40
1
 40
1
 40
1
 40
1
 10
469.784204
 20
357.521531
 30
0.0
 10
469.784204
 20
364.104220
 30
0.0
 10
466.272382
 20
370.186875
 30
0.0
 10
460.571606
 20
373.478220
 30
0.0
  0
SPLINE
  5
171
100
AcDbEntity
  8
0
 62
7
100
AcDbSpline
 70
8
 71
3
 72
8
 73
4
 74
0
 40
0
 40
0
 40
0
 40
0
 40
1
 40
1
 40
1
 40
1
 10
460.571606
 20
373.478220
 30
0.0
 10
454.870830
 20
376.769564
 30
0.0
 10
447.847185
 20
376.769564
 30
0.0
 10
442.146409
 20
373.478220
 30
0.0
  0
SPLINE
  5
172
100
AcDbEntity
  8
0
 62
7
100
AcDbSpline
 70
8
 71
3
 72
8
 73
4
 74
0
 40
0
 40
0
 40
0
 40
0
 40
1
 40
1
 40
1
 40
1
 10
442.146409
 20
373.478220
 30
0.0
 10
436.445633
 20
370.186875
 30
0.0
 10
432.933811
 20
364.104220
 30
0.0
 10
432.933811
 20
357.521531
 30
0.0
  0
SPLINE
  5
173
100
AcDbEntity
  8
0
 62
7
100
AcDbSpline
 70
8
 71
3
 72
8
 73
4
 74
0
 40
0
 40
0
 40
0
 40
0
 40
1
 40
1
 40
1
 40
1
 10
432.933811
 20
357.521531
 30
0.0
 10
432.933811
 20
350.938842
 30
0.0
 10
436.445634
 20
344.856187
 30
0.0
 10
442.146410
 20
341.564843
 30
0.0
  0
SPLINE
  5
174
100
AcDbEntity
  8
0
 62
7
100
AcDbSpline
 70
8
 71
3
 72
8
 73
4
 74
0
 40
0
 40
0
 40
0
 40
0
 40
1
 40
1
 40
1
 40
1
 10
442.146410
 20
341.564843
 30
0.0
 10
447.847185
 20
338.273498
 30
0.0
 10
454.870831
 20
338.273498
 30
0.0
 10
460.571606
 20
341.564843
 30
0.0
  0
SPLINE
  5
175
100
AcDbEntity
  8
0
 62
7
100
AcDbSpline
 70
8
 71
3
 72
8
 73
4
 74
0
 40
0
 40
0
 40
0
 40
0
 40
1
 40
1
 40
1
 40
1
 10
460.571606
 20
341.564843
 30
0.0
 10
466.272382
 20
344.856187
 30
0.0
 10
469.784205
 20
350.938842
 30
0.0
 10
469.784205
 20
357.521531
 30
0.0
  0
LWPOLYLINE
  5
176
100
AcDbEntity
  8
0
 62
7
100
AcDbPolyline
 90
2
 70
0
 10
451.359007
 20
357.521531
 30
0.0
 10
451.359007
 20
440.232064
 30
0.0
  0
LWPOLYLINE
  5
177
100
AcDbEntity
  8
0
 62
7
100
AcDbPolyline
 90
1
 70
1
 10
469.784205
 20
357.521531
 30
0.0
  0
LWPOLYLINE
  5
178
100
AcDbEntity
  8
0
 62
7
100
AcDbPolyline
 90
2
 70
0
 10
451.359007
 20
357.521531
 30
0.0
 10
368.648475
 20
357.521531
 30
0.0
  0
SPLINE
  5
179
100
AcDbEntity
  8
0
 62
7
100
AcDbSpline
 70
8
 71
3
 72
8
 73
4
 74
0
 40
0
 40
0
 40
0
 40
0
 40
1
 40
1
 40
1
 40
1
 10
459.862941
 20
357.521531
 30
0.0
 10
459.862941
 20
360.559695
 30
0.0
 10
458.242100
 20
363.367075
 30
0.0
 10
455.610972
 20
364.886157
 30
0.0
  0
SPLINE
  5
17a
100
AcDbEntity
  8
0
 62
7
100
AcDbSpline
 70
8
 71
3
 72
8
 73
4
 74
0
 40
0
 40
0
 40
0
 40
0
 40
1
 40
1
 40
1
 40
1
 10
455.610972
 20
364.886157
 30
0.0
 10
452.979845
 20
366.405239
 30
0.0
 10
449.738162
 20
366.405239
 30
0.0
 10
447.107035
 20
364.886157
 30
0.0
  0
SPLINE
  5
17b
100
AcDbEntity
  8
0
 62
7
100
AcDbSpline
 70
8
 71
3
 72
8
 73
4
 74
0
 40
0
 40
0
 40
0
 40
0
 40
1
 40
1
 40
1
 40
1
 10
447.107035
 20
364.886157
 30
0.0
 10
444.475908
 20
363.367075
 30
0.0
 10
442.855067
 20
360.559695
 30
0.0
 10
442.855067
 20
357.521531
 30
0.0
  0
SPLINE
  5
17c
100
AcDbEntity
  8
0
 62
7
100
AcDbSpline
 70
8
 71
3
 72
8
 73
4
 74
0
 40
0
 40
0
 40
0
 40
0
 40
1
 40
1
 40
1
 40
1
 10
442.855067
 20
357.521531
 30
0.0
 10
442.855067
 20
354.483367
 30
0.0
 10
444.475909
 20
351.675988
 30
0.0
 10
447.107036
 20
350.156906
 30
0.0
  0
SPLINE
  5
17d
100
AcDbEntity
  8
0
 62
7
100
AcDbSpline
 70
8
 71
3
 72
8
 73
4
 74
0
 40
0
 40
0
 40
0
 40
0
 40
1
 40
1
 40
1
 40
1
 10
447.107036
 20
350.156906
 30
0.0
 10
449.738163
 20
348.637824
 30
0.0
 10
452.979846
 20
348.637824
 30
0.0
 10
455.610973
 20
350.156906
 30
0.0
  0
SPLINE
  5
17e
100
AcDbEntity
  8
0
 62
7
100
AcDbSpline
 70
8
 71
3
 72
8
 73
4
 74
0
 40
0
 40
0
 40
0
 40
0
 40
1
 40
1
 40
1
 40
1
 10
455.610973
 20
350.156906
 30
0.0
 10
458.242100
 20
351.675988
 30
0.0
 10
459.862942
 20
354.483367
 30
0.0
 10
459.862942
 20
357.521531
 30
0.0
  0
LWPOLYLINE
  5
17f
100
AcDbEntity
  8
0
 62
7
100
AcDbPolyline
 90
2
 70
0
 10
451.359007
 20
357.521531
 30
0.0
 10
534.069533
 20
357.521531
 30
0.0
  0
LWPOLYLINE
  5
180
100
AcDbEntity
  8
0
 62
7
100
AcDbPolyline
 90
1
 70
1
 10
459.862942
 20
357.521531
 30
0.0
  0
LWPOLYLINE
  5
181
100
AcDbEntity
  8
0
 62
7
100
AcDbPolyline
 90
2
 70
0
 10
424.157197
 20
344.492951
 30
0.0
 10
369.681053
 20
344.492951
 30
0.0
  0
LWPOLYLINE
  5
182
100
AcDbEntity
  8
0
 62
7
100
AcDbPolyline
 90
2
 70
0
 10
451.359007
 20
357.521531
 30
0.0
 10
451.359007
 20
274.811006
 30
0.0
  0
LWPOLYLINE
  5
183
100
AcDbEntity
  8
0
 62
7
100
AcDbPolyline
 90
2
 70
0
 10
451.359007
 20
357.521531
 30
0.0
 10
534.069533
 20
357.521531
 30
0.0
  0
SPLINE
  5
184
100
AcDbEntity
  8
0
 62
7
100
AcDbSpline
 70
8
 71
3
 72
8
 73
4
 74
0
 40
0
 40
0
 40
0
 40
0
 40
1
 40
1
 40
1
 40
1
 10
534.069529
 20
357.521531
 30
0.0
 10
534.069529
 20
387.071156
 30
0.0
 10
518.304992
 20
414.376135
 30
0.0
 10
492.714266
 20
429.150947
 30
0.0
  0
SPLINE
  5
185
100
AcDbEntity
  8
0
 62
7
100
AcDbSpline
 70
8
 71
3
 72
8
 73
4
 74
0
 40
0
 40
0
 40
0
 40
0
 40
1
 40
1
 40
1
 40
1
 10
492.714266
 20
429.150947
 30
0.0
 10
467.123541
 20
443.925759
 30
0.0
 10
435.594467
 20
443.925759
 30
0.0
 10
410.003741
 20
429.150947
 30
0.0
  0
SPLINE
  5
186
100
AcDbEntity
  8
0
 62
7
100
AcDbSpline
 70
8
 71
3
 72
8
 73
4
 74
0
 40
0
 40
0
 40
0
 40
0
 40
1
 40
1
 40
1
 40
1
 10
410.003741
 20
429.150947
 30
0.0
 10
384.413016
 20
414.376135
 30
0.0
 10
368.648479
 20
387.071156
 30
0.0
 10
368.648481
 20
357.521531
 30
0.0
  0
SPLINE
  5
187
100
AcDbEntity
  8
0
 62
7
100
AcDbSpline
 70
8
 71
3
 72
8
 73
4
 74
0
 40
0
 40
0
 40
0
 40
0
 40
1
 40
1
 40
1
 40
1
 10
368.648481
 20
357.521531
 30
0.0
 10
368.648481
 20
327.971907
 30
0.0
 10
384.413018
 20
300.666928
 30
0.0
 10
410.003743
 20
285.892115
 30
0.0
  0
SPLINE
  5
188
100
AcDbEntity
  8
0
 62
7
100
AcDbSpline
 70
8
 71
3
 72
8
 73
4
 74
0
 40
0
 40
0
 40
0
 40
0
 40
1
 40
1
 40
1
 40
1
 10
410.003743
 20
285.892115
 30
0.0
 10
435.594469
 20
271.117303
 30
0.0
 10
467.123543
 20
271.117303
 30
0.0
 10
492.714268
 20
285.892115
 30
0.0
  0
SPLINE
  5
189
100
AcDbEntity
  8
0
 62
7
100
AcDbSpline
 70
8
 71
3
 72
8
 73
4
 74
0
 40
0
 40
0
 40
0
 40
0
 40
1
 40
1
 40
1
 40
1
 10
492.714268
 20
285.892115
 30
0.0
 10
518.304994
 20
300.666928
 30
0.0
 10
534.069531
 20
327.971907
 30
0.0
 10
534.069531
 20
357.521531
 30
0.0
  0
LWPOLYLINE
  5
18a
100
AcDbEntity
  8
0
 62
7
100
AcDbPolyline
 90
2
 70
0
 10
438.330427
 20
439.199486
 30
0.0
 10
438.330427
 20
384.723341
 30
0.0
  0
SPLINE
  5
18b
100
AcDbEntity
  8
0
 62
7
100
AcDbSpline
 70
8
 71
3
 72
8
 73
4
 74
0
 40
0
 40
0
 40
0
 40
0
 40
1
 40
1
 40
1
 40
1
 10
464.387587
 20
384.723341
 30
0.0
 10
464.387591
 20
376.895685
 30
0.0
 10
470.733161
 20
370.550118
 30
0.0
 10
478.560817
 20
370.550119
 30
0.0
  0
SPLINE
  5
18c
100
AcDbEntity
  8
0
 62
7
100
AcDbSpline
 70
8
 71
3
 72
8
 73
4
 74
0
 40
0
 40
0
 40
0
 40
0
 40
1
 40
1
 40
1
 40
1
 10
558.749558
 20
357.521531
 30
0.0
 10
558.749558
 20
395.888479
 30
0.0
 10
538.281034
 20
431.341002
 30
0.0
 10
505.054283
 20
450.524476
 30
0.0
  0
SPLINE
  5
18d
100
AcDbEntity
  8
0
 62
7
100
AcDbSpline
 70
8
 71
3
 72
8
 73
4
 74
0
 40
0
 40
0
 40
0
 40
0
 40
1
 40
1
 40
1
 40
1
 10
505.054283
 20
450.524476
 30
0.0
 10
471.827531
 20
469.707950
 30
0.0
 10
430.890484
 20
469.707950
 30
0.0
 10
397.663733
 20
450.524476
 30
0.0
  0
SPLINE
  5
18e
100
AcDbEntity
  8
0
 62
7
100
AcDbSpline
 70
8
 71
3
 72
8
 73
4
 74
0
 40
0
 40
0
 40
0
 40
0
 40
1
 40
1
 40
1
 40
1
 10
397.663733
 20
450.524476
 30
0.0
 10
364.436981
 20
431.341002
 30
0.0
 10
343.968458
 20
395.888479
 30
0.0
 10
343.968458
 20
357.521531
 30
0.0
  0
SPLINE
  5
18f
100
AcDbEntity
  8
0
 62
7
100
AcDbSpline
 70
8
 71
3
 72
8
 73
4
 74
0
 40
0
 40
0
 40
0
 40
0
 40
1
 40
1
 40
1
 40
1
 10
343.968458
 20
357.521531
 30
0.0
 10
343.968458
 20
319.154583
 30
0.0
 10
364.436981
 20
283.702061
 30
0.0
 10
397.663733
 20
264.518587
 30
0.0
  0
SPLINE
  5
190
100
AcDbEntity
  8
0
 62
7
100
AcDbSpline
 70
8
 71
3
 72
8
 73
4
 74
0
 40
0
 40
0
 40
0
 40
0
 40
1
 40
1
 40
1
 40
1
 10
397.663733
 20
264.518587
 30
0.0
 10
430.890484
 20
245.335113
 30
0.0
 10
471.827531
 20
245.335113
 30
0.0
 10
505.054283
 20
264.518587
 30
0.0
  0
SPLINE
  5
191
100
AcDbEntity
  8
0
 62
7
100
AcDbSpline
 70
8
 71
3
 72
8
 73
4
 74
0
 40
0
 40
0
 40
0
 40
0
 40
1
 40
1
 40
1
 40
1
 10
505.054283
 20
264.518587
 30
0.0
 10
538.281034
 20
283.702061
 30
0.0
 10
558.749558
 20
319.154583
 30
0.0
 10
558.749558
 20
357.521531
 30
0.0
  0
LWPOLYLINE
  5
192
100
AcDbEntity
  8
0
 62
7
100
AcDbPolyline
 90
1
 70
1
 10
534.069531
 20
357.521531
 30
0.0
  0
LWPOLYLINE
  5
193
100
AcDbEntity
  8
0
 62
7
100
AcDbPolyline
 90
1
 70
1
 10
558.749558
 20
357.521531
 30
0.0
  0
LWPOLYLINE
  5
194
100
AcDbEntity
  8
0
 62
7
100
AcDbPolyline
 90
2
 70
0
 10
478.560817
 20
344.492951
 30
0.0
 10
533.036955
 20
344.492951
 30
0.0
  0
LWPOLYLINE
  5
195
100
AcDbEntity
  8
0
 62
7
100
AcDbPolyline
 90
2
 70
0
 10
438.330427
 20
330.319721
 30
0.0
 10
438.330427
 20
275.843584
 30
0.0
  0
LWPOLYLINE
  5
196
100
AcDbEntity
  8
0
 62
7
100
AcDbPolyline
 90
2
 70
0
 10
478.560817
 20
370.550119
 30
0.0
 10
533.036955
 20
370.550119
 30
0.0
  0
SPLINE
  5
197
100
AcDbEntity
  8
0
 62
7
100
AcDbSpline
 70
8
 71
3
 72
8
 73
4
 74
0
 40
0
 40
0
 40
0
 40
0
 40
1
 40
1
 40
1
 40
1
 10
438.330427
 20
330.319721
 30
0.0
 10
438.330428
 20
334.078696
 30
0.0
 10
436.837181
 20
337.683712
 30
0.0
 10
434.179185
 20
340.341709
 30
0.0
  0
SPLINE
  5
198
100
AcDbEntity
  8
0
 62
7
100
AcDbSpline
 70
8
 71
3
 72
8
 73
4
 74
0
 40
0
 40
0
 40
0
 40
0
 40
1
 40
1
 40
1
 40
1
 10
434.179185
 20
340.341709
 30
0.0
 10
431.521189
 20
342.999705
 30
0.0
 10
427.916172
 20
344.492952
 30
0.0
 10
424.157197
 20
344.492951
 30
0.0
  0
SPLINE
  5
199
100
AcDbEntity
  8
0
 62
7
100
AcDbSpline
 70
8
 71
3
 72
8
 73
4
 74
0
 40
0
 40
0
 40
0
 40
0
 40
1
 40
1
 40
1
 40
1
 10
478.560817
 20
344.492951
 30
0.0
 10
474.801843
 20
344.492952
 30
0.0
 10
471.196826
 20
342.999705
 30
0.0
 10
468.538830
 20
340.341709
 30
0.0
  0
SPLINE
  5
19a
100
AcDbEntity
  8
0
 62
7
100
AcDbSpline
 70
8
 71
3
 72
8
 73
4
 74
0
 40
0
 40
0
 40
0
 40
0
 40
1
 40
1
 40
1
 40
1
 10
468.538830
 20
340.341709
 30
0.0
 10
465.880834
 20
337.683712
 30
0.0
 10
464.387587
 20
334.078696
 30
0.0
 10
464.387587
 20
330.319721
 30
0.0
  0
SPLINE
  5
19b
100
AcDbEntity
  8
0
 62
7
100
AcDbSpline
 70
8
 71
3
 72
8
 73
4
 74
0
 40
0
 40
0
 40
0
 40
0
 40
1
 40
1
 40
1
 40
1
 10
409.490393
 20
131.881234
 30
0.0
 10
417.318049
 20
131.881233
 30
0.0
 10
423.663619
 20
138.226800
 30
0.0
 10
423.663623
 20
146.054456
 30
0.0
  0
LWPOLYLINE
  5
19c
100
AcDbEntity
  8
0
 62
7
100
AcDbPolyline
 90
2
 70
0
 10
464.387587
 20
384.723341
 30
0.0
 10
464.387587
 20
439.199486
 30
0.0
  0
LWPOLYLINE
  5
19d
100
AcDbEntity
  8
0
 62
7
100
AcDbPolyline
 90
2
 70
0
 10
436.692203
 20
118.852654
 30
0.0
 10
519.402727
 20
118.852654
 30
0.0
  0
LWPOLYLINE
  5
19e
100
AcDbEntity
  8
0
 62
7
100
AcDbPolyline
 90
2
 70
0
 10
409.490393
 20
131.881234
 30
0.0
 10
355.014255
 20
131.881234
 30
0.0
  0
LWPOLYLINE
  5
19f
100
AcDbEntity
  8
0
 62
7
100
AcDbPolyline
 90
2
 70
0
 10
449.720782
 20
91.650814
 30
0.0
 10
449.720782
 20
37.174714
 30
0.0
  0
SPLINE
  5
1a0
100
AcDbEntity
  8
0
 62
7
100
AcDbSpline
 70
8
 71
3
 72
8
 73
4
 74
0
 40
0
 40
0
 40
0
 40
0
 40
1
 40
1
 40
1
 40
1
 10
455.117400
 20
118.852654
 30
0.0
 10
455.117400
 20
125.435343
 30
0.0
 10
451.605577
 20
131.517998
 30
0.0
 10
445.904801
 20
134.809343
 30
0.0
  0
SPLINE
  5
1a1
100
AcDbEntity
  8
0
 62
7
100
AcDbSpline
 70
8
 71
3
 72
8
 73
4
 74
0
 40
0
 40
0
 40
0
 40
0
 40
1
 40
1
 40
1
 40
1
 10
445.904801
 20
134.809343
 30
0.0
 10
440.204025
 20
138.100687
 30
0.0
 10
433.180380
 20
138.100687
 30
0.0
 10
427.479604
 20
134.809343
 30
0.0
  0
SPLINE
  5
1a2
100
AcDbEntity
  8
0
 62
7
100
AcDbSpline
 70
8
 71
3
 72
8
 73
4
 74
0
 40
0
 40
0
 40
0
 40
0
 40
1
 40
1
 40
1
 40
1
 10
427.479604
 20
134.809343
 30
0.0
 10
421.778828
 20
131.517998
 30
0.0
 10
418.267005
 20
125.435343
 30
0.0
 10
418.267005
 20
118.852654
 30
0.0
  0
SPLINE
  5
1a3
100
AcDbEntity
  8
0
 62
7
100
AcDbSpline
 70
8
 71
3
 72
8
 73
4
 74
0
 40
0
 40
0
 40
0
 40
0
 40
1
 40
1
 40
1
 40
1
 10
418.267005
 20
118.852654
 30
0.0
 10
418.267005
 20
112.269965
 30
0.0
 10
421.778828
 20
106.187309
 30
0.0
 10
427.479604
 20
102.895965
 30
0.0
  0
SPLINE
  5
1a4
100
AcDbEntity
  8
0
 62
7
100
AcDbSpline
 70
8
 71
3
 72
8
 73
4
 74
0
 40
0
 40
0
 40
0
 40
0
 40
1
 40
1
 40
1
 40
1
 10
427.479604
 20
102.895965
 30
0.0
 10
433.180380
 20
99.604620
 30
0.0
 10
440.204025
 20
99.604620
 30
0.0
 10
445.904801
 20
102.895965
 30
0.0
  0
SPLINE
  5
1a5
100
AcDbEntity
  8
0
 62
7
100
AcDbSpline
 70
8
 71
3
 72
8
 73
4
 74
0
 40
0
 40
0
 40
0
 40
0
 40
1
 40
1
 40
1
 40
1
 10
445.904801
 20
102.895965
 30
0.0
 10
451.605577
 20
106.187309
 30
0.0
 10
455.117400
 20
112.269965
 30
0.0
 10
455.117400
 20
118.852654
 30
0.0
  0
LWPOLYLINE
  5
1a6
100
AcDbEntity
  8
0
 62
7
100
AcDbPolyline
 90
2
 70
0
 10
436.692203
 20
118.852654
 30
0.0
 10
436.692203
 20
201.563179
 30
0.0
  0
LWPOLYLINE
  5
1a7
100
AcDbEntity
  8
0
 62
7
100
AcDbPolyline
 90
1
 70
1
 10
455.117400
 20
118.852654
 30
0.0
  0
LWPOLYLINE
  5
1a8
100
AcDbEntity
  8
0
 62
7
100
AcDbPolyline
 90
2
 70
0
 10
436.692203
 20
118.852654
 30
0.0
 10
353.981677
 20
118.852654
 30
0.0
  0
SPLINE
  5
1a9
100
AcDbEntity
  8
0
 62
7
100
AcDbSpline
 70
8
 71
3
 72
8
 73
4
 74
0
 40
0
 40
0
 40
0
 40
0
 40
1
 40
1
 40
1
 40
1
 10
445.196137
 20
118.852654
 30
0.0
 10
445.198349
 20
121.892291
 30
0.0
 10
443.577992
 20
124.701977
 30
0.0
 10
440.945957
 20
126.222434
 30
0.0
  0
SPLINE
  5
1aa
100
AcDbEntity
  8
0
 62
7
100
AcDbSpline
 70
8
 71
3
 72
8
 73
4
 74
0
 40
0
 40
0
 40
0
 40
0
 40
1
 40
1
 40
1
 40
1
 10
440.945957
 20
126.222434
 30
0.0
 10
438.313922
 20
127.742891
 30
0.0
 10
435.070483
 20
127.742891
 30
0.0
 10
432.438448
 20
126.222434
 30
0.0
  0
SPLINE
  5
1ab
100
AcDbEntity
  8
0
 62
7
100
AcDbSpline
 70
8
 71
3
 72
8
 73
4
 74
0
 40
0
 40
0
 40
0
 40
0
 40
1
 40
1
 40
1
 40
1
 10
432.438448
 20
126.222434
 30
0.0
 10
429.806413
 20
124.701977
 30
0.0
 10
428.186056
 20
121.892291
 30
0.0
 10
428.188267
 20
118.852654
 30
0.0
  0
SPLINE
  5
1ac
100
AcDbEntity
  8
0
 62
7
100
AcDbSpline
 70
8
 71
3
 72
8
 73
4
 74
0
 40
0
 40
0
 40
0
 40
0
 40
1
 40
1
 40
1
 40
1
 10
428.188267
 20
118.852654
 30
0.0
 10
428.186056
 20
115.813017
 30
0.0
 10
429.806413
 20
113.003330
 30
0.0
 10
432.438448
 20
111.482873
 30
0.0
  0
SPLINE
  5
1ad
100
AcDbEntity
  8
0
 62
7
100
AcDbSpline
 70
8
 71
3
 72
8
 73
4
 74
0
 40
0
 40
0
 40
0
 40
0
 40
1
 40
1
 40
1
 40
1
 10
432.438448
 20
111.482873
 30
0.0
 10
435.070483
 20
109.962416
 30
0.0
 10
438.313922
 20
109.962416
 30
0.0
 10
440.945957
 20
111.482873
 30
0.0
  0
SPLINE
  5
1ae
100
AcDbEntity
  8
0
 62
7
100
AcDbSpline
 70
8
 71
3
 72
8
 73
4
 74
0
 40
0
 40
0
 40
0
 40
0
 40
1
 40
1
 40
1
 40
1
 10
440.945957
 20
111.482873
 30
0.0
 10
443.577992
 20
113.003330
 30
0.0
 10
445.198349
 20
115.813017
 30
0.0
 10
445.196137
 20
118.852654
 30
0.0
  0
LWPOLYLINE
  5
1af
100
AcDbEntity
  8
0
 62
7
100
AcDbPolyline
 90
2
 70
0
 10
436.692203
 20
118.852654
 30
0.0
 10
519.402727
 20
118.852654
 30
0.0
  0
LWPOLYLINE
  5
1b0
100
AcDbEntity
  8
0
 62
7
100
AcDbPolyline
 90
1
 70
1
 10
445.196137
 20
118.852654
 30
0.0
  0
LWPOLYLINE
  5
1b1
100
AcDbEntity
  8
0
 62
7
100
AcDbPolyline
 90
2
 70
0
 10
409.490393
 20
105.824066
 30
0.0
 10
355.014255
 20
105.824066
 30
0.0
  0
LWPOLYLINE
  5
1b2
100
AcDbEntity
  8
0
 62
7
100
AcDbPolyline
 90
2
 70
0
 10
436.692203
 20
118.852654
 30
0.0
 10
436.692203
 20
36.142114
 30
0.0
  0
LWPOLYLINE
  5
1b3
100
AcDbEntity
  8
0
 62
7
100
AcDbPolyline
 90
2
 70
0
 10
436.692203
 20
118.852654
 30
0.0
 10
519.402727
 20
118.852654
 30
0.0
  0
SPLINE
  5
1b4
100
AcDbEntity
  8
0
 62
7
100
AcDbSpline
 70
8
 71
3
 72
8
 73
4
 74
0
 40
0
 40
0
 40
0
 40
0
 40
1
 40
1
 40
1
 40
1
 10
519.402727
 20
118.852654
 30
0.0
 10
519.402727
 20
148.402278
 30
0.0
 10
503.638190
 20
175.707257
 30
0.0
 10
478.047465
 20
190.482070
 30
0.0
  0
SPLINE
  5
1b5
100
AcDbEntity
  8
0
 62
7
100
AcDbSpline
 70
8
 71
3
 72
8
 73
4
 74
0
 40
0
 40
0
 40
0
 40
0
 40
1
 40
1
 40
1
 40
1
 10
478.047465
 20
190.482070
 30
0.0
 10
452.456740
 20
205.256882
 30
0.0
 10
420.927665
 20
205.256882
 30
0.0
 10
395.336940
 20
190.482070
 30
0.0
  0
SPLINE
  5
1b6
100
AcDbEntity
  8
0
 62
7
100
AcDbSpline
 70
8
 71
3
 72
8
 73
4
 74
0
 40
0
 40
0
 40
0
 40
0
 40
1
 40
1
 40
1
 40
1
 10
395.336940
 20
190.482070
 30
0.0
 10
369.746215
 20
175.707257
 30
0.0
 10
353.981677
 20
148.402278
 30
0.0
 10
353.981677
 20
118.852654
 30
0.0
  0
SPLINE
  5
1b7
100
AcDbEntity
  8
0
 62
7
100
AcDbSpline
 70
8
 71
3
 72
8
 73
4
 74
0
 40
0
 40
0
 40
0
 40
0
 40
1
 40
1
 40
1
 40
1
 10
353.981677
 20
118.852654
 30
0.0
 10
353.981677
 20
89.303029
 30
0.0
 10
369.746215
 20
61.998050
 30
0.0
 10
395.336940
 20
47.223238
 30
0.0
  0
SPLINE
  5
1b8
100
AcDbEntity
  8
0
 62
7
100
AcDbSpline
 70
8
 71
3
 72
8
 73
4
 74
0
 40
0
 40
0
 40
0
 40
0
 40
1
 40
1
 40
1
 40
1
 10
395.336940
 20
47.223238
 30
0.0
 10
420.927665
 20
32.448426
 30
0.0
 10
452.456740
 20
32.448426
 30
0.0
 10
478.047465
 20
47.223238
 30
0.0
  0
SPLINE
  5
1b9
100
AcDbEntity
  8
0
 62
7
100
AcDbSpline
 70
8
 71
3
 72
8
 73
4
 74
0
 40
0
 40
0
 40
0
 40
0
 40
1
 40
1
 40
1
 40
1
 10
478.047465
 20
47.223238
 30
0.0
 10
503.638190
 20
61.998050
 30
0.0
 10
519.402727
 20
89.303029
 30
0.0
 10
519.402727
 20
118.852654
 30
0.0
  0
LWPOLYLINE
  5
1ba
100
AcDbEntity
  8
0
 62
7
100
AcDbPolyline
 90
2
 70
0
 10
423.663622
 20
200.530601
 30
0.0
 10
423.663622
 20
146.054456
 30
0.0
  0
SPLINE
  5
1bb
100
AcDbEntity
  8
0
 62
7
100
AcDbSpline
 70
8
 71
3
 72
8
 73
4
 74
0
 40
0
 40
0
 40
0
 40
0
 40
1
 40
1
 40
1
 40
1
 10
449.720782
 20
146.054456
 30
0.0
 10
449.720786
 20
138.226800
 30
0.0
 10
456.066356
 20
131.881233
 30
0.0
 10
463.894013
 20
131.881234
 30
0.0
  0
SPLINE
  5
1bc
100
AcDbEntity
  8
0
 62
7
100
AcDbSpline
 70
8
 71
3
 72
8
 73
4
 74
0
 40
0
 40
0
 40
0
 40
0
 40
1
 40
1
 40
1
 40
1
 10
544.082752
 20
118.852654
 30
0.0
 10
544.082752
 20
157.219602
 30
0.0
 10
523.614229
 20
192.672124
 30
0.0
 10
490.387477
 20
211.855598
 30
0.0
  0
SPLINE
  5
1bd
100
AcDbEntity
  8
0
 62
7
100
AcDbSpline
 70
8
 71
3
 72
8
 73
4
 74
0
 40
0
 40
0
 40
0
 40
0
 40
1
 40
1
 40
1
 40
1
 10
490.387477
 20
211.855598
 30
0.0
 10
457.160726
 20
231.039072
 30
0.0
 10
416.223679
 20
231.039072
 30
0.0
 10
382.996927
 20
211.855598
 30
0.0
  0
SPLINE
  5
1be
100
AcDbEntity
  8
0
 62
7
100
AcDbSpline
 70
8
 71
3
 72
8
 73
4
 74
0
 40
0
 40
0
 40
0
 40
0
 40
1
 40
1
 40
1
 40
1
 10
382.996927
 20
211.855598
 30
0.0
 10
349.770176
 20
192.672124
 30
0.0
 10
329.301652
 20
157.219602
 30
0.0
 10
329.301652
 20
118.852654
 30
0.0
  0
SPLINE
  5
1bf
100
AcDbEntity
  8
0
 62
7
100
AcDbSpline
 70
8
 71
3
 72
8
 73
4
 74
0
 40
0
 40
0
 40
0
 40
0
 40
1
 40
1
 40
1
 40
1
 10
329.301652
 20
118.852654
 30
0.0
 10
329.301652
 20
80.485706
 30
0.0
 10
349.770176
 20
45.033183
 30
0.0
 10
382.996927
 20
25.849709
 30
0.0
  0
SPLINE
  5
1c0
100
AcDbEntity
  8
0
 62
7
100
AcDbSpline
 70
8
 71
3
 72
8
 73
4
 74
0
 40
0
 40
0
 40
0
 40
0
 40
1
 40
1
 40
1
 40
1
 10
382.996927
 20
25.849709
 30
0.0
 10
416.223679
 20
6.666235
 30
0.0
 10
457.160726
 20
6.666235
 30
0.0
 10
490.387477
 20
25.849709
 30
0.0
  0
SPLINE
  5
1c1
100
AcDbEntity
  8
0
 62
7
100
AcDbSpline
 70
8
 71
3
 72
8
 73
4
 74
0
 40
0
 40
0
 40
0
 40
0
 40
1
 40
1
 40
1
 40
1
 10
490.387477
 20
25.849709
 30
0.0
 10
523.614229
 20
45.033183
 30
0.0
 10
544.082752
 20
80.485706
 30
0.0
 10
544.082752
 20
118.852654
 30
0.0
  0
LWPOLYLINE
  5
1c2
100
AcDbEntity
  8
0
 62
7
100
AcDbPolyline
 90
1
 70
1
 10
519.402727
 20
118.852654
 30
0.0
  0
LWPOLYLINE
  5
1c3
100
AcDbEntity
  8
0
 62
7
100
AcDbPolyline
 90
1
 70
1
 10
544.082752
 20
118.852654
 30
0.0
  0
LWPOLYLINE
  5
1c4
100
AcDbEntity
  8
0
 62
7
100
AcDbPolyline
 90
2
 70
0
 10
463.894013
 20
105.824066
 30
0.0
 10
518.370150
 20
105.824066
 30
0.0
  0
LWPOLYLINE
  5
1c5
100
AcDbEntity
  8
0
 62
7
100
AcDbPolyline
 90
2
 70
0
 10
423.663622
 20
91.650814
 30
0.0
 10
423.663622
 20
37.174714
 30
0.0
  0
LWPOLYLINE
  5
1c6
100
AcDbEntity
  8
0
 62
7
100
AcDbPolyline
 90
2
 70
0
 10
463.894013
 20
131.881234
 30
0.0
 10
518.370150
 20
131.881234
 30
0.0
  0
SPLINE
  5
1c7
100
AcDbEntity
  8
0
 62
7
100
AcDbSpline
 70
8
 71
3
 72
8
 73
4
 74
0
 40
0
 40
0
 40
0
 40
0
 40
1
 40
1
 40
1
 40
1
 10
423.663622
 20
91.650814
 30
0.0
 10
423.663629
 20
95.409792
 30
0.0
 10
422.170385
 20
99.014815
 30
0.0
 10
419.512388
 20
101.672816
 30
0.0
  0
SPLINE
  5
1c8
100
AcDbEntity
  8
0
 62
7
100
AcDbSpline
 70
8
 71
3
 72
8
 73
4
 74
0
 40
0
 40
0
 40
0
 40
0
 40
1
 40
1
 40
1
 40
1
 10
419.512388
 20
101.672816
 30
0.0
 10
416.854391
 20
104.330817
 30
0.0
 10
413.249371
 20
105.824067
 30
0.0
 10
409.490393
 20
105.824066
 30
0.0
  0
SPLINE
  5
1c9
100
AcDbEntity
  8
0
 62
7
100
AcDbSpline
 70
8
 71
3
 72
8
 73
4
 74
0
 40
0
 40
0
 40
0
 40
0
 40
1
 40
1
 40
1
 40
1
 10
463.894013
 20
105.824066
 30
0.0
 10
460.135034
 20
105.824067
 30
0.0
 10
456.530014
 20
104.330817
 30
0.0
 10
453.872017
 20
101.672816
 30
0.0
  0
SPLINE
  5
1ca
100
AcDbEntity
  8
0
 62
7
100
AcDbSpline
 70
8
 71
3
 72
8
 73
4
 74
0
 40
0
 40
0
 40
0
 40
0
 40
1
 40
1
 40
1
 40
1
 10
453.872017
 20
101.672816
 30
0.0
 10
451.214020
 20
99.014815
 30
0.0
 10
449.720776
 20
95.409792
 30
0.0
 10
449.720782
 20
91.650814
 30
0.0
  0
SPLINE
  5
1cb
100
AcDbEntity
  8
0
 62
7
100
AcDbSpline
 70
8
 71
3
 72
8
 73
4
 74
0
 40
0
 40
0
 40
0
 40
0
 40
1
 40
1
 40
1
 40
1
 10
350.787652
 20
632.853851
 30
0.0
 10
351.610568
 20
632.861351
 30
0.0
 10
352.584225
 20
632.723861
 30
0.0
 10
354.261262
 20
631.833799
 30
0.0
  0
SPLINE
  5
1cc
100
AcDbEntity
  8
0
 62
7
100
AcDbSpline
 70
8
 71
3
 72
8
 73
4
 74
0
 40
0
 40
0
 40
0
 40
0
 40
1
 40
1
 40
1
 40
1
 10
354.261262
 20
631.833799
 30
0.0
 10
356.284418
 20
630.760031
 30
0.0
 10
359.199960
 20
628.420879
 30
0.0
 10
362.115180
 20
624.595699
 30
0.0
  0
SPLINE
  5
1cd
100
AcDbEntity
  8
0
 62
7
100
AcDbSpline
 70
8
 71
3
 72
8
 73
4
 74
0
 40
0
 40
0
 40
0
 40
0
 40
1
 40
1
 40
1
 40
1
 10
362.115180
 20
624.595699
 30
0.0
 10
366.037395
 20
619.449191
 30
0.0
 10
369.818565
 20
611.732359
 30
0.0
 10
372.109837
 20
603.136234
 30
0.0
  0
SPLINE
  5
1ce
100
AcDbEntity
  8
0
 62
7
100
AcDbSpline
 70
8
 71
3
 72
8
 73
4
 74
0
 40
0
 40
0
 40
0
 40
0
 40
1
 40
1
 40
1
 40
1
 10
372.109837
 20
603.136234
 30
0.0
 10
374.518627
 20
594.099199
 30
0.0
 10
375.290512
 20
584.165944
 30
0.0
 10
374.286682
 20
575.555801
 30
0.0
  0
SPLINE
  5
1cf
100
AcDbEntity
  8
0
 62
7
100
AcDbSpline
 70
8
 71
3
 72
8
 73
4
 74
0
 40
0
 40
0
 40
0
 40
0
 40
1
 40
1
 40
1
 40
1
 10
374.286682
 20
575.555801
 30
0.0
 10
373.396732
 20
567.922481
 30
0.0
 10
371.143552
 20
561.406406
 30
0.0
 10
368.334630
 20
556.773259
 30
0.0
  0
SPLINE
  5
1d0
100
AcDbEntity
  8
0
 62
7
100
AcDbSpline
 70
8
 71
3
 72
8
 73
4
 74
0
 40
0
 40
0
 40
0
 40
0
 40
1
 40
1
 40
1
 40
1
 10
368.334630
 20
556.773259
 30
0.0
 10
365.406308
 20
551.943176
 30
0.0
 10
362.011545
 20
549.131381
 30
0.0
 10
358.856183
 20
547.681759
 30
0.0
  0
SPLINE
  5
1d1
100
AcDbEntity
  8
0
 62
7
100
AcDbSpline
 70
8
 71
3
 72
8
 73
4
 74
0
 40
0
 40
0
 40
0
 40
0
 40
1
 40
1
 40
1
 40
1
 10
358.856183
 20
547.681759
 30
0.0
 10
355.733115
 20
546.246979
 30
0.0
 10
352.776495
 20
545.977669
 30
0.0
 10
349.594253
 20
546.741829
 30
0.0
  0
SPLINE
  5
1d2
100
AcDbEntity
  8
0
 62
7
100
AcDbSpline
 70
8
 71
3
 72
8
 73
4
 74
0
 40
0
 40
0
 40
0
 40
0
 40
1
 40
1
 40
1
 40
1
 10
349.594253
 20
546.741829
 30
0.0
 10
346.243095
 20
547.546549
 30
0.0
 10
342.521190
 20
549.646069
 30
0.0
 10
339.002130
 20
553.845551
 30
0.0
  0
SPLINE
  5
1d3
100
AcDbEntity
  8
0
 62
7
100
AcDbSpline
 70
8
 71
3
 72
8
 73
4
 74
0
 40
0
 40
0
 40
0
 40
0
 40
1
 40
1
 40
1
 40
1
 10
339.002130
 20
553.845551
 30
0.0
 10
335.698643
 20
557.787784
 30
0.0
 10
332.693220
 20
563.648074
 30
0.0
 10
330.937710
 20
570.936521
 30
0.0
  0
SPLINE
  5
1d4
100
AcDbEntity
  8
0
 62
7
100
AcDbSpline
 70
8
 71
3
 72
8
 73
4
 74
0
 40
0
 40
0
 40
0
 40
0
 40
1
 40
1
 40
1
 40
1
 10
330.937710
 20
570.936521
 30
0.0
 10
328.980787
 20
579.061166
 30
0.0
 10
328.646003
 20
588.881366
 30
0.0
 10
330.117773
 20
598.238036
 30
0.0
  0
SPLINE
  5
1d5
100
AcDbEntity
  8
0
 62
7
100
AcDbSpline
 70
8
 71
3
 72
8
 73
4
 74
0
 40
0
 40
0
 40
0
 40
0
 40
1
 40
1
 40
1
 40
1
 10
330.117773
 20
598.238036
 30
0.0
 10
331.467112
 20
606.816334
 30
0.0
 10
334.329960
 20
614.946514
 30
0.0
 10
337.763640
 20
620.933059
 30
0.0
  0
SPLINE
  5
1d6
100
AcDbEntity
  8
0
 62
7
100
AcDbSpline
 70
8
 71
3
 72
8
 73
4
 74
0
 40
0
 40
0
 40
0
 40
0
 40
1
 40
1
 40
1
 40
1
 10
337.763640
 20
620.933059
 30
0.0
 10
340.551885
 20
625.794304
 30
0.0
 10
343.678140
 20
629.161189
 30
0.0
 10
346.052362
 20
630.891184
 30
0.0
  0
SPLINE
  5
1d7
100
AcDbEntity
  8
0
 62
7
100
AcDbSpline
 70
8
 71
3
 72
8
 73
4
 74
0
 40
0
 40
0
 40
0
 40
0
 40
1
 40
1
 40
1
 40
1
 10
346.052362
 20
630.891184
 30
0.0
 10
347.917447
 20
632.250184
 30
0.0
 10
349.203367
 20
632.657959
 30
0.0
 10
350.094765
 20
632.796461
 30
0.0
  0
SPLINE
  5
1d8
100
AcDbEntity
  8
0
 62
7
100
AcDbSpline
 70
8
 71
3
 72
8
 73
4
 74
0
 40
0
 40
0
 40
0
 40
0
 40
1
 40
1
 40
1
 40
1
 10
350.094765
 20
632.796461
 30
0.0
 10
350.338110
 20
632.834261
 30
0.0
 10
350.561662
 20
632.851886
 30
0.0
 10
350.787652
 20
632.853836
 30
0.0
  0
SPLINE
  5
1d9
100
AcDbEntity
  8
0
 62
7
100
AcDbSpline
 70
8
 71
3
 72
8
 73
4
 74
0
 40
0
 40
0
 40
0
 40
0
 40
1
 40
1
 40
1
 40
1
 10
179.036827
 20
631.410566
 30
0.0
 10
179.859742
 20
631.418066
 30
0.0
 10
180.833400
 20
631.280576
 30
0.0
 10
182.510437
 20
630.390514
 30
0.0
  0
SPLINE
  5
1da
100
AcDbEntity
  8
0
 62
7
100
AcDbSpline
 70
8
 71
3
 72
8
 73
4
 74
0
 40
0
 40
0
 40
0
 40
0
 40
1
 40
1
 40
1
 40
1
 10
182.510437
 20
630.390514
 30
0.0
 10
184.533600
 20
629.316746
 30
0.0
 10
187.449135
 20
626.977594
 30
0.0
 10
190.364355
 20
623.152414
 30
0.0
  0
SPLINE
  5
1db
100
AcDbEntity
  8
0
 62
7
100
AcDbSpline
 70
8
 71
3
 72
8
 73
4
 74
0
 40
0
 40
0
 40
0
 40
0
 40
1
 40
1
 40
1
 40
1
 10
190.364355
 20
623.152414
 30
0.0
 10
194.286570
 20
618.005906
 30
0.0
 10
198.067740
 20
610.289074
 30
0.0
 10
200.359013
 20
601.692949
 30
0.0
  0
SPLINE
  5
1dc
100
AcDbEntity
  8
0
 62
7
100
AcDbSpline
 70
8
 71
3
 72
8
 73
4
 74
0
 40
0
 40
0
 40
0
 40
0
 40
1
 40
1
 40
1
 40
1
 10
200.359013
 20
601.692949
 30
0.0
 10
202.767803
 20
592.655914
 30
0.0
 10
203.539688
 20
582.722659
 30
0.0
 10
202.535858
 20
574.112524
 30
0.0
  0
SPLINE
  5
1dd
100
AcDbEntity
  8
0
 62
7
100
AcDbSpline
 70
8
 71
3
 72
8
 73
4
 74
0
 40
0
 40
0
 40
0
 40
0
 40
1
 40
1
 40
1
 40
1
 10
202.535858
 20
574.112524
 30
0.0
 10
201.645908
 20
566.479196
 30
0.0
 10
199.392728
 20
559.963121
 30
0.0
 10
196.583805
 20
555.329974
 30
0.0
  0
SPLINE
  5
1de
100
AcDbEntity
  8
0
 62
7
100
AcDbSpline
 70
8
 71
3
 72
8
 73
4
 74
0
 40
0
 40
0
 40
0
 40
0
 40
1
 40
1
 40
1
 40
1
 10
196.583805
 20
555.329974
 30
0.0
 10
193.655483
 20
550.499891
 30
0.0
 10
190.260720
 20
547.688096
 30
0.0
 10
187.105358
 20
546.238474
 30
0.0
  0
SPLINE
  5
1df
100
AcDbEntity
  8
0
 62
7
100
AcDbSpline
 70
8
 71
3
 72
8
 73
4
 74
0
 40
0
 40
0
 40
0
 40
0
 40
1
 40
1
 40
1
 40
1
 10
187.105358
 20
546.238474
 30
0.0
 10
183.982290
 20
544.803694
 30
0.0
 10
181.025670
 20
544.534384
 30
0.0
 10
177.843428
 20
545.298544
 30
0.0
  0
SPLINE
  5
1e0
100
AcDbEntity
  8
0
 62
7
100
AcDbSpline
 70
8
 71
3
 72
8
 73
4
 74
0
 40
0
 40
0
 40
0
 40
0
 40
1
 40
1
 40
1
 40
1
 10
177.843428
 20
545.298544
 30
0.0
 10
174.492278
 20
546.103264
 30
0.0
 10
170.770365
 20
548.202784
 30
0.0
 10
167.251305
 20
552.402266
 30
0.0
  0
SPLINE
  5
1e1
100
AcDbEntity
  8
0
 62
7
100
AcDbSpline
 70
8
 71
3
 72
8
 73
4
 74
0
 40
0
 40
0
 40
0
 40
0
 40
1
 40
1
 40
1
 40
1
 10
167.251305
 20
552.402266
 30
0.0
 10
163.947818
 20
556.344499
 30
0.0
 10
160.942395
 20
562.204796
 30
0.0
 10
159.186885
 20
569.493236
 30
0.0
  0
SPLINE
  5
1e2
100
AcDbEntity
  8
0
 62
7
100
AcDbSpline
 70
8
 71
3
 72
8
 73
4
 74
0
 40
0
 40
0
 40
0
 40
0
 40
1
 40
1
 40
1
 40
1
 10
159.186885
 20
569.493236
 30
0.0
 10
157.229963
 20
577.617881
 30
0.0
 10
156.895178
 20
587.438081
 30
0.0
 10
158.366955
 20
596.794751
 30
0.0
  0
SPLINE
  5
1e3
100
AcDbEntity
  8
0
 62
7
100
AcDbSpline
 70
8
 71
3
 72
8
 73
4
 74
0
 40
0
 40
0
 40
0
 40
0
 40
1
 40
1
 40
1
 40
1
 10
158.366955
 20
596.794751
 30
0.0
 10
159.716288
 20
605.373049
 30
0.0
 10
162.579135
 20
613.503229
 30
0.0
 10
166.012815
 20
619.489774
 30
0.0
  0
SPLINE
  5
1e4
100
AcDbEntity
  8
0
 62
7
100
AcDbSpline
 70
8
 71
3
 72
8
 73
4
 74
0
 40
0
 40
0
 40
0
 40
0
 40
1
 40
1
 40
1
 40
1
 10
166.012815
 20
619.489774
 30
0.0
 10
168.801060
 20
624.351019
 30
0.0
 10
171.927315
 20
627.717911
 30
0.0
 10
174.301545
 20
629.447899
 30
0.0
  0
SPLINE
  5
1e5
100
AcDbEntity
  8
0
 62
7
100
AcDbSpline
 70
8
 71
3
 72
8
 73
4
 74
0
 40
0
 40
0
 40
0
 40
0
 40
1
 40
1
 40
1
 40
1
 10
174.301545
 20
629.447899
 30
0.0
 10
176.166623
 20
630.806899
 30
0.0
 10
177.452543
 20
631.214681
 30
0.0
 10
178.343940
 20
631.353184
 30
0.0
  0
SPLINE
  5
1e6
100
AcDbEntity
  8
0
 62
7
100
AcDbSpline
 70
8
 71
3
 72
8
 73
4
 74
0
 40
0
 40
0
 40
0
 40
0
 40
1
 40
1
 40
1
 40
1
 10
178.343940
 20
631.353184
 30
0.0
 10
178.587285
 20
631.390984
 30
0.0
 10
178.810838
 20
631.408609
 30
0.0
 10
179.036828
 20
631.410559
 30
0.0
  0
LWPOLYLINE
  5
1e7
100
AcDbEntity
  8
0
 62
7
100
AcDbPolyline
 90
2
 70
0
 10
449.720782
 20
146.054456
 30
0.0
 10
449.720782
 20
200.530601
 30
0.0
  0
ENDSEC
  0
SECTION
  2
OBJECTS
  0
DICTIONARY
  5
C
330
0
100
AcDbDictionary
  3
ACAD_GROUP
350
D
  3
ACAD_MLINESTYLE
350
17
  0
DICTIONARY
  5
D
330
C
100
AcDbDictionary
  0
DICTIONARY
  5
1A
330
C
100
AcDbDictionary
  0
DICTIONARY
  5
17
330
C
100
AcDbDictionary
  3
STANDARD
350
18
  0
DICTIONARY
  5
19
330
C
100
AcDbDictionary
  0
ENDSEC
  0
EOF
